999
DXF file: C:\Users\sesa63760\Dev\_Creo\CAD\MCADID0000276_3D-CAD\drw0001_5.dxf
999
Pro/ENGINEER 2019471 by Parametric Technology Corporation
  0
SECTION
  2
HEADER
  9
$ACADVER
  1
AC1024
  9
$DWGCODEPAGE
  3
ANSI_1252
  9
$EXTMAX
 10
185.6368697872
 20
262.5435729847
 30
0.0
  9
$EXTMIN
 10
0.0
 20
0.0
 30
0.0
  9
$LIMMIN
 10
0.0
 20
0.0
  9
$LIMMAX
 10
185.6368697872
 20
262.5435729847
  9
$VIEWCTR
 10
92.8184348936
 20
131.2717864924
  9
$VIEWSIZE
 40
262.5435729847
  9
$CLAYER
  8
0
  9
$LTSCALE
 40
17.1139514242
  9
$CELTYPE
  6
BYLAYER
  9
$DIMSCALE
 40
1.0
  9
$DIMASZ
 40
2.2099627356
  9
$DIMEXO
 40
1.0
  9
$DIMDLI
 40
11.8241846204
  9
$DIMEXE
 40
1.0
  9
$DIMCEN
 40
2.8004647785
  9
$DIMLFAC
 40
1.0
  9
$DIMBLK
  1
_FILLED
  9
$DIMALT
 70
0
  9
$DIMALTF
 40
0.0393700787
  9
$DIMTXT
 40
3.0939478298
  9
$DIMTOL
 70
1
  9
$DIMLIM
 70
0
  9
$DIMTFAC
 40
1.0
  9
$DIMTP
 40
0.01
  9
$DIMTM
 40
0.01
  9
$DIMGAP
 40
0.625
  9
$DIMDSEP
 70
46
  9
$AUNITS
 70
0
  9
$PDMODE
 70
3
  9
$PDSIZE
 40
0.3125
  9
$HANDSEED
  5
320
  9
$TILEMODE
 70
1
  9
$MEASUREMENT
 70
1
  9
$INSUNITS
 70
4
  0
ENDSEC
  0
SECTION
  2
CLASSES
  0
CLASS
  1
ACDBDICTIONARYWDFLT
  2
AcDbDictionaryWithDefault
  3
AutoCAD 2000
 90
0
 91
1
280
0
281
0
  0
CLASS
  1
ACDBPLACEHOLDER
  2
AcDbPlaceHolder
  3
AutoCAD 2000
 90
0
 91
1
280
0
281
0
  0
CLASS
  1
LAYOUT
  2
AcDbLayout
  3
AutoCAD 2000
 90
0
 91
0
280
0
281
0
  0
ENDSEC
  0
SECTION
  2
TABLES
  0
TABLE
  2
VPORT
  5
8
100
AcDbSymbolTable
 70
2
  0
VPORT
  5
1F4
100
AcDbSymbolTableRecord
100
AcDbViewportTableRecord
  2
*ACTIVE
 70
0
 10
0.0
 20
0.0
 11
1.0
 21
1.0
 12
92.8184348936
 22
131.2717864924
 13
0.0
 23
0.0
 14
1.0
 24
1.0
 15
0.0
 25
0.0
 16
0.0
 26
0.0
 36
1.0
 17
0.0
 27
0.0
 37
0.0
 40
262.5435729847
 41
0.7070707071
 42
50.0
 43
0.0
 44
0.0
 50
0.0
 51
0.0
 71
0
 72
100
 73
1
 74
1
 75
0
 76
0
 77
0
 78
0
  0
ENDTAB
  0
TABLE
  2
LTYPE
  5
5
100
AcDbSymbolTable
 70
6
  0
LTYPE
  5
14
100
AcDbSymbolTableRecord
100
AcDbLinetypeTableRecord
  2
BYBLOCK
 70
0
  3

 72
65
 73
0
 40
0.0
  0
LTYPE
  5
15
100
AcDbSymbolTableRecord
100
AcDbLinetypeTableRecord
  2
BYLAYER
 70
0
  3

 72
65
 73
0
 40
0.0
  0
LTYPE
  5
16
100
AcDbSymbolTableRecord
100
AcDbLinetypeTableRecord
  2
CONTINUOUS
 70
64
  3
Solid line
 72
65
 73
0
 40
0.0
  0
LTYPE
  5
1F5
100
AcDbSymbolTableRecord
100
AcDbLinetypeTableRecord
  2
CENTER
 70
64
  3
____ _ ____ _ ____ _ ____ _ ____ _ ____ _ ____
 72
65
 73
4
 40
0.6
 49
0.375
 74
0
 49
-0.075
 74
0
 49
0.075
 74
0
 49
-0.075
 74
0
  0
LTYPE
  5
1F6
100
AcDbSymbolTableRecord
100
AcDbLinetypeTableRecord
  2
HIDDEN
 70
64
  3
- - - - - - - - - - - - - - - - - - - -
 72
65
 73
2
 40
0.2
 49
0.1
 74
0
 49
-0.1
 74
0
  0
LTYPE
  5
1F7
100
AcDbSymbolTableRecord
100
AcDbLinetypeTableRecord
  2
PHANTOM
 70
64
  3
_____ _ _ _____ _ _ _____ _ _ _____
 72
65
 73
6
 40
0.8
 49
0.45
 74
0
 49
-0.05
 74
0
 49
0.1
 74
0
 49
-0.05
 74
0
 49
0.1
 74
0
 49
-0.05
 74
0
  0
LTYPE
  5
1F8
100
AcDbSymbolTableRecord
100
AcDbLinetypeTableRecord
  2
DOT
 70
64
  3
. . . . . . . . . . . . . . . . . . . .
 72
65
 73
2
 40
0.2
 49
0.1
 74
0
 49
-0.1
 74
0
  0
LTYPE
  5
1F9
100
AcDbSymbolTableRecord
100
AcDbLinetypeTableRecord
  2
DASHED
 70
64
  3
- - - - - - - - - - - - - - - - - - - -
 72
65
 73
2
 40
0.2
 49
0.1
 74
0
 49
-0.1
 74
0
  0
ENDTAB
  0
TABLE
  2
LAYER
  5
2
100
AcDbSymbolTable
 70
36
  0
LAYER
  5
10
100
AcDbSymbolTableRecord
100
AcDbLayerTableRecord
  2
0
 70
0
 62
7
  6
CONTINUOUS
370
-3
390
F
  0
LAYER
  5
1FA
100
AcDbSymbolTableRecord
100
AcDbLayerTableRecord
  2
DEFAULT_1
 70
0
 62
7
  6
CENTER
370
-3
390
F
  0
LAYER
  5
1FB
100
AcDbSymbolTableRecord
100
AcDbLayerTableRecord
  2
DEFAULT_2
 70
0
 62
8
  6
HIDDEN
370
-3
390
F
  0
LAYER
  5
1FC
100
AcDbSymbolTableRecord
100
AcDbLayerTableRecord
  2
DEFAULT_3
 70
0
 62
7
  6
PHANTOM
370
-3
390
F
  0
LAYER
  5
1FD
100
AcDbSymbolTableRecord
100
AcDbLayerTableRecord
  2
00_COMPONENTS
 70
0
 62
7
  6
CONTINUOUS
370
-3
390
F
  0
LAYER
  5
1FE
100
AcDbSymbolTableRecord
100
AcDbLayerTableRecord
  2
01_1_DEFAULT_DATUMS
 70
0
 62
7
  6
CONTINUOUS
370
-3
390
F
  0
LAYER
  5
1FF
100
AcDbSymbolTableRecord
100
AcDbLayerTableRecord
  2
01_PLANES
 70
0
 62
7
  6
CONTINUOUS
370
-3
390
F
  0
LAYER
  5
200
100
AcDbSymbolTableRecord
100
AcDbLayerTableRecord
  2
02_COORD_SYS
 70
0
 62
7
  6
CONTINUOUS
370
-3
390
F
  0
LAYER
  5
201
100
AcDbSymbolTableRecord
100
AcDbLayerTableRecord
  2
03_AXES
 70
0
 62
7
  6
CONTINUOUS
370
-3
390
F
  0
LAYER
  5
202
100
AcDbSymbolTableRecord
100
AcDbLayerTableRecord
  2
04_POINTS
 70
0
 62
7
  6
CONTINUOUS
370
-3
390
F
  0
LAYER
  5
203
100
AcDbSymbolTableRecord
100
AcDbLayerTableRecord
  2
05_CURVES
 70
0
 62
7
  6
CONTINUOUS
370
-3
390
F
  0
LAYER
  5
204
100
AcDbSymbolTableRecord
100
AcDbLayerTableRecord
  2
06_SURFS
 70
0
 62
7
  6
CONTINUOUS
370
-3
390
F
  0
LAYER
  5
205
100
AcDbSymbolTableRecord
100
AcDbLayerTableRecord
  2
07_COSMETICS
 70
0
 62
7
  6
CONTINUOUS
370
-3
390
F
  0
LAYER
  5
206
100
AcDbSymbolTableRecord
100
AcDbLayerTableRecord
  2
10_NOTES
 70
0
 62
7
  6
CONTINUOUS
370
-3
390
F
  0
LAYER
  5
207
100
AcDbSymbolTableRecord
100
AcDbLayerTableRecord
  2
11_NOTES_PUB
 70
0
 62
7
  6
CONTINUOUS
370
-3
390
F
  0
LAYER
  5
208
100
AcDbSymbolTableRecord
100
AcDbLayerTableRecord
  2
13_REF_GTOL
 70
0
 62
7
  6
CONTINUOUS
370
-3
390
F
  0
LAYER
  5
209
100
AcDbSymbolTableRecord
100
AcDbLayerTableRecord
  2
16_MISC
 70
0
 62
7
  6
CONTINUOUS
370
-3
390
F
  0
LAYER
  5
20A
100
AcDbSymbolTableRecord
100
AcDbLayerTableRecord
  2
17_NO_PRINT
 70
0
 62
7
  6
CONTINUOUS
370
-3
390
F
  0
LAYER
  5
20B
100
AcDbSymbolTableRecord
100
AcDbLayerTableRecord
  2
18_DATUM_CAMS_JOINTS
 70
0
 62
7
  6
CONTINUOUS
370
-3
390
F
  0
LAYER
  5
20C
100
AcDbSymbolTableRecord
100
AcDbLayerTableRecord
  2
19_DATUM_FUNCTIONAL
 70
0
 62
7
  6
CONTINUOUS
370
-3
390
F
  0
LAYER
  5
20D
100
AcDbSymbolTableRecord
100
AcDbLayerTableRecord
  2
20_DATUM_KINEMATIC_SCHEME
 70
0
 62
7
  6
CONTINUOUS
370
-3
390
F
  0
LAYER
  5
20E
100
AcDbSymbolTableRecord
100
AcDbLayerTableRecord
  2
_1
 70
0
 62
7
  6
CONTINUOUS
370
-3
390
F
  0
ENDTAB
  0
TABLE
  2
STYLE
  5
3
100
AcDbSymbolTable
 70
1
  0
STYLE
  5
11
100
AcDbSymbolTableRecord
100
AcDbTextStyleTableRecord
  2
STANDARD
 70
0
 40
0.0
 41
0.8
 50
0.0
 71
0
 42
0.2
  3
txt
  4

  0
STYLE
  5
20F
100
AcDbSymbolTableRecord
100
AcDbTextStyleTableRecord
  2
TEXTSTYLE_1
 70
0
 40
0.0
 41
0.8
 50
0.0
 71
0
 42
0.2
  3
gdt
  4

  0
ENDTAB
  0
TABLE
  2
VIEW
  5
6
100
AcDbSymbolTable
 70
0
  0
ENDTAB
  0
TABLE
  2
UCS
  5
7
100
AcDbSymbolTable
 70
0
  0
ENDTAB
  0
TABLE
  2
APPID
  5
9
100
AcDbSymbolTable
 70
1
  0
APPID
  5
210
100
AcDbSymbolTableRecord
100
AcDbRegAppTableRecord
  2
ACAD
 70
0
  0
ENDTAB
  0
TABLE
  2
BLOCK_RECORD
  5
1
100
AcDbSymbolTable
 70
0
  0
BLOCK_RECORD
  5
211
100
AcDbSymbolTableRecord
100
AcDbBlockTableRecord
  2
*Model_Space
  0
BLOCK_RECORD
  5
212
100
AcDbSymbolTableRecord
100
AcDbBlockTableRecord
  2
*Paper_Space
  0
BLOCK_RECORD
  5
213
100
AcDbSymbolTableRecord
100
AcDbBlockTableRecord
  2
_FILLED
  0
ENDTAB
  0
TABLE
  2
DIMSTYLE
  5
A
100
AcDbSymbolTable
 70
1
100
AcDbDimStyleTable
 71
0
  0
DIMSTYLE
105
214
100
AcDbSymbolTableRecord
100
AcDbDimStyleTableRecord
  2
STANDARD
 70
0
  3

  4

 40
1.0
 41
2.2099627356
 42
1.0
 43
0.38
 44
1.0
 45
0.0
 46
0.0
 47
0.01
 48
0.01
140
3.0939478298
141
0.09
142
0.0
143
25.4
144
1.0
145
0.0
146
1.0
147
0.625
 71
1
 72
0
 73
0
 74
0
 75
0
 76
0
 77
1
 78
8
 79
2
170
0
171
1
172
0
173
0
174
0
175
0
176
0
177
0
178
0
270
2
179
2
271
2
272
2
273
2
274
2
275
0
280
0
281
0
282
0
283
1
284
8
285
0
286
0
287
3
288
0
340
11
278
46
341
213
342
213
343
213
344
213
  0
ENDTAB
  0
ENDSEC
  0
SECTION
  2
BLOCKS
  0
BLOCK
  5
20
100
AcDbEntity
  8
0
100
AcDbBlockBegin
  2
*Model_Space
 70
0
 10
0.0
 20
0.0
 30
0.0
  3
*Model_Space
  1

  0
ENDBLK
  5
21
100
AcDbEntity
  8
0
100
AcDbBlockEnd
  0
BLOCK
  5
1C
100
AcDbEntity
  8
0
100
AcDbBlockBegin
  2
*Paper_Space
 70
0
 10
0.0
 20
0.0
 30
0.0
  3
*Paper_Space
  1

  0
ENDBLK
  5
1D
100
AcDbEntity
  8
0
100
AcDbBlockEnd
  0
BLOCK
  5
215
100
AcDbEntity
  8
0
100
AcDbBlockBegin
  2
_FILLED
 70
64
 10
0.0
 20
0.0
  3
_FILLED
  1

  0
SOLID
  5
216
100
AcDbEntity
  8
0
  6
BYBLOCK
 62
0
100
AcDbTrace
 10
0.0
 20
0.0
 11
-1.0
 21
0.25
 12
-1.0
 22
-0.25
 13
-1.0
 23
-0.25
  0
ENDBLK
  5
217
100
AcDbEntity
  8
0
  6
BYBLOCK
 62
0
100
AcDbBlockEnd
  0
ENDSEC
  0
SECTION
  2
ENTITIES
  0
LINE
  5
218
100
AcDbEntity
  8
_1
100
AcDbLine
 62
7
  6
CONTINUOUS
 10
21.6392409938
 20
146.4432325634
 11
21.6392409938
 21
162.6430353065
  0
LINE
  5
219
100
AcDbEntity
  8
_1
100
AcDbLine
 62
7
  6
CONTINUOUS
 10
27.4949778293
 20
148.3188858669
 11
27.4949778293
 21
146.4431339349
  0
LINE
  5
21A
100
AcDbEntity
  8
_1
100
AcDbLine
 62
7
  6
CONTINUOUS
 10
27.9949778293
 20
146.3329186417
 11
27.9949778293
 21
148.5193999751
  0
LINE
  5
21B
100
AcDbEntity
  8
_1
100
AcDbLine
 62
7
  6
CONTINUOUS
 10
28.0071901862
 20
148.5199162796
 11
28.0071901862
 21
146.3280116922
  0
LINE
  5
21C
100
AcDbEntity
  8
_1
100
AcDbLine
 62
7
  6
CONTINUOUS
 10
28.3092409938
 20
148.6270903015
 11
28.3092409938
 21
149.7525181081
  0
LINE
  5
21D
100
AcDbEntity
  8
_1
100
AcDbLine
 62
7
  6
CONTINUOUS
 10
28.5071901862
 20
146.2443544148
 11
28.5071901862
 21
148.5991769196
  0
LINE
  5
21E
100
AcDbEntity
  8
_1
100
AcDbLine
 62
7
  6
CONTINUOUS
 10
28.8392409938
 20
148.5991769196
 11
28.8392409938
 21
149.7525181081
  0
LINE
  5
21F
100
AcDbEntity
  8
_1
100
AcDbLine
 62
7
  6
CONTINUOUS
 10
29.1392409938
 20
162.7718526308
 11
29.1392409938
 21
162.6431339349
  0
LINE
  5
220
100
AcDbEntity
  8
_1
100
AcDbLine
 62
7
  6
CONTINUOUS
 10
29.1392409938
 20
146.314415239
 11
29.1392409938
 21
146.9782743857
  0
LINE
  5
221
100
AcDbEntity
  8
_1
100
AcDbLine
 62
7
  6
CONTINUOUS
 10
29.1161848229
 20
146.2443544148
 11
29.1392409938
 21
146.314415239
  0
LINE
  5
222
100
AcDbEntity
  8
_1
100
AcDbLine
 62
7
  6
CONTINUOUS
 10
32.0392409938
 20
146.4760960647
 11
32.0392409938
 21
150.4035832315
  0
LINE
  5
223
100
AcDbEntity
  8
_1
100
AcDbLine
 62
7
  6
CONTINUOUS
 10
32.4392409938
 20
145.5431339349
 11
32.4392409938
 21
163.9431339349
  0
LINE
  5
224
100
AcDbEntity
  8
_1
100
AcDbLine
 62
7
  6
CONTINUOUS
 10
33.4392409938
 20
159.3734171468
 11
33.4392409938
 21
159.858189252
  0
LINE
  5
225
100
AcDbEntity
  8
_1
100
AcDbLine
 62
7
  6
CONTINUOUS
 10
33.4392409938
 20
161.1161558057
 11
33.4392409938
 21
161.5029456768
  0
LINE
  5
226
100
AcDbEntity
  8
_1
100
AcDbLine
 62
7
  6
CONTINUOUS
 10
29.1161848229
 20
162.841913455
 11
29.1392409938
 21
162.7718526308
  0
LINE
  5
227
100
AcDbEntity
  8
_1
100
AcDbLine
 62
7
  6
CONTINUOUS
 10
50.7392409938
 20
99.2431339349
 11
50.7392409938
 21
143.7424485631
  0
LINE
  5
228
100
AcDbEntity
  8
_1
100
AcDbLine
 62
7
  6
CONTINUOUS
 10
52.2392409938
 20
143.7424485631
 11
52.2392409938
 21
99.2431339349
  0
LINE
  5
229
100
AcDbEntity
  8
_1
100
AcDbLine
 62
7
  6
CONTINUOUS
 10
52.6392409938
 20
99.2431339349
 11
52.6392409938
 21
143.7431339349
  0
LINE
  5
22A
100
AcDbEntity
  8
_1
100
AcDbLine
 62
7
  6
CONTINUOUS
 10
53.1478923623
 20
139.7344077317
 11
53.1478923623
 21
139.2431339349
  0
LINE
  5
22B
100
AcDbEntity
  8
_1
100
AcDbLine
 62
7
  6
CONTINUOUS
 10
53.1478923623
 20
139.7344077317
 11
53.1835640743
 21
141.7780387478
  0
LINE
  5
22C
100
AcDbEntity
  8
_1
100
AcDbLine
 62
7
  6
CONTINUOUS
 10
53.1835640743
 20
141.7780387478
 11
53.2264401544
 21
143.7431339349
  0
LINE
  5
22D
100
AcDbEntity
  8
_1
100
AcDbLine
 62
7
  6
CONTINUOUS
 10
53.7392409938
 20
149.7431339349
 11
53.7392409938
 21
144.7431339349
  0
LINE
  5
22E
100
AcDbEntity
  8
_1
100
AcDbLine
 62
7
  6
CONTINUOUS
 10
53.779489469
 20
144.7431339349
 11
53.779489469
 21
149.7431339349
  0
LINE
  5
22F
100
AcDbEntity
  8
_1
100
AcDbLine
 62
7
  6
CONTINUOUS
 10
54.1392409938
 20
150.614656652
 11
54.1392409938
 21
149.7431339349
  0
LINE
  5
230
100
AcDbEntity
  8
_1
100
AcDbLine
 62
7
  6
CONTINUOUS
 10
54.2197434061
 20
149.7431339349
 11
54.2197434061
 21
147.7431339349
  0
LINE
  5
231
100
AcDbEntity
  8
_1
100
AcDbLine
 62
7
  6
CONTINUOUS
 10
54.2397460572
 20
149.0430976778
 11
54.2397460572
 21
147.7431339349
  0
LINE
  5
232
100
AcDbEntity
  8
_1
100
AcDbLine
 62
7
  6
CONTINUOUS
 10
54.4967661401
 20
147.7431339349
 11
54.4967661401
 21
144.7431339349
  0
LINE
  5
233
100
AcDbEntity
  8
_1
100
AcDbLine
 62
7
  6
CONTINUOUS
 10
55.2166233692
 20
149.5580476604
 11
55.2166233692
 21
149.7431339349
  0
LINE
  5
234
100
AcDbEntity
  8
_1
100
AcDbLine
 62
7
  6
CONTINUOUS
 10
55.4392409938
 20
159.858189252
 11
55.4392409938
 21
159.3734171468
  0
LINE
  5
235
100
AcDbEntity
  8
_1
100
AcDbLine
 62
7
  6
CONTINUOUS
 10
55.6475116001
 20
139.2431339349
 11
55.6475116001
 21
139.7344077317
  0
LINE
  5
236
100
AcDbEntity
  8
_1
100
AcDbLine
 62
7
  6
CONTINUOUS
 10
56.5621479394
 20
144.7431339349
 11
56.5621479394
 21
147.7431339349
  0
LINE
  5
237
100
AcDbEntity
  8
_1
100
AcDbLine
 62
7
  6
CONTINUOUS
 10
56.6388622162
 20
149.9271383289
 11
56.6388622162
 21
152.4431339349
  0
LINE
  5
238
100
AcDbEntity
  8
_1
100
AcDbLine
 62
7
  6
CONTINUOUS
 10
56.7397460572
 20
152.4924145309
 11
56.7397460572
 21
149.9162093242
  0
LINE
  5
239
100
AcDbEntity
  8
_1
100
AcDbLine
 62
7
  6
CONTINUOUS
 10
57.4420805644
 20
154.5431339349
 11
57.4420805644
 21
154.0431339349
  0
LINE
  5
23A
100
AcDbEntity
  8
_1
100
AcDbLine
 62
7
  6
CONTINUOUS
 10
58.4392409938
 20
161.5029456768
 11
58.4392409938
 21
161.1161558057
  0
LINE
  5
23B
100
AcDbEntity
  8
_1
100
AcDbLine
 62
7
  6
CONTINUOUS
 10
53.6478162272
 20
139.7344090602
 11
53.7352438509
 21
144.7431339349
  0
LINE
  5
23C
100
AcDbEntity
  8
_1
100
AcDbLine
 62
7
  6
CONTINUOUS
 10
55.7349392412
 20
144.7431339349
 11
55.6475116001
 21
139.7344077317
  0
LINE
  5
23D
100
AcDbEntity
  8
_1
100
AcDbLine
 62
7
  6
CONTINUOUS
 10
59.1397460572
 20
147.7431339349
 11
59.1397460572
 21
152.6476999283
  0
LINE
  5
23E
100
AcDbEntity
  8
_1
100
AcDbLine
 62
7
  6
CONTINUOUS
 10
60.0608135604
 20
147.7431339349
 11
60.0608135604
 21
149.7431339349
  0
LINE
  5
23F
100
AcDbEntity
  8
_1
100
AcDbLine
 62
7
  6
CONTINUOUS
 10
63.8392409938
 20
160.3610008369
 11
63.8392409938
 21
152.8431339349
  0
LINE
  5
240
100
AcDbEntity
  8
_1
100
AcDbLine
 62
7
  6
CONTINUOUS
 10
50.7392409938
 20
99.2431339349
 11
52.2392409938
 21
99.2431339349
  0
LINE
  5
241
100
AcDbEntity
  8
_1
100
AcDbLine
 62
7
  6
CONTINUOUS
 10
52.6392409938
 20
99.2431339349
 11
144.1392409938
 21
99.2431339349
  0
LINE
  5
242
100
AcDbEntity
  8
_1
100
AcDbLine
 62
7
  6
CONTINUOUS
 10
52.2392409938
 20
99.2931339349
 11
52.6392409938
 21
99.2931339349
  0
LINE
  5
243
100
AcDbEntity
  8
_1
100
AcDbLine
 62
7
  6
CONTINUOUS
 10
136.0448532297
 20
99.9315967308
 11
139.1392409938
 21
99.9315967308
  0
LINE
  5
244
100
AcDbEntity
  8
_1
100
AcDbLine
 62
7
  6
CONTINUOUS
 10
65.6210117853
 20
149.7431339349
 11
65.6210117853
 21
144.7431339349
  0
LINE
  5
245
100
AcDbEntity
  8
_1
100
AcDbLine
 62
7
  6
CONTINUOUS
 10
67.6574702024
 20
144.7431339349
 11
67.6574702024
 21
149.7431339349
  0
LINE
  5
246
100
AcDbEntity
  8
_1
100
AcDbLine
 62
7
  6
CONTINUOUS
 10
69.1373743232
 20
152.8431339349
 11
69.1373743232
 21
158.3431339349
  0
LINE
  5
247
100
AcDbEntity
  8
_1
100
AcDbLine
 62
7
  6
CONTINUOUS
 10
69.1736490202
 20
158.3431339349
 11
69.1736490202
 21
161.1171211928
  0
LINE
  5
248
100
AcDbEntity
  8
_1
100
AcDbLine
 62
7
  6
CONTINUOUS
 10
124.6043202243
 20
106.7813181683
 11
136.0448532297
 21
107.601857879
  0
LINE
  5
249
100
AcDbEntity
  8
_1
100
AcDbLine
 62
7
  6
CONTINUOUS
 10
136.0797739992
 20
106.7931339349
 11
124.6392409938
 21
105.9931339349
  0
LINE
  5
24A
100
AcDbEntity
  8
_1
100
AcDbLine
 62
7
  6
CONTINUOUS
 10
136.0797739992
 20
103.5795178643
 11
124.6392409938
 21
103.5585763057
  0
LINE
  5
24B
100
AcDbEntity
  8
_1
100
AcDbLine
 62
7
  6
CONTINUOUS
 10
84.6392409938
 20
100.1019498157
 11
124.6043202243
 21
100.1019498157
  0
LINE
  5
24C
100
AcDbEntity
  8
_1
100
AcDbLine
 62
7
  6
CONTINUOUS
 10
139.1392409938
 20
100.8868426276
 11
136.0797739992
 21
100.8868426276
  0
LINE
  5
24D
100
AcDbEntity
  8
_1
100
AcDbLine
 62
7
  6
CONTINUOUS
 10
124.6392409938
 20
101.0529428031
 11
84.6392409938
 21
101.0529428031
  0
LINE
  5
24E
100
AcDbEntity
  8
_1
100
AcDbLine
 62
7
  6
CONTINUOUS
 10
144.1392409938
 20
102.1907767156
 11
139.1392409938
 21
102.1907767156
  0
LINE
  5
24F
100
AcDbEntity
  8
_1
100
AcDbLine
 62
7
  6
CONTINUOUS
 10
84.6392409938
 20
102.1907767156
 11
52.6392409938
 21
102.1907767156
  0
LINE
  5
250
100
AcDbEntity
  8
_1
100
AcDbLine
 62
7
  6
CONTINUOUS
 10
52.2392409938
 20
102.1907767156
 11
50.7392409938
 21
102.1907767156
  0
LINE
  5
251
100
AcDbEntity
  8
_1
100
AcDbLine
 62
7
  6
CONTINUOUS
 10
52.6392409938
 20
102.2407767156
 11
52.2392409938
 21
102.2407767156
  0
LINE
  5
252
100
AcDbEntity
  8
_1
100
AcDbLine
 62
7
  6
CONTINUOUS
 10
84.6392409938
 20
103.5585763057
 11
124.6392409938
 21
103.5585763057
  0
LINE
  5
253
100
AcDbEntity
  8
_1
100
AcDbLine
 62
7
  6
CONTINUOUS
 10
136.0797739992
 20
103.5795178643
 11
139.1392409938
 21
103.5795178643
  0
LINE
  5
254
100
AcDbEntity
  8
_1
100
AcDbLine
 62
7
  6
CONTINUOUS
 10
146.1392409938
 20
104.2431339349
 11
144.1392409938
 21
104.2431339349
  0
LINE
  5
255
100
AcDbEntity
  8
_1
100
AcDbLine
 62
7
  6
CONTINUOUS
 10
124.6392409938
 20
101.0535394985
 11
136.0797739992
 21
100.8873852904
  0
LINE
  5
256
100
AcDbEntity
  8
_1
100
AcDbLine
 62
7
  6
CONTINUOUS
 10
136.0448532297
 20
99.9315967308
 11
124.6043202243
 21
100.1019498157
  0
LINE
  5
257
100
AcDbEntity
  8
_1
100
AcDbLine
 62
7
  6
CONTINUOUS
 10
69.344736168
 20
149.7431339349
 11
69.344736168
 21
152.4431339349
  0
LINE
  5
258
100
AcDbEntity
  8
_1
100
AcDbLine
 62
7
  6
CONTINUOUS
 10
69.3732240334
 20
152.8431339349
 11
69.3732240334
 21
161.1345817439
  0
LINE
  5
259
100
AcDbEntity
  8
_1
100
AcDbLine
 62
7
  6
CONTINUOUS
 10
69.4585634527
 20
144.7431339349
 11
69.4585634527
 21
149.7431339349
  0
LINE
  5
25A
100
AcDbEntity
  8
_1
100
AcDbLine
 62
7
  6
CONTINUOUS
 10
69.6152856855
 20
152.2431339349
 11
69.6152856855
 21
144.7431339349
  0
LINE
  5
25B
100
AcDbEntity
  8
_1
100
AcDbLine
 62
7
  6
CONTINUOUS
 10
72.3951927829
 20
163.84836751
 11
72.3951927829
 21
152.8431339349
  0
LINE
  5
25C
100
AcDbEntity
  8
_1
100
AcDbLine
 62
7
  6
CONTINUOUS
 10
72.4020847541
 20
144.7431339349
 11
72.4020847541
 21
149.7431339349
  0
LINE
  5
25D
100
AcDbEntity
  8
_1
100
AcDbLine
 62
7
  6
CONTINUOUS
 10
72.9882844258
 20
149.7431339349
 11
72.9882844258
 21
152.2431339349
  0
LINE
  5
25E
100
AcDbEntity
  8
_1
100
AcDbLine
 62
7
  6
CONTINUOUS
 10
73.2176684272
 20
149.7431339349
 11
73.2176684272
 21
147.7431339349
  0
LINE
  5
25F
100
AcDbEntity
  8
_1
100
AcDbLine
 62
7
  6
CONTINUOUS
 10
74.1387359304
 20
147.7431339349
 11
74.1387359304
 21
152.6476999283
  0
LWPOLYLINE
  5
260
100
AcDbEntity
  8
_1
100
AcDbPolyline
 62
7
  6
CONTINUOUS
 90
6
 70
0
 10
75.1297203349
 20
149.4207155686
 10
74.9166538232
 20
149.3197718172
 10
74.7204772194
 20
149.2338056894
 10
74.5338317132
 20
149.1610298753
 10
74.3534977497
 20
149.1005348277
 10
74.1991306448
 20
149.0574838373
  0
LINE
  5
261
100
AcDbEntity
  8
_1
100
AcDbLine
 62
7
  6
CONTINUOUS
 10
84.6392409938
 20
105.9931339349
 11
124.6392409938
 21
105.9931339349
  0
LINE
  5
262
100
AcDbEntity
  8
_1
100
AcDbLine
 62
7
  6
CONTINUOUS
 10
124.6043202244
 20
106.7813181683
 11
84.6392409938
 21
106.7813181683
  0
LINE
  5
263
100
AcDbEntity
  8
_1
100
AcDbLine
 62
7
  6
CONTINUOUS
 10
136.0797739992
 20
106.7931339349
 11
139.1392409938
 21
106.7931339349
  0
LINE
  5
264
100
AcDbEntity
  8
_1
100
AcDbLine
 62
7
  6
CONTINUOUS
 10
139.1392409938
 20
107.601857879
 11
136.0448532297
 21
107.601857879
  0
LINE
  5
265
100
AcDbEntity
  8
_1
100
AcDbLine
 62
7
  6
CONTINUOUS
 10
77.6309703875
 20
139.7344077317
 11
77.5435427464
 21
144.7431339349
  0
LINE
  5
266
100
AcDbEntity
  8
_1
100
AcDbLine
 62
7
  6
CONTINUOUS
 10
79.5432381367
 20
144.7431339349
 11
79.6306657778
 21
139.7344077317
  0
LINE
  5
267
100
AcDbEntity
  8
_1
100
AcDbLine
 62
7
  6
CONTINUOUS
 10
76.5387359304
 20
149.9157789881
 11
76.5387359304
 21
152.6476999283
  0
LINE
  5
268
100
AcDbEntity
  8
_1
100
AcDbLine
 62
7
  6
CONTINUOUS
 10
76.6396197714
 20
152.4431339349
 11
76.6396197714
 21
149.9257907073
  0
LINE
  5
269
100
AcDbEntity
  8
_1
100
AcDbLine
 62
7
  6
CONTINUOUS
 10
76.7163340482
 20
147.7431339349
 11
76.7163340482
 21
144.7431339349
  0
LINE
  5
26A
100
AcDbEntity
  8
_1
100
AcDbLine
 62
7
  6
CONTINUOUS
 10
77.5892409938
 20
152.7431339349
 11
77.5892409938
 21
152.8431339349
  0
LINE
  5
26B
100
AcDbEntity
  8
_1
100
AcDbLine
 62
7
  6
CONTINUOUS
 10
77.6309703875
 20
139.7344077317
 11
77.6309703875
 21
139.2431339349
  0
LINE
  5
26C
100
AcDbEntity
  8
_1
100
AcDbLine
 62
7
  6
CONTINUOUS
 10
78.0618586184
 20
149.7431339349
 11
78.0618586184
 21
149.5581958486
  0
LINE
  5
26D
100
AcDbEntity
  8
_1
100
AcDbLine
 62
7
  6
CONTINUOUS
 10
78.7817158475
 20
144.7431339349
 11
78.7817158475
 21
147.7431339349
  0
LINE
  5
26E
100
AcDbEntity
  8
_1
100
AcDbLine
 62
7
  6
CONTINUOUS
 10
79.0387359304
 20
147.7431339349
 11
79.0387359304
 21
149.043100273
  0
LINE
  5
26F
100
AcDbEntity
  8
_1
100
AcDbLine
 62
7
  6
CONTINUOUS
 10
79.0587385816
 20
147.7431339349
 11
79.0587385816
 21
149.7431339349
  0
LINE
  5
270
100
AcDbEntity
  8
_1
100
AcDbLine
 62
7
  6
CONTINUOUS
 10
79.1392409938
 20
149.7431339349
 11
79.1392409938
 21
152.4431339349
  0
LINE
  5
271
100
AcDbEntity
  8
_1
100
AcDbLine
 62
7
  6
CONTINUOUS
 10
79.4989925186
 20
149.7431339349
 11
79.4989925186
 21
144.7431339349
  0
LINE
  5
272
100
AcDbEntity
  8
_1
100
AcDbLine
 62
7
  6
CONTINUOUS
 10
79.5392409938
 20
163.5431339349
 11
79.5392409938
 21
152.8431339349
  0
LINE
  5
273
100
AcDbEntity
  8
_1
100
AcDbLine
 62
7
  6
CONTINUOUS
 10
79.5392409938
 20
144.7431339349
 11
79.5392409938
 21
149.7431339349
  0
LINE
  5
274
100
AcDbEntity
  8
_1
100
AcDbLine
 62
7
  6
CONTINUOUS
 10
139.1392409938
 20
113.1379080304
 11
84.6392409938
 21
113.1379080304
  0
LINE
  5
275
100
AcDbEntity
  8
_1
100
AcDbLine
 62
7
  6
CONTINUOUS
 10
168.6392409938
 20
115.2431339349
 11
146.6392409938
 21
115.2431339349
  0
LINE
  5
276
100
AcDbEntity
  8
_1
100
AcDbLine
 62
7
  6
CONTINUOUS
 10
80.1392409938
 20
139.2431339349
 11
80.1392409938
 21
99.2431339349
  0
LINE
  5
277
100
AcDbEntity
  8
_1
100
AcDbLine
 62
7
  6
CONTINUOUS
 10
84.6392409938
 20
139.2431339349
 11
84.6392409938
 21
125.3483598394
  0
LINE
  5
278
100
AcDbEntity
  8
_1
100
AcDbLine
 62
7
  6
CONTINUOUS
 10
84.6392409938
 20
113.1379080304
 11
84.6392409938
 21
99.2431339349
  0
LINE
  5
279
100
AcDbEntity
  8
_1
100
AcDbLine
 62
7
  6
CONTINUOUS
 10
50.7392409938
 20
119.2431339349
 11
144.1392409938
 21
119.2431339349
  0
LINE
  5
27A
100
AcDbEntity
  8
_1
100
AcDbLine
 62
7
  6
CONTINUOUS
 10
86.239383431
 20
138.8601432928
 11
86.239383488
 21
132.8601432928
  0
LWPOLYLINE
  5
27B
100
AcDbEntity
  8
_1
100
AcDbPolyline
 62
7
  6
CONTINUOUS
 90
3
 70
0
 10
86.2393949303
 20
132.8601432928
 10
86.8786555342
 20
135.8539528477
 10
86.2393949311
 20
138.8601432928
  0
LINE
  5
27C
100
AcDbEntity
  8
_1
100
AcDbLine
 62
7
  6
CONTINUOUS
 10
168.6392409938
 20
123.2431339349
 11
146.6392409938
 21
123.2431339349
  0
LINE
  5
27D
100
AcDbEntity
  8
_1
100
AcDbLine
 62
7
  6
CONTINUOUS
 10
84.6392409938
 20
125.3483598394
 11
139.1392409938
 21
125.3483598394
  0
LINE
  5
27E
100
AcDbEntity
  8
_1
100
AcDbLine
 62
7
  6
CONTINUOUS
 10
136.0448532865
 20
130.8844099909
 11
139.1392409938
 21
130.8844099909
  0
LINE
  5
27F
100
AcDbEntity
  8
_1
100
AcDbLine
 62
7
  6
CONTINUOUS
 10
139.1392409938
 20
131.6931339349
 11
136.0797739992
 21
131.6931339349
  0
LINE
  5
280
100
AcDbEntity
  8
_1
100
AcDbLine
 62
7
  6
CONTINUOUS
 10
84.6392409938
 20
131.7049497016
 11
124.6043202939
 21
131.7049497016
  0
LINE
  5
281
100
AcDbEntity
  8
_1
100
AcDbLine
 62
7
  6
CONTINUOUS
 10
124.6392409938
 20
132.4931339349
 11
84.6392409938
 21
132.4931339349
  0
LINE
  5
282
100
AcDbEntity
  8
_1
100
AcDbLine
 62
7
  6
CONTINUOUS
 10
84.6392409938
 20
132.8601432928
 11
86.239383488
 21
132.8601432928
  0
LINE
  5
283
100
AcDbEntity
  8
_1
100
AcDbLine
 62
7
  6
CONTINUOUS
 10
146.1392409938
 20
134.2431339349
 11
144.1392409938
 21
134.2431339349
  0
LINE
  5
284
100
AcDbEntity
  8
_1
100
AcDbLine
 62
7
  6
CONTINUOUS
 10
139.1392409938
 20
134.9067500055
 11
136.0797739992
 21
134.9067500055
  0
LINE
  5
285
100
AcDbEntity
  8
_1
100
AcDbLine
 62
7
  6
CONTINUOUS
 10
124.6392409938
 20
134.9276915642
 11
86.6808732983
 21
134.9276915642
  0
LINE
  5
286
100
AcDbEntity
  8
_1
100
AcDbLine
 62
7
  6
CONTINUOUS
 10
52.2392409938
 20
136.2454911542
 11
52.6392409938
 21
136.2454911542
  0
LINE
  5
287
100
AcDbEntity
  8
_1
100
AcDbLine
 62
7
  6
CONTINUOUS
 10
50.7392409938
 20
136.2954911542
 11
52.2392409938
 21
136.2954911542
  0
LINE
  5
288
100
AcDbEntity
  8
_1
100
AcDbLine
 62
7
  6
CONTINUOUS
 10
52.6392409938
 20
136.2954911542
 11
84.6392409938
 21
136.2954911542
  0
LINE
  5
289
100
AcDbEntity
  8
_1
100
AcDbLine
 62
7
  6
CONTINUOUS
 10
139.1392409938
 20
136.2954911542
 11
144.1392409938
 21
136.2954911542
  0
LINE
  5
28A
100
AcDbEntity
  8
_1
100
AcDbLine
 62
7
  6
CONTINUOUS
 10
124.6392409938
 20
134.9276915642
 11
136.0797739992
 21
134.9067500055
  0
LINE
  5
28B
100
AcDbEntity
  8
_1
100
AcDbLine
 62
7
  6
CONTINUOUS
 10
124.6392409938
 20
132.4931339349
 11
136.0797739992
 21
131.6931339349
  0
LINE
  5
28C
100
AcDbEntity
  8
_1
100
AcDbLine
 62
7
  6
CONTINUOUS
 10
136.0448532297
 20
130.8844099909
 11
124.6043202243
 21
131.7049497016
  0
LWPOLYLINE
  5
28D
100
AcDbEntity
  8
_1
100
AcDbPolyline
 62
7
  6
CONTINUOUS
 90
10
 70
0
 10
57.8191619075
 20
149.5813782661
 10
57.5637793723
 20
149.6971136619
 10
57.2852219376
 20
149.8045510528
 10
56.9679803262
 20
149.8914841216
 10
56.578085384
 20
149.9337224388
 10
56.1195975708
 20
149.888988611
 10
55.6137697302
 20
149.7379653575
 10
55.0624817218
 20
149.4882174594
 10
54.3408431568
 20
149.098603113
 10
54.2397468649
 20
149.0430927856
  0
LINE
  5
28E
100
AcDbEntity
  8
_1
100
AcDbLine
 62
7
  6
CONTINUOUS
 10
86.365034304
 20
138.2693108832
 11
139.1392409938
 21
138.2693108832
  0
LINE
  5
28F
100
AcDbEntity
  8
_1
100
AcDbLine
 62
7
  6
CONTINUOUS
 10
84.6392409938
 20
138.8601432928
 11
86.2393849614
 21
138.8601432928
  0
LINE
  5
290
100
AcDbEntity
  8
_1
100
AcDbLine
 62
7
  6
CONTINUOUS
 10
52.6392409938
 20
139.1931339349
 11
52.2392409938
 21
139.1931339349
  0
LINE
  5
291
100
AcDbEntity
  8
_1
100
AcDbLine
 62
7
  6
CONTINUOUS
 10
52.2392409938
 20
139.2431339349
 11
50.7392409938
 21
139.2431339349
  0
LINE
  5
292
100
AcDbEntity
  8
_1
100
AcDbLine
 62
7
  6
CONTINUOUS
 10
52.6392409938
 20
139.2431339349
 11
144.1392409938
 21
139.2431339349
  0
LINE
  5
293
100
AcDbEntity
  8
_1
100
AcDbLine
 62
7
  6
CONTINUOUS
 10
52.6392409938
 20
139.6931339349
 11
52.2392409938
 21
139.6931339349
  0
LINE
  5
294
100
AcDbEntity
  8
_1
100
AcDbLine
 62
7
  6
CONTINUOUS
 10
77.6309703875
 20
139.7344077317
 11
55.6475116001
 21
139.7344077317
  0
LINE
  5
295
100
AcDbEntity
  8
_1
100
AcDbLine
 62
7
  6
CONTINUOUS
 10
53.1478923623
 20
139.7344077317
 11
52.6392409938
 21
139.7344077317
  0
LINE
  5
296
100
AcDbEntity
  8
_1
100
AcDbLine
 62
7
  6
CONTINUOUS
 10
52.2392409938
 20
139.7344077317
 11
50.7392409938
 21
139.7344077317
  0
LINE
  5
297
100
AcDbEntity
  8
_1
100
AcDbLine
 62
7
  6
CONTINUOUS
 10
121.1829853256
 20
139.7431339349
 11
143.0954833405
 21
139.7431339349
  0
LINE
  5
298
100
AcDbEntity
  8
_1
100
AcDbLine
 62
7
  6
CONTINUOUS
 10
52.2392409938
 20
141.6931339349
 11
52.6392409938
 21
141.6931339349
  0
LINE
  5
299
100
AcDbEntity
  8
_1
100
AcDbLine
 62
7
  6
CONTINUOUS
 10
50.7392409938
 20
141.777353376
 11
52.2392409938
 21
141.777353376
  0
LINE
  5
29A
100
AcDbEntity
  8
_1
100
AcDbLine
 62
7
  6
CONTINUOUS
 10
52.6392409938
 20
141.7780387478
 11
53.1835640743
 21
141.7780387478
  0
LWPOLYLINE
  5
29B
100
AcDbEntity
  8
_1
100
AcDbPolyline
 62
7
  6
CONTINUOUS
 90
7
 70
0
 10
59.0906340281
 20
149.0547842749
 10
58.9447199481
 20
149.0948900047
 10
58.7654520045
 20
149.1541037312
 10
58.5783668034
 20
149.2261608624
 10
58.3822994921
 20
149.3112960304
 10
58.1694428942
 20
149.4116267378
 10
57.8191619075
 20
149.5813782661
  0
LWPOLYLINE
  5
29C
100
AcDbEntity
  8
_1
100
AcDbPolyline
 62
7
  6
CONTINUOUS
 90
10
 70
0
 10
79.0387349311
 20
149.0430999937
 10
78.2293324012
 20
149.4817404115
 10
77.6816137416
 20
149.731785934
 10
77.1784362958
 20
149.8852438088
 10
76.7216120256
 20
149.9339276241
 10
76.328768353
 20
149.8949417915
 10
76.0108336168
 20
149.8100178407
 10
75.7333153721
 20
149.7043579138
 10
75.4791070845
 20
149.5899361045
 10
75.1297203349
 20
149.4207155686
  0
LINE
  5
29D
100
AcDbEntity
  8
_1
100
AcDbLine
 62
7
  6
CONTINUOUS
 10
52.6392409938
 20
143.6931339349
 11
52.2392409938
 21
143.6931339349
  0
LINE
  5
29E
100
AcDbEntity
  8
_1
100
AcDbLine
 62
7
  6
CONTINUOUS
 10
52.2392409938
 20
143.7424485631
 11
50.7392409938
 21
143.7424485631
  0
LINE
  5
29F
100
AcDbEntity
  8
_1
100
AcDbLine
 62
7
  6
CONTINUOUS
 10
53.2264401544
 20
143.7431339349
 11
52.6392409938
 21
143.7431339349
  0
LINE
  5
2A0
100
AcDbEntity
  8
_1
100
AcDbLine
 62
7
  6
CONTINUOUS
 10
79.5432381367
 20
144.7431339349
 11
53.7352438509
 21
144.7431339349
  0
LINE
  5
2A1
100
AcDbEntity
  8
_1
100
AcDbLine
 62
7
  6
CONTINUOUS
 10
32.4392409938
 20
145.5431339349
 11
47.0417757443
 21
145.5431339349
  0
LINE
  5
2A2
100
AcDbEntity
  8
_1
100
AcDbLine
 62
7
  6
CONTINUOUS
 10
28.5071901862
 20
146.2443544148
 11
29.1161848229
 21
146.2443544148
  0
LINE
  5
2A3
100
AcDbEntity
  8
_1
100
AcDbLine
 62
7
  6
CONTINUOUS
 10
21.6392409938
 20
146.4431339349
 11
27.4949778293
 21
146.4431339349
  0
LINE
  5
2A4
100
AcDbEntity
  8
_1
100
AcDbLine
 62
7
  6
CONTINUOUS
 10
29.1392409938
 20
146.4431339349
 11
32.4392409938
 21
146.4431339349
  0
LINE
  5
2A5
100
AcDbEntity
  8
_1
100
AcDbLine
 62
7
  6
CONTINUOUS
 10
32.0392409938
 20
146.4760960647
 11
29.1392409938
 21
146.4760960647
  0
LINE
  5
2A6
100
AcDbEntity
  8
_1
100
AcDbLine
 62
7
  6
CONTINUOUS
 10
29.1392409938
 20
146.9782743857
 11
32.0392409938
 21
146.9782743857
  0
LINE
  5
2A7
100
AcDbEntity
  8
_1
100
AcDbLine
 62
7
  6
CONTINUOUS
 10
54.2197434061
 20
147.7431339349
 11
60.0608135604
 21
147.7431339349
  0
LINE
  5
2A8
100
AcDbEntity
  8
_1
100
AcDbLine
 62
7
  6
CONTINUOUS
 10
73.2176684272
 20
147.7431339349
 11
79.0587385816
 21
147.7431339349
  0
LINE
  5
2A9
100
AcDbEntity
  8
_1
100
AcDbLine
 62
7
  6
CONTINUOUS
 10
28.0071901862
 20
148.5199162796
 11
27.9949778293
 21
148.5193999751
  0
LINE
  5
2AA
100
AcDbEntity
  8
_1
100
AcDbLine
 62
7
  6
CONTINUOUS
 10
28.8392409938
 20
148.5991769196
 11
28.5071901862
 21
148.5991769196
  0
LINE
  5
2AB
100
AcDbEntity
  8
_1
100
AcDbLine
 62
7
  6
CONTINUOUS
 10
53.7392409938
 20
149.7431339349
 11
55.6310810402
 21
149.7431339349
  0
LINE
  5
2AC
100
AcDbEntity
  8
_1
100
AcDbLine
 62
7
  6
CONTINUOUS
 10
59.1397460572
 20
149.7431339349
 11
69.4585634527
 21
149.7431339349
  0
LINE
  5
2AD
100
AcDbEntity
  8
_1
100
AcDbLine
 62
7
  6
CONTINUOUS
 10
72.4020847541
 20
149.7431339349
 11
74.1387359304
 21
149.7431339349
  0
LINE
  5
2AE
100
AcDbEntity
  8
_1
100
AcDbLine
 62
7
  6
CONTINUOUS
 10
77.6444044545
 20
149.7431339349
 11
79.5392409938
 21
149.7431339349
  0
LINE
  5
2AF
100
AcDbEntity
  8
_1
100
AcDbLine
 62
7
  6
CONTINUOUS
 10
28.3092409938
 20
149.7525181081
 11
28.8392409938
 21
149.7525181081
  0
LINE
  5
2B0
100
AcDbEntity
  8
_1
100
AcDbLine
 62
7
  6
CONTINUOUS
 10
69.6152856855
 20
152.2431339349
 11
72.9882844258
 21
152.2431339349
  0
LINE
  5
2B1
100
AcDbEntity
  8
_1
100
AcDbLine
 62
7
  6
CONTINUOUS
 10
59.1397460572
 20
152.4431339349
 11
69.344736168
 21
152.4431339349
  0
LINE
  5
2B2
100
AcDbEntity
  8
_1
100
AcDbLine
 62
7
  6
CONTINUOUS
 10
72.9582527675
 20
152.4431339349
 11
74.1387359304
 21
152.4431339349
  0
LINE
  5
2B3
100
AcDbEntity
  8
_1
100
AcDbLine
 62
7
  6
CONTINUOUS
 10
76.6396197714
 20
152.4431339349
 11
79.1392409938
 21
152.4431339349
  0
LINE
  5
2B4
100
AcDbEntity
  8
_1
100
AcDbLine
 62
7
  6
CONTINUOUS
 10
57.3872993202
 20
152.7431339349
 11
78.8392409938
 21
152.7431339349
  0
LINE
  5
2B5
100
AcDbEntity
  8
_1
100
AcDbLine
 62
7
  6
CONTINUOUS
 10
79.5392298194
 20
152.8431339349
 11
58.1392409938
 21
152.8431339349
  0
LINE
  5
2B6
100
AcDbEntity
  8
_1
100
AcDbLine
 62
7
  6
CONTINUOUS
 10
121.1829853256
 20
139.7431339349
 11
121.1392409938
 21
139.2431339349
  0
LINE
  5
2B7
100
AcDbEntity
  8
_1
100
AcDbLine
 62
7
  6
CONTINUOUS
 10
57.4420805644
 20
154.0431339349
 11
32.4392409938
 21
154.0431339349
  0
LINE
  5
2B8
100
AcDbEntity
  8
_1
100
AcDbLine
 62
7
  6
CONTINUOUS
 10
21.6392409938
 20
154.4017694428
 11
28.8946023132
 21
154.4017694428
  0
LINE
  5
2B9
100
AcDbEntity
  8
_1
100
AcDbLine
 62
7
  6
CONTINUOUS
 10
32.4392409938
 20
154.5431339349
 11
57.4420805644
 21
154.5431339349
  0
LINE
  5
2BA
100
AcDbEntity
  8
_1
100
AcDbLine
 62
7
  6
CONTINUOUS
 10
69.1736490202
 20
158.3431339349
 11
63.8392409938
 21
158.3431339349
  0
LINE
  5
2BB
100
AcDbEntity
  8
_1
100
AcDbLine
 62
7
  6
CONTINUOUS
 10
123.1392409938
 20
139.2431339349
 11
123.1392409938
 21
139.7431339349
  0
LINE
  5
2BC
100
AcDbEntity
  8
_1
100
AcDbLine
 62
7
  6
CONTINUOUS
 10
124.6392409938
 20
138.2692471175
 11
124.6392409938
 21
132.4931339349
  0
LINE
  5
2BD
100
AcDbEntity
  8
_1
100
AcDbLine
 62
7
  6
CONTINUOUS
 10
124.6392409938
 20
105.9931339349
 11
124.6392409938
 21
101.0535394985
  0
LINE
  5
2BE
100
AcDbEntity
  8
_1
100
AcDbLine
 62
7
  6
CONTINUOUS
 10
69.3732240334
 20
161.1345817439
 11
67.1849655631
 21
160.9431339349
  0
LINE
  5
2BF
100
AcDbEntity
  8
_1
100
AcDbLine
 62
7
  6
CONTINUOUS
 10
33.4392409938
 20
159.3734171468
 11
55.4392409938
 21
159.3734171468
  0
LINE
  5
2C0
100
AcDbEntity
  8
_1
100
AcDbLine
 62
7
  6
CONTINUOUS
 10
55.4392409938
 20
159.858189252
 11
33.4392409938
 21
159.858189252
  0
LINE
  5
2C1
100
AcDbEntity
  8
_1
100
AcDbLine
 62
7
  6
CONTINUOUS
 10
33.4392409938
 20
161.1161558057
 11
58.4392409938
 21
161.1161558057
  0
LINE
  5
2C2
100
AcDbEntity
  8
_1
100
AcDbLine
 62
7
  6
CONTINUOUS
 10
58.4392409938
 20
161.5029456768
 11
33.4392409938
 21
161.5029456768
  0
LINE
  5
2C3
100
AcDbEntity
  8
_1
100
AcDbLine
 62
7
  6
CONTINUOUS
 10
32.4392409938
 20
162.4277702378
 11
66.7893085555
 21
162.4277702378
  0
LINE
  5
2C4
100
AcDbEntity
  8
_1
100
AcDbLine
 62
7
  6
CONTINUOUS
 10
21.6392409938
 20
162.6431339349
 11
32.4392409938
 21
162.6431339349
  0
LINE
  5
2C5
100
AcDbEntity
  8
_1
100
AcDbLine
 62
7
  6
CONTINUOUS
 10
28.5071901862
 20
162.841913455
 11
29.1161848229
 21
162.841913455
  0
LINE
  5
2C6
100
AcDbEntity
  8
_1
100
AcDbLine
 62
7
  6
CONTINUOUS
 10
77.8722651381
 20
163.4259766474
 11
77.9753342565
 21
163.4259766474
  0
LINE
  5
2C7
100
AcDbEntity
  8
_1
100
AcDbLine
 62
7
  6
CONTINUOUS
 10
77.7911621111
 20
163.5431339349
 11
79.5392325384
 21
163.5431339349
  0
LINE
  5
2C8
100
AcDbEntity
  8
_1
100
AcDbLine
 62
7
  6
CONTINUOUS
 10
70.4830750475
 20
163.7320600301
 11
32.4392409938
 21
163.7320600301
  0
LINE
  5
2C9
100
AcDbEntity
  8
_1
100
AcDbLine
 62
7
  6
CONTINUOUS
 10
32.4392409938
 20
163.9431339349
 11
33.2392409938
 21
163.9431339349
  0
LINE
  5
2CA
100
AcDbEntity
  8
_1
100
AcDbLine
 62
7
  6
CONTINUOUS
 10
37.2392409938
 20
163.9431339349
 11
75.2560849636
 21
163.9431339349
  0
LINE
  5
2CB
100
AcDbEntity
  8
_1
100
AcDbLine
 62
7
  6
CONTINUOUS
 10
146.6392409938
 20
133.7431339349
 11
146.1392409938
 21
134.2431339349
  0
LINE
  5
2CC
100
AcDbEntity
  8
_1
100
AcDbLine
 62
7
  6
CONTINUOUS
 10
136.0797739992
 20
100.8873852904
 11
136.0797739992
 21
106.7931339349
  0
LINE
  5
2CD
100
AcDbEntity
  8
_1
100
AcDbLine
 62
7
  6
CONTINUOUS
 10
136.0797739992
 20
131.6931339349
 11
136.0797739992
 21
138.2692471175
  0
LINE
  5
2CE
100
AcDbEntity
  8
_1
100
AcDbLine
 62
7
  6
CONTINUOUS
 10
136.1392409938
 20
139.7431339349
 11
136.1392409938
 21
139.2431339349
  0
LINE
  5
2CF
100
AcDbEntity
  8
_1
100
AcDbLine
 62
7
  6
CONTINUOUS
 10
143.0954966621
 20
139.7431339349
 11
143.1392409938
 21
139.2431339349
  0
LINE
  5
2D0
100
AcDbEntity
  8
_1
100
AcDbLine
 62
7
  6
CONTINUOUS
 10
139.1392409938
 20
99.2431339349
 11
139.1392409938
 21
113.1379080304
  0
LINE
  5
2D1
100
AcDbEntity
  8
_1
100
AcDbLine
 62
7
  6
CONTINUOUS
 10
139.1392409938
 20
125.3483598394
 11
139.1392409938
 21
139.2431339349
  0
LINE
  5
2D2
100
AcDbEntity
  8
_1
100
AcDbLine
 62
7
  6
CONTINUOUS
 10
144.1392409938
 20
139.2431339349
 11
144.1392409938
 21
99.2431339349
  0
LINE
  5
2D3
100
AcDbEntity
  8
_1
100
AcDbLine
 62
7
  6
CONTINUOUS
 10
169.1392409938
 20
122.7431339349
 11
168.6392409938
 21
123.2431339349
  0
LINE
  5
2D4
100
AcDbEntity
  8
_1
100
AcDbLine
 62
7
  6
CONTINUOUS
 10
146.1392409938
 20
134.2431339349
 11
146.1392409938
 21
104.2431339349
  0
LINE
  5
2D5
100
AcDbEntity
  8
_1
100
AcDbLine
 62
7
  6
CONTINUOUS
 10
146.6392409938
 20
133.7428910604
 11
146.6392409938
 21
104.7433768094
  0
LINE
  5
2D6
100
AcDbEntity
  8
_1
100
AcDbLine
 62
7
  6
CONTINUOUS
 10
146.6392409938
 20
104.7431339349
 11
146.1392409938
 21
104.2431339349
  0
LINE
  5
2D7
100
AcDbEntity
  8
_1
100
AcDbLine
 62
7
  6
CONTINUOUS
 10
169.1392409938
 20
115.7431339349
 11
168.6392409938
 21
115.2431339349
  0
LINE
  5
2D8
100
AcDbEntity
  8
_1
100
AcDbLine
 62
7
  6
CONTINUOUS
 10
168.6392409938
 20
123.2431339349
 11
168.6392409938
 21
115.2431339349
  0
LINE
  5
2D9
100
AcDbEntity
  8
_1
100
AcDbLine
 62
7
  6
CONTINUOUS
 10
169.1392409938
 20
122.7430429174
 11
169.1392409938
 21
115.7432249524
  0
ARC
  5
2DA
100
AcDbEntity
  8
_1
100
AcDbCircle
 62
7
  6
CONTINUOUS
 10
79.2890797002
 20
512.0083058099
 40
372.2775926821
100
AcDbArc
 50
269.7448060746
 51
269.962445208
  0
ARC
  5
2DB
100
AcDbEntity
  8
_1
100
AcDbCircle
 62
7
  6
CONTINUOUS
 10
54.1388005912
 20
453.5289811053
 40
313.7982022717
100
AcDbArc
 50
270.0172751607
 51
270.2754735567
  0
ARC
  5
2DC
100
AcDbEntity
  8
_1
100
AcDbCircle
 62
7
  6
CONTINUOUS
 10
108.7252184699
 20
184.875266071
 40
37.5763397015
100
AcDbArc
 50
214.2408821027
 51
214.9613458593
  0
ARC
  5
2DD
100
AcDbEntity
  8
_1
100
AcDbCircle
 62
7
  6
CONTINUOUS
 10
35.2392409938
 20
183.8490126474
 40
20.0060992528
100
AcDbArc
 50
264.2625850945
 51
275.7374149055
  0
ARC
  5
2DE
100
AcDbEntity
  8
_1
100
AcDbCircle
 62
7
  6
CONTINUOUS
 10
68.9280804181
 20
141.0192399731
 40
20.0
100
AcDbArc
 50
95.0
 51
104.7405218495
  0
ARC
  5
2DF
100
AcDbEntity
  8
_1
100
AcDbCircle
 62
7
  6
CONTINUOUS
 10
63.5649083287
 20
140.2743234565
 40
14.0
100
AcDbArc
 50
119.5539244385
 51
145.7059315629
  0
ARC
  5
2E0
100
AcDbEntity
  8
_1
100
AcDbCircle
 62
7
  6
CONTINUOUS
 10
47.0417757443
 20
151.5431339349
 40
6.0
100
AcDbArc
 50
270.0
 51
325.705931545
  0
ARC
  5
2E1
100
AcDbEntity
  8
_1
100
AcDbCircle
 62
7
  6
CONTINUOUS
 10
58.1392409938
 20
149.8431339349
 40
3.0
100
AcDbArc
 50
90.0
 51
119.5539244385
  0
ARC
  5
2E2
100
AcDbEntity
  8
_1
100
AcDbCircle
 62
7
  6
CONTINUOUS
 10
29.1012326218
 20
160.0177660453
 40
2.9507990471
100
AcDbArc
 50
111.7625834921
 51
112.0181372086
  0
ARC
  5
2E3
100
AcDbEntity
  8
_1
100
AcDbCircle
 62
7
  6
CONTINUOUS
 10
29.1012326201
 20
149.0685018203
 40
2.9507990425
100
AcDbArc
 50
247.9818627914
 51
248.2374165083
  0
ARC
  5
2E4
100
AcDbEntity
  8
_1
100
AcDbCircle
 62
7
  6
CONTINUOUS
 10
74.1820993522
 20
148.4794777006
 40
0.5649030434
100
AcDbArc
 50
93.4185836779
 51
93.8765345725
  0
ARC
  5
2E5
100
AcDbEntity
  8
_1
100
AcDbCircle
 62
7
  6
CONTINUOUS
 10
53.1478655592
 20
139.7431612468
 40
0.5000296666
100
AcDbArc
 50
270.0030712367
 51
358.9969245367
  0
ARC
  5
2E6
100
AcDbEntity
  8
_1
100
AcDbCircle
 62
7
  6
CONTINUOUS
 10
80.1305896254
 20
139.7431339349
 40
0.5
100
AcDbArc
 50
181.0
 51
270.0
  0
ARC
  5
2E7
100
AcDbEntity
  8
_1
100
AcDbCircle
 62
7
  6
CONTINUOUS
 10
53.2264401544
 20
144.2431339349
 40
0.5
100
AcDbArc
 50
270.0
 51
359.0
  0
ARC
  5
2E8
100
AcDbEntity
  8
_1
100
AcDbCircle
 62
7
  6
CONTINUOUS
 10
78.8392409938
 20
152.4431339349
 40
0.3
100
AcDbArc
 50
0.0
 51
90.0
  0
SPLINE
  5
2E9
100
AcDbEntity
  8
_1
100
AcDbSpline
 62
7
  6
CONTINUOUS
 70
0
 71
3
 72
13
 73
9
 74
0
 42
0.0000001
 43
0.0000001
 44
0.0000000001
 40
0.0
 40
0.0
 40
0.0
 40
0.0
 40
0.0777152519
 40
0.1652890935
 40
0.2683849208
 40
0.3888806173
 40
0.6754795475
 40
1.0
 40
1.0
 40
1.0
 40
1.0
 10
72.7574101192
 20
152.7431339349
 30
0.0
 10
72.7727503804
 20
152.7431339349
 30
0.0
 10
72.8056205817
 20
152.7355759843
 30
0.0
 10
72.8498406026
 20
152.7048395338
 30
0.0
 10
72.8894287839
 20
152.6571932051
 30
0.0
 10
72.937859106
 20
152.5683927813
 30
0.0
 10
72.9778147383
 20
152.4280026741
 30
0.0
 10
72.9882844258
 20
152.3071912261
 30
0.0
 10
72.9882844258
 20
152.2431339349
 30
0.0
  0
SPLINE
  5
2EA
100
AcDbEntity
  8
_1
100
AcDbSpline
 62
7
  6
CONTINUOUS
 70
0
 71
3
 72
11
 73
7
 74
0
 42
0.0000001
 43
0.0000001
 44
0.0000000001
 40
0.0
 40
0.0
 40
0.0
 40
0.0
 40
0.2815199529
 40
0.5425748129
 40
0.7820826074
 40
1.0
 40
1.0
 40
1.0
 40
1.0
 10
75.2560849636
 20
163.9431339349
 30
0.0
 10
75.4831558186
 20
163.9431339349
 30
0.0
 10
75.9208383089
 20
163.9372314773
 30
0.0
 10
76.5510017295
 20
163.9036287158
 30
0.0
 10
77.1274468254
 20
163.8407795023
 30
0.0
 10
77.4907529736
 20
163.7732173546
 30
0.0
 10
77.6616361963
 20
163.7320600301
 30
0.0
  0
SPLINE
  5
2EB
100
AcDbEntity
  8
_1
100
AcDbSpline
 62
7
  6
CONTINUOUS
 70
0
 71
3
 72
9
 73
5
 74
0
 42
0.0000001
 43
0.0000001
 44
0.0000000001
 40
0.0
 40
0.0
 40
0.0
 40
0.0
 40
0.3570275007
 40
1.0
 40
1.0
 40
1.0
 40
1.0
 10
27.4949778293
 20
162.6431339349
 30
0.0
 10
27.5561881379
 20
162.6431339349
 30
0.0
 10
27.7277931728
 20
162.6595935945
 30
0.0
 10
27.8927843341
 20
162.7120211551
 30
0.0
 10
27.9949778277
 20
162.7533492275
 30
0.0
  0
SPLINE
  5
2EC
100
AcDbEntity
  8
_1
100
AcDbSpline
 62
7
  6
CONTINUOUS
 70
0
 71
3
 72
9
 73
5
 74
0
 42
0.0000001
 43
0.0000001
 44
0.0000000001
 40
0.0
 40
0.0
 40
0.0
 40
0.0
 40
0.6167113451
 40
1.0
 40
1.0
 40
1.0
 40
1.0
 10
28.5071901862
 20
162.841913455
 30
0.0
 10
28.4025406494
 20
162.841913455
 30
0.0
 10
28.2322090096
 20
162.827560719
 30
0.0
 10
28.0675944555
 20
162.78237135
 30
0.0
 10
28.0071901862
 20
162.7582561776
 30
0.0
  0
SPLINE
  5
2ED
100
AcDbEntity
  8
_1
100
AcDbSpline
 62
7
  6
CONTINUOUS
 70
0
 71
3
 72
9
 73
5
 74
0
 42
0.0000001
 43
0.0000001
 44
0.0000000001
 40
0.0
 40
0.0
 40
0.0
 40
0.0
 40
0.4998305299
 40
1.0
 40
1.0
 40
1.0
 40
1.0
 10
29.6639874889
 20
154.1502086515
 30
0.0
 10
29.5549689158
 20
154.2325704555
 30
0.0
 10
29.3063909818
 20
154.3597440695
 30
0.0
 10
29.0313277433
 20
154.4017694428
 30
0.0
 10
28.8946023132
 20
154.4017694428
 30
0.0
  0
SPLINE
  5
2EE
100
AcDbEntity
  8
_1
100
AcDbSpline
 62
7
  6
CONTINUOUS
 70
0
 71
3
 72
9
 73
5
 74
0
 42
0.0000001
 43
0.0000001
 44
0.0000000001
 40
0.0
 40
0.0
 40
0.0
 40
0.0
 40
0.2425926195
 40
1.0
 40
1.0
 40
1.0
 40
1.0
 10
32.0392409938
 20
150.4035832315
 30
0.0
 10
32.0392409938
 20
150.4938903744
 30
0.0
 10
32.029309505
 20
150.8661189678
 30
0.0
 10
31.9806834005
 20
151.2370141247
 30
0.0
 10
31.9255450265
 20
151.5135214068
 30
0.0
  0
SPLINE
  5
2EF
100
AcDbEntity
  8
_1
100
AcDbSpline
 62
7
  6
CONTINUOUS
 70
0
 71
3
 72
9
 73
5
 74
0
 42
0.0000001
 43
0.0000001
 44
0.0000000001
 40
0.0
 40
0.0
 40
0.0
 40
0.0
 40
0.4914844455
 40
1.0
 40
1.0
 40
1.0
 40
1.0
 10
31.9255450265
 20
151.5135214068
 30
0.0
 10
31.8525291123
 20
151.8796807717
 30
0.0
 10
31.547197634
 20
152.5980360556
 30
0.0
 10
31.0093549275
 20
153.1602623841
 30
0.0
 10
30.6964343211
 20
153.3867871199
 30
0.0
  0
SPLINE
  5
2F0
100
AcDbEntity
  8
_1
100
AcDbSpline
 62
7
  6
CONTINUOUS
 70
0
 71
3
 72
9
 73
5
 74
0
 42
0.0000001
 43
0.0000001
 44
0.0000000001
 40
0.0
 40
0.0
 40
0.0
 40
0.0
 40
0.3570275007
 40
1.0
 40
1.0
 40
1.0
 40
1.0
 10
27.4949778293
 20
146.4431339349
 30
0.0
 10
27.5561881379
 20
146.4431339349
 30
0.0
 10
27.7277931728
 20
146.4266742754
 30
0.0
 10
27.8927843341
 20
146.3742467147
 30
0.0
 10
27.9949778277
 20
146.3329186423
 30
0.0
  0
SPLINE
  5
2F1
100
AcDbEntity
  8
_1
100
AcDbSpline
 62
7
  6
CONTINUOUS
 70
0
 71
3
 72
9
 73
5
 74
0
 42
0.0000001
 43
0.0000001
 44
0.0000000001
 40
0.0
 40
0.0
 40
0.0
 40
0.0
 40
0.6167113451
 40
1.0
 40
1.0
 40
1.0
 40
1.0
 10
28.5071901862
 20
146.2443544148
 30
0.0
 10
28.4025406494
 20
146.2443544148
 30
0.0
 10
28.2322090096
 20
146.2587071508
 30
0.0
 10
28.0675944555
 20
146.3038965198
 30
0.0
 10
28.0071901862
 20
146.3280116922
 30
0.0
  0
SPLINE
  5
2F2
100
AcDbEntity
  8
_1
100
AcDbSpline
 62
7
  6
CONTINUOUS
 70
0
 71
3
 72
36
 73
32
 74
0
 42
0.0000001
 43
0.0000001
 44
0.0000000001
 40
0.0
 40
0.0
 40
0.0
 40
0.0
 40
0.0152208602
 40
0.034190658
 40
0.0827129288
 40
0.1440302268
 40
0.2162220139
 40
0.2970071734
 40
0.3838350351
 40
0.4739664929
 40
0.5645613392
 40
0.6527657589
 40
0.7357990333
 40
0.811041339
 40
0.8449890815
 40
0.8761268419
 40
0.9042078637
 40
0.9290085432
 40
0.9503389817
 40
0.9680228028
 40
0.97545551
 40
0.9819288573
 40
0.9874279279
 40
0.9919398909
 40
0.9954582985
 40
0.9968432842
 40
0.9979779192
 40
0.9988615504
 40
0.999493526
 40
0.9998732017
 40
1.0
 40
1.0
 40
1.0
 40
1.0
 10
74.1484141013
 20
149.0433755214
 30
0.0
 10
74.1731816172
 20
149.044856586
 30
0.0
 10
74.2289666072
 20
149.0451041264
 30
0.0
 10
74.3637467775
 20
149.0423418276
 30
0.0
 10
74.5737530329
 20
149.0428711166
 30
0.0
 10
74.8704708994
 20
149.0434416185
 30
0.0
 10
75.2198000932
 20
149.0429659562
 30
0.0
 10
75.6107080729
 20
149.0431716502
 30
0.0
 10
76.0308617919
 20
149.0431161475
 30
0.0
 10
76.4670058385
 20
149.04312186
 30
0.0
 10
76.9053940012
 20
149.0431249244
 30
0.0
 10
77.3322112604
 20
149.0431227544
 30
0.0
 10
77.7340021179
 20
149.0431237746
 30
0.0
 10
78.0473483241
 20
149.0431226921
 30
0.0
 10
78.2760988536
 20
149.0431239977
 30
0.0
 10
78.4279710418
 20
149.0431249686
 30
0.0
 10
78.5649324729
 20
149.0431227869
 30
0.0
 10
78.6859068008
 20
149.0431185745
 30
0.0
 10
78.7899326002
 20
149.0431196382
 30
0.0
 10
78.8656463163
 20
149.0431345493
 30
0.0
 10
78.9171417916
 20
149.0431401763
 30
0.0
 10
78.9487736063
 20
149.0431384801
 30
0.0
 10
78.9756473424
 20
149.0431241718
 30
0.0
 10
78.997695511
 20
149.0431048201
 30
0.0
 10
79.0130582377
 20
149.0430669368
 30
0.0
 10
79.0228785328
 20
149.0430725273
 30
0.0
 10
79.0284732477
 20
149.0430230785
 30
0.0
 10
79.0326718523
 20
149.0431329046
 30
0.0
 10
79.0360369076
 20
149.0428853742
 30
0.0
 10
79.0374087364
 20
149.043338517
 30
0.0
 10
79.0387359304
 20
149.0428935771
 30
0.0
 10
79.0387359304
 20
149.043100273
 30
0.0
  0
SPLINE
  5
2F3
100
AcDbEntity
  8
_1
100
AcDbSpline
 62
7
  6
CONTINUOUS
 70
0
 71
3
 72
8
 73
4
 74
0
 42
0.0000001
 43
0.0000001
 44
0.0000000001
 40
0.0
 40
0.0
 40
0.0
 40
0.0
 40
1.0
 40
1.0
 40
1.0
 40
1.0
 10
28.3092409938
 20
148.6270903015
 30
0.0
 10
28.3733215532
 20
148.608814097
 30
0.0
 10
28.440554327
 20
148.5991769196
 30
0.0
 10
28.5071901862
 20
148.5991769196
 30
0.0
  0
SPLINE
  5
2F4
100
AcDbEntity
  8
_1
100
AcDbSpline
 62
7
  6
CONTINUOUS
 70
0
 71
3
 72
13
 73
9
 74
0
 42
0.0000001
 43
0.0000001
 44
0.0000000001
 40
0.0
 40
0.0
 40
0.0
 40
0.0
 40
0.1207374202
 40
0.2403202206
 40
0.3605253156
 40
0.4826980719
 40
0.7353185667
 40
1.0
 40
1.0
 40
1.0
 40
1.0
 10
28.3092409938
 20
149.7525181081
 30
0.0
 10
28.1155046287
 20
149.5301666147
 30
0.0
 10
27.6945834547
 20
149.1169559664
 30
0.0
 10
26.9770197942
 20
148.6013836464
 30
0.0
 10
26.1935742925
 20
148.1865998537
 30
0.0
 10
25.0655697722
 20
147.7454811576
 30
0.0
 10
23.5389044809
 20
147.3849553314
 30
0.0
 10
22.2832122551
 20
147.2337967592
 30
0.0
 10
21.6392409938
 20
147.1765423013
 30
0.0
  0
SPLINE
  5
2F5
100
AcDbEntity
  8
_1
100
AcDbSpline
 62
7
  6
CONTINUOUS
 70
0
 71
3
 72
11
 73
7
 74
0
 42
0.0000001
 43
0.0000001
 44
0.0000000001
 40
0.0
 40
0.0
 40
0.0
 40
0.0
 40
0.2645280448
 40
0.5190212618
 40
0.7632521288
 40
1.0
 40
1.0
 40
1.0
 40
1.0
 10
21.6392409938
 20
146.6617208448
 30
0.0
 10
22.1796318993
 20
146.7066277739
 30
0.0
 10
23.2381667071
 20
146.8209938579
 30
0.0
 10
24.7777535781
 20
147.1137513838
 30
0.0
 10
26.218048046
 20
147.5756664869
 30
0.0
 10
27.0958374228
 20
148.0428241215
 30
0.0
 10
27.4949778293
 20
148.3188858669
 30
0.0
  0
SPLINE
  5
2F6
100
AcDbEntity
  8
_1
100
AcDbSpline
 62
7
  6
CONTINUOUS
 70
0
 71
3
 72
10
 73
6
 74
0
 42
0.0000001
 43
0.0000001
 44
0.0000000001
 40
0.0
 40
0.0
 40
0.0
 40
0.0
 40
0.2604558616
 40
0.5144492146
 40
1.0
 40
1.0
 40
1.0
 40
1.0
 10
27.4949778293
 20
148.3188858669
 30
0.0
 10
27.5338221372
 20
148.3457521708
 30
0.0
 10
27.6129006945
 20
148.3956782821
 30
0.0
 10
27.7743859563
 20
148.4776684689
 30
0.0
 10
27.9070041512
 20
148.5157853822
 30
0.0
 10
27.9949778293
 20
148.5193999751
 30
0.0
  0
SPLINE
  5
2F7
100
AcDbEntity
  8
_1
100
AcDbSpline
 62
7
  6
CONTINUOUS
 70
0
 71
3
 72
10
 73
6
 74
0
 42
0.0000001
 43
0.0000001
 44
0.0000000001
 40
0.0
 40
0.0
 40
0.0
 40
0.0
 40
0.2589874459
 40
0.55937042
 40
1.0
 40
1.0
 40
1.0
 40
1.0
 10
74.1563834669
 20
152.7431339349
 30
0.0
 10
74.1477882357
 20
152.7431339349
 30
0.0
 10
74.1408101296
 20
152.717405265
 30
0.0
 10
74.1393073918
 20
152.6881335402
 30
0.0
 10
74.1387359304
 20
152.6623234677
 30
0.0
 10
74.1387359304
 20
152.6476999283
 30
0.0
  0
SPLINE
  5
2F8
100
AcDbEntity
  8
_1
100
AcDbSpline
 62
7
  6
CONTINUOUS
 70
0
 71
3
 72
9
 73
5
 74
0
 42
0.0000001
 43
0.0000001
 44
0.0000000001
 40
0.0
 40
0.0
 40
0.0
 40
0.0
 40
0.5002334061
 40
1.0
 40
1.0
 40
1.0
 40
1.0
 10
76.5387359304
 20
152.6476999283
 30
0.0
 10
76.4993750235
 20
152.6813552186
 30
0.0
 10
76.4042128878
 20
152.7302604855
 30
0.0
 10
76.2999640725
 20
152.7431339349
 30
0.0
 10
76.2482247611
 20
152.7431339349
 30
0.0
  0
SPLINE
  5
2F9
100
AcDbEntity
  8
_1
100
AcDbSpline
 62
7
  6
CONTINUOUS
 70
0
 71
3
 72
9
 73
5
 74
0
 42
0.0000001
 43
0.0000001
 44
0.0000000001
 40
0.0
 40
0.0
 40
0.0
 40
0.0
 40
0.4921804152
 40
1.0
 40
1.0
 40
1.0
 40
1.0
 10
28.0071901862
 20
148.5199162796
 30
0.0
 10
28.0601880918
 20
148.5222200608
 30
0.0
 10
28.1673981049
 20
148.546319651
 30
0.0
 10
28.2632276635
 20
148.5974501798
 30
0.0
 10
28.3092409938
 20
148.6270903015
 30
0.0
  0
SPLINE
  5
2FA
100
AcDbEntity
  8
_1
100
AcDbSpline
 62
7
  6
CONTINUOUS
 70
0
 71
3
 72
13
 73
9
 74
0
 42
0.0000001
 43
0.0000001
 44
0.0000000001
 40
0.0
 40
0.0
 40
0.0
 40
0.0
 40
0.1069763307
 40
0.2018390916
 40
0.3240341502
 40
0.470270222
 40
0.6357962644
 40
1.0
 40
1.0
 40
1.0
 40
1.0
 10
69.2798042839
 20
152.7431339349
 30
0.0
 10
69.2910558932
 20
152.7431244873
 30
0.0
 10
69.3060120194
 20
152.7205825221
 30
0.0
 10
69.3171335423
 20
152.6904510563
 30
0.0
 10
69.3268725694
 20
152.6527313751
 30
0.0
 10
69.3345191999
 20
152.6079393207
 30
0.0
 10
69.3425559637
 20
152.5371753842
 30
0.0
 10
69.344736168
 20
152.4814403487
 30
0.0
 10
69.344736168
 20
152.4431339349
 30
0.0
  0
SPLINE
  5
2FB
100
AcDbEntity
  8
_1
100
AcDbSpline
 62
7
  6
CONTINUOUS
 70
0
 71
3
 72
15
 73
11
 74
0
 42
0.0000001
 43
0.0000001
 44
0.0000000001
 40
0.0
 40
0.0
 40
0.0
 40
0.0
 40
0.3628329344
 40
0.5276353351
 40
0.673360032
 40
0.79519735
 40
0.889616756
 40
0.9262280597
 40
0.956080796
 40
1.0
 40
1.0
 40
1.0
 40
1.0
 10
69.6152856855
 20
152.2431339349
 30
0.0
 10
69.6152856855
 20
152.3069818348
 30
0.0
 10
69.6116177537
 20
152.3999254772
 30
0.0
 10
69.5983138309
 20
152.5177061845
 30
0.0
 10
69.5853673851
 20
152.5927481049
 30
0.0
 10
69.5696593892
 20
152.6545416145
 30
0.0
 10
69.5539753206
 20
152.6963843253
 30
0.0
 10
69.5394927177
 20
152.7209128221
 30
0.0
 10
69.527334432
 20
152.7358639706
 30
0.0
 10
69.5147943636
 20
152.7431339349
 30
0.0
 10
69.5070658785
 20
152.7431339349
 30
0.0
  0
SPLINE
  5
2FC
100
AcDbEntity
  8
_1
100
AcDbSpline
 62
7
  6
CONTINUOUS
 70
0
 71
3
 72
11
 73
7
 74
0
 42
0.0000001
 43
0.0000001
 44
0.0000000001
 40
0.0
 40
0.0
 40
0.0
 40
0.0
 40
0.2035565814
 40
0.4298765468
 40
0.6931300519
 40
1.0
 40
1.0
 40
1.0
 40
1.0
 10
78.1244347504
 20
163.5431339349
 30
0.0
 10
78.1109857147
 20
163.5431339349
 30
0.0
 10
78.0823987612
 20
163.5374844873
 30
0.0
 10
78.0424655333
 20
163.513746687
 30
0.0
 10
78.005485704
 20
163.4756774254
 30
0.0
 10
77.9850105132
 20
163.443793626
 30
0.0
 10
77.9753342565
 20
163.4259766474
 30
0.0
  0
SPLINE
  5
2FD
100
AcDbEntity
  8
_1
100
AcDbSpline
 62
7
  6
CONTINUOUS
 70
0
 71
3
 72
10
 73
6
 74
0
 42
0.0000001
 43
0.0000001
 44
0.0000000001
 40
0.0
 40
0.0
 40
0.0
 40
0.0
 40
0.4403763374
 40
0.7405915385
 40
1.0
 40
1.0
 40
1.0
 40
1.0
 10
59.1397460572
 20
152.6476999283
 30
0.0
 10
59.1397460572
 20
152.6623139433
 30
0.0
 10
59.1391812493
 20
152.6881098217
 30
0.0
 10
59.1376548572
 20
152.7173713858
 30
0.0
 10
59.1307070649
 20
152.7431339349
 30
0.0
 10
59.1220985207
 20
152.7431339349
 30
0.0
  0
SPLINE
  5
2FE
100
AcDbEntity
  8
_1
100
AcDbSpline
 62
7
  6
CONTINUOUS
 70
0
 71
3
 72
36
 73
32
 74
0
 42
0.0000001
 43
0.0000001
 44
0.0000000001
 40
0.0
 40
0.0
 40
0.0
 40
0.0
 40
0.0001255954
 40
0.0005017171
 40
0.001127788
 40
0.0020031741
 40
0.0031272356
 40
0.0044993308
 40
0.0079850547
 40
0.0124552105
 40
0.0179034761
 40
0.0243173166
 40
0.0316821718
 40
0.0492066788
 40
0.0703487032
 40
0.0949350837
 40
0.1227794817
 40
0.1536630363
 40
0.1873440421
 40
0.2620365095
 40
0.3445350631
 40
0.4322709159
 40
0.5225114639
 40
0.6124459406
 40
0.6992728073
 40
0.7802870784
 40
0.8529602866
 40
0.9150226479
 40
0.9645503557
 40
0.9841193337
 40
1.0
 40
1.0
 40
1.0
 40
1.0
 10
54.2397460572
 20
149.0430976778
 30
0.0
 10
54.2397460572
 20
149.042893476
 30
0.0
 10
54.2410575367
 20
149.0433377924
 30
0.0
 10
54.2424128119
 20
149.0428881765
 30
0.0
 10
54.2457378555
 20
149.0431359152
 30
0.0
 10
54.2498864157
 20
149.0430276789
 30
0.0
 10
54.2554145866
 20
149.0430777703
 30
0.0
 10
54.2651182182
 20
149.0430731484
 30
0.0
 10
54.2802987389
 20
149.0431114534
 30
0.0
 10
54.3020858355
 20
149.0431309895
 30
0.0
 10
54.3286422467
 20
149.0431453479
 30
0.0
 10
54.3599020279
 20
149.0431470494
 30
0.0
 10
54.4107973134
 20
149.0431413653
 30
0.0
 10
54.4856381936
 20
149.0431263669
 30
0.0
 10
54.5884793265
 20
149.043125293
 30
0.0
 10
54.7080991594
 20
149.0431295207
 30
0.0
 10
54.8435574963
 20
149.0431317569
 30
0.0
 10
54.9938025058
 20
149.0431307875
 30
0.0
 10
55.2202164197
 20
149.0431294635
 30
0.0
 10
55.5305496429
 20
149.043130555
 30
0.0
 10
55.9287690579
 20
149.0431295195
 30
0.0
 10
56.3522676308
 20
149.0431317591
 30
0.0
 10
56.7878560897
 20
149.0431284242
 30
0.0
 10
57.2219665171
 20
149.0431237543
 30
0.0
 10
57.6410767022
 20
149.0431740294
 30
0.0
 10
58.0321206365
 20
149.0429933845
 30
0.0
 10
58.3829059978
 20
149.0433727136
 30
0.0
 10
58.6824822433
 20
149.0430782242
 30
0.0
 10
58.8957573116
 20
149.0421010966
 30
0.0
 10
59.0338763359
 20
149.0448801054
 30
0.0
 10
59.09154561
 20
149.0450885478
 30
0.0
 10
59.1173432579
 20
149.0440166028
 30
0.0
  0
SPLINE
  5
2FF
100
AcDbEntity
  8
_1
100
AcDbSpline
 62
7
  6
CONTINUOUS
 70
0
 71
3
 72
8
 73
4
 74
0
 42
0.0000001
 43
0.0000001
 44
0.0000000001
 40
0.0
 40
0.0
 40
0.0
 40
0.0
 40
1.0
 40
1.0
 40
1.0
 40
1.0
 10
59.1173432579
 20
149.0440166028
 30
0.0
 10
59.1248173385
 20
149.0437060395
 30
0.0
 10
59.1322888106
 20
149.0432874281
 30
0.0
 10
59.1397460572
 20
149.0426976797
 30
0.0
  0
SPLINE
  5
300
100
AcDbEntity
  8
_1
100
AcDbSpline
 62
7
  6
CONTINUOUS
 70
0
 71
3
 72
9
 73
5
 74
0
 42
0.0000001
 43
0.0000001
 44
0.0000000001
 40
0.0
 40
0.0
 40
0.0
 40
0.0
 40
0.5229409909
 40
1.0
 40
1.0
 40
1.0
 40
1.0
 10
72.3951927829
 20
163.84836751
 30
0.0
 10
72.8936017558
 20
163.8726446211
 30
0.0
 10
73.8467132803
 20
163.9179954879
 30
0.0
 10
74.8008665098
 20
163.9431339349
 30
0.0
 10
75.2560849636
 20
163.9431339349
 30
0.0
  0
SPLINE
  5
301
100
AcDbEntity
  8
_1
100
AcDbSpline
 62
7
  6
CONTINUOUS
 70
0
 71
3
 72
16
 73
12
 74
0
 42
0.0000001
 43
0.0000001
 44
0.0000000001
 40
0.0
 40
0.0
 40
0.0
 40
0.0
 40
0.1464568652
 40
0.2811877958
 40
0.3964895185
 40
0.4481071254
 40
0.4974109108
 40
0.5986068595
 40
0.7162977381
 40
0.8527060677
 40
1.0
 40
1.0
 40
1.0
 40
1.0
 10
33.4392409938
 20
161.5029456768
 30
0.0
 10
33.4011829492
 20
161.5029456768
 30
0.0
 10
33.3278116729
 20
161.4943230783
 30
0.0
 10
33.2303432045
 20
161.4571108926
 30
0.0
 10
33.1694374569
 20
161.4035808321
 30
0.0
 10
33.1437432888
 20
161.3528429485
 30
0.0
 10
33.1348720092
 20
161.3001336057
 30
0.0
 10
33.1590782519
 20
161.2301902114
 30
0.0
 10
33.2292921251
 20
161.1664060908
 30
0.0
 10
33.3268530027
 20
161.125554234
 30
0.0
 10
33.4009654303
 20
161.1161558057
 30
0.0
 10
33.4392409938
 20
161.1161558057
 30
0.0
  0
SPLINE
  5
302
100
AcDbEntity
  8
_1
100
AcDbSpline
 62
7
  6
CONTINUOUS
 70
0
 71
3
 72
16
 73
12
 74
0
 42
0.0000001
 43
0.0000001
 44
0.0000000001
 40
0.0
 40
0.0
 40
0.0
 40
0.0
 40
0.1472890592
 40
0.2836825767
 40
0.4013570686
 40
0.5025702513
 40
0.5518729982
 40
0.6034927971
 40
0.7188082007
 40
0.853542799
 40
1.0
 40
1.0
 40
1.0
 40
1.0
 10
58.4392409938
 20
161.1161558057
 30
0.0
 10
58.4775155927
 20
161.1161558057
 30
0.0
 10
58.5516180554
 20
161.125559716
 30
0.0
 10
58.6491930414
 20
161.1663825807
 30
0.0
 10
58.7193537458
 20
161.2302068918
 30
0.0
 10
58.7436137623
 20
161.3001240138
 30
0.0
 10
58.7347628849
 20
161.3528445893
 30
0.0
 10
58.7090775282
 20
161.4035943615
 30
0.0
 10
58.6481360919
 20
161.4570971332
 30
0.0
 10
58.5506752741
 20
161.4943242349
 30
0.0
 10
58.4772994257
 20
161.5029456768
 30
0.0
 10
58.4392409938
 20
161.5029456768
 30
0.0
  0
SPLINE
  5
303
100
AcDbEntity
  8
_1
100
AcDbSpline
 62
7
  6
CONTINUOUS
 70
0
 71
3
 72
25
 73
21
 74
0
 42
0.0000001
 43
0.0000001
 44
0.0000000001
 40
0.0
 40
0.0
 40
0.0
 40
0.0
 40
0.008032661
 40
0.0163998815
 40
0.0252816053
 40
0.0339344122
 40
0.0511968151
 40
0.0681087988
 40
0.1012902557
 40
0.1357234952
 40
0.1701927775
 40
0.2038734769
 40
0.2371729403
 40
0.2700815466
 40
0.395847493
 40
0.5140565721
 40
0.6285003236
 40
0.7453141481
 40
0.8688138712
 40
1.0
 40
1.0
 40
1.0
 40
1.0
 10
33.4392409938
 20
159.858189252
 30
0.0
 10
33.4373387162
 20
159.858189252
 30
0.0
 10
33.4345283416
 20
159.8617854835
 30
0.0
 10
33.4288618095
 20
159.8638833393
 30
0.0
 10
33.422668411
 20
159.8640028571
 30
0.0
 10
33.4144413378
 20
159.8642681232
 30
0.0
 10
33.404339066
 20
159.8625437292
 30
0.0
 10
33.3892077446
 20
159.8574099897
 30
0.0
 10
33.3719991271
 20
159.8463223573
 30
0.0
 10
33.3474585202
 20
159.8442671859
 30
0.0
 10
33.323374141
 20
159.8408559607
 30
0.0
 10
33.3010323596
 20
159.8315740568
 30
0.0
 10
33.2794904243
 20
159.8218762723
 30
0.0
 10
33.2393077012
 20
159.8005348471
 30
0.0
 10
33.1878705683
 20
159.7576604923
 30
0.0
 10
33.1441405564
 20
159.6826229505
 30
0.0
 10
33.1342293985
 20
159.5977851151
 30
0.0
 10
33.1614474412
 20
159.5158399503
 30
0.0
 10
33.2183173368
 20
159.4464770496
 30
0.0
 10
33.270791381
 20
159.4144777669
 30
0.0
 10
33.2992522866
 20
159.4020218878
 30
0.0
  0
SPLINE
  5
304
100
AcDbEntity
  8
_1
100
AcDbSpline
 62
7
  6
CONTINUOUS
 70
0
 71
3
 72
9
 73
5
 74
0
 42
0.0000001
 43
0.0000001
 44
0.0000000001
 40
0.0
 40
0.0
 40
0.0
 40
0.0
 40
0.7481442361
 40
1.0
 40
1.0
 40
1.0
 40
1.0
 10
55.5412059375
 20
159.8440748161
 30
0.0
 10
55.5164843903
 20
159.851140517
 30
0.0
 10
55.482231993
 20
159.856596029
 30
0.0
 10
55.4478965155
 20
159.858189252
 30
0.0
 10
55.4392409938
 20
159.858189252
 30
0.0
  0
SPLINE
  5
305
100
AcDbEntity
  8
_1
100
AcDbSpline
 62
7
  6
CONTINUOUS
 70
0
 71
3
 72
14
 73
10
 74
0
 42
0.0000001
 43
0.0000001
 44
0.0000000001
 40
0.0
 40
0.0
 40
0.0
 40
0.0
 40
0.2683170519
 40
0.3943447572
 40
0.5125563288
 40
0.6268378249
 40
0.7434997437
 40
0.8677029557
 40
1.0
 40
1.0
 40
1.0
 40
1.0
 10
55.4392409938
 20
159.3734171468
 30
0.0
 10
55.5058428097
 20
159.3734171468
 30
0.0
 10
55.607689559
 20
159.4016089317
 30
0.0
 10
55.7016233513
 20
159.4905547149
 30
0.0
 10
55.7405379337
 20
159.5734533385
 30
0.0
 10
55.7405618967
 20
159.6630083918
 30
0.0
 10
55.7019678004
 20
159.7452073713
 30
0.0
 10
55.6319663272
 20
159.8087582025
 30
0.0
 10
55.5727804677
 20
159.8350504543
 30
0.0
 10
55.5412059375
 20
159.8440748161
 30
0.0
  0
SPLINE
  5
306
100
AcDbEntity
  8
_1
100
AcDbSpline
 62
7
  6
CONTINUOUS
 70
0
 71
3
 72
9
 73
5
 74
0
 42
0.0000001
 43
0.0000001
 44
0.0000000001
 40
0.0
 40
0.0
 40
0.0
 40
0.0
 40
0.4993668354
 40
1.0
 40
1.0
 40
1.0
 40
1.0
 10
76.6396197714
 20
152.4431339349
 30
0.0
 10
76.6396197714
 20
152.4819911351
 30
0.0
 10
76.6189807731
 20
152.5605297875
 30
0.0
 10
76.5683440216
 20
152.6223837204
 30
0.0
 10
76.5387359304
 20
152.6476999283
 30
0.0
  0
SPLINE
  5
307
100
AcDbEntity
  8
_1
100
AcDbSpline
 62
7
  6
CONTINUOUS
 70
0
 71
3
 72
10
 73
6
 74
0
 42
0.0000001
 43
0.0000001
 44
0.0000000001
 40
0.0
 40
0.0
 40
0.0
 40
0.0
 40
0.4955920411
 40
0.7475564102
 40
1.0
 40
1.0
 40
1.0
 40
1.0
 10
33.2992522866
 20
159.4020218878
 30
0.0
 10
33.3209899161
 20
159.392508442
 30
0.0
 10
33.3555803032
 20
159.3818259324
 30
0.0
 10
33.403028951
 20
159.3754008853
 30
0.0
 10
33.4271543461
 20
159.3734171468
 30
0.0
 10
33.4392409938
 20
159.3734171468
 30
0.0
  0
SPLINE
  5
308
100
AcDbEntity
  8
_1
100
AcDbSpline
 62
7
  6
CONTINUOUS
 70
0
 71
3
 72
12
 73
8
 74
0
 42
0.0000001
 43
0.0000001
 44
0.0000000001
 40
0.0
 40
0.0
 40
0.0
 40
0.0
 40
0.2768763958
 40
0.5542182245
 40
0.6818521944
 40
0.7986993629
 40
1.0
 40
1.0
 40
1.0
 40
1.0
 10
54.2334133939
 20
139.7307930969
 30
0.0
 10
54.2323505072
 20
139.6699104869
 30
0.0
 10
54.2145956006
 20
139.5478566127
 30
0.0
 10
54.1509470431
 20
139.4085749342
 30
0.0
 10
54.0744625677
 20
139.3219000124
 30
0.0
 10
53.9952853576
 20
139.2631717886
 30
0.0
 10
53.9242386404
 20
139.2431342851
 30
0.0
 10
53.8799677098
 20
139.2431339352
 30
0.0
  0
SPLINE
  5
309
100
AcDbEntity
  8
_1
100
AcDbSpline
 62
7
  6
CONTINUOUS
 70
0
 71
3
 72
19
 73
15
 74
0
 42
0.0000001
 43
0.0000001
 44
0.0000000001
 40
0.0
 40
0.0
 40
0.0
 40
0.0
 40
0.182067671
 40
0.3679433305
 40
0.5469139771
 40
0.7067870952
 40
0.7757991112
 40
0.8363001667
 40
0.8876943421
 40
0.9293865227
 40
0.9609786978
 40
0.9828586581
 40
0.995624522
 40
1.0
 40
1.0
 40
1.0
 40
1.0
 10
53.1835640743
 20
141.7780387478
 30
0.0
 10
53.21391316
 20
141.7775091639
 30
0.0
 10
53.2752477275
 20
141.7765371464
 30
0.0
 10
53.366420885
 20
141.7753910263
 30
0.0
 10
53.4538956584
 20
141.7746454881
 30
0.0
 10
53.5218965724
 20
141.7743790423
 30
0.0
 10
53.5701341526
 20
141.7744658023
 30
0.0
 10
53.600313006
 20
141.7746456986
 30
0.0
 10
53.6258609682
 20
141.7749702618
 30
0.0
 10
53.6467960486
 20
141.7753181912
 30
0.0
 10
53.6622750118
 20
141.7759645836
 30
0.0
 10
53.674128853
 20
141.7762190667
 30
0.0
 10
53.679205079
 20
141.7773389126
 30
0.0
 10
53.6834815309
 20
141.7773106396
 30
0.0
 10
53.6834879393
 20
141.7780400763
 30
0.0
  0
SPLINE
  5
30A
100
AcDbEntity
  8
_1
100
AcDbSpline
 62
7
  6
CONTINUOUS
 70
0
 71
3
 72
21
 73
17
 74
0
 42
0.0000001
 43
0.0000001
 44
0.0000000001
 40
0.0
 40
0.0
 40
0.0
 40
0.0
 40
0.0010833646
 40
0.0041994538
 40
0.0093716969
 40
0.0165949809
 40
0.0371601224
 40
0.0658202553
 40
0.1024968704
 40
0.147110567
 40
0.1995816015
 40
0.2598300711
 40
0.4031490039
 40
0.5754737844
 40
0.7750192324
 40
1.0
 40
1.0
 40
1.0
 40
1.0
 10
53.6478162214
 20
139.7344070504
 30
0.0
 10
53.6478050707
 20
139.7341958453
 30
0.0
 10
53.6490686353
 20
139.7342175584
 30
0.0
 10
53.650460687
 20
139.7338806921
 30
0.0
 10
53.6537247451
 20
139.7337852537
 30
0.0
 10
53.6600072832
 20
139.733446784
 30
0.0
 10
53.6711317958
 20
139.7331775824
 30
0.0
 10
53.687846627
 20
139.7328230148
 30
0.0
 10
53.7093296078
 20
139.7325174128
 30
0.0
 10
53.7354342455
 20
139.7322225249
 30
0.0
 10
53.7661508569
 20
139.7319559425
 30
0.0
 10
53.8161336301
 20
139.7316133117
 30
0.0
 10
53.8895169189
 20
139.7312759009
 30
0.0
 10
53.9900938348
 20
139.730995191
 30
0.0
 10
54.1066137508
 20
139.7308267403
 30
0.0
 10
54.1894916419
 20
139.7307930969
 30
0.0
 10
54.2334133939
 20
139.7307930969
 30
0.0
  0
SPLINE
  5
30B
100
AcDbEntity
  8
_1
100
AcDbSpline
 62
7
  6
CONTINUOUS
 70
0
 71
3
 72
12
 73
8
 74
0
 42
0.0000001
 43
0.0000001
 44
0.0000000001
 40
0.0
 40
0.0
 40
0.0
 40
0.0
 40
0.2768763958
 40
0.5542182245
 40
0.6818521944
 40
0.7986993629
 40
1.0
 40
1.0
 40
1.0
 40
1.0
 10
79.0450685937
 20
139.7307930969
 30
0.0
 10
79.0461314805
 20
139.6699104869
 30
0.0
 10
79.063886387
 20
139.5478566127
 30
0.0
 10
79.1275349446
 20
139.4085749342
 30
0.0
 10
79.2040194199
 20
139.3219000124
 30
0.0
 10
79.28319663
 20
139.2631717886
 30
0.0
 10
79.3542433473
 20
139.2431342851
 30
0.0
 10
79.3985142779
 20
139.2431339352
 30
0.0
  0
SPLINE
  5
30C
100
AcDbEntity
  8
_1
100
AcDbSpline
 62
7
  6
CONTINUOUS
 70
0
 71
3
 72
21
 73
17
 74
0
 42
0.0000001
 43
0.0000001
 44
0.0000000001
 40
0.0
 40
0.0
 40
0.0
 40
0.0
 40
0.0014776599
 40
0.0051913971
 40
0.0112555435
 40
0.0196738093
 40
0.0435247678
 40
0.0765994559
 40
0.1185575987
 40
0.1689747143
 40
0.2274151312
 40
0.2933053336
 40
0.444711792
 40
0.6174695111
 40
0.8051707091
 40
1.0
 40
1.0
 40
1.0
 40
1.0
 10
53.6478162272
 20
139.7344090602
 30
0.0
 10
53.6478130023
 20
139.7341627136
 30
0.0
 10
53.6466898536
 20
139.7338394671
 30
0.0
 10
53.6451059781
 20
139.7335181838
 30
0.0
 10
53.641946945
 20
139.7331629955
 30
0.0
 10
53.635661138
 20
139.732664226
 30
0.0
 10
53.6247129628
 20
139.7321506004
 30
0.0
 10
53.6082637722
 20
139.7316635607
 30
0.0
 10
53.5873392074
 20
139.7312771452
 30
0.0
 10
53.5621995438
 20
139.7309961794
 30
0.0
 10
53.5330631304
 20
139.7308286256
 30
0.0
 10
53.4870904709
 20
139.7307559602
 30
0.0
 10
53.4220570317
 20
139.7309884835
 30
0.0
 10
53.3367174302
 20
139.7316998342
 30
0.0
 10
53.244141881
 20
139.7328366175
 30
0.0
 10
53.180370982
 20
139.733840988
 30
0.0
 10
53.1478923623
 20
139.7344077317
 30
0.0
  0
SPLINE
  5
30D
100
AcDbEntity
  8
_1
100
AcDbSpline
 62
7
  6
CONTINUOUS
 70
0
 71
3
 72
21
 73
17
 74
0
 42
0.0000001
 43
0.0000001
 44
0.0000000001
 40
0.0
 40
0.0
 40
0.0
 40
0.0
 40
0.22493975
 40
0.424454364
 40
0.596759534
 40
0.7400711193
 40
0.8003207134
 40
0.8527960212
 40
0.8974171848
 40
0.9341045054
 40
0.9627786259
 40
0.9833610778
 40
0.990594272
 40
0.9957772592
 40
0.9989048914
 40
1.0
 40
1.0
 40
1.0
 40
1.0
 10
79.0450685937
 20
139.7307930969
 30
0.0
 10
79.0889823013
 20
139.7307930969
 30
0.0
 10
79.1718460966
 20
139.7308267288
 30
0.0
 10
79.2883480561
 20
139.7309951167
 30
0.0
 10
79.3889136151
 20
139.7312757266
 30
0.0
 10
79.4622917757
 20
139.7316130059
 30
0.0
 10
79.5122741666
 20
139.7319555126
 30
0.0
 10
79.5429931724
 20
139.7322219733
 30
0.0
 10
79.5691024423
 20
139.7325168349
 30
0.0
 10
79.5905909353
 20
139.732822122
 30
0.0
 10
79.6073158778
 20
139.7331771441
 30
0.0
 10
79.6184444689
 20
139.7334450794
 30
0.0
 10
79.6247396903
 20
139.7337850649
 30
0.0
 10
79.6280016353
 20
139.7338776716
 30
0.0
 10
79.6294143784
 20
139.7342200471
 30
0.0
 10
79.6306695451
 20
139.7341919627
 30
0.0
 10
79.6306658129
 20
139.734405722
 30
0.0
  0
SPLINE
  5
30E
100
AcDbEntity
  8
_1
100
AcDbSpline
 62
7
  6
CONTINUOUS
 70
0
 71
3
 72
13
 73
9
 74
0
 42
0.0000001
 43
0.0000001
 44
0.0000000001
 40
0.0
 40
0.0
 40
0.0
 40
0.0
 40
0.3451451649
 40
0.6480972712
 40
0.7728469565
 40
0.8748408422
 40
0.9512703474
 40
1.0
 40
1.0
 40
1.0
 40
1.0
 10
136.0797739992
 20
100.8868426276
 30
0.0
 10
136.0796669112
 20
100.7768252352
 30
0.0
 10
136.0756440212
 20
100.570263461
 30
0.0
 10
136.0698302236
 20
100.3239714735
 30
0.0
 10
136.0627787736
 20
100.1552768007
 30
0.0
 10
136.0575729198
 20
100.0587601635
 30
0.0
 10
136.0520037093
 20
99.9865927594
 30
0.0
 10
136.0477064931
 20
99.946865341
 30
0.0
 10
136.0448532297
 20
99.9315967308
 30
0.0
  0
SPLINE
  5
30F
100
AcDbEntity
  8
_1
100
AcDbSpline
 62
7
  6
CONTINUOUS
 70
0
 71
3
 72
22
 73
18
 74
0
 42
0.0000001
 43
0.0000001
 44
0.0000000001
 40
0.0
 40
0.0
 40
0.0
 40
0.0
 40
0.0011642429
 40
0.0046317866
 40
0.0103862186
 40
0.0184110136
 40
0.0286899595
 40
0.0412072008
 40
0.0728787718
 40
0.113169451
 40
0.1617674076
 40
0.2183516057
 40
0.2824914618
 40
0.431379335
 40
0.6040831346
 40
0.7956815729
 40
1.0
 40
1.0
 40
1.0
 40
1.0
 10
136.0797740584
 20
106.7931339349
 30
0.0
 10
136.0794598975
 20
106.7931339349
 30
0.0
 10
136.0799193114
 20
106.7951227853
 30
0.0
 10
136.0790249747
 20
106.7971896144
 30
0.0
 10
136.0789084396
 20
106.8022296743
 30
0.0
 10
136.0781899245
 20
106.8085170212
 30
0.0
 10
136.0775853972
 20
106.8168767176
 30
0.0
 10
136.0765084503
 20
106.8315042368
 30
0.0
 10
136.0751917049
 20
106.8542832481
 30
0.0
 10
136.0735404775
 20
106.8867646702
 30
0.0
 10
136.0717177117
 20
106.9259801335
 30
0.0
 10
136.0696650176
 20
106.9716230208
 30
0.0
 10
136.0664756656
 20
107.044305981
 30
0.0
 10
136.0621130614
 20
107.1483006907
 30
0.0
 10
136.0566292075
 20
107.2866721623
 30
0.0
 10
136.0507884356
 20
107.4399983297
 30
0.0
 10
136.0468540318
 20
107.5467606359
 30
0.0
 10
136.0448532297
 20
107.601857879
 30
0.0
  0
SPLINE
  5
310
100
AcDbEntity
  8
_1
100
AcDbSpline
 62
7
  6
CONTINUOUS
 70
0
 71
3
 72
22
 73
18
 74
0
 42
0.0000001
 43
0.0000001
 44
0.0000000001
 40
0.0
 40
0.0
 40
0.0
 40
0.0
 40
0.0011600758
 40
0.0046138607
 40
0.0103446307
 40
0.0183356716
 40
0.0285706989
 40
0.0410339026
 40
0.0725687315
 40
0.1126937073
 40
0.1611090489
 40
0.2175055108
 40
0.2814669722
 40
0.4300924514
 40
0.6027756359
 40
0.794745553
 40
1.0
 40
1.0
 40
1.0
 40
1.0
 10
124.6392410353
 20
105.9931339349
 30
0.0
 10
124.6389359298
 20
105.9931339349
 30
0.0
 10
124.6393622902
 20
105.9950618429
 30
0.0
 10
124.6384767197
 20
105.9970669521
 30
0.0
 10
124.6383227938
 20
106.0019544645
 30
0.0
 10
124.6375827856
 20
106.0080530334
 30
0.0
 10
124.6369469887
 20
106.0161619794
 30
0.0
 10
124.6358321106
 20
106.0303524052
 30
0.0
 10
124.6344849975
 20
106.0524566318
 30
0.0
 10
124.632818512
 20
106.0839844904
 30
0.0
 10
124.6309914461
 20
106.1220628919
 30
0.0
 10
124.628938411
 20
106.1664025408
 30
0.0
 10
124.6257509987
 20
106.237075078
 30
0.0
 10
124.6214055445
 20
106.3383096543
 30
0.0
 10
124.6159702051
 20
106.4731951244
 30
0.0
 10
124.6101735372
 20
106.6229714371
 30
0.0
 10
124.6062856303
 20
106.7273710495
 30
0.0
 10
124.6043202244
 20
106.7813181683
 30
0.0
  0
SPLINE
  5
311
100
AcDbEntity
  8
_1
100
AcDbSpline
 62
7
  6
CONTINUOUS
 70
0
 71
3
 72
22
 73
18
 74
0
 42
0.0000001
 43
0.0000001
 44
0.0000000001
 40
0.0
 40
0.0
 40
0.0
 40
0.0
 40
0.2043184368
 40
0.395916889
 40
0.5686206805
 40
0.7175085426
 40
0.781648394
 40
0.8382325888
 40
0.8868305443
 40
0.9271212237
 40
0.9587927945
 40
0.9713100362
 40
0.981588983
 40
0.9896137791
 40
0.9953682122
 40
0.9988357568
 40
1.0
 40
1.0
 40
1.0
 40
1.0
 10
136.0448532865
 20
130.8844099909
 30
0.0
 10
136.0468540886
 20
130.9395072364
 30
0.0
 10
136.0507884948
 20
131.0462695489
 30
0.0
 10
136.0566292692
 20
131.1995957201
 30
0.0
 10
136.0621131207
 20
131.3379671901
 30
0.0
 10
136.0664757216
 20
131.4419618933
 30
0.0
 10
136.0696650702
 20
131.5146448484
 30
0.0
 10
136.0717177605
 20
131.5602877333
 30
0.0
 10
136.0735405223
 20
131.5995031956
 30
0.0
 10
136.0751917463
 20
131.6319846175
 30
0.0
 10
136.076508492
 20
131.6547636288
 30
0.0
 10
136.0775854385
 20
131.6693911483
 30
0.0
 10
136.0781899646
 20
131.6777508455
 30
0.0
 10
136.0789084784
 20
131.6840381934
 30
0.0
 10
136.0790250119
 20
131.6890782543
 30
0.0
 10
136.0799193481
 20
131.6911450839
 30
0.0
 10
136.079459933
 20
131.6931339349
 30
0.0
 10
136.079774094
 20
131.6931339349
 30
0.0
  0
SPLINE
  5
312
100
AcDbEntity
  8
_1
100
AcDbSpline
 62
7
  6
CONTINUOUS
 70
0
 71
3
 72
12
 73
8
 74
0
 42
0.0000001
 43
0.0000001
 44
0.0000000001
 40
0.0
 40
0.0
 40
0.0
 40
0.0
 40
0.3415342903
 40
0.6425506615
 40
0.8702771515
 40
0.9485369398
 40
1.0
 40
1.0
 40
1.0
 40
1.0
 10
124.6392409938
 20
101.0529428031
 30
0.0
 10
124.6391371392
 20
100.9445651298
 30
0.0
 10
124.6349558871
 20
100.7406844324
 30
0.0
 10
124.6281121955
 20
100.4646271593
 30
0.0
 10
124.6197688052
 20
100.2721326637
 30
0.0
 10
124.6113544311
 20
100.1590358125
 30
0.0
 10
124.6070350806
 20
100.1180531395
 30
0.0
 10
124.6043202243
 20
100.1019498157
 30
0.0
  0
SPLINE
  5
313
100
AcDbEntity
  8
_1
100
AcDbSpline
 62
7
  6
CONTINUOUS
 70
0
 71
3
 72
22
 73
18
 74
0
 42
0.0000001
 43
0.0000001
 44
0.0000000001
 40
0.0
 40
0.0
 40
0.0
 40
0.0
 40
0.2052544482
 40
0.3972243648
 40
0.5699075456
 40
0.7185330227
 40
0.7824944838
 40
0.8388909451
 40
0.8873062878
 40
0.9274312653
 40
0.9589660951
 40
0.9714292992
 40
0.981664327
 40
0.9896553684
 40
0.9953861389
 40
0.9988399242
 40
1.0
 40
1.0
 40
1.0
 40
1.0
 10
124.6043202939
 20
131.7049497016
 30
0.0
 10
124.6062856999
 20
131.7588968205
 30
0.0
 10
124.6101736089
 20
131.8632964328
 30
0.0
 10
124.6159702796
 20
132.0130727443
 30
0.0
 10
124.6214056174
 20
132.1479582125
 30
0.0
 10
124.6257510692
 20
132.2491927871
 30
0.0
 10
124.6289384787
 20
132.3198653235
 30
0.0
 10
124.6309915111
 20
132.3642049725
 30
0.0
 10
124.6328185757
 20
132.4022833745
 30
0.0
 10
124.6344850602
 20
132.4338112341
 30
0.0
 10
124.6358321737
 20
132.4559154614
 30
0.0
 10
124.6369470497
 20
132.4701058877
 30
0.0
 10
124.6375828439
 20
132.4782148344
 30
0.0
 10
124.6383228494
 20
132.4843134039
 30
0.0
 10
124.638476772
 20
132.4892009171
 30
0.0
 10
124.6393623412
 20
132.4912060265
 30
0.0
 10
124.638935979
 20
132.4931339349
 30
0.0
 10
124.6392410845
 20
132.4931339349
 30
0.0
  0
SPLINE
  5
314
100
AcDbEntity
  8
_1
100
AcDbSpline
 62
7
  6
CONTINUOUS
 70
0
 71
3
 72
19
 73
15
 74
0
 42
0.0000001
 43
0.0000001
 44
0.0000000001
 40
0.0
 40
0.0
 40
0.0
 40
0.0
 40
0.0058943647
 40
0.0205601016
 40
0.0443931679
 40
0.0773186714
 40
0.1190357122
 40
0.1691508013
 40
0.2272544817
 40
0.2928012084
 40
0.4436167176
 40
0.6161052468
 40
0.8040920015
 40
1.0
 40
1.0
 40
1.0
 40
1.0
 10
136.0448532297
 20
139.2431339349
 30
0.0
 10
136.0467710914
 20
139.2431339349
 30
0.0
 10
136.0494952421
 20
139.2345684337
 30
0.0
 10
136.0521990751
 20
139.2223759982
 30
0.0
 10
136.0553671379
 20
139.1982527532
 30
0.0
 10
136.0583691001
 20
139.1668199117
 30
0.0
 10
136.0613600124
 20
139.1261558544
 30
0.0
 10
136.0642026479
 20
139.0775158668
 30
0.0
 10
136.0668904749
 20
139.0210194689
 30
0.0
 10
136.0703785333
 20
138.9317918821
 30
0.0
 10
136.0739945282
 20
138.8053140708
 30
0.0
 10
136.0771349465
 20
138.6389842056
 30
0.0
 10
136.0792292643
 20
138.4579627551
 30
0.0
 10
136.0797739992
 20
138.3330538756
 30
0.0
 10
136.0797739992
 20
138.2693108832
 30
0.0
  0
SPLINE
  5
315
100
AcDbEntity
  8
_1
100
AcDbSpline
 62
7
  6
CONTINUOUS
 70
0
 71
3
 72
19
 73
15
 74
0
 42
0.0000001
 43
0.0000001
 44
0.0000000001
 40
0.0
 40
0.0
 40
0.0
 40
0.0
 40
0.0058946233
 40
0.0205607588
 40
0.0443942689
 40
0.0773202396
 40
0.1190377844
 40
0.169153436
 40
0.227257726
 40
0.2928050212
 40
0.4436212756
 40
0.6161096719
 40
0.8040953007
 40
1.0
 40
1.0
 40
1.0
 40
1.0
 10
124.6043202243
 20
139.2431339349
 30
0.0
 10
124.6062382963
 20
139.2431339349
 30
0.0
 10
124.6089630258
 20
139.2345678533
 30
0.0
 10
124.6116678584
 20
139.2223743366
 30
0.0
 10
124.6148366621
 20
139.1982491801
 30
0.0
 10
124.6178386327
 20
139.1668137611
 30
0.0
 10
124.620829035
 20
139.126146485
 30
0.0
 10
124.6236710282
 20
139.0775027004
 30
0.0
 10
124.6263584794
 20
139.0210019952
 30
0.0
 10
124.6298465411
 20
138.931767904
 30
0.0
 10
124.6334635131
 20
138.8052814148
 30
0.0
 10
124.6366058287
 20
138.6389408012
 30
0.0
 10
124.6386980775
 20
138.4579088894
 30
0.0
 10
124.6392407121
 20
138.3329932298
 30
0.0
 10
124.6392407121
 20
138.2692471175
 30
0.0
  0
ELLIPSE
  5
316
100
AcDbEntity
  8
_1
100
AcDbEllipse
 62
7
  6
CONTINUOUS
 10
34.0385000056
 20
154.5431339349
 30
0.0
 11
11.4562835936
 21
-7.7447944719
 31
0.0
 40
0.2070805965
 41
-1.8195114684
 42
-1.7247915334
  0
ELLIPSE
  5
317
100
AcDbEntity
  8
_1
100
AcDbEllipse
 62
7
  6
CONTINUOUS
 10
29.1816007617
 20
154.5431339349
 30
0.0
 11
0.0
 21
7.6
 31
0.0
 40
0.0580270793
 41
-4.0303924881
 42
-3.2377936004
  0
ELLIPSE
  5
318
100
AcDbEntity
  8
_1
100
AcDbEllipse
 62
7
  6
CONTINUOUS
 10
29.1816007617
 20
154.5431339349
 30
0.0
 11
0.0
 21
8.375
 31
0.0
 40
0.0580270793
 41
-3.9232794886
 42
-3.2766096228
  0
ELLIPSE
  5
319
100
AcDbEntity
  8
_1
100
AcDbEllipse
 62
7
  6
CONTINUOUS
 10
66.6392409938
 20
169.5825170346
 30
0.0
 11
12.9
 21
-0.0
 31
0.0
 40
1.0
 41
-0.504846515
 42
-0.4975240182
  0
ELLIPSE
  5
31A
100
AcDbEntity
  8
_1
100
AcDbEllipse
 62
7
  6
CONTINUOUS
 10
74.4904430846
 20
154.0431339349
 30
0.0
 11
17.0483625202
 21
-0.0
 31
0.0
 40
0.4985816081
 41
-3.1415926536
 42
-2.9946794021
  0
ELLIPSE
  5
31B
100
AcDbEntity
  8
_1
100
AcDbEllipse
 62
7
  6
CONTINUOUS
 10
76.295563822
 20
143.9431339349
 30
0.0
 11
40.1137941652
 21
0.0
 31
0.0
 40
0.4985816081
 41
1.6681828549
 42
1.7162082319
  0
ELLIPSE
  5
31C
100
AcDbEntity
  8
_1
100
AcDbEllipse
 62
7
  6
CONTINUOUS
 10
57.118220352
 20
171.1884772411
 30
0.0
 11
20.0568970826
 21
0.0
 31
0.0
 40
0.4985816081
 41
-1.0676518854
 42
-0.8414973662
  0
ELLIPSE
  5
31D
100
AcDbEntity
  8
_1
100
AcDbEllipse
 62
7
  6
CONTINUOUS
 10
75.4932879387
 20
154.5431339349
 30
0.0
 11
18.0512073743
 21
0.0
 31
0.0
 40
0.4985816081
 41
2.0739407682
 42
3.1415926536
  0
ENDSEC
  0
SECTION
  2
OBJECTS
  0
DICTIONARY
  5
C
100
AcDbDictionary
280
0
281
1
  3
ACAD_GROUP
350
D
  3
ACAD_MLINESTYLE
350
17
  3
ACAD_LAYOUT
350
1A
  3
ACAD_PLOTSETTINGS
350
19
  3
ACAD_PLOTSTYLENAME
350
E
  0
DICTIONARY
  5
D
102
{ACAD_REACTORS
330
C
102
}
100
AcDbDictionary
280
0
281
1
  0
ACDBDICTIONARYWDFLT
  5
E
102
{ACAD_REACTORS
330
C
102
}
100
AcDbDictionary
281
1
  3
Normal
350
F
100
AcDbDictionaryWithDefault
340
F
  0
DICTIONARY
  5
17
102
{ACAD_REACTORS
330
C
102
}
100
AcDbDictionary
280
0
281
1
  3
Standard
350
18
  0
DICTIONARY
  5
19
102
{ACAD_REACTORS
330
C
102
}
100
AcDbDictionary
281
1
  0
DICTIONARY
  5
1A
102
{ACAD_REACTORS
330
C
102
}
100
AcDbDictionary
281
1
  3
Model
350
31E
  3
Layout1
350
31F
  0
ACDBPLACEHOLDER
  5
F
102
{ACAD_REACTORS
330
E
102
}
  0
MLINESTYLE
  5
18
102
{ACAD_REACTORS
330
17
102
}
100
AcDbMlineStyle
  2
STANDARD
 70
0
  3

 62
256
 51
90.0
 52
90.0
 71
2
 49
0.5
 62
256
  6
BYLAYER
 49
-0.5
 62
256
  6
BYLAYER
  0
LAYOUT
  5
31E
102
{ACAD_REACTORS
330
1A
102
}
100
AcDbPlotSettings
  1

  2
none_device
  4

  6

 40
0.0
 41
0.0
 42
0.0
 43
0.0
 44
210.0
 45
297.0
 46
0.0
 47
0.0
 48
0.0
 49
0.0
140
0.0
141
0.0
142
1.0
143
1.0
 70
1024
 72
1
 73
0
 74
0
  7

 75
0
147
1.0
148
0.0
149
0.0
100
AcDbLayout
  1
Model
 70
0
 71
0
 10
0.0
 20
0.0
 11
210.0
 21
297.0
 12
0.0
 22
0.0
 32
0.0
 14
0.0
 24
0.0
 34
0.0
 15
0.0
 25
0.0
 35
0.0
146
0.0
 13
0.0
 23
0.0
 33
0.0
 16
1.0
 26
0.0
 36
0.0
 17
0.0
 27
1.0
 37
0.0
 76
0
330
211
345
0
346
0
  0
LAYOUT
  5
31F
102
{ACAD_REACTORS
330
1A
102
}
100
AcDbPlotSettings
  1

  2
none_device
  4

  6

 40
0.0
 41
0.0
 42
0.0
 43
0.0
 44
210.0
 45
297.0
 46
0.0
 47
0.0
 48
0.0
 49
0.0
140
0.0
141
0.0
142
1.0
143
1.0
 70
0
 72
1
 73
0
 74
0
  7

 75
0
147
1.0
148
0.0
149
0.0
100
AcDbLayout
  1
Layout1
 70
0
 71
1
 10
0.0
 20
0.0
 11
210.0
 21
297.0
 12
0.0
 22
0.0
 32
0.0
 14
0.0
 24
0.0
 34
0.0
 15
0.0
 25
0.0
 35
0.0
146
0.0
 13
0.0
 23
0.0
 33
0.0
 16
1.0
 26
0.0
 36
0.0
 17
0.0
 27
1.0
 37
0.0
 76
0
330
212
345
0
346
0
  0
ENDSEC
  0
EOF
