999
DXF file: C:\Users\sesa63760\Dev\_Creo\CAD\MCADPE0010379_3D-CAD\drw0001_1.dxf
999
Pro/ENGINEER 2019471 by Parametric Technology Corporation
  0
SECTION
  2
HEADER
  9
$ACADVER
  1
AC1024
  9
$DWGCODEPAGE
  3
ANSI_1252
  9
$EXTMAX
 10
31.2710780185
 20
44.2262389119
 30
0.0
  9
$EXTMIN
 10
-0.0
 20
0.0
 30
0.0
  9
$LIMMIN
 10
-0.0
 20
0.0
  9
$LIMMAX
 10
31.2710780185
 20
44.2262389119
  9
$VIEWCTR
 10
15.6355390093
 20
22.113119456
  9
$VIEWSIZE
 40
44.2262389119
  9
$CLAYER
  8
0
  9
$LTSCALE
 40
2.8828955735
  9
$CELTYPE
  6
BYLAYER
  9
$DIMSCALE
 40
1.0
  9
$DIMASZ
 40
0.3722747383
  9
$DIMEXO
 40
1.0
  9
$DIMDLI
 40
1.9918187599
  9
$DIMEXE
 40
1.0
  9
$DIMCEN
 40
0.4717465484
  9
$DIMLFAC
 40
1.0
  9
$DIMBLK
  1
_FILLED
  9
$DIMALT
 70
0
  9
$DIMALTF
 40
0.0393700787
  9
$DIMTXT
 40
0.5211846336
  9
$DIMTOL
 70
1
  9
$DIMLIM
 70
0
  9
$DIMTFAC
 40
1.0
  9
$DIMTP
 40
0.01
  9
$DIMTM
 40
0.01
  9
$DIMGAP
 40
0.625
  9
$DIMDSEP
 70
46
  9
$AUNITS
 70
0
  9
$PDMODE
 70
3
  9
$PDSIZE
 40
0.3125
  9
$HANDSEED
  5
3DA
  9
$TILEMODE
 70
1
  9
$MEASUREMENT
 70
1
  9
$INSUNITS
 70
4
  0
ENDSEC
  0
SECTION
  2
CLASSES
  0
CLASS
  1
ACDBDICTIONARYWDFLT
  2
AcDbDictionaryWithDefault
  3
AutoCAD 2000
 90
0
 91
1
280
0
281
0
  0
CLASS
  1
ACDBPLACEHOLDER
  2
AcDbPlaceHolder
  3
AutoCAD 2000
 90
0
 91
1
280
0
281
0
  0
CLASS
  1
LAYOUT
  2
AcDbLayout
  3
AutoCAD 2000
 90
0
 91
0
280
0
281
0
  0
ENDSEC
  0
SECTION
  2
TABLES
  0
TABLE
  2
VPORT
  5
8
100
AcDbSymbolTable
 70
2
  0
VPORT
  5
1F4
100
AcDbSymbolTableRecord
100
AcDbViewportTableRecord
  2
*ACTIVE
 70
0
 10
0.0
 20
0.0
 11
1.0
 21
1.0
 12
15.6355390093
 22
22.113119456
 13
0.0
 23
0.0
 14
1.0
 24
1.0
 15
0.0
 25
0.0
 16
0.0
 26
0.0
 36
1.0
 17
0.0
 27
0.0
 37
0.0
 40
44.2262389119
 41
0.7070707071
 42
50.0
 43
0.0
 44
0.0
 50
0.0
 51
0.0
 71
0
 72
100
 73
1
 74
1
 75
0
 76
0
 77
0
 78
0
  0
ENDTAB
  0
TABLE
  2
LTYPE
  5
5
100
AcDbSymbolTable
 70
6
  0
LTYPE
  5
14
100
AcDbSymbolTableRecord
100
AcDbLinetypeTableRecord
  2
BYBLOCK
 70
0
  3

 72
65
 73
0
 40
0.0
  0
LTYPE
  5
15
100
AcDbSymbolTableRecord
100
AcDbLinetypeTableRecord
  2
BYLAYER
 70
0
  3

 72
65
 73
0
 40
0.0
  0
LTYPE
  5
16
100
AcDbSymbolTableRecord
100
AcDbLinetypeTableRecord
  2
CONTINUOUS
 70
64
  3
Solid line
 72
65
 73
0
 40
0.0
  0
LTYPE
  5
1F5
100
AcDbSymbolTableRecord
100
AcDbLinetypeTableRecord
  2
CENTER
 70
64
  3
____ _ ____ _ ____ _ ____ _ ____ _ ____ _ ____
 72
65
 73
4
 40
0.6
 49
0.375
 74
0
 49
-0.075
 74
0
 49
0.075
 74
0
 49
-0.075
 74
0
  0
LTYPE
  5
1F6
100
AcDbSymbolTableRecord
100
AcDbLinetypeTableRecord
  2
HIDDEN
 70
64
  3
- - - - - - - - - - - - - - - - - - - -
 72
65
 73
2
 40
0.2
 49
0.1
 74
0
 49
-0.1
 74
0
  0
LTYPE
  5
1F7
100
AcDbSymbolTableRecord
100
AcDbLinetypeTableRecord
  2
PHANTOM
 70
64
  3
_____ _ _ _____ _ _ _____ _ _ _____
 72
65
 73
6
 40
0.8
 49
0.45
 74
0
 49
-0.05
 74
0
 49
0.1
 74
0
 49
-0.05
 74
0
 49
0.1
 74
0
 49
-0.05
 74
0
  0
LTYPE
  5
1F8
100
AcDbSymbolTableRecord
100
AcDbLinetypeTableRecord
  2
DOT
 70
64
  3
. . . . . . . . . . . . . . . . . . . .
 72
65
 73
2
 40
0.2
 49
0.1
 74
0
 49
-0.1
 74
0
  0
LTYPE
  5
1F9
100
AcDbSymbolTableRecord
100
AcDbLinetypeTableRecord
  2
DASHED
 70
64
  3
- - - - - - - - - - - - - - - - - - - -
 72
65
 73
2
 40
0.2
 49
0.1
 74
0
 49
-0.1
 74
0
  0
ENDTAB
  0
TABLE
  2
LAYER
  5
2
100
AcDbSymbolTable
 70
36
  0
LAYER
  5
10
100
AcDbSymbolTableRecord
100
AcDbLayerTableRecord
  2
0
 70
0
 62
7
  6
CONTINUOUS
370
-3
390
F
  0
LAYER
  5
1FA
100
AcDbSymbolTableRecord
100
AcDbLayerTableRecord
  2
DEFAULT_1
 70
0
 62
7
  6
CENTER
370
-3
390
F
  0
LAYER
  5
1FB
100
AcDbSymbolTableRecord
100
AcDbLayerTableRecord
  2
DEFAULT_2
 70
0
 62
7
  6
HIDDEN
370
-3
390
F
  0
LAYER
  5
1FC
100
AcDbSymbolTableRecord
100
AcDbLayerTableRecord
  2
DEFAULT_3
 70
0
 62
7
  6
PHANTOM
370
-3
390
F
  0
LAYER
  5
1FD
100
AcDbSymbolTableRecord
100
AcDbLayerTableRecord
  2
00_COMPONENTS
 70
0
 62
7
  6
CONTINUOUS
370
-3
390
F
  0
LAYER
  5
1FE
100
AcDbSymbolTableRecord
100
AcDbLayerTableRecord
  2
01_1_DEFAULT_DATUMS
 70
0
 62
7
  6
CONTINUOUS
370
-3
390
F
  0
LAYER
  5
1FF
100
AcDbSymbolTableRecord
100
AcDbLayerTableRecord
  2
01_PLANES
 70
0
 62
7
  6
CONTINUOUS
370
-3
390
F
  0
LAYER
  5
200
100
AcDbSymbolTableRecord
100
AcDbLayerTableRecord
  2
02_COORD_SYS
 70
0
 62
7
  6
CONTINUOUS
370
-3
390
F
  0
LAYER
  5
201
100
AcDbSymbolTableRecord
100
AcDbLayerTableRecord
  2
03_AXES
 70
0
 62
7
  6
CONTINUOUS
370
-3
390
F
  0
LAYER
  5
202
100
AcDbSymbolTableRecord
100
AcDbLayerTableRecord
  2
04_POINTS
 70
0
 62
7
  6
CONTINUOUS
370
-3
390
F
  0
LAYER
  5
203
100
AcDbSymbolTableRecord
100
AcDbLayerTableRecord
  2
05_CURVES
 70
0
 62
7
  6
CONTINUOUS
370
-3
390
F
  0
LAYER
  5
204
100
AcDbSymbolTableRecord
100
AcDbLayerTableRecord
  2
06_SURFS
 70
0
 62
7
  6
CONTINUOUS
370
-3
390
F
  0
LAYER
  5
205
100
AcDbSymbolTableRecord
100
AcDbLayerTableRecord
  2
07_COSMETICS
 70
0
 62
7
  6
CONTINUOUS
370
-3
390
F
  0
LAYER
  5
206
100
AcDbSymbolTableRecord
100
AcDbLayerTableRecord
  2
10_NOTES
 70
0
 62
7
  6
CONTINUOUS
370
-3
390
F
  0
LAYER
  5
207
100
AcDbSymbolTableRecord
100
AcDbLayerTableRecord
  2
11_NOTES_PUB
 70
0
 62
7
  6
CONTINUOUS
370
-3
390
F
  0
LAYER
  5
208
100
AcDbSymbolTableRecord
100
AcDbLayerTableRecord
  2
13_REF_GTOL
 70
0
 62
7
  6
CONTINUOUS
370
-3
390
F
  0
LAYER
  5
209
100
AcDbSymbolTableRecord
100
AcDbLayerTableRecord
  2
16_MISC
 70
0
 62
7
  6
CONTINUOUS
370
-3
390
F
  0
LAYER
  5
20A
100
AcDbSymbolTableRecord
100
AcDbLayerTableRecord
  2
17_NO_PRINT
 70
0
 62
7
  6
CONTINUOUS
370
-3
390
F
  0
LAYER
  5
20B
100
AcDbSymbolTableRecord
100
AcDbLayerTableRecord
  2
18_DATUM_CAMS_JOINTS
 70
0
 62
7
  6
CONTINUOUS
370
-3
390
F
  0
LAYER
  5
20C
100
AcDbSymbolTableRecord
100
AcDbLayerTableRecord
  2
19_DATUM_FUNCTIONAL
 70
0
 62
7
  6
CONTINUOUS
370
-3
390
F
  0
LAYER
  5
20D
100
AcDbSymbolTableRecord
100
AcDbLayerTableRecord
  2
20_DATUM_KINEMATIC_SCHEME
 70
0
 62
7
  6
CONTINUOUS
370
-3
390
F
  0
ENDTAB
  0
TABLE
  2
STYLE
  5
3
100
AcDbSymbolTable
 70
1
  0
STYLE
  5
11
100
AcDbSymbolTableRecord
100
AcDbTextStyleTableRecord
  2
STANDARD
 70
0
 40
0.0
 41
1.0
 50
0.0
 71
0
 42
0.2
  3
ARIAL.TTF
  4

  0
STYLE
  5
20E
100
AcDbSymbolTableRecord
100
AcDbTextStyleTableRecord
  2
TEXTSTYLE_1
 70
0
 40
0.0
 41
0.8
 50
0.0
 71
0
 42
0.2
  3
gdt
  4

  0
ENDTAB
  0
TABLE
  2
VIEW
  5
6
100
AcDbSymbolTable
 70
0
  0
ENDTAB
  0
TABLE
  2
UCS
  5
7
100
AcDbSymbolTable
 70
0
  0
ENDTAB
  0
TABLE
  2
APPID
  5
9
100
AcDbSymbolTable
 70
1
  0
APPID
  5
20F
100
AcDbSymbolTableRecord
100
AcDbRegAppTableRecord
  2
ACAD
 70
0
  0
ENDTAB
  0
TABLE
  2
BLOCK_RECORD
  5
1
100
AcDbSymbolTable
 70
0
  0
BLOCK_RECORD
  5
210
100
AcDbSymbolTableRecord
100
AcDbBlockTableRecord
  2
*Model_Space
  0
BLOCK_RECORD
  5
211
100
AcDbSymbolTableRecord
100
AcDbBlockTableRecord
  2
*Paper_Space
  0
BLOCK_RECORD
  5
212
100
AcDbSymbolTableRecord
100
AcDbBlockTableRecord
  2
_FILLED
  0
ENDTAB
  0
TABLE
  2
DIMSTYLE
  5
A
100
AcDbSymbolTable
 70
1
100
AcDbDimStyleTable
 71
0
  0
DIMSTYLE
105
213
100
AcDbSymbolTableRecord
100
AcDbDimStyleTableRecord
  2
STANDARD
 70
0
  3

  4

 40
1.0
 41
0.3722747383
 42
1.0
 43
0.38
 44
1.0
 45
0.0
 46
0.0
 47
0.01
 48
0.01
140
0.5211846336
141
0.09
142
0.0
143
25.4
144
1.0
145
0.0
146
1.0
147
0.625
 71
1
 72
0
 73
0
 74
0
 75
0
 76
0
 77
1
 78
8
 79
2
170
0
171
1
172
0
173
0
174
0
175
0
176
0
177
0
178
0
270
2
179
2
271
2
272
2
273
2
274
2
275
0
280
0
281
0
282
0
283
1
284
8
285
0
286
0
287
3
288
0
340
11
278
46
341
212
342
212
343
212
344
212
  0
ENDTAB
  0
ENDSEC
  0
SECTION
  2
BLOCKS
  0
BLOCK
  5
20
100
AcDbEntity
  8
0
100
AcDbBlockBegin
  2
*Model_Space
 70
0
 10
0.0
 20
0.0
 30
0.0
  3
*Model_Space
  1

  0
ENDBLK
  5
21
100
AcDbEntity
  8
0
100
AcDbBlockEnd
  0
BLOCK
  5
1C
100
AcDbEntity
  8
0
100
AcDbBlockBegin
  2
*Paper_Space
 70
0
 10
0.0
 20
0.0
 30
0.0
  3
*Paper_Space
  1

  0
ENDBLK
  5
1D
100
AcDbEntity
  8
0
100
AcDbBlockEnd
  0
BLOCK
  5
214
100
AcDbEntity
  8
0
100
AcDbBlockBegin
  2
_FILLED
 70
64
 10
0.0
 20
0.0
  3
_FILLED
  1

  0
SOLID
  5
215
100
AcDbEntity
  8
0
  6
BYBLOCK
 62
0
100
AcDbTrace
 10
0.0
 20
0.0
 11
-1.0
 21
0.25
 12
-1.0
 22
-0.25
 13
-1.0
 23
-0.25
  0
ENDBLK
  5
216
100
AcDbEntity
  8
0
  6
BYBLOCK
 62
0
100
AcDbBlockEnd
  0
ENDSEC
  0
SECTION
  2
ENTITIES
  0
LINE
  5
217
100
AcDbEntity
  8
0
100
AcDbLine
 62
7
  6
BYLAYER
 10
3.6278048324
 20
16.2282367071
 11
3.6278048324
 21
15.4117342899
  0
LINE
  5
218
100
AcDbEntity
  8
0
100
AcDbLine
 62
7
  6
BYLAYER
 10
6.8097985956
 20
13.5746508946
 11
3.6278048324
 21
15.4117342899
  0
LINE
  5
219
100
AcDbEntity
  8
0
100
AcDbLine
 62
7
  6
BYLAYER
 10
4.265851756
 20
16.1740062058
 11
4.2658500907
 21
18.5438651892
  0
LINE
  5
21A
100
AcDbEntity
  8
0
100
AcDbLine
 62
7
  6
BYLAYER
 10
4.3060424695
 20
18.6663406484
 11
4.3060441349
 21
18.4354038422
  0
LINE
  5
21B
100
AcDbEntity
  8
0
100
AcDbLine
 62
7
  6
BYLAYER
 10
4.5658530051
 20
18.1397264995
 11
4.5658530051
 21
16.0008043222
  0
LINE
  5
21C
100
AcDbEntity
  8
0
100
AcDbLine
 62
7
  6
BYLAYER
 10
4.7277319714
 20
19.0317657759
 11
4.727730306
 21
19.2627025821
  0
LINE
  5
21D
100
AcDbEntity
  8
0
100
AcDbLine
 62
7
  6
BYLAYER
 10
6.8097985956
 20
14.3911533117
 11
3.6278048324
 21
16.2282367071
  0
LINE
  5
21E
100
AcDbEntity
  8
0
100
AcDbLine
 62
7
  6
BYLAYER
 10
5.915853005
 20
16.0008075672
 11
5.915853005
 21
18.8585660272
  0
LINE
  5
21F
100
AcDbEntity
  8
0
100
AcDbLine
 62
7
  6
BYLAYER
 10
6.4158607073
 20
14.9327260405
 11
6.4158550867
 21
18.5698962213
  0
LINE
  5
220
100
AcDbEntity
  8
0
100
AcDbLine
 62
7
  6
BYLAYER
 10
6.7158600334
 20
17.8839454713
 11
6.7158619563
 21
14.759524157
  0
LINE
  5
221
100
AcDbEntity
  8
0
100
AcDbLine
 62
7
  6
BYLAYER
 10
6.8097985956
 20
14.3911533117
 11
6.8097985956
 21
13.5746508946
  0
LINE
  5
222
100
AcDbEntity
  8
0
100
AcDbLine
 62
7
  6
BYLAYER
 10
6.9461768458
 20
19.724581527
 11
6.9461711335
 21
20.5167176979
  0
LINE
  5
223
100
AcDbEntity
  8
0
100
AcDbLine
 62
7
  6
BYLAYER
 10
7.1158619563
 20
14.7595251184
 11
7.1158600334
 21
17.8839464328
  0
LINE
  5
224
100
AcDbEntity
  8
0
100
AcDbLine
 62
7
  6
BYLAYER
 10
7.4158528788
 20
18.8760804657
 11
7.4158607073
 21
14.9327284442
  0
LINE
  5
225
100
AcDbEntity
  8
0
100
AcDbLine
 62
7
  6
BYLAYER
 10
7.9158507971
 20
19.1647526753
 11
7.9158507971
 21
16.3069942153
  0
LINE
  5
226
100
AcDbEntity
  8
0
100
AcDbLine
 62
7
  6
BYLAYER
 10
7.9461711335
 20
20.5167201016
 11
7.9461746378
 21
20.0307657713
  0
LINE
  5
227
100
AcDbEntity
  8
0
100
AcDbLine
 62
7
  6
BYLAYER
 10
8.6145403549
 20
19.7420963702
 11
8.6145386895
 21
21.0545667355
  0
LINE
  5
228
100
AcDbEntity
  8
0
100
AcDbLine
 62
7
  6
BYLAYER
 10
8.6547310684
 20
21.1770421947
 11
8.6547327338
 21
20.9461053885
  0
LINE
  5
229
100
AcDbEntity
  8
0
100
AcDbLine
 62
7
  6
BYLAYER
 10
8.9145416039
 20
20.6504280458
 11
8.9145416039
 21
19.7420970913
  0
LINE
  5
22A
100
AcDbEntity
  8
0
100
AcDbLine
 62
7
  6
BYLAYER
 10
4.7475410108
 20
19.3204362542
 11
4.320900394
 21
18.7170699695
  0
LINE
  5
22B
100
AcDbEntity
  8
0
100
AcDbLine
 62
7
  6
BYLAYER
 10
4.727730306
 20
19.2627025821
 11
4.3060424695
 21
18.6663406484
  0
LINE
  5
22C
100
AcDbEntity
  8
0
100
AcDbLine
 62
7
  6
BYLAYER
 10
4.3060441349
 20
18.4354038422
 11
4.7277319714
 21
19.0317657759
  0
LINE
  5
22D
100
AcDbEntity
  8
0
100
AcDbLine
 62
7
  6
BYLAYER
 10
4.5658530051
 20
18.1397264995
 11
5.0741433819
 21
18.858564004
  0
LINE
  5
22E
100
AcDbEntity
  8
0
100
AcDbLine
 62
7
  6
BYLAYER
 10
6.7158619563
 20
14.759524157
 11
7.1158619563
 21
14.7595251184
  0
LINE
  5
22F
100
AcDbEntity
  8
0
100
AcDbLine
 62
7
  6
BYLAYER
 10
11.1584871945
 20
16.0853524409
 11
10.7342248921
 21
16.330294854
  0
LINE
  5
230
100
AcDbEntity
  8
0
100
AcDbLine
 62
7
  6
BYLAYER
 10
10.7342248921
 20
16.6569083657
 11
10.0961779685
 21
17.0252765952
  0
LINE
  5
231
100
AcDbEntity
  8
0
100
AcDbLine
 62
7
  6
BYLAYER
 10
10.0961779685
 20
17.3518650172
 11
10.8049323319
 21
16.9426747519
  0
LINE
  5
232
100
AcDbEntity
  8
0
100
AcDbLine
 62
7
  6
BYLAYER
 10
10.0961779685
 20
17.5151655006
 11
11.1584871945
 21
16.901854858
  0
LINE
  5
233
100
AcDbEntity
  8
0
100
AcDbLine
 62
7
  6
BYLAYER
 10
9.2878905061
 20
19.1647559732
 11
9.7961808829
 21
18.4459209123
  0
LINE
  5
234
100
AcDbEntity
  8
0
100
AcDbLine
 62
7
  6
BYLAYER
 10
9.0764205703
 20
21.5424673222
 11
9.0764189049
 21
21.7734041284
  0
LINE
  5
235
100
AcDbEntity
  8
0
100
AcDbLine
 62
7
  6
BYLAYER
 10
9.6342994186
 20
19.3379594105
 11
9.6342977532
 21
19.5688962167
  0
LINE
  5
236
100
AcDbEntity
  8
0
100
AcDbLine
 62
7
  6
BYLAYER
 10
9.7961808829
 20
16.3069987351
 11
9.7961808829
 21
18.4459209123
  0
LINE
  5
237
100
AcDbEntity
  8
0
100
AcDbLine
 62
7
  6
BYLAYER
 10
4.565853005
 20
16.0008043222
 11
5.9158530051
 21
16.0008075672
  0
LINE
  5
238
100
AcDbEntity
  8
0
100
AcDbLine
 62
7
  6
BYLAYER
 10
7.915850797
 20
16.3069942153
 11
9.7961808829
 21
16.3069987351
  0
LINE
  5
239
100
AcDbEntity
  8
0
100
AcDbLine
 62
7
  6
BYLAYER
 10
10.8049323319
 20
16.4527733016
 11
10.7342248921
 21
16.4595779105
  0
LINE
  5
23A
100
AcDbEntity
  8
0
100
AcDbLine
 62
7
  6
BYLAYER
 10
10.055987255
 20
18.741599504
 11
9.6342994186
 21
19.3379594105
  0
LINE
  5
23B
100
AcDbEntity
  8
0
100
AcDbLine
 62
7
  6
BYLAYER
 10
9.6342977532
 20
19.5688962167
 11
10.0559855897
 21
18.9725363102
  0
LINE
  5
23C
100
AcDbEntity
  8
0
100
AcDbLine
 62
7
  6
BYLAYER
 10
10.0411273877
 20
19.0232647748
 11
9.614486956
 21
19.6266287468
  0
LINE
  5
23D
100
AcDbEntity
  8
0
100
AcDbLine
 62
7
  6
BYLAYER
 10
10.0559855897
 20
18.9725363102
 11
10.055987255
 21
18.741599504
  0
LINE
  5
23E
100
AcDbEntity
  8
0
100
AcDbLine
 62
7
  6
BYLAYER
 10
10.0961779685
 20
18.8500610442
 11
10.0961796339
 21
16.4802020608
  0
LINE
  5
23F
100
AcDbEntity
  8
0
100
AcDbLine
 62
7
  6
BYLAYER
 10
10.2645416039
 20
18.5115091135
 11
10.2645416039
 21
21.3692675735
  0
LINE
  5
240
100
AcDbEntity
  8
0
100
AcDbLine
 62
7
  6
BYLAYER
 10
10.7342248921
 20
15.8404059486
 11
10.7342248921
 21
16.6569083657
  0
LINE
  5
241
100
AcDbEntity
  8
0
100
AcDbLine
 62
7
  6
BYLAYER
 10
10.7645493062
 20
17.4434275868
 11
10.7645436856
 21
21.0805977676
  0
LINE
  5
242
100
AcDbEntity
  8
0
100
AcDbLine
 62
7
  6
BYLAYER
 10
10.8049323319
 20
16.4527733016
 11
10.8049323319
 21
16.9426747519
  0
LINE
  5
243
100
AcDbEntity
  8
0
100
AcDbLine
 62
7
  6
BYLAYER
 10
9.0962296096
 20
21.8311378005
 11
8.6695889929
 21
21.2277715158
  0
LINE
  5
244
100
AcDbEntity
  8
0
100
AcDbLine
 62
7
  6
BYLAYER
 10
9.0764189049
 20
21.7734041284
 11
8.6547310684
 21
21.1770421947
  0
LINE
  5
245
100
AcDbEntity
  8
0
100
AcDbLine
 62
7
  6
BYLAYER
 10
8.6547327338
 20
20.9461053885
 11
9.0764205703
 21
21.5424673223
  0
LINE
  5
246
100
AcDbEntity
  8
0
100
AcDbLine
 62
7
  6
BYLAYER
 10
7.1158619563
 20
16.8984472957
 11
6.7158619563
 21
16.8984463342
  0
LINE
  5
247
100
AcDbEntity
  8
0
100
AcDbLine
 62
7
  6
BYLAYER
 10
7.115861789
 20
17.0441274073
 11
6.715861789
 21
17.0441264458
  0
LINE
  5
248
100
AcDbEntity
  8
0
100
AcDbLine
 62
7
  6
BYLAYER
 10
11.0645505552
 20
17.2702257033
 11
11.4645505552
 21
17.2702266648
  0
LINE
  5
249
100
AcDbEntity
  8
0
100
AcDbLine
 62
7
  6
BYLAYER
 10
11.0645486322
 20
20.3946470177
 11
11.0645505552
 21
17.2702257033
  0
LINE
  5
24A
100
AcDbEntity
  8
0
100
AcDbLine
 62
7
  6
BYLAYER
 10
11.1584871945
 20
16.0853524409
 11
11.1584871945
 21
16.901854858
  0
LINE
  5
24B
100
AcDbEntity
  8
0
100
AcDbLine
 62
7
  6
BYLAYER
 10
11.2948654447
 20
22.2352830733
 11
11.2948597323
 21
23.0274192442
  0
LINE
  5
24C
100
AcDbEntity
  8
0
100
AcDbLine
 62
7
  6
BYLAYER
 10
11.4645505552
 20
17.2702266648
 11
11.4645486322
 21
20.3946479791
  0
LINE
  5
24D
100
AcDbEntity
  8
0
100
AcDbLine
 62
7
  6
BYLAYER
 10
11.7645414776
 20
21.386782012
 11
11.7645493062
 21
17.4434299905
  0
LINE
  5
24E
100
AcDbEntity
  8
0
100
AcDbLine
 62
7
  6
BYLAYER
 10
8.9145416039
 20
20.6504280458
 11
9.4228319808
 21
21.3692655503
  0
LINE
  5
24F
100
AcDbEntity
  8
0
100
AcDbLine
 62
7
  6
BYLAYER
 10
6.7158600334
 20
17.8839454713
 11
7.1158600334
 21
17.8839464328
  0
LINE
  5
250
100
AcDbEntity
  8
0
100
AcDbLine
 62
7
  6
BYLAYER
 10
12.2645393959
 20
21.6754542216
 11
12.2645393959
 21
18.8176957616
  0
LINE
  5
251
100
AcDbEntity
  8
0
100
AcDbLine
 62
7
  6
BYLAYER
 10
12.2948597323
 20
23.0274216479
 11
12.2948632367
 21
22.5414673176
  0
LINE
  5
252
100
AcDbEntity
  8
0
100
AcDbLine
 62
7
  6
BYLAYER
 10
12.9632289538
 20
22.2527979165
 11
12.9632272884
 21
23.5652682818
  0
LINE
  5
253
100
AcDbEntity
  8
0
100
AcDbLine
 62
7
  6
BYLAYER
 10
13.0034196673
 20
23.687743741
 11
13.0034213326
 21
23.4568069348
  0
LINE
  5
254
100
AcDbEntity
  8
0
100
AcDbLine
 62
7
  6
BYLAYER
 10
13.4449182085
 20
24.3418393468
 11
13.0182775917
 21
23.7384730621
  0
LINE
  5
255
100
AcDbEntity
  8
0
100
AcDbLine
 62
7
  6
BYLAYER
 10
13.4251075038
 20
24.2841056747
 11
13.0034196673
 21
23.687743741
  0
LINE
  5
256
100
AcDbEntity
  8
0
100
AcDbLine
 62
7
  6
BYLAYER
 10
13.0034213326
 20
23.4568069348
 11
13.4251091691
 21
24.0531688686
  0
LINE
  5
257
100
AcDbEntity
  8
0
100
AcDbLine
 62
7
  6
BYLAYER
 10
10.0961779685
 20
18.5115087089
 11
10.2645416039
 21
18.5115091135
  0
LINE
  5
258
100
AcDbEntity
  8
0
100
AcDbLine
 62
7
  6
BYLAYER
 10
12.2645393959
 20
18.8176957616
 11
14.1448694818
 21
18.8177002814
  0
LINE
  5
259
100
AcDbEntity
  8
0
100
AcDbLine
 62
7
  6
BYLAYER
 10
5.9158530051
 20
18.8585660272
 11
5.0741433819
 21
18.858564004
  0
LINE
  5
25A
100
AcDbEntity
  8
0
100
AcDbLine
 62
7
  6
BYLAYER
 10
9.287890506
 20
19.1647559732
 11
7.915850797
 21
19.1647526752
  0
LINE
  5
25B
100
AcDbEntity
  8
0
100
AcDbLine
 62
7
  6
BYLAYER
 10
15.1536209308
 20
18.9634748479
 11
15.082913491
 21
18.9702794569
  0
LINE
  5
25C
100
AcDbEntity
  8
0
100
AcDbLine
 62
7
  6
BYLAYER
 10
15.082913491
 20
18.8409964003
 11
15.5071757933
 21
18.5960539872
  0
LINE
  5
25D
100
AcDbEntity
  8
0
100
AcDbLine
 62
7
  6
BYLAYER
 10
15.082913491
 20
19.167609912
 11
14.4448665674
 21
19.5359781415
  0
LINE
  5
25E
100
AcDbEntity
  8
0
100
AcDbLine
 62
7
  6
BYLAYER
 10
13.2632302028
 20
23.1611295921
 11
13.2632302028
 21
22.2527986376
  0
LINE
  5
25F
100
AcDbEntity
  8
0
100
AcDbLine
 62
7
  6
BYLAYER
 10
13.4251091691
 20
24.0531688686
 11
13.4251075038
 21
24.2841056747
  0
LINE
  5
260
100
AcDbEntity
  8
0
100
AcDbLine
 62
7
  6
BYLAYER
 10
13.9829880174
 20
21.8486609568
 11
13.9829863521
 21
22.079597763
  0
LINE
  5
261
100
AcDbEntity
  8
0
100
AcDbLine
 62
7
  6
BYLAYER
 10
13.2632302028
 20
23.1611295921
 11
13.7715205796
 21
23.8799670966
  0
LINE
  5
262
100
AcDbEntity
  8
0
100
AcDbLine
 62
7
  6
BYLAYER
 10
11.4645505552
 20
19.409148842
 11
11.0645505552
 21
19.4091478805
  0
LINE
  5
263
100
AcDbEntity
  8
0
100
AcDbLine
 62
7
  6
BYLAYER
 10
5.0741392186
 20
19.4359060194
 11
6.4461789276
 21
19.4359093174
  0
LINE
  5
264
100
AcDbEntity
  8
0
100
AcDbLine
 62
7
  6
BYLAYER
 10
11.4645503879
 20
19.5548289536
 11
11.0645503879
 21
19.5548279921
  0
LINE
  5
265
100
AcDbEntity
  8
0
100
AcDbLine
 62
7
  6
BYLAYER
 10
8.4461767195
 20
19.7420959655
 11
9.2878863427
 21
19.7420979887
  0
LINE
  5
266
100
AcDbEntity
  8
0
100
AcDbLine
 62
7
  6
BYLAYER
 10
15.4132391541
 20
19.7809272496
 11
15.813239154
 21
19.7809282111
  0
LINE
  5
267
100
AcDbEntity
  8
0
100
AcDbLine
 62
7
  6
BYLAYER
 10
15.1536209308
 20
19.4533762982
 11
14.4448665674
 21
19.8625665635
  0
LINE
  5
268
100
AcDbEntity
  8
0
100
AcDbLine
 62
7
  6
BYLAYER
 10
14.4448665674
 20
20.0258670469
 11
15.5071757933
 21
19.4125564043
  0
LINE
  5
269
100
AcDbEntity
  8
0
100
AcDbLine
 62
7
  6
BYLAYER
 10
13.6365791049
 20
21.6754575195
 11
14.1448694818
 21
20.9566224586
  0
LINE
  5
26A
100
AcDbEntity
  8
0
100
AcDbLine
 62
7
  6
BYLAYER
 10
14.1448694818
 20
18.8177002814
 11
14.1448694818
 21
20.9566224586
  0
LINE
  5
26B
100
AcDbEntity
  8
0
100
AcDbLine
 62
7
  6
BYLAYER
 10
14.4046741885
 20
21.4832378565
 11
14.4046758539
 21
21.2523010503
  0
LINE
  5
26C
100
AcDbEntity
  8
0
100
AcDbLine
 62
7
  6
BYLAYER
 10
14.4448665674
 20
21.3607625906
 11
14.4448682328
 21
18.9909036071
  0
LINE
  5
26D
100
AcDbEntity
  8
0
100
AcDbLine
 62
7
  6
BYLAYER
 10
14.6132302028
 20
21.0222106599
 11
14.6132302028
 21
23.8799691198
  0
LINE
  5
26E
100
AcDbEntity
  8
0
100
AcDbLine
 62
7
  6
BYLAYER
 10
17.7936068074
 20
26.8525408931
 11
17.3669661906
 21
26.2491746084
  0
LINE
  5
26F
100
AcDbEntity
  8
0
100
AcDbLine
 62
7
  6
BYLAYER
 10
17.7737961026
 20
26.7948072211
 11
17.3521082661
 21
26.1984452873
  0
LINE
  5
270
100
AcDbEntity
  8
0
100
AcDbLine
 62
7
  6
BYLAYER
 10
17.3521099315
 20
25.9675084811
 11
17.773797768
 21
26.5638704149
  0
LINE
  5
271
100
AcDbEntity
  8
0
100
AcDbLine
 62
7
  6
BYLAYER
 10
3.6278048324
 20
16.2282367071
 11
4.265851756
 21
16.5966110713
  0
LINE
  5
272
100
AcDbEntity
  8
0
100
AcDbLine
 62
7
  6
BYLAYER
 10
11.0645486322
 20
20.3946470177
 11
11.4645486322
 21
20.3946479791
  0
LINE
  5
273
100
AcDbEntity
  8
0
100
AcDbLine
 62
7
  6
BYLAYER
 10
7.6461696912
 20
20.7167165213
 11
7.2461696912
 21
20.7167155598
  0
LINE
  5
274
100
AcDbEntity
  8
0
100
AcDbLine
 62
7
  6
BYLAYER
 10
14.4448665674
 20
21.0222102552
 11
14.6132302028
 21
21.0222106599
  0
LINE
  5
275
100
AcDbEntity
  8
0
100
AcDbLine
 62
7
  6
BYLAYER
 10
14.4046758539
 20
21.2523010503
 11
13.9829880174
 21
21.8486609568
  0
LINE
  5
276
100
AcDbEntity
  8
0
100
AcDbLine
 62
7
  6
BYLAYER
 10
13.9829863521
 20
22.079597763
 11
14.4046741885
 21
21.4832378565
  0
LINE
  5
277
100
AcDbEntity
  8
0
100
AcDbLine
 62
7
  6
BYLAYER
 10
14.3898159865
 20
21.5339663211
 11
13.9631755548
 21
22.1373302931
  0
LINE
  5
278
100
AcDbEntity
  8
0
100
AcDbLine
 62
7
  6
BYLAYER
 10
15.082913491
 20
18.3511074949
 11
15.082913491
 21
19.167609912
  0
LINE
  5
279
100
AcDbEntity
  8
0
100
AcDbLine
 62
7
  6
BYLAYER
 10
15.1132379051
 20
19.9541291331
 11
15.1132322845
 21
23.5912993139
  0
LINE
  5
27A
100
AcDbEntity
  8
0
100
AcDbLine
 62
7
  6
BYLAYER
 10
15.1536209308
 20
18.9634748479
 11
15.1536209308
 21
19.4533762982
  0
LINE
  5
27B
100
AcDbEntity
  8
0
100
AcDbLine
 62
7
  6
BYLAYER
 10
15.4132372311
 20
22.905348564
 11
15.4132391541
 21
19.7809272496
  0
LINE
  5
27C
100
AcDbEntity
  8
0
100
AcDbLine
 62
7
  6
BYLAYER
 10
15.5071757933
 20
18.5960539872
 11
15.5071757933
 21
19.4125564043
  0
LINE
  5
27D
100
AcDbEntity
  8
0
100
AcDbLine
 62
7
  6
BYLAYER
 10
15.6435540436
 20
24.7459846196
 11
15.6435483312
 21
25.5381207905
  0
LINE
  5
27E
100
AcDbEntity
  8
0
100
AcDbLine
 62
7
  6
BYLAYER
 10
15.8132391541
 20
19.7809282111
 11
15.8132372311
 21
22.9053495254
  0
LINE
  5
27F
100
AcDbEntity
  8
0
100
AcDbLine
 62
7
  6
BYLAYER
 10
17.6119188017
 20
25.6718311384
 11
18.1202091785
 21
26.3906686429
  0
LINE
  5
280
100
AcDbEntity
  8
0
100
AcDbLine
 62
7
  6
BYLAYER
 10
10.6262995455
 20
16.719217684
 11
10.8049323319
 21
16.9426747519
  0
LINE
  5
281
100
AcDbEntity
  8
0
100
AcDbLine
 62
7
  6
BYLAYER
 10
16.6132279948
 20
21.3283973079
 11
18.4935580807
 21
21.3284018277
  0
LINE
  5
282
100
AcDbEntity
  8
0
100
AcDbLine
 62
7
  6
BYLAYER
 10
10.2645416039
 20
21.3692675735
 11
9.4228319808
 21
21.3692655503
  0
LINE
  5
283
100
AcDbEntity
  8
0
100
AcDbLine
 62
7
  6
BYLAYER
 10
13.6365791049
 20
21.6754575195
 11
12.2645393959
 21
21.6754542216
  0
LINE
  5
284
100
AcDbEntity
  8
0
100
AcDbLine
 62
7
  6
BYLAYER
 10
15.8132391541
 20
21.9198503883
 11
15.4132391541
 21
21.9198494268
  0
LINE
  5
285
100
AcDbEntity
  8
0
100
AcDbLine
 62
7
  6
BYLAYER
 10
9.4228278174
 20
21.9466075657
 11
10.7948675264
 21
21.9466108637
  0
LINE
  5
286
100
AcDbEntity
  8
0
100
AcDbLine
 62
7
  6
BYLAYER
 10
15.8132389867
 20
22.0655304999
 11
15.4132389867
 21
22.0655295384
  0
LINE
  5
287
100
AcDbEntity
  8
0
100
AcDbLine
 62
7
  6
BYLAYER
 10
12.7948653184
 20
22.2527975118
 11
13.6365749415
 21
22.252799535
  0
LINE
  5
288
100
AcDbEntity
  8
0
100
AcDbLine
 62
7
  6
BYLAYER
 10
19.7619277529
 20
22.2916287959
 11
20.1619277529
 21
22.2916297574
  0
LINE
  5
289
100
AcDbEntity
  8
0
100
AcDbLine
 62
7
  6
BYLAYER
 10
19.5023095296
 20
21.4741763942
 11
19.4316020899
 21
21.4809810032
  0
LINE
  5
28A
100
AcDbEntity
  8
0
100
AcDbLine
 62
7
  6
BYLAYER
 10
16.1132300765
 20
23.8974835583
 11
16.1132379051
 21
19.9541315368
  0
LINE
  5
28B
100
AcDbEntity
  8
0
100
AcDbLine
 62
7
  6
BYLAYER
 10
16.6132279948
 20
24.1861557679
 11
16.6132279948
 21
21.3283973079
  0
LINE
  5
28C
100
AcDbEntity
  8
0
100
AcDbLine
 62
7
  6
BYLAYER
 10
16.6435483312
 20
25.5381231943
 11
16.6435518356
 21
25.052168864
  0
LINE
  5
28D
100
AcDbEntity
  8
0
100
AcDbLine
 62
7
  6
BYLAYER
 10
22.1422954062
 20
29.3632424394
 11
21.7156547895
 21
28.7598761547
  0
LINE
  5
28E
100
AcDbEntity
  8
0
100
AcDbLine
 62
7
  6
BYLAYER
 10
22.1224847015
 20
29.3055087674
 11
21.700796865
 21
28.7091468336
  0
LINE
  5
28F
100
AcDbEntity
  8
0
100
AcDbLine
 62
7
  6
BYLAYER
 10
21.7007985304
 20
28.4782100274
 11
22.1224863668
 21
29.0745719612
  0
LINE
  5
290
100
AcDbEntity
  8
0
100
AcDbLine
 62
7
  6
BYLAYER
 10
14.9749881444
 20
19.2299192303
 11
15.1536209308
 21
19.4533762982
  0
LINE
  5
291
100
AcDbEntity
  8
0
100
AcDbLine
 62
7
  6
BYLAYER
 10
15.4132372311
 20
22.905348564
 11
15.8132372311
 21
22.9053495254
  0
LINE
  5
292
100
AcDbEntity
  8
0
100
AcDbLine
 62
7
  6
BYLAYER
 10
11.9948582901
 20
23.2274180676
 11
11.5948582901
 21
23.2274171061
  0
LINE
  5
293
100
AcDbEntity
  8
0
100
AcDbLine
 62
7
  6
BYLAYER
 10
19.4316020899
 20
21.3516979466
 11
19.8558643922
 21
21.1067555335
  0
LINE
  5
294
100
AcDbEntity
  8
0
100
AcDbLine
 62
7
  6
BYLAYER
 10
17.3119175526
 20
24.7634994628
 11
17.3119158873
 21
26.0759698281
  0
LINE
  5
295
100
AcDbEntity
  8
0
100
AcDbLine
 62
7
  6
BYLAYER
 10
17.3521082661
 20
26.1984452873
 11
17.3521099315
 21
25.9675084811
  0
LINE
  5
296
100
AcDbEntity
  8
0
100
AcDbLine
 62
7
  6
BYLAYER
 10
17.6119188017
 20
25.6718311384
 11
17.6119188016
 21
24.7635001839
  0
LINE
  5
297
100
AcDbEntity
  8
0
100
AcDbLine
 62
7
  6
BYLAYER
 10
17.773797768
 20
26.5638704149
 11
17.7737961026
 21
26.794807221
  0
LINE
  5
298
100
AcDbEntity
  8
0
100
AcDbLine
 62
7
  6
BYLAYER
 10
21.9606074005
 20
28.1825326847
 11
22.4688977774
 21
28.9013701892
  0
LINE
  5
299
100
AcDbEntity
  8
0
100
AcDbLine
 62
7
  6
BYLAYER
 10
18.7935568316
 20
23.5329118015
 11
18.9619188017
 21
23.5329122062
  0
LINE
  5
29A
100
AcDbEntity
  8
0
100
AcDbLine
 62
7
  6
BYLAYER
 10
20.9619165937
 20
23.8390988542
 11
22.8422466796
 21
23.839103374
  0
LINE
  5
29B
100
AcDbEntity
  8
0
100
AcDbLine
 62
7
  6
BYLAYER
 10
14.6132302028
 20
23.8799691198
 11
13.7715205796
 21
23.8799670966
  0
LINE
  5
29C
100
AcDbEntity
  8
0
100
AcDbLine
 62
7
  6
BYLAYER
 10
17.9852677038
 20
24.1861590658
 11
16.6132279948
 21
24.1861557679
  0
LINE
  5
29D
100
AcDbEntity
  8
0
100
AcDbLine
 62
7
  6
BYLAYER
 10
18.7935568316
 20
22.0466787263
 11
19.4316020899
 21
21.6783114583
  0
LINE
  5
29E
100
AcDbEntity
  8
0
100
AcDbLine
 62
7
  6
BYLAYER
 10
19.5023095296
 20
21.9640778445
 11
18.7935568316
 21
22.3732671484
  0
LINE
  5
29F
100
AcDbEntity
  8
0
100
AcDbLine
 62
7
  6
BYLAYER
 10
19.8558643922
 20
21.9232579506
 11
18.7935568316
 21
22.5365676318
  0
LINE
  5
2A0
100
AcDbEntity
  8
0
100
AcDbLine
 62
7
  6
BYLAYER
 10
18.3316766163
 20
24.3593625032
 11
18.3316749509
 21
24.5902993093
  0
LINE
  5
2A1
100
AcDbEntity
  8
0
100
AcDbLine
 62
7
  6
BYLAYER
 10
18.4935580807
 20
21.3284018277
 11
18.4935580807
 21
23.4673240049
  0
LINE
  5
2A2
100
AcDbEntity
  8
0
100
AcDbLine
 62
7
  6
BYLAYER
 10
18.7533627874
 20
23.9939394028
 11
18.7533644528
 21
23.7630025966
  0
LINE
  5
2A3
100
AcDbEntity
  8
0
100
AcDbLine
 62
7
  6
BYLAYER
 10
18.7935551663
 20
23.8714641369
 11
18.7935568316
 21
21.5016051534
  0
LINE
  5
2A4
100
AcDbEntity
  8
0
100
AcDbLine
 62
7
  6
BYLAYER
 10
18.9619188017
 20
23.5329122062
 11
18.9619188017
 21
26.3906706661
  0
LINE
  5
2A5
100
AcDbEntity
  8
0
100
AcDbLine
 62
7
  6
BYLAYER
 10
19.3236767433
 20
21.7406207766
 11
19.5023095296
 21
21.9640778445
  0
LINE
  5
2A6
100
AcDbEntity
  8
0
100
AcDbLine
 62
7
  6
BYLAYER
 10
23.7802906887
 20
24.1890130046
 11
19.8558643922
 21
21.9232579506
  0
LINE
  5
2A7
100
AcDbEntity
  8
0
100
AcDbLine
 62
7
  6
BYLAYER
 10
19.4316020899
 20
21.6783114583
 11
15.5071757933
 21
19.4125564043
  0
LINE
  5
2A8
100
AcDbEntity
  8
0
100
AcDbLine
 62
7
  6
BYLAYER
 10
15.082913491
 20
19.167609912
 11
11.1584871945
 21
16.901854858
  0
LINE
  5
2A9
100
AcDbEntity
  8
0
100
AcDbLine
 62
7
  6
BYLAYER
 10
6.8097985956
 20
14.3911533117
 11
10.7342248921
 21
16.6569083657
  0
LINE
  5
2AA
100
AcDbEntity
  8
0
100
AcDbLine
 62
7
  6
BYLAYER
 10
24.2045529911
 20
24.433959497
 11
28.1289792876
 21
26.6997145509
  0
LINE
  5
2AB
100
AcDbEntity
  8
0
100
AcDbLine
 62
7
  6
BYLAYER
 10
10.7342248921
 20
15.8404059486
 11
6.8097985956
 21
13.5746508946
  0
LINE
  5
2AC
100
AcDbEntity
  8
0
100
AcDbLine
 62
7
  6
BYLAYER
 10
11.1584871945
 20
16.0853524409
 11
15.082913491
 21
18.3511074949
  0
LINE
  5
2AD
100
AcDbEntity
  8
0
100
AcDbLine
 62
7
  6
BYLAYER
 10
15.5071757933
 20
18.5960539872
 11
19.4316020899
 21
20.8618090412
  0
LINE
  5
2AE
100
AcDbEntity
  8
0
100
AcDbLine
 62
7
  6
BYLAYER
 10
19.8558643922
 20
21.1067555335
 11
23.7802906887
 21
23.3725105875
  0
LINE
  5
2AF
100
AcDbEntity
  8
0
100
AcDbLine
 62
7
  6
BYLAYER
 10
24.2045529911
 20
23.6174570798
 11
28.1289792876
 21
25.8832121338
  0
LINE
  5
2B0
100
AcDbEntity
  8
0
100
AcDbLine
 62
7
  6
BYLAYER
 10
20.1619277529
 20
24.4305519346
 11
19.7619277529
 21
24.4305509732
  0
LINE
  5
2B1
100
AcDbEntity
  8
0
100
AcDbLine
 62
7
  6
BYLAYER
 10
13.7715164163
 20
24.4573091121
 11
15.1435561253
 21
24.45731241
  0
LINE
  5
2B2
100
AcDbEntity
  8
0
100
AcDbLine
 62
7
  6
BYLAYER
 10
20.1619275856
 20
24.5762320462
 11
19.7619275856
 21
24.5762310847
  0
LINE
  5
2B3
100
AcDbEntity
  8
0
100
AcDbLine
 62
7
  6
BYLAYER
 10
17.1435539172
 20
24.7634990581
 11
17.9852635404
 21
24.7635010813
  0
LINE
  5
2B4
100
AcDbEntity
  8
0
100
AcDbLine
 62
7
  6
BYLAYER
 10
24.1106163518
 20
24.8023303422
 11
24.5106163518
 21
24.8023313037
  0
LINE
  5
2B5
100
AcDbEntity
  8
0
100
AcDbLine
 62
7
  6
BYLAYER
 10
23.8509981285
 20
23.9848779405
 11
23.7802906887
 21
23.9916825495
  0
LINE
  5
2B6
100
AcDbEntity
  8
0
100
AcDbLine
 62
7
  6
BYLAYER
 10
17.9852677038
 20
24.1861590658
 11
18.4935580807
 21
23.4673240049
  0
LINE
  5
2B7
100
AcDbEntity
  8
0
100
AcDbLine
 62
7
  6
BYLAYER
 10
19.4316020899
 20
21.6783114583
 11
19.4316020899
 21
20.8618090412
  0
LINE
  5
2B8
100
AcDbEntity
  8
0
100
AcDbLine
 62
7
  6
BYLAYER
 10
19.4619265039
 20
22.4648306794
 11
19.4619208833
 21
26.1020008602
  0
LINE
  5
2B9
100
AcDbEntity
  8
0
100
AcDbLine
 62
7
  6
BYLAYER
 10
19.5023095296
 20
21.4741763942
 11
19.5023095296
 21
21.9640778445
  0
LINE
  5
2BA
100
AcDbEntity
  8
0
100
AcDbLine
 62
7
  6
BYLAYER
 10
19.7619277529
 20
22.2916287959
 11
19.76192583
 21
25.4160501103
  0
LINE
  5
2BB
100
AcDbEntity
  8
0
100
AcDbLine
 62
7
  6
BYLAYER
 10
19.8558643922
 20
21.1067555335
 11
19.8558643922
 21
21.9232579506
  0
LINE
  5
2BC
100
AcDbEntity
  8
0
100
AcDbLine
 62
7
  6
BYLAYER
 10
19.9922426424
 20
27.2566861659
 11
19.9922369301
 21
28.0488223368
  0
LINE
  5
2BD
100
AcDbEntity
  8
0
100
AcDbLine
 62
7
  6
BYLAYER
 10
19.76192583
 20
25.4160501103
 11
20.16192583
 21
25.4160510718
  0
LINE
  5
2BE
100
AcDbEntity
  8
0
100
AcDbLine
 62
7
  6
BYLAYER
 10
16.343546889
 20
25.7381196139
 11
15.943546889
 21
25.7381186524
  0
LINE
  5
2BF
100
AcDbEntity
  8
0
100
AcDbLine
 62
7
  6
BYLAYER
 10
23.1422437651
 20
26.0436133478
 11
23.3106074005
 21
26.0436137525
  0
LINE
  5
2C0
100
AcDbEntity
  8
0
100
AcDbLine
 62
7
  6
BYLAYER
 10
18.7533644528
 20
23.7630025966
 11
18.3316766163
 21
24.3593625032
  0
LINE
  5
2C1
100
AcDbEntity
  8
0
100
AcDbLine
 62
7
  6
BYLAYER
 10
18.3316749509
 20
24.5902993093
 11
18.7533627874
 21
23.9939394028
  0
LINE
  5
2C2
100
AcDbEntity
  8
0
100
AcDbLine
 62
7
  6
BYLAYER
 10
18.7385045854
 20
24.0446678674
 11
18.3118641537
 21
24.6480318394
  0
LINE
  5
2C3
100
AcDbEntity
  8
0
100
AcDbLine
 62
7
  6
BYLAYER
 10
20.16192583
 20
25.4160510718
 11
20.1619277529
 21
22.2916297574
  0
LINE
  5
2C4
100
AcDbEntity
  8
0
100
AcDbLine
 62
7
  6
BYLAYER
 10
20.4619186754
 20
26.4081851046
 11
20.4619265039
 21
22.4648330831
  0
LINE
  5
2C5
100
AcDbEntity
  8
0
100
AcDbLine
 62
7
  6
BYLAYER
 10
20.9619165936
 20
26.6968573142
 11
20.9619165937
 21
23.8390988542
  0
LINE
  5
2C6
100
AcDbEntity
  8
0
100
AcDbLine
 62
7
  6
BYLAYER
 10
20.9922369301
 20
28.0488247405
 11
20.9922404344
 21
27.5628704103
  0
LINE
  5
2C7
100
AcDbEntity
  8
0
100
AcDbLine
 62
7
  6
BYLAYER
 10
23.6723653421
 20
24.2513223229
 11
23.8509981285
 21
24.4747793908
  0
LINE
  5
2C8
100
AcDbEntity
  8
0
100
AcDbLine
 62
7
  6
BYLAYER
 10
25.3106051926
 20
26.3498004005
 11
27.1909352785
 21
26.3498049203
  0
LINE
  5
2C9
100
AcDbEntity
  8
0
100
AcDbLine
 62
7
  6
BYLAYER
 10
18.9619188017
 20
26.3906706661
 11
18.1202091785
 21
26.3906686429
  0
LINE
  5
2CA
100
AcDbEntity
  8
0
100
AcDbLine
 62
7
  6
BYLAYER
 10
22.3339563027
 20
26.6968606122
 11
20.9619165936
 21
26.6968573142
  0
LINE
  5
2CB
100
AcDbEntity
  8
0
100
AcDbLine
 62
7
  6
BYLAYER
 10
24.5106163518
 20
26.9412534809
 11
24.1106163518
 21
26.9412525195
  0
LINE
  5
2CC
100
AcDbEntity
  8
0
100
AcDbLine
 62
7
  6
BYLAYER
 10
18.1202050151
 20
26.9680106584
 11
19.4922447241
 21
26.9680139563
  0
LINE
  5
2CD
100
AcDbEntity
  8
0
100
AcDbLine
 62
7
  6
BYLAYER
 10
24.5106161845
 20
27.0869335925
 11
24.1106161845
 21
27.0869326311
  0
LINE
  5
2CE
100
AcDbEntity
  8
0
100
AcDbLine
 62
7
  6
BYLAYER
 10
21.4922425161
 20
27.2742006044
 11
22.3339521393
 21
27.2742026276
  0
LINE
  5
2CF
100
AcDbEntity
  8
0
100
AcDbLine
 62
7
  6
BYLAYER
 10
21.6606061515
 20
27.2742010091
 11
21.6606044861
 21
28.5866713745
  0
LINE
  5
2D0
100
AcDbEntity
  8
0
100
AcDbLine
 62
7
  6
BYLAYER
 10
21.700796865
 20
28.7091468336
 11
21.7007985304
 21
28.4782100274
  0
LINE
  5
2D1
100
AcDbEntity
  8
0
100
AcDbLine
 62
7
  6
BYLAYER
 10
21.9606074005
 20
28.1825326847
 11
21.9606074005
 21
27.2742017302
  0
LINE
  5
2D2
100
AcDbEntity
  8
0
100
AcDbLine
 62
7
  6
BYLAYER
 10
24.1106144288
 20
27.9267516566
 11
24.5106144288
 21
27.9267526181
  0
LINE
  5
2D3
100
AcDbEntity
  8
0
100
AcDbLine
 62
7
  6
BYLAYER
 10
20.6922354878
 20
28.2488211602
 11
20.2922354878
 21
28.2488201988
  0
LINE
  5
2D4
100
AcDbEntity
  8
0
100
AcDbLine
 62
7
  6
BYLAYER
 10
23.7802906887
 20
23.8623994929
 11
24.2045529911
 21
23.6174570798
  0
LINE
  5
2D5
100
AcDbEntity
  8
0
100
AcDbLine
 62
7
  6
BYLAYER
 10
23.7802906887
 20
24.1890130046
 11
23.1422437651
 21
24.5573812341
  0
LINE
  5
2D6
100
AcDbEntity
  8
0
100
AcDbLine
 62
7
  6
BYLAYER
 10
23.8509981285
 20
24.4747793908
 11
23.1422437651
 21
24.8839696561
  0
LINE
  5
2D7
100
AcDbEntity
  8
0
100
AcDbLine
 62
7
  6
BYLAYER
 10
22.1224863668
 20
29.0745719612
 11
22.1224847015
 21
29.3055087674
  0
LINE
  5
2D8
100
AcDbEntity
  8
0
100
AcDbLine
 62
7
  6
BYLAYER
 10
22.6803652152
 20
26.8700640495
 11
22.6803635498
 21
27.1010008556
  0
LINE
  5
2D9
100
AcDbEntity
  8
0
100
AcDbLine
 62
7
  6
BYLAYER
 10
22.8422466795
 20
23.839103374
 11
22.8422466795
 21
25.9780255512
  0
LINE
  5
2DA
100
AcDbEntity
  8
0
100
AcDbLine
 62
7
  6
BYLAYER
 10
23.3106074006
 20
28.9013722124
 11
22.4688977774
 21
28.9013701892
  0
LINE
  5
2DB
100
AcDbEntity
  8
0
100
AcDbLine
 62
7
  6
BYLAYER
 10
26.6826449015
 20
29.2075621585
 11
25.3106051925
 21
29.2075588605
  0
LINE
  5
2DC
100
AcDbEntity
  8
0
100
AcDbLine
 62
7
  6
BYLAYER
 10
24.2045529911
 20
24.433959497
 11
23.1422437651
 21
25.0472701396
  0
LINE
  5
2DD
100
AcDbEntity
  8
0
100
AcDbLine
 62
7
  6
BYLAYER
 10
23.1020513863
 20
26.5046409491
 11
23.1020530516
 21
26.273704143
  0
LINE
  5
2DE
100
AcDbEntity
  8
0
100
AcDbLine
 62
7
  6
BYLAYER
 10
23.1422437651
 20
26.3821656832
 11
23.1422454305
 21
24.0123066997
  0
LINE
  5
2DF
100
AcDbEntity
  8
0
100
AcDbLine
 62
7
  6
BYLAYER
 10
23.3106074005
 20
26.0436137525
 11
23.3106074005
 21
28.9013722124
  0
LINE
  5
2E0
100
AcDbEntity
  8
0
100
AcDbLine
 62
7
  6
BYLAYER
 10
23.7802906887
 20
23.3725105875
 11
23.7802906887
 21
24.1890130046
  0
LINE
  5
2E1
100
AcDbEntity
  8
0
100
AcDbLine
 62
7
  6
BYLAYER
 10
23.8106151028
 20
24.9755322257
 11
23.8106094822
 21
28.6127024066
  0
LINE
  5
2E2
100
AcDbEntity
  8
0
100
AcDbLine
 62
7
  6
BYLAYER
 10
23.8509981285
 20
23.9848779405
 11
23.8509981285
 21
24.4747793908
  0
LINE
  5
2E3
100
AcDbEntity
  8
0
100
AcDbLine
 62
7
  6
BYLAYER
 10
22.468893614
 20
29.4787122047
 11
23.840933323
 21
29.4787155026
  0
LINE
  5
2E4
100
AcDbEntity
  8
0
100
AcDbLine
 62
7
  6
BYLAYER
 10
25.840931115
 20
29.7849021507
 11
26.6826407381
 21
29.7849041739
  0
LINE
  5
2E5
100
AcDbEntity
  8
0
100
AcDbLine
 62
7
  6
BYLAYER
 10
22.3339563027
 20
26.6968606122
 11
22.8422466795
 21
25.9780255512
  0
LINE
  5
2E6
100
AcDbEntity
  8
0
100
AcDbLine
 62
7
  6
BYLAYER
 10
24.1106163518
 20
24.8023303422
 11
24.1106144288
 21
27.9267516566
  0
LINE
  5
2E7
100
AcDbEntity
  8
0
100
AcDbLine
 62
7
  6
BYLAYER
 10
24.2045529911
 20
23.6174570798
 11
24.2045529911
 21
24.433959497
  0
LINE
  5
2E8
100
AcDbEntity
  8
0
100
AcDbLine
 62
7
  6
BYLAYER
 10
24.3409312413
 20
29.7673877122
 11
24.3409255289
 21
30.5595238831
  0
LINE
  5
2E9
100
AcDbEntity
  8
0
100
AcDbLine
 62
7
  6
BYLAYER
 10
24.5106144288
 20
27.9267526181
 11
24.5106163518
 21
24.8023313037
  0
LINE
  5
2EA
100
AcDbEntity
  8
0
100
AcDbLine
 62
7
  6
BYLAYER
 10
24.8106072742
 20
28.9188866509
 11
24.8106151028
 21
24.9755346294
  0
LINE
  5
2EB
100
AcDbEntity
  8
0
100
AcDbLine
 62
7
  6
BYLAYER
 10
25.0409240867
 20
30.7595227065
 11
24.6409240867
 21
30.7595217451
  0
LINE
  5
2EC
100
AcDbEntity
  8
0
100
AcDbLine
 62
7
  6
BYLAYER
 10
23.1020530516
 20
26.273704143
 11
22.6803652152
 21
26.8700640495
  0
LINE
  5
2ED
100
AcDbEntity
  8
0
100
AcDbLine
 62
7
  6
BYLAYER
 10
22.6803635498
 20
27.1010008556
 11
23.1020513863
 21
26.5046409491
  0
LINE
  5
2EE
100
AcDbEntity
  8
0
100
AcDbLine
 62
7
  6
BYLAYER
 10
23.0871931843
 20
26.5553694137
 11
22.6605527526
 21
27.1587333857
  0
LINE
  5
2EF
100
AcDbEntity
  8
0
100
AcDbLine
 62
7
  6
BYLAYER
 10
25.3106051925
 20
29.2075588605
 11
25.3106051925
 21
26.3498004005
  0
LINE
  5
2F0
100
AcDbEntity
  8
0
100
AcDbLine
 62
7
  6
BYLAYER
 10
25.3409255289
 20
30.5595262868
 11
25.3409290333
 21
30.0735719566
  0
LINE
  5
2F1
100
AcDbEntity
  8
0
100
AcDbLine
 62
7
  6
BYLAYER
 10
28.1289792876
 20
26.6997145509
 11
27.4909340294
 21
27.068081819
  0
LINE
  5
2F2
100
AcDbEntity
  8
0
100
AcDbLine
 62
7
  6
BYLAYER
 10
27.029053814
 20
29.3807655958
 11
27.0290521487
 21
29.6117024019
  0
LINE
  5
2F3
100
AcDbEntity
  8
0
100
AcDbLine
 62
7
  6
BYLAYER
 10
27.1909352784
 20
26.3498049203
 11
27.1909352784
 21
28.4887270976
  0
LINE
  5
2F4
100
AcDbEntity
  8
0
100
AcDbLine
 62
7
  6
BYLAYER
 10
27.4507399851
 20
29.0153424954
 11
27.4507416505
 21
28.7844056893
  0
LINE
  5
2F5
100
AcDbEntity
  8
0
100
AcDbLine
 62
7
  6
BYLAYER
 10
27.490932364
 20
28.8928672295
 11
27.4909340294
 21
26.523008246
  0
LINE
  5
2F6
100
AcDbEntity
  8
0
100
AcDbLine
 62
7
  6
BYLAYER
 10
28.1289792876
 20
25.8832121338
 11
28.1289792876
 21
26.6997145509
  0
LINE
  5
2F7
100
AcDbEntity
  8
0
100
AcDbLine
 62
7
  6
BYLAYER
 10
26.6826449015
 20
29.2075621585
 11
27.1909352784
 21
28.4887270976
  0
LINE
  5
2F8
100
AcDbEntity
  8
0
100
AcDbLine
 62
7
  6
BYLAYER
 10
27.4507416505
 20
28.7844056893
 11
27.029053814
 21
29.3807655958
  0
LINE
  5
2F9
100
AcDbEntity
  8
0
100
AcDbLine
 62
7
  6
BYLAYER
 10
27.0290521487
 20
29.6117024019
 11
27.4507399851
 21
29.0153424954
  0
LINE
  5
2FA
100
AcDbEntity
  8
0
100
AcDbLine
 62
7
  6
BYLAYER
 10
27.4358817831
 20
29.06607096
 11
27.0092413514
 21
29.669434932
  0
ARC
  5
2FB
100
AcDbEntity
  8
0
100
AcDbCircle
 62
7
  6
BYLAYER
 10
13.2632272884
 20
23.5652690029
 40
0.3
100
AcDbArc
 50
144.7023829479
 51
180.0
  0
ARC
  5
2FC
100
AcDbEntity
  8
0
100
AcDbCircle
 62
7
  6
BYLAYER
 10
18.4935551663
 20
23.8714634158
 40
0.3
100
AcDbArc
 50
0.0004109512
 51
35.2991406159
  0
ARC
  5
2FD
100
AcDbEntity
  8
0
100
AcDbCircle
 62
7
  6
BYLAYER
 10
21.9606044861
 20
28.5866720956
 40
0.3
100
AcDbArc
 50
144.7023829479
 51
180.0
  0
ARC
  5
2FE
100
AcDbEntity
  8
0
100
AcDbCircle
 62
7
  6
BYLAYER
 10
27.190932364
 20
28.8928665084
 40
0.3
100
AcDbArc
 50
0.0004109512
 51
35.2991406159
  0
ARC
  5
2FF
100
AcDbEntity
  8
0
100
AcDbCircle
 62
7
  6
BYLAYER
 10
17.6119158873
 20
26.0759705493
 40
0.3
100
AcDbArc
 50
144.7023829479
 51
180.0
  0
ARC
  5
300
100
AcDbEntity
  8
0
100
AcDbCircle
 62
7
  6
BYLAYER
 10
22.8422437651
 20
26.3821649621
 40
0.3
100
AcDbArc
 50
0.0004109512
 51
35.2991406159
  0
ARC
  5
301
100
AcDbEntity
  8
0
100
AcDbCircle
 62
7
  6
BYLAYER
 10
8.9145386895
 20
21.0545674566
 40
0.3
100
AcDbArc
 50
144.7023829479
 51
180.0
  0
ARC
  5
302
100
AcDbEntity
  8
0
100
AcDbCircle
 62
7
  6
BYLAYER
 10
14.1448665674
 20
21.3607618694
 40
0.3
100
AcDbArc
 50
0.0004109512
 51
35.2991406159
  0
ARC
  5
303
100
AcDbEntity
  8
0
100
AcDbCircle
 62
7
  6
BYLAYER
 10
4.5658500907
 20
18.5438659103
 40
0.3
100
AcDbArc
 50
144.7023829479
 51
180.0
  0
ARC
  5
304
100
AcDbEntity
  8
0
100
AcDbCircle
 62
7
  6
BYLAYER
 10
9.7961779686
 20
18.8500603231
 40
0.3
100
AcDbArc
 50
0.0004109512
 51
35.2991406159
  0
ARC
  5
305
100
AcDbEntity
  8
0
100
AcDbCircle
 62
7
  6
BYLAYER
 10
8.8441917127
 20
21.0429886154
 40
0.2320898487
100
AcDbArc
 50
144.7185429931
 51
152.3609683768
  0
ARC
  5
306
100
AcDbEntity
  8
0
100
AcDbCircle
 62
7
  6
BYLAYER
 10
4.4955031139
 20
18.5322870691
 40
0.2320898487
100
AcDbArc
 50
144.7185429931
 51
152.3609683768
  0
ARC
  5
307
100
AcDbEntity
  8
0
100
AcDbCircle
 62
7
  6
BYLAYER
 10
13.1928803116
 20
23.5536901617
 40
0.2320898487
100
AcDbArc
 50
144.7185429931
 51
152.3609683768
  0
ARC
  5
308
100
AcDbEntity
  8
0
100
AcDbCircle
 62
7
  6
BYLAYER
 10
17.5415689104
 20
26.064391708
 40
0.2320898487
100
AcDbArc
 50
144.7185429933
 51
152.3609683769
  0
ARC
  5
309
100
AcDbEntity
  8
0
100
AcDbCircle
 62
7
  6
BYLAYER
 10
21.8902575093
 20
28.5750932544
 40
0.2320898487
100
AcDbArc
 50
144.7185429932
 51
152.3609683768
  0
SPLINE
  5
30A
100
AcDbEntity
  8
0
100
AcDbSpline
 62
7
  6
BYLAYER
 70
0
 71
3
 72
11
 73
7
 74
0
 42
0.0000001
 43
0.0000001
 44
0.0000000001
 40
0.0
 40
0.0
 40
0.0
 40
0.0
 40
0.2659715471
 40
0.5253522779
 40
0.7717470148
 40
1.0
 40
1.0
 40
1.0
 40
1.0
 10
6.4461789276
 20
19.4359093174
 30
0.0
 10
6.4787368237
 20
19.4359093957
 30
0.0
 10
6.543104392
 20
19.4395357712
 30
0.0
 10
6.6364162617
 20
19.4556323183
 30
0.0
 10
6.7226045162
 20
19.4818591959
 30
0.0
 10
6.7755342975
 20
19.5064896496
 30
0.0
 10
6.7997317084
 20
19.5204599479
 30
0.0
  0
SPLINE
  5
30B
100
AcDbEntity
  8
0
100
AcDbSpline
 62
7
  6
BYLAYER
 70
0
 71
3
 72
13
 73
9
 74
0
 42
0.0000001
 43
0.0000001
 44
0.0000000001
 40
0.0
 40
0.0
 40
0.0
 40
0.0
 40
0.2893084611
 40
0.5483056839
 40
0.6677428711
 40
0.7818307727
 40
0.8920365267
 40
1.0
 40
1.0
 40
1.0
 40
1.0
 10
6.7997317084
 20
19.5204599479
 30
0.0
 10
6.8216711895
 20
19.5331266376
 30
0.0
 10
6.8614572308
 20
19.5605240056
 30
0.0
 10
6.9021695188
 20
19.6033230104
 30
0.0
 10
6.9250919902
 20
19.640011874
 30
0.0
 10
6.9371885854
 20
19.667704292
 30
0.0
 10
6.9445170161
 20
19.6959864083
 30
0.0
 10
6.946176914
 20
19.7151276318
 30
0.0
 10
6.9461768458
 20
19.724581527
 30
0.0
  0
SPLINE
  5
30C
100
AcDbEntity
  8
0
100
AcDbSpline
 62
7
  6
BYLAYER
 70
0
 71
3
 72
17
 73
13
 74
0
 42
0.0000001
 43
0.0000001
 44
0.0000000001
 40
0.0
 40
0.0
 40
0.0
 40
0.0
 40
0.0450220393
 40
0.0909800644
 40
0.1385659638
 40
0.1883884373
 40
0.2963377319
 40
0.4170275439
 40
0.5501319931
 40
0.6937108637
 40
0.8449480495
 40
1.0
 40
1.0
 40
1.0
 40
1.0
 10
7.9461746378
 20
20.0307657713
 30
0.0
 10
7.946174706
 20
20.0213121523
 30
0.0
 10
7.9478331588
 20
20.0021712662
 30
0.0
 10
7.9551607523
 20
19.9738873035
 30
0.0
 10
7.9672636697
 20
19.9461918391
 30
0.0
 10
7.9901891995
 20
19.909516101
 30
0.0
 10
8.030897105
 20
19.8666974674
 30
0.0
 10
8.0937933275
 20
19.82339602
 30
0.0
 10
8.1697364939
 20
19.788042086
 30
0.0
 10
8.2559495835
 20
19.761823932
 30
0.0
 10
8.3492447888
 20
19.7457179804
 30
0.0
 10
8.4136192856
 20
19.7420958872
 30
0.0
 10
8.4461767195
 20
19.7420959655
 30
0.0
  0
SPLINE
  5
30D
100
AcDbEntity
  8
0
100
AcDbSpline
 62
7
  6
BYLAYER
 70
0
 71
3
 72
11
 73
7
 74
0
 42
0.0000001
 43
0.0000001
 44
0.0000000001
 40
0.0
 40
0.0
 40
0.0
 40
0.0
 40
0.2659715471
 40
0.5253522779
 40
0.7717470148
 40
1.0
 40
1.0
 40
1.0
 40
1.0
 10
10.7948675264
 20
21.9466108637
 30
0.0
 10
10.8274254225
 20
21.946610942
 30
0.0
 10
10.8917929908
 20
21.9502373175
 30
0.0
 10
10.9851048605
 20
21.9663338646
 30
0.0
 10
11.0712931151
 20
21.9925607422
 30
0.0
 10
11.1242228964
 20
22.0171911959
 30
0.0
 10
11.1484203073
 20
22.0311614942
 30
0.0
  0
SPLINE
  5
30E
100
AcDbEntity
  8
0
100
AcDbSpline
 62
7
  6
BYLAYER
 70
0
 71
3
 72
13
 73
9
 74
0
 42
0.0000001
 43
0.0000001
 44
0.0000000001
 40
0.0
 40
0.0
 40
0.0
 40
0.0
 40
0.2893084611
 40
0.5483056839
 40
0.6677428711
 40
0.7818307727
 40
0.8920365267
 40
1.0
 40
1.0
 40
1.0
 40
1.0
 10
11.1484203073
 20
22.0311614942
 30
0.0
 10
11.1703597883
 20
22.0438281839
 30
0.0
 10
11.2101458297
 20
22.0712255519
 30
0.0
 10
11.2508581176
 20
22.1140245568
 30
0.0
 10
11.2737805891
 20
22.1507134203
 30
0.0
 10
11.2858771843
 20
22.1784058383
 30
0.0
 10
11.293205615
 20
22.2066879546
 30
0.0
 10
11.2948655129
 20
22.2258291781
 30
0.0
 10
11.2948654447
 20
22.2352830733
 30
0.0
  0
SPLINE
  5
30F
100
AcDbEntity
  8
0
100
AcDbSpline
 62
7
  6
BYLAYER
 70
0
 71
3
 72
17
 73
13
 74
0
 42
0.0000001
 43
0.0000001
 44
0.0000000001
 40
0.0
 40
0.0
 40
0.0
 40
0.0
 40
0.0450220393
 40
0.0909800644
 40
0.1385659638
 40
0.1883884373
 40
0.2963377319
 40
0.4170275439
 40
0.5501319931
 40
0.6937108637
 40
0.8449480495
 40
1.0
 40
1.0
 40
1.0
 40
1.0
 10
12.2948632367
 20
22.5414673176
 30
0.0
 10
12.2948633049
 20
22.5320136986
 30
0.0
 10
12.2965217576
 20
22.5128728125
 30
0.0
 10
12.3038493511
 20
22.4845888499
 30
0.0
 10
12.3159522685
 20
22.4568933854
 30
0.0
 10
12.3388777984
 20
22.4202176473
 30
0.0
 10
12.3795857039
 20
22.3773990137
 30
0.0
 10
12.4424819264
 20
22.3340975663
 30
0.0
 10
12.5184250927
 20
22.2987436323
 30
0.0
 10
12.6046381824
 20
22.2725254784
 30
0.0
 10
12.6979333876
 20
22.2564195268
 30
0.0
 10
12.7623078844
 20
22.2527974335
 30
0.0
 10
12.7948653184
 20
22.2527975118
 30
0.0
  0
SPLINE
  5
310
100
AcDbEntity
  8
0
100
AcDbSpline
 62
7
  6
BYLAYER
 70
0
 71
3
 72
17
 73
13
 74
0
 42
0.0000001
 43
0.0000001
 44
0.0000000001
 40
0.0
 40
0.0
 40
0.0
 40
0.0
 40
0.0450220393
 40
0.0909800644
 40
0.1385659638
 40
0.1883884373
 40
0.2963377319
 40
0.4170275439
 40
0.5501319931
 40
0.6937108636
 40
0.8449480495
 40
1.0
 40
1.0
 40
1.0
 40
1.0
 10
16.6435518356
 20
25.052168864
 30
0.0
 10
16.6435519037
 20
25.0427152449
 30
0.0
 10
16.6452103565
 20
25.0235743588
 30
0.0
 10
16.65253795
 20
24.9952903962
 30
0.0
 10
16.6646408674
 20
24.9675949317
 30
0.0
 10
16.6875663972
 20
24.9309191936
 30
0.0
 10
16.7282743028
 20
24.8881005601
 30
0.0
 10
16.7911705252
 20
24.8447991126
 30
0.0
 10
16.8671136916
 20
24.8094451787
 30
0.0
 10
16.9533267813
 20
24.7832270247
 30
0.0
 10
17.0466219865
 20
24.7671210731
 30
0.0
 10
17.1109964833
 20
24.7634989798
 30
0.0
 10
17.1435539172
 20
24.7634990581
 30
0.0
  0
SPLINE
  5
311
100
AcDbEntity
  8
0
100
AcDbSpline
 62
7
  6
BYLAYER
 70
0
 71
3
 72
13
 73
9
 74
0
 42
0.0000001
 43
0.0000001
 44
0.0000000001
 40
0.0
 40
0.0
 40
0.0
 40
0.0
 40
0.2893084611
 40
0.5483056839
 40
0.6677428711
 40
0.7818307727
 40
0.8920365267
 40
1.0
 40
1.0
 40
1.0
 40
1.0
 10
15.4971089061
 20
24.5418630405
 30
0.0
 10
15.5190483872
 20
24.5545297302
 30
0.0
 10
15.5588344285
 20
24.5819270982
 30
0.0
 10
15.5995467165
 20
24.6247261031
 30
0.0
 10
15.6224691879
 20
24.6614149666
 30
0.0
 10
15.6345657832
 20
24.6891073846
 30
0.0
 10
15.6418942139
 20
24.7173895009
 30
0.0
 10
15.6435541117
 20
24.7365307244
 30
0.0
 10
15.6435540436
 20
24.7459846196
 30
0.0
  0
SPLINE
  5
312
100
AcDbEntity
  8
0
100
AcDbSpline
 62
7
  6
BYLAYER
 70
0
 71
3
 72
11
 73
7
 74
0
 42
0.0000001
 43
0.0000001
 44
0.0000000001
 40
0.0
 40
0.0
 40
0.0
 40
0.0
 40
0.2659715471
 40
0.5253522779
 40
0.7717470148
 40
1.0
 40
1.0
 40
1.0
 40
1.0
 10
15.1435561253
 20
24.45731241
 30
0.0
 10
15.1761140214
 20
24.4573124883
 30
0.0
 10
15.2404815897
 20
24.4609388638
 30
0.0
 10
15.3337934594
 20
24.4770354109
 30
0.0
 10
15.4199817139
 20
24.5032622885
 30
0.0
 10
15.4729114952
 20
24.5278927422
 30
0.0
 10
15.4971089061
 20
24.5418630405
 30
0.0
  0
SPLINE
  5
313
100
AcDbEntity
  8
0
100
AcDbSpline
 62
7
  6
BYLAYER
 70
0
 71
3
 72
11
 73
7
 74
0
 42
0.0000001
 43
0.0000001
 44
0.0000000001
 40
0.0
 40
0.0
 40
0.0
 40
0.0
 40
0.2659715471
 40
0.5253522779
 40
0.7717470148
 40
1.0
 40
1.0
 40
1.0
 40
1.0
 10
19.4922447241
 20
26.9680139563
 30
0.0
 10
19.5248026203
 20
26.9680140346
 30
0.0
 10
19.5891701886
 20
26.9716404101
 30
0.0
 10
19.6824820583
 20
26.9877369572
 30
0.0
 10
19.7686703128
 20
27.0139638349
 30
0.0
 10
19.8216000941
 20
27.0385942885
 30
0.0
 10
19.845797505
 20
27.0525645868
 30
0.0
  0
SPLINE
  5
314
100
AcDbEntity
  8
0
100
AcDbSpline
 62
7
  6
BYLAYER
 70
0
 71
3
 72
13
 73
9
 74
0
 42
0.0000001
 43
0.0000001
 44
0.0000000001
 40
0.0
 40
0.0
 40
0.0
 40
0.0
 40
0.2893084611
 40
0.5483056839
 40
0.6677428711
 40
0.7818307727
 40
0.8920365267
 40
1.0
 40
1.0
 40
1.0
 40
1.0
 10
19.845797505
 20
27.0525645868
 30
0.0
 10
19.8677369861
 20
27.0652312765
 30
0.0
 10
19.9075230274
 20
27.0926286445
 30
0.0
 10
19.9482353154
 20
27.1354276494
 30
0.0
 10
19.9711577868
 20
27.1721165129
 30
0.0
 10
19.983254382
 20
27.1998089309
 30
0.0
 10
19.9905828127
 20
27.2280910472
 30
0.0
 10
19.9922427106
 20
27.2472322707
 30
0.0
 10
19.9922426424
 20
27.2566861659
 30
0.0
  0
SPLINE
  5
315
100
AcDbEntity
  8
0
100
AcDbSpline
 62
7
  6
BYLAYER
 70
0
 71
3
 72
17
 73
13
 74
0
 42
0.0000001
 43
0.0000001
 44
0.0000000001
 40
0.0
 40
0.0
 40
0.0
 40
0.0
 40
0.0450220393
 40
0.0909800644
 40
0.1385659638
 40
0.1883884373
 40
0.2963377319
 40
0.4170275439
 40
0.5501319931
 40
0.6937108637
 40
0.8449480495
 40
1.0
 40
1.0
 40
1.0
 40
1.0
 10
20.9922404344
 20
27.5628704103
 30
0.0
 10
20.9922405026
 20
27.5534167912
 30
0.0
 10
20.9938989554
 20
27.5342759051
 30
0.0
 10
21.0012265489
 20
27.5059919425
 30
0.0
 10
21.0133294663
 20
27.478296478
 30
0.0
 10
21.0362549961
 20
27.4416207399
 30
0.0
 10
21.0769629016
 20
27.3988021064
 30
0.0
 10
21.1398591241
 20
27.3555006589
 30
0.0
 10
21.2158022904
 20
27.320146725
 30
0.0
 10
21.3020153801
 20
27.293928571
 30
0.0
 10
21.3953105853
 20
27.2778226194
 30
0.0
 10
21.4596850821
 20
27.2742005261
 30
0.0
 10
21.4922425161
 20
27.2742006044
 30
0.0
  0
SPLINE
  5
316
100
AcDbEntity
  8
0
100
AcDbSpline
 62
7
  6
BYLAYER
 70
0
 71
3
 72
11
 73
7
 74
0
 42
0.0000001
 43
0.0000001
 44
0.0000000001
 40
0.0
 40
0.0
 40
0.0
 40
0.0
 40
0.2659715471
 40
0.5253522779
 40
0.7717470148
 40
1.0
 40
1.0
 40
1.0
 40
1.0
 10
23.840933323
 20
29.4787155026
 30
0.0
 10
23.8734912191
 20
29.4787155809
 30
0.0
 10
23.9378587874
 20
29.4823419564
 30
0.0
 10
24.0311706571
 20
29.4984385035
 30
0.0
 10
24.1173589116
 20
29.5246653812
 30
0.0
 10
24.1702886929
 20
29.5492958348
 30
0.0
 10
24.1944861039
 20
29.5632661331
 30
0.0
  0
SPLINE
  5
317
100
AcDbEntity
  8
0
100
AcDbSpline
 62
7
  6
BYLAYER
 70
0
 71
3
 72
13
 73
9
 74
0
 42
0.0000001
 43
0.0000001
 44
0.0000000001
 40
0.0
 40
0.0
 40
0.0
 40
0.0
 40
0.2893084611
 40
0.5483056839
 40
0.6677428711
 40
0.7818307727
 40
0.8920365267
 40
1.0
 40
1.0
 40
1.0
 40
1.0
 10
24.1944861039
 20
29.5632661331
 30
0.0
 10
24.2164255849
 20
29.5759328228
 30
0.0
 10
24.2562116263
 20
29.6033301909
 30
0.0
 10
24.2969239142
 20
29.6461291957
 30
0.0
 10
24.3198463857
 20
29.6828180592
 30
0.0
 10
24.3319429809
 20
29.7105104772
 30
0.0
 10
24.3392714116
 20
29.7387925935
 30
0.0
 10
24.3409313095
 20
29.757933817
 30
0.0
 10
24.3409312413
 20
29.7673877122
 30
0.0
  0
SPLINE
  5
318
100
AcDbEntity
  8
0
100
AcDbSpline
 62
7
  6
BYLAYER
 70
0
 71
3
 72
17
 73
13
 74
0
 42
0.0000001
 43
0.0000001
 44
0.0000000001
 40
0.0
 40
0.0
 40
0.0
 40
0.0
 40
0.0450220393
 40
0.0909800644
 40
0.1385659638
 40
0.1883884373
 40
0.2963377319
 40
0.4170275439
 40
0.5501319931
 40
0.6937108637
 40
0.8449480495
 40
1.0
 40
1.0
 40
1.0
 40
1.0
 10
25.3409290333
 20
30.0735719566
 30
0.0
 10
25.3409291015
 20
30.0641183375
 30
0.0
 10
25.3425875542
 20
30.0449774514
 30
0.0
 10
25.3499151477
 20
30.0166934888
 30
0.0
 10
25.3620180651
 20
29.9889980243
 30
0.0
 10
25.384943595
 20
29.9523222862
 30
0.0
 10
25.4256515005
 20
29.9095036527
 30
0.0
 10
25.4885477229
 20
29.8662022052
 30
0.0
 10
25.5644908893
 20
29.8308482713
 30
0.0
 10
25.650703979
 20
29.8046301173
 30
0.0
 10
25.7439991842
 20
29.7885241657
 30
0.0
 10
25.808373681
 20
29.7849020724
 30
0.0
 10
25.840931115
 20
29.7849021507
 30
0.0
  0
SPLINE
  5
319
100
AcDbEntity
  8
0
100
AcDbSpline
 62
7
  6
BYLAYER
 70
0
 71
3
 72
15
 73
11
 74
0
 42
0.0000001
 43
0.0000001
 44
0.0000000001
 40
0.0
 40
0.0
 40
0.0
 40
0.0
 40
0.0906764977
 40
0.1879256768
 40
0.2959406066
 40
0.4167062588
 40
0.549851489
 40
0.6935181406
 40
0.844937003
 40
1.0
 40
1.0
 40
1.0
 40
1.0
 10
4.265851756
 20
16.1740062058
 30
0.0
 10
4.2658518384
 20
16.1625888687
 30
0.0
 10
4.2700970521
 20
16.138773703
 30
0.0
 10
4.2881190375
 20
16.1055825183
 30
0.0
 10
4.3166796982
 20
16.075569192
 30
0.0
 10
4.3544356541
 20
16.0495976869
 30
0.0
 10
4.3999828888
 20
16.0283666111
 30
0.0
 10
4.451722242
 20
16.0126364379
 30
0.0
 10
4.5077029961
 20
16.002988712
 30
0.0
 10
4.5463285798
 20
16.0008042753
 30
0.0
 10
4.565853005
 20
16.0008043222
 30
0.0
  0
SPLINE
  5
31A
100
AcDbEntity
  8
0
100
AcDbSpline
 62
7
  6
BYLAYER
 70
0
 71
3
 72
9
 73
5
 74
0
 42
0.0000001
 43
0.0000001
 44
0.0000000001
 40
0.0
 40
0.0
 40
0.0
 40
0.0
 40
0.4811326545
 40
1.0
 40
1.0
 40
1.0
 40
1.0
 10
8.669581416
 20
21.2277657178
 30
0.0
 10
8.6646290979
 20
21.2207597262
 30
0.0
 10
8.6568955581
 20
21.2042648611
 30
0.0
 10
8.6547310017
 20
21.1862946727
 30
0.0
 10
8.6547310684
 20
21.1770421947
 30
0.0
  0
SPLINE
  5
31B
100
AcDbEntity
  8
0
100
AcDbSpline
 62
7
  6
BYLAYER
 70
0
 71
3
 72
17
 73
13
 74
0
 42
0.0000001
 43
0.0000001
 44
0.0000000001
 40
0.0
 40
0.0
 40
0.0
 40
0.0
 40
0.1550519061
 40
0.3062890161
 40
0.4498678718
 40
0.5829723262
 40
0.7036621586
 40
0.8116114805
 40
0.8614339792
 40
0.9090199069
 40
0.9549779533
 40
1.0
 40
1.0
 40
1.0
 40
1.0
 10
5.9158530051
 20
16.0008075672
 30
0.0
 10
5.9484104296
 20
16.0008076455
 30
0.0
 10
6.0127849015
 20
15.9971855611
 30
0.0
 10
6.1060800784
 20
15.9810796132
 30
0.0
 10
6.1922931535
 20
15.9548614749
 30
0.0
 10
6.268236327
 20
15.919507552
 30
0.0
 10
6.3311325681
 20
15.8762061116
 30
0.0
 10
6.3718404904
 20
15.8333874737
 30
0.0
 10
6.3947660395
 20
15.796711727
 30
0.0
 10
6.4068689586
 20
15.769016246
 30
0.0
 10
6.4141965617
 20
15.7407322741
 30
0.0
 10
6.4158550186
 20
15.721591382
 30
0.0
 10
6.4158550867
 20
15.7121377614
 30
0.0
  0
SPLINE
  5
31C
100
AcDbEntity
  8
0
100
AcDbSpline
 62
7
  6
BYLAYER
 70
0
 71
3
 72
9
 73
5
 74
0
 42
0.0000001
 43
0.0000001
 44
0.0000000001
 40
0.0
 40
0.0
 40
0.0
 40
0.0
 40
0.4922271593
 40
1.0
 40
1.0
 40
1.0
 40
1.0
 10
14.4448665674
 20
21.3607640212
 30
0.0
 10
14.4448664134
 20
21.3821693559
 30
0.0
 10
14.4377198974
 20
21.4259250551
 30
0.0
 10
14.4174228244
 20
21.4652084646
 30
0.0
 10
14.4046741886
 20
21.4832378565
 30
0.0
  0
SPLINE
  5
31D
100
AcDbEntity
  8
0
100
AcDbSpline
 62
7
  6
BYLAYER
 70
0
 71
3
 72
9
 73
5
 74
0
 42
0.0000001
 43
0.0000001
 44
0.0000000001
 40
0.0
 40
0.0
 40
0.0
 40
0.0
 40
0.5188669467
 40
1.0
 40
1.0
 40
1.0
 40
1.0
 10
14.4046741886
 20
21.4832378565
 30
0.0
 10
14.4046741218
 20
21.492491473
 30
0.0
 10
14.402508756
 20
21.5104639066
 30
0.0
 10
14.3947728805
 20
21.5269602901
 30
0.0
 10
14.3898192317
 20
21.5339666505
 30
0.0
  0
SPLINE
  5
31E
100
AcDbEntity
  8
0
100
AcDbSpline
 62
7
  6
BYLAYER
 70
0
 71
3
 72
11
 73
7
 74
0
 42
0.0000001
 43
0.0000001
 44
0.0000000001
 40
0.0
 40
0.0
 40
0.0
 40
0.0
 40
0.2177157896
 40
0.45093883
 40
0.7102926367
 40
1.0
 40
1.0
 40
1.0
 40
1.0
 10
18.7935568316
 20
23.6405273307
 30
0.0
 10
18.793556914
 20
23.6291043297
 30
0.0
 10
18.7893276325
 20
23.6052886775
 30
0.0
 10
18.7712865661
 20
23.5720971366
 30
0.0
 10
18.7427315398
 20
23.5421054664
 30
0.0
 10
18.7188535439
 20
23.5256544583
 30
0.0
 10
18.7056897492
 20
23.5180543832
 30
0.0
  0
SPLINE
  5
31F
100
AcDbEntity
  8
0
100
AcDbSpline
 62
7
  6
BYLAYER
 70
0
 71
3
 72
9
 73
5
 74
0
 42
0.0000001
 43
0.0000001
 44
0.0000000001
 40
0.0
 40
0.0
 40
0.0
 40
0.0
 40
0.5077728572
 40
1.0
 40
1.0
 40
1.0
 40
1.0
 10
18.7533644528
 20
23.7630025966
 30
0.0
 10
18.7661132271
 20
23.7449730089
 30
0.0
 10
18.7864104683
 20
23.7056891278
 30
0.0
 10
18.7935568316
 20
23.6619328966
 30
0.0
 10
18.7935568316
 20
23.6405273307
 30
0.0
  0
SPLINE
  5
320
100
AcDbEntity
  8
0
100
AcDbSpline
 62
7
  6
BYLAYER
 70
0
 71
3
 72
15
 73
11
 74
0
 42
0.0000001
 43
0.0000001
 44
0.0000000001
 40
0.0
 40
0.0
 40
0.0
 40
0.0
 40
0.1404486061
 40
0.2838603843
 40
0.4261377629
 40
0.5632479637
 40
0.6915373792
 40
0.8080418731
 40
0.9109096311
 40
1.0
 40
1.0
 40
1.0
 40
1.0
 10
18.4935580807
 20
23.4673240049
 30
0.0
 10
18.5109094774
 20
23.475503632
 30
0.0
 10
18.5451030003
 20
23.4939479189
 30
0.0
 10
18.5934341401
 20
23.5265313334
 30
0.0
 10
18.6380322237
 20
23.5633647372
 30
0.0
 10
18.6772231275
 20
23.6030651973
 30
0.0
 10
18.7095604659
 20
23.6441502995
 30
0.0
 10
18.7338615294
 20
23.6851493657
 30
0.0
 10
18.7492480984
 20
23.7245932954
 30
0.0
 10
18.7533645405
 20
23.7508344673
 30
0.0
 10
18.7533644528
 20
23.7630025966
 30
0.0
  0
SPLINE
  5
321
100
AcDbEntity
  8
0
100
AcDbSpline
 62
7
  6
BYLAYER
 70
0
 71
3
 72
11
 73
7
 74
0
 42
0.0000001
 43
0.0000001
 44
0.0000000001
 40
0.0
 40
0.0
 40
0.0
 40
0.0
 40
0.2282523097
 40
0.4746465477
 40
0.7340278385
 40
1.0
 40
1.0
 40
1.0
 40
1.0
 10
18.7056897492
 20
23.5180543832
 30
0.0
 10
18.6911713335
 20
23.5096722221
 30
0.0
 10
18.6594137441
 20
23.4948935367
 30
0.0
 10
18.6077008492
 20
23.479157084
 30
0.0
 10
18.5517135456
 20
23.4694995059
 30
0.0
 10
18.5130928797
 20
23.4673240519
 30
0.0
 10
18.4935580807
 20
23.4673240049
 30
0.0
  0
SPLINE
  5
322
100
AcDbEntity
  8
0
100
AcDbSpline
 62
7
  6
BYLAYER
 70
0
 71
3
 72
13
 73
9
 74
0
 42
0.0000001
 43
0.0000001
 44
0.0000000001
 40
0.0
 40
0.0
 40
0.0
 40
0.0
 40
0.1079634733
 40
0.2181692273
 40
0.3322571289
 40
0.4516943161
 40
0.7106915389
 40
1.0
 40
1.0
 40
1.0
 40
1.0
 10
7.4158528788
 20
16.0183220057
 30
0.0
 10
7.4158528106
 20
16.0277759009
 30
0.0
 10
7.4175127085
 20
16.0469171244
 30
0.0
 10
7.4248411391
 20
16.0751992408
 30
0.0
 10
7.4369377344
 20
16.1028916587
 30
0.0
 10
7.4598602058
 20
16.1395805223
 30
0.0
 10
7.5005724938
 20
16.1823795271
 30
0.0
 10
7.5403585351
 20
16.2097768951
 30
0.0
 10
7.5622980162
 20
16.2224435848
 30
0.0
  0
SPLINE
  5
323
100
AcDbEntity
  8
0
100
AcDbSpline
 62
7
  6
BYLAYER
 70
0
 71
3
 72
9
 73
5
 74
0
 42
0.0000001
 43
0.0000001
 44
0.0000000001
 40
0.0
 40
0.0
 40
0.0
 40
0.0
 40
0.4811326545
 40
1.0
 40
1.0
 40
1.0
 40
1.0
 10
4.3208928171
 20
18.7170641715
 30
0.0
 10
4.3159404991
 20
18.7100581799
 30
0.0
 10
4.3082069592
 20
18.6935633148
 30
0.0
 10
4.3060424028
 20
18.6755931264
 30
0.0
 10
4.3060424695
 20
18.6663406484
 30
0.0
  0
SPLINE
  5
324
100
AcDbEntity
  8
0
100
AcDbSpline
 62
7
  6
BYLAYER
 70
0
 71
3
 72
11
 73
7
 74
0
 42
0.0000001
 43
0.0000001
 44
0.0000000001
 40
0.0
 40
0.0
 40
0.0
 40
0.0
 40
0.2282529852
 40
0.4746477221
 40
0.7340284529
 40
1.0
 40
1.0
 40
1.0
 40
1.0
 10
7.5622980162
 20
16.2224435848
 30
0.0
 10
7.5864954271
 20
16.2364138831
 30
0.0
 10
7.6394252084
 20
16.2610443368
 30
0.0
 10
7.7256134629
 20
16.2872712144
 30
0.0
 10
7.8189253326
 20
16.3033677615
 30
0.0
 10
7.8832929009
 20
16.306994137
 30
0.0
 10
7.915850797
 20
16.3069942153
 30
0.0
  0
SPLINE
  5
325
100
AcDbEntity
  8
0
100
AcDbSpline
 62
7
  6
BYLAYER
 70
0
 71
3
 72
11
 73
7
 74
0
 42
0.0000001
 43
0.0000001
 44
0.0000000001
 40
0.0
 40
0.0
 40
0.0
 40
0.0
 40
0.2897075663
 40
0.5490616243
 40
0.7822846958
 40
1.0
 40
1.0
 40
1.0
 40
1.0
 10
6.5037295562
 20
16.9491756927
 30
0.0
 10
6.4905656471
 20
16.9567757072
 30
0.0
 10
6.4666874139
 20
16.9732266027
 30
0.0
 10
6.4381319703
 20
17.0032181196
 30
0.0
 10
6.4200904309
 20
17.0364095446
 30
0.0
 10
6.4158607897
 20
17.0602251985
 30
0.0
 10
6.4158607073
 20
17.0716482178
 30
0.0
  0
SPLINE
  5
326
100
AcDbEntity
  8
0
100
AcDbSpline
 62
7
  6
BYLAYER
 70
0
 71
3
 72
17
 73
13
 74
0
 42
0.0000001
 43
0.0000001
 44
0.0000000001
 40
0.0
 40
0.0
 40
0.0
 40
0.0
 40
0.0317282096
 40
0.0558912238
 40
0.0868615784
 40
0.1249808027
 40
0.1703520292
 40
0.2827980845
 40
0.4235205685
 40
0.5911850323
 40
0.7840868129
 40
1.0
 40
1.0
 40
1.0
 40
1.0
 10
6.4158607073
 20
17.0716482178
 30
0.0
 10
6.415860752
 20
17.0705116574
 30
0.0
 10
6.4173215938
 20
17.0687037362
 30
0.0
 10
6.4198994725
 20
17.0670829153
 30
0.0
 10
6.4229452748
 20
17.0656380249
 30
0.0
 10
6.4267943833
 20
17.0642392362
 30
0.0
 10
6.4335274319
 20
17.062233689
 30
0.0
 10
6.4439722952
 20
17.0599005438
 30
0.0
 10
6.458834302
 20
17.0573542186
 30
0.0
 10
6.4766334756
 20
17.0549558774
 30
0.0
 10
6.4971656294
 20
17.0527329073
 30
0.0
 10
6.5117553278
 20
17.0514559689
 30
0.0
 10
6.5194654238
 20
17.0508434176
 30
0.0
  0
SPLINE
  5
327
100
AcDbEntity
  8
0
100
AcDbSpline
 62
7
  6
BYLAYER
 70
0
 71
3
 72
9
 73
5
 74
0
 42
0.0000001
 43
0.0000001
 44
0.0000000001
 40
0.0
 40
0.0
 40
0.0
 40
0.0
 40
0.4664445497
 40
1.0
 40
1.0
 40
1.0
 40
1.0
 10
6.5194654238
 20
17.0508434176
 30
0.0
 10
6.5499287304
 20
17.0484231706
 30
0.0
 10
6.6153883685
 20
17.0451552601
 30
0.0
 10
6.6809056949
 20
17.0441263618
 30
0.0
 10
6.715861789
 20
17.0441264458
 30
0.0
  0
SPLINE
  5
328
100
AcDbEntity
  8
0
100
AcDbSpline
 62
7
  6
BYLAYER
 70
0
 71
3
 72
11
 73
7
 74
0
 42
0.0000001
 43
0.0000001
 44
0.0000000001
 40
0.0
 40
0.0
 40
0.0
 40
0.0
 40
0.2659717519
 40
0.5253529253
 40
0.7717473172
 40
1.0
 40
1.0
 40
1.0
 40
1.0
 10
13.2632302028
 20
23.1611295921
 30
0.0
 10
13.2436953931
 20
23.1611295452
 30
0.0
 10
13.2050746752
 20
23.1633048171
 30
0.0
 10
13.1490872343
 20
23.1729621293
 30
0.0
 10
13.0973741167
 20
23.1886983362
 30
0.0
 10
13.0656163327
 20
23.203476863
 30
0.0
 10
13.0510978026
 20
23.2118589506
 30
0.0
  0
SPLINE
  5
329
100
AcDbEntity
  8
0
100
AcDbSpline
 62
7
  6
BYLAYER
 70
0
 71
3
 72
9
 73
5
 74
0
 42
0.0000001
 43
0.0000001
 44
0.0000000001
 40
0.0
 40
0.0
 40
0.0
 40
0.0
 40
0.4922271593
 40
1.0
 40
1.0
 40
1.0
 40
1.0
 10
10.0961779685
 20
18.8500624749
 30
0.0
 10
10.0961778146
 20
18.8714678096
 30
0.0
 10
10.0890312985
 20
18.9152235088
 30
0.0
 10
10.0687342255
 20
18.9545069183
 30
0.0
 10
10.0559855897
 20
18.9725363102
 30
0.0
  0
SPLINE
  5
32A
100
AcDbEntity
  8
0
100
AcDbSpline
 62
7
  6
BYLAYER
 70
0
 71
3
 72
15
 73
11
 74
0
 42
0.0000001
 43
0.0000001
 44
0.0000000001
 40
0.0
 40
0.0
 40
0.0
 40
0.0
 40
0.0890910195
 40
0.191959764
 40
0.3084649204
 40
0.4367547321
 40
0.5738649096
 40
0.7161418136
 40
0.8595525455
 40
1.0
 40
1.0
 40
1.0
 40
1.0
 10
13.0034213326
 20
23.4568069348
 30
0.0
 10
13.0034214204
 20
23.4446387047
 30
0.0
 10
13.0075383146
 20
23.4183973516
 30
0.0
 10
13.0229254698
 20
23.3789532754
 30
0.0
 10
13.0472271747
 20
23.3379542098
 30
0.0
 10
13.0795650093
 20
23.2968692593
 30
0.0
 10
13.1187562619
 20
23.2571690884
 30
0.0
 10
13.1633544723
 20
23.2203360861
 30
0.0
 10
13.211685523
 20
23.1877530947
 30
0.0
 10
13.2458788992
 20
23.1693090918
 30
0.0
 10
13.2632302028
 20
23.1611295921
 30
0.0
  0
SPLINE
  5
32B
100
AcDbEntity
  8
0
100
AcDbSpline
 62
7
  6
BYLAYER
 70
0
 71
3
 72
9
 73
5
 74
0
 42
0.0000001
 43
0.0000001
 44
0.0000000001
 40
0.0
 40
0.0
 40
0.0
 40
0.0
 40
0.4922268468
 40
1.0
 40
1.0
 40
1.0
 40
1.0
 10
12.9632289538
 20
23.3343314756
 30
0.0
 10
12.9632289538
 20
23.3557370577
 30
0.0
 10
12.9703753312
 20
23.3994933451
 30
0.0
 10
12.9906725625
 20
23.4387772917
 30
0.0
 10
13.0034213326
 20
23.4568069348
 30
0.0
  0
SPLINE
  5
32C
100
AcDbEntity
  8
0
100
AcDbSpline
 62
7
  6
BYLAYER
 70
0
 71
3
 72
11
 73
7
 74
0
 42
0.0000001
 43
0.0000001
 44
0.0000000001
 40
0.0
 40
0.0
 40
0.0
 40
0.0
 40
0.2897075663
 40
0.5490616243
 40
0.7822846958
 40
1.0
 40
1.0
 40
1.0
 40
1.0
 10
13.0510978026
 20
23.2118589506
 30
0.0
 10
13.0379338935
 20
23.2194589651
 30
0.0
 10
13.0140556604
 20
23.2359098606
 30
0.0
 10
12.9855002168
 20
23.2659013775
 30
0.0
 10
12.9674586774
 20
23.2990928025
 30
0.0
 10
12.9632290361
 20
23.3229084564
 30
0.0
 10
12.9632289538
 20
23.3343314756
 30
0.0
  0
SPLINE
  5
32D
100
AcDbEntity
  8
0
100
AcDbSpline
 62
7
  6
BYLAYER
 70
0
 71
3
 72
9
 73
5
 74
0
 42
0.0000001
 43
0.0000001
 44
0.0000000001
 40
0.0
 40
0.0
 40
0.0
 40
0.0
 40
0.504807562
 40
1.0
 40
1.0
 40
1.0
 40
1.0
 10
8.638586156
 20
21.1506550118
 30
0.0
 10
8.6308120279
 20
21.135773463
 30
0.0
 10
8.6187022942
 20
21.1044219136
 30
0.0
 10
8.6145386895
 20
21.0710367436
 30
0.0
 10
8.6145386895
 20
21.0545667355
 30
0.0
  0
SPLINE
  5
32E
100
AcDbEntity
  8
0
100
AcDbSpline
 62
7
  6
BYLAYER
 70
0
 71
3
 72
11
 73
7
 74
0
 42
0.0000001
 43
0.0000001
 44
0.0000000001
 40
0.0
 40
0.0
 40
0.0
 40
0.0
 40
0.2659717519
 40
0.5253529253
 40
0.7717473172
 40
1.0
 40
1.0
 40
1.0
 40
1.0
 10
6.7158619563
 20
16.8984463342
 30
0.0
 10
6.6963271466
 20
16.8984462873
 30
0.0
 10
6.6577064287
 20
16.9006215592
 30
0.0
 10
6.6017189878
 20
16.9102788714
 30
0.0
 10
6.5500058702
 20
16.9260150783
 30
0.0
 10
6.5182480863
 20
16.9407936051
 30
0.0
 10
6.5037295562
 20
16.9491756927
 30
0.0
  0
SPLINE
  5
32F
100
AcDbEntity
  8
0
100
AcDbSpline
 62
7
  6
BYLAYER
 70
0
 71
3
 72
11
 73
7
 74
0
 42
0.0000001
 43
0.0000001
 44
0.0000000001
 40
0.0
 40
0.0
 40
0.0
 40
0.0
 40
0.2897075663
 40
0.5490616243
 40
0.7822846958
 40
1.0
 40
1.0
 40
1.0
 40
1.0
 10
8.7024092037
 20
20.7011574043
 30
0.0
 10
8.6892452946
 20
20.7087574188
 30
0.0
 10
8.6653670615
 20
20.7252083143
 30
0.0
 10
8.6368116179
 20
20.7551998312
 30
0.0
 10
8.6187700785
 20
20.7883912561
 30
0.0
 10
8.6145404373
 20
20.8122069101
 30
0.0
 10
8.6145403549
 20
20.8236299293
 30
0.0
  0
SPLINE
  5
330
100
AcDbEntity
  8
0
100
AcDbSpline
 62
7
  6
BYLAYER
 70
0
 71
3
 72
9
 73
5
 74
0
 42
0.0000001
 43
0.0000001
 44
0.0000000001
 40
0.0
 40
0.0
 40
0.0
 40
0.0
 40
0.4922268468
 40
1.0
 40
1.0
 40
1.0
 40
1.0
 10
8.6145403549
 20
20.8236299293
 30
0.0
 10
8.6145403549
 20
20.8450355114
 30
0.0
 10
8.6216867324
 20
20.8887917988
 30
0.0
 10
8.6419839636
 20
20.9280757454
 30
0.0
 10
8.6547327338
 20
20.9461053885
 30
0.0
  0
SPLINE
  5
331
100
AcDbEntity
  8
0
100
AcDbSpline
 62
7
  6
BYLAYER
 70
0
 71
3
 72
15
 73
11
 74
0
 42
0.0000001
 43
0.0000001
 44
0.0000000001
 40
0.0
 40
0.0
 40
0.0
 40
0.0
 40
0.0890910195
 40
0.191959764
 40
0.3084649204
 40
0.4367547321
 40
0.5738649096
 40
0.7161418136
 40
0.8595525455
 40
1.0
 40
1.0
 40
1.0
 40
1.0
 10
8.6547327338
 20
20.9461053885
 30
0.0
 10
8.6547328215
 20
20.9339371584
 30
0.0
 10
8.6588497157
 20
20.9076958053
 30
0.0
 10
8.6742368709
 20
20.8682517291
 30
0.0
 10
8.6985385758
 20
20.8272526635
 30
0.0
 10
8.7308764104
 20
20.786167713
 30
0.0
 10
8.770067663
 20
20.7464675421
 30
0.0
 10
8.8146658734
 20
20.7096345398
 30
0.0
 10
8.8629969241
 20
20.6770515484
 30
0.0
 10
8.8971903003
 20
20.6586075455
 30
0.0
 10
8.9145416039
 20
20.6504280458
 30
0.0
  0
SPLINE
  5
332
100
AcDbEntity
  8
0
100
AcDbSpline
 62
7
  6
BYLAYER
 70
0
 71
3
 72
11
 73
7
 74
0
 42
0.0000001
 43
0.0000001
 44
0.0000000001
 40
0.0
 40
0.0
 40
0.0
 40
0.0
 40
0.2659717519
 40
0.5253529253
 40
0.7717473172
 40
1.0
 40
1.0
 40
1.0
 40
1.0
 10
8.9145416039
 20
20.6504280458
 30
0.0
 10
8.8950067942
 20
20.6504279989
 30
0.0
 10
8.8563860763
 20
20.6526032708
 30
0.0
 10
8.8003986354
 20
20.662260583
 30
0.0
 10
8.7486855178
 20
20.6779967899
 30
0.0
 10
8.7169277339
 20
20.6927753166
 30
0.0
 10
8.7024092037
 20
20.7011574043
 30
0.0
  0
SPLINE
  5
333
100
AcDbEntity
  8
0
100
AcDbSpline
 62
7
  6
BYLAYER
 70
0
 71
3
 72
9
 73
5
 74
0
 42
0.0000001
 43
0.0000001
 44
0.0000000001
 40
0.0
 40
0.0
 40
0.0
 40
0.0
 40
0.504807562
 40
1.0
 40
1.0
 40
1.0
 40
1.0
 10
4.2898975572
 20
18.6399534655
 30
0.0
 10
4.282123429
 20
18.6250719167
 30
0.0
 10
4.2700136954
 20
18.5937203673
 30
0.0
 10
4.2658500907
 20
18.5603351973
 30
0.0
 10
4.2658500907
 20
18.5438651892
 30
0.0
  0
SPLINE
  5
334
100
AcDbEntity
  8
0
100
AcDbSpline
 62
7
  6
BYLAYER
 70
0
 71
3
 72
11
 73
7
 74
0
 42
0.0000001
 43
0.0000001
 44
0.0000000001
 40
0.0
 40
0.0
 40
0.0
 40
0.0
 40
0.2282523097
 40
0.4746465477
 40
0.7340278385
 40
1.0
 40
1.0
 40
1.0
 40
1.0
 10
14.3570011503
 20
21.0073528369
 30
0.0
 10
14.3424827347
 20
20.9989706758
 30
0.0
 10
14.3107251452
 20
20.9841919904
 30
0.0
 10
14.2590122504
 20
20.9684555376
 30
0.0
 10
14.2030249467
 20
20.9587979596
 30
0.0
 10
14.1644042809
 20
20.9566225056
 30
0.0
 10
14.1448694818
 20
20.9566224586
 30
0.0
  0
SPLINE
  5
335
100
AcDbEntity
  8
0
100
AcDbSpline
 62
7
  6
BYLAYER
 70
0
 71
3
 72
15
 73
11
 74
0
 42
0.0000001
 43
0.0000001
 44
0.0000000001
 40
0.0
 40
0.0
 40
0.0
 40
0.0
 40
0.1404486061
 40
0.2838603843
 40
0.4261377629
 40
0.5632479637
 40
0.6915373792
 40
0.8080418731
 40
0.9109096311
 40
1.0
 40
1.0
 40
1.0
 40
1.0
 10
14.1448694818
 20
20.9566224586
 30
0.0
 10
14.1622208785
 20
20.9648020856
 30
0.0
 10
14.1964144015
 20
20.9832463726
 30
0.0
 10
14.2447455412
 20
21.0158297871
 30
0.0
 10
14.2893436248
 20
21.0526631909
 30
0.0
 10
14.3285345287
 20
21.092363651
 30
0.0
 10
14.3608718671
 20
21.1334487532
 30
0.0
 10
14.3851729306
 20
21.1744478194
 30
0.0
 10
14.4005594996
 20
21.2138917491
 30
0.0
 10
14.4046759417
 20
21.240132921
 30
0.0
 10
14.4046758539
 20
21.2523010503
 30
0.0
  0
SPLINE
  5
336
100
AcDbEntity
  8
0
100
AcDbSpline
 62
7
  6
BYLAYER
 70
0
 71
3
 72
9
 73
5
 74
0
 42
0.0000001
 43
0.0000001
 44
0.0000000001
 40
0.0
 40
0.0
 40
0.0
 40
0.0
 40
0.5077728572
 40
1.0
 40
1.0
 40
1.0
 40
1.0
 10
14.4046758539
 20
21.2523010503
 30
0.0
 10
14.4174246282
 20
21.2342714626
 30
0.0
 10
14.4377218694
 20
21.1949875815
 30
0.0
 10
14.4448682328
 20
21.1512313503
 30
0.0
 10
14.4448682328
 20
21.1298257844
 30
0.0
  0
SPLINE
  5
337
100
AcDbEntity
  8
0
100
AcDbSpline
 62
7
  6
BYLAYER
 70
0
 71
3
 72
11
 73
7
 74
0
 42
0.0000001
 43
0.0000001
 44
0.0000000001
 40
0.0
 40
0.0
 40
0.0
 40
0.0
 40
0.2177157896
 40
0.45093883
 40
0.7102926367
 40
1.0
 40
1.0
 40
1.0
 40
1.0
 10
14.4448682328
 20
21.1298257844
 30
0.0
 10
14.4448683151
 20
21.1184027834
 30
0.0
 10
14.4406390336
 20
21.0945871311
 30
0.0
 10
14.4225979673
 20
21.0613955902
 30
0.0
 10
14.3940429409
 20
21.0314039201
 30
0.0
 10
14.370164945
 20
21.014952912
 30
0.0
 10
14.3570011503
 20
21.0073528369
 30
0.0
  0
SPLINE
  5
338
100
AcDbEntity
  8
0
100
AcDbSpline
 62
7
  6
BYLAYER
 70
0
 71
3
 72
11
 73
7
 74
0
 42
0.0000001
 43
0.0000001
 44
0.0000000001
 40
0.0
 40
0.0
 40
0.0
 40
0.0
 40
0.2897075663
 40
0.5490616243
 40
0.7822846958
 40
1.0
 40
1.0
 40
1.0
 40
1.0
 10
4.3537206049
 20
18.190455858
 30
0.0
 10
4.3405566958
 20
18.1980558725
 30
0.0
 10
4.3166784627
 20
18.214506768
 30
0.0
 10
4.288123019
 20
18.2444982849
 30
0.0
 10
4.2700814796
 20
18.2776897098
 30
0.0
 10
4.2658518384
 20
18.3015053638
 30
0.0
 10
4.265851756
 20
18.312928383
 30
0.0
  0
SPLINE
  5
339
100
AcDbEntity
  8
0
100
AcDbSpline
 62
7
  6
BYLAYER
 70
0
 71
3
 72
9
 73
5
 74
0
 42
0.0000001
 43
0.0000001
 44
0.0000000001
 40
0.0
 40
0.0
 40
0.0
 40
0.0
 40
0.4922268468
 40
1.0
 40
1.0
 40
1.0
 40
1.0
 10
4.265851756
 20
18.312928383
 30
0.0
 10
4.265851756
 20
18.3343339651
 30
0.0
 10
4.2729981335
 20
18.3780902525
 30
0.0
 10
4.2932953648
 20
18.4173741991
 30
0.0
 10
4.3060441349
 20
18.4354038422
 30
0.0
  0
SPLINE
  5
33A
100
AcDbEntity
  8
0
100
AcDbSpline
 62
7
  6
BYLAYER
 70
0
 71
3
 72
15
 73
11
 74
0
 42
0.0000001
 43
0.0000001
 44
0.0000000001
 40
0.0
 40
0.0
 40
0.0
 40
0.0
 40
0.0890910195
 40
0.191959764
 40
0.3084649204
 40
0.4367547321
 40
0.5738649096
 40
0.7161418136
 40
0.8595525455
 40
1.0
 40
1.0
 40
1.0
 40
1.0
 10
4.3060441349
 20
18.4354038422
 30
0.0
 10
4.3060442227
 20
18.4232356121
 30
0.0
 10
4.3101611168
 20
18.396994259
 30
0.0
 10
4.3255482721
 20
18.3575501828
 30
0.0
 10
4.349849977
 20
18.3165511172
 30
0.0
 10
4.3821878116
 20
18.2754661667
 30
0.0
 10
4.4213790642
 20
18.2357659958
 30
0.0
 10
4.4659772745
 20
18.1989329935
 30
0.0
 10
4.5143083253
 20
18.1663500021
 30
0.0
 10
4.5485017015
 20
18.1479059992
 30
0.0
 10
4.5658530051
 20
18.1397264995
 30
0.0
  0
SPLINE
  5
33B
100
AcDbEntity
  8
0
100
AcDbSpline
 62
7
  6
BYLAYER
 70
0
 71
3
 72
11
 73
7
 74
0
 42
0.0000001
 43
0.0000001
 44
0.0000000001
 40
0.0
 40
0.0
 40
0.0
 40
0.0
 40
0.2282523097
 40
0.4746465477
 40
0.7340278385
 40
1.0
 40
1.0
 40
1.0
 40
1.0
 10
11.6766822237
 20
19.4598792203
 30
0.0
 10
11.6621638081
 20
19.4514970591
 30
0.0
 10
11.6304062186
 20
19.4367183738
 30
0.0
 10
11.5786933238
 20
19.420981921
 30
0.0
 10
11.5227060201
 20
19.411324343
 30
0.0
 10
11.4840853543
 20
19.409148889
 30
0.0
 10
11.4645505552
 20
19.409148842
 30
0.0
  0
SPLINE
  5
33C
100
AcDbEntity
  8
0
100
AcDbSpline
 62
7
  6
BYLAYER
 70
0
 71
3
 72
21
 73
17
 74
0
 42
0.0000001
 43
0.0000001
 44
0.0000000001
 40
0.0
 40
0.0
 40
0.0
 40
0.0
 40
0.1925936373
 40
0.3777927222
 40
0.5485610735
 40
0.6984595172
 40
0.7637990883
 40
0.8219030853
 40
0.8722530948
 40
0.9144212831
 40
0.9480967838
 40
0.9617076002
 40
0.9731743779
 40
0.9825422888
 40
0.9899336539
 40
1.0
 40
1.0
 40
1.0
 40
1.0
 10
11.4645503879
 20
19.5548289536
 30
0.0
 10
11.4840690071
 20
19.5548290005
 30
0.0
 10
11.522357731
 20
19.5551689169
 30
0.0
 10
11.5779350979
 20
19.5566842805
 30
0.0
 10
11.6291475643
 20
19.559139154
 30
0.0
 10
11.6681709212
 20
19.5619839784
 30
0.0
 10
11.6957370095
 20
19.5647435857
 30
0.0
 10
11.7132219473
 20
19.5668794349
 30
0.0
 10
11.7283201229
 20
19.5691497999
 30
0.0
 10
11.7408886385
 20
19.5715329626
 30
0.0
 10
11.749700289
 20
19.5737008062
 30
0.0
 10
11.7553653997
 20
19.5755512945
 30
0.0
 10
11.7586064243
 20
19.5768425262
 30
0.0
 10
11.7611658654
 20
19.5781701525
 30
0.0
 10
11.7633671401
 20
19.5796892731
 30
0.0
 10
11.7645493463
 20
19.5813319826
 30
0.0
 10
11.7645493062
 20
19.5823521678
 30
0.0
  0
SPLINE
  5
33D
100
AcDbEntity
  8
0
100
AcDbSpline
 62
7
  6
BYLAYER
 70
0
 71
3
 72
11
 73
7
 74
0
 42
0.0000001
 43
0.0000001
 44
0.0000000001
 40
0.0
 40
0.0
 40
0.0
 40
0.0
 40
0.2177157896
 40
0.45093883
 40
0.7102926367
 40
1.0
 40
1.0
 40
1.0
 40
1.0
 10
11.7645493062
 20
19.5823521678
 30
0.0
 10
11.7645493886
 20
19.5709291668
 30
0.0
 10
11.760320107
 20
19.5471135145
 30
0.0
 10
11.7422790407
 20
19.5139219736
 30
0.0
 10
11.7137240143
 20
19.4839303035
 30
0.0
 10
11.6898460185
 20
19.4674792954
 30
0.0
 10
11.6766822237
 20
19.4598792203
 30
0.0
  0
SPLINE
  5
33E
100
AcDbEntity
  8
0
100
AcDbSpline
 62
7
  6
BYLAYER
 70
0
 71
3
 72
11
 73
7
 74
0
 42
0.0000001
 43
0.0000001
 44
0.0000000001
 40
0.0
 40
0.0
 40
0.0
 40
0.0
 40
0.2659717519
 40
0.5253529253
 40
0.7717473172
 40
1.0
 40
1.0
 40
1.0
 40
1.0
 10
4.5658530051
 20
18.1397264995
 30
0.0
 10
4.5463181953
 20
18.1397264525
 30
0.0
 10
4.5076974774
 20
18.1419017244
 30
0.0
 10
4.4517100365
 20
18.1515590367
 30
0.0
 10
4.3999969189
 20
18.1672952435
 30
0.0
 10
4.368239135
 20
18.1820737703
 30
0.0
 10
4.3537206049
 20
18.190455858
 30
0.0
  0
SPLINE
  5
33F
100
AcDbEntity
  8
0
100
AcDbSpline
 62
7
  6
BYLAYER
 70
0
 71
3
 72
11
 73
7
 74
0
 42
0.0000001
 43
0.0000001
 44
0.0000000001
 40
0.0
 40
0.0
 40
0.0
 40
0.0
 40
0.2659715471
 40
0.5253522779
 40
0.7717470148
 40
1.0
 40
1.0
 40
1.0
 40
1.0
 10
7.915850797
 20
19.1647526752
 30
0.0
 10
7.8832929009
 20
19.164752597
 30
0.0
 10
7.8189253326
 20
19.1611262215
 30
0.0
 10
7.7256134629
 20
19.1450296744
 30
0.0
 10
7.6394252084
 20
19.1188027967
 30
0.0
 10
7.5864954271
 20
19.0941723431
 30
0.0
 10
7.5622980162
 20
19.0802020448
 30
0.0
  0
SPLINE
  5
340
100
AcDbEntity
  8
0
100
AcDbSpline
 62
7
  6
BYLAYER
 70
0
 71
3
 72
13
 73
9
 74
0
 42
0.0000001
 43
0.0000001
 44
0.0000000001
 40
0.0
 40
0.0
 40
0.0
 40
0.0
 40
0.2893084611
 40
0.5483056839
 40
0.6677428711
 40
0.7818307727
 40
0.8920365267
 40
1.0
 40
1.0
 40
1.0
 40
1.0
 10
7.5622980162
 20
19.0802020448
 30
0.0
 10
7.5403585351
 20
19.0675353551
 30
0.0
 10
7.5005724938
 20
19.040137987
 30
0.0
 10
7.4598602058
 20
18.9973389822
 30
0.0
 10
7.4369377344
 20
18.9606501187
 30
0.0
 10
7.4248411391
 20
18.9329577007
 30
0.0
 10
7.4175127085
 20
18.9046755844
 30
0.0
 10
7.4158528106
 20
18.8855343609
 30
0.0
 10
7.4158528788
 20
18.8760804657
 30
0.0
  0
SPLINE
  5
341
100
AcDbEntity
  8
0
100
AcDbSpline
 62
7
  6
BYLAYER
 70
0
 71
3
 72
15
 73
11
 74
0
 42
0.0000001
 43
0.0000001
 44
0.0000000001
 40
0.0
 40
0.0
 40
0.0
 40
0.0
 40
0.0906764977
 40
0.1879256768
 40
0.2959406066
 40
0.4167062588
 40
0.549851489
 40
0.6935181406
 40
0.844937003
 40
1.0
 40
1.0
 40
1.0
 40
1.0
 10
15.1132379051
 20
19.9541291331
 30
0.0
 10
15.1132379874
 20
19.942711796
 30
0.0
 10
15.1174832011
 20
19.9188966304
 30
0.0
 10
15.1355051866
 20
19.8857054456
 30
0.0
 10
15.1640658472
 20
19.8556921193
 30
0.0
 10
15.2018218031
 20
19.8297206143
 30
0.0
 10
15.2473690378
 20
19.8084895384
 30
0.0
 10
15.299108391
 20
19.7927593652
 30
0.0
 10
15.3550891451
 20
19.7831116394
 30
0.0
 10
15.3937147288
 20
19.7809272027
 30
0.0
 10
15.4132391541
 20
19.7809272496
 30
0.0
  0
SPLINE
  5
342
100
AcDbEntity
  8
0
100
AcDbSpline
 62
7
  6
BYLAYER
 70
0
 71
3
 72
11
 73
7
 74
0
 42
0.0000001
 43
0.0000001
 44
0.0000000001
 40
0.0
 40
0.0
 40
0.0
 40
0.0
 40
0.2659715471
 40
0.5253522779
 40
0.7717470148
 40
1.0
 40
1.0
 40
1.0
 40
1.0
 10
15.813239154
 20
19.7809282111
 30
0.0
 10
15.8327738917
 20
19.780928258
 30
0.0
 10
15.8713944327
 20
19.7831040833
 30
0.0
 10
15.9273815545
 20
19.7927620116
 30
0.0
 10
15.9790945073
 20
19.8084981382
 30
0.0
 10
16.010852376
 20
19.8232764104
 30
0.0
 10
16.0253708226
 20
19.8316585893
 30
0.0
  0
SPLINE
  5
343
100
AcDbEntity
  8
0
100
AcDbSpline
 62
7
  6
BYLAYER
 70
0
 71
3
 72
11
 73
7
 74
0
 42
0.0000001
 43
0.0000001
 44
0.0000000001
 40
0.0
 40
0.0
 40
0.0
 40
0.0
 40
0.2897060281
 40
0.5490591642
 40
0.7822835676
 40
1.0
 40
1.0
 40
1.0
 40
1.0
 10
16.0253708226
 20
19.8316585893
 30
0.0
 10
16.0385345112
 20
19.8392586032
 30
0.0
 10
16.0624121249
 20
19.8557098725
 30
0.0
 10
16.0909665434
 20
19.885701802
 30
0.0
 10
16.1090079707
 20
19.918892932
 30
0.0
 10
16.1132379874
 20
19.9427085415
 30
0.0
 10
16.1132379051
 20
19.9541315368
 30
0.0
  0
SPLINE
  5
344
100
AcDbEntity
  8
0
100
AcDbSpline
 62
7
  6
BYLAYER
 70
0
 71
3
 72
9
 73
5
 74
0
 42
0.0000001
 43
0.0000001
 44
0.0000000001
 40
0.0
 40
0.0
 40
0.0
 40
0.0
 40
0.504807562
 40
1.0
 40
1.0
 40
1.0
 40
1.0
 10
12.9872747549
 20
23.6613565581
 30
0.0
 10
12.9795006268
 20
23.6464750093
 30
0.0
 10
12.9673908931
 20
23.6151234599
 30
0.0
 10
12.9632272884
 20
23.5817382899
 30
0.0
 10
12.9632272884
 20
23.5652682818
 30
0.0
  0
SPLINE
  5
345
100
AcDbEntity
  8
0
100
AcDbSpline
 62
7
  6
BYLAYER
 70
0
 71
3
 72
13
 73
9
 74
0
 42
0.0000001
 43
0.0000001
 44
0.0000000001
 40
0.0
 40
0.0
 40
0.0
 40
0.0
 40
0.1079634733
 40
0.2181692273
 40
0.3322571289
 40
0.4516943161
 40
0.7106915389
 40
1.0
 40
1.0
 40
1.0
 40
1.0
 10
16.1132300765
 20
21.0397250983
 30
0.0
 10
16.1132300083
 20
21.0491789935
 30
0.0
 10
16.1148899062
 20
21.0683202171
 30
0.0
 10
16.1222183369
 20
21.0966023334
 30
0.0
 10
16.1343149321
 20
21.1242947513
 30
0.0
 10
16.1572374035
 20
21.1609836149
 30
0.0
 10
16.1979496915
 20
21.2037826197
 30
0.0
 10
16.2377357328
 20
21.2311799878
 30
0.0
 10
16.2596752139
 20
21.2438466774
 30
0.0
  0
SPLINE
  5
346
100
AcDbEntity
  8
0
100
AcDbSpline
 62
7
  6
BYLAYER
 70
0
 71
3
 72
11
 73
7
 74
0
 42
0.0000001
 43
0.0000001
 44
0.0000000001
 40
0.0
 40
0.0
 40
0.0
 40
0.0
 40
0.2282529852
 40
0.4746477221
 40
0.7340284529
 40
1.0
 40
1.0
 40
1.0
 40
1.0
 10
16.2596752139
 20
21.2438466774
 30
0.0
 10
16.2838726248
 20
21.2578169758
 30
0.0
 10
16.3368024061
 20
21.2824474294
 30
0.0
 10
16.4229906607
 20
21.308674307
 30
0.0
 10
16.5163025304
 20
21.3247708541
 30
0.0
 10
16.5806700987
 20
21.3283972297
 30
0.0
 10
16.6132279948
 20
21.3283973079
 30
0.0
  0
SPLINE
  5
347
100
AcDbEntity
  8
0
100
AcDbSpline
 62
7
  6
BYLAYER
 70
0
 71
3
 72
11
 73
7
 74
0
 42
0.0000001
 43
0.0000001
 44
0.0000000001
 40
0.0
 40
0.0
 40
0.0
 40
0.0
 40
0.2659715471
 40
0.5253522779
 40
0.7717470148
 40
1.0
 40
1.0
 40
1.0
 40
1.0
 10
18.4935580807
 20
21.3284018277
 30
0.0
 10
18.5130928184
 20
21.3284018746
 30
0.0
 10
18.5517133594
 20
21.3305776999
 30
0.0
 10
18.6077004812
 20
21.3402356282
 30
0.0
 10
18.6594134339
 20
21.3559717548
 30
0.0
 10
18.6911713026
 20
21.370750027
 30
0.0
 10
18.7056897492
 20
21.379132206
 30
0.0
  0
SPLINE
  5
348
100
AcDbEntity
  8
0
100
AcDbSpline
 62
7
  6
BYLAYER
 70
0
 71
3
 72
11
 73
7
 74
0
 42
0.0000001
 43
0.0000001
 44
0.0000000001
 40
0.0
 40
0.0
 40
0.0
 40
0.0
 40
0.2897060281
 40
0.5490591642
 40
0.7822835676
 40
1.0
 40
1.0
 40
1.0
 40
1.0
 10
18.7056897492
 20
21.379132206
 30
0.0
 10
18.7188534378
 20
21.3867322198
 30
0.0
 10
18.7427310515
 20
21.4031834891
 30
0.0
 10
18.77128547
 20
21.4331754186
 30
0.0
 10
18.7893268973
 20
21.4663665486
 30
0.0
 10
18.793556914
 20
21.4901821581
 30
0.0
 10
18.7935568316
 20
21.5016051534
 30
0.0
  0
SPLINE
  5
349
100
AcDbEntity
  8
0
100
AcDbSpline
 62
7
  6
BYLAYER
 70
0
 71
3
 72
11
 73
7
 74
0
 42
0.0000001
 43
0.0000001
 44
0.0000000001
 40
0.0
 40
0.0
 40
0.0
 40
0.0
 40
0.2659715471
 40
0.5253522779
 40
0.7717470148
 40
1.0
 40
1.0
 40
1.0
 40
1.0
 10
9.7961808829
 20
16.3069987351
 30
0.0
 10
9.8157156206
 20
16.306998782
 30
0.0
 10
9.8543361616
 20
16.3091746073
 30
0.0
 10
9.9103232834
 20
16.3188325356
 30
0.0
 10
9.9620362361
 20
16.3345686622
 30
0.0
 10
9.9937941049
 20
16.3493469343
 30
0.0
 10
10.0083125515
 20
16.3577291133
 30
0.0
  0
SPLINE
  5
34A
100
AcDbEntity
  8
0
100
AcDbSpline
 62
7
  6
BYLAYER
 70
0
 71
3
 72
17
 73
13
 74
0
 42
0.0000001
 43
0.0000001
 44
0.0000000001
 40
0.0
 40
0.0
 40
0.0
 40
0.0
 40
0.0450220393
 40
0.0909800644
 40
0.1385659638
 40
0.1883884373
 40
0.2963377319
 40
0.4170275439
 40
0.5501319931
 40
0.6937108637
 40
0.8449480495
 40
1.0
 40
1.0
 40
1.0
 40
1.0
 10
6.4158550867
 20
18.5698962213
 30
0.0
 10
6.4158550186
 20
18.5793498404
 30
0.0
 10
6.4141965658
 20
18.5984907265
 30
0.0
 10
6.4068689723
 20
18.6267746891
 30
0.0
 10
6.3947660549
 20
18.6544701536
 30
0.0
 10
6.3718405251
 20
18.6911458917
 30
0.0
 10
6.3311326196
 20
18.7339645252
 30
0.0
 10
6.2682363971
 20
18.7772659727
 30
0.0
 10
6.1922932307
 20
18.8126199066
 30
0.0
 10
6.106080141
 20
18.8388380606
 30
0.0
 10
6.0127849358
 20
18.8549440122
 30
0.0
 10
5.948410439
 20
18.8585661055
 30
0.0
 10
5.9158530051
 20
18.8585660272
 30
0.0
  0
SPLINE
  5
34B
100
AcDbEntity
  8
0
100
AcDbSpline
 62
7
  6
BYLAYER
 70
0
 71
3
 72
11
 73
7
 74
0
 42
0.0000001
 43
0.0000001
 44
0.0000000001
 40
0.0
 40
0.0
 40
0.0
 40
0.0
 40
0.2282523097
 40
0.4746465477
 40
0.7340278385
 40
1.0
 40
1.0
 40
1.0
 40
1.0
 10
10.0083125515
 20
18.4966512906
 30
0.0
 10
9.9937941358
 20
18.4882691294
 30
0.0
 10
9.9620365463
 20
18.4734904441
 30
0.0
 10
9.9103236515
 20
18.4577539913
 30
0.0
 10
9.8543363479
 20
18.4480964133
 30
0.0
 10
9.815715682
 20
18.4459209593
 30
0.0
 10
9.7961808829
 20
18.4459209123
 30
0.0
  0
SPLINE
  5
34C
100
AcDbEntity
  8
0
100
AcDbSpline
 62
7
  6
BYLAYER
 70
0
 71
3
 72
15
 73
11
 74
0
 42
0.0000001
 43
0.0000001
 44
0.0000000001
 40
0.0
 40
0.0
 40
0.0
 40
0.0
 40
0.1404486061
 40
0.2838603843
 40
0.4261377629
 40
0.5632479637
 40
0.6915373792
 40
0.8080418731
 40
0.9109096311
 40
1.0
 40
1.0
 40
1.0
 40
1.0
 10
9.7961808829
 20
18.4459209123
 30
0.0
 10
9.8135322796
 20
18.4541005393
 30
0.0
 10
9.8477258026
 20
18.4725448263
 30
0.0
 10
9.8960569423
 20
18.5051282408
 30
0.0
 10
9.940655026
 20
18.5419616446
 30
0.0
 10
9.9798459298
 20
18.5816621047
 30
0.0
 10
10.0121832682
 20
18.6227472069
 30
0.0
 10
10.0364843317
 20
18.6637462731
 30
0.0
 10
10.0518709007
 20
18.7031902028
 30
0.0
 10
10.0559873428
 20
18.7294313747
 30
0.0
 10
10.055987255
 20
18.741599504
 30
0.0
  0
SPLINE
  5
34D
100
AcDbEntity
  8
0
100
AcDbSpline
 62
7
  6
BYLAYER
 70
0
 71
3
 72
9
 73
5
 74
0
 42
0.0000001
 43
0.0000001
 44
0.0000000001
 40
0.0
 40
0.0
 40
0.0
 40
0.0
 40
0.5077728572
 40
1.0
 40
1.0
 40
1.0
 40
1.0
 10
10.055987255
 20
18.741599504
 30
0.0
 10
10.0687360293
 20
18.7235699163
 30
0.0
 10
10.0890332705
 20
18.6842860352
 30
0.0
 10
10.0961796339
 20
18.6405298039
 30
0.0
 10
10.0961796339
 20
18.6191242381
 30
0.0
  0
SPLINE
  5
34E
100
AcDbEntity
  8
0
100
AcDbSpline
 62
7
  6
BYLAYER
 70
0
 71
3
 72
9
 73
5
 74
0
 42
0.0000001
 43
0.0000001
 44
0.0000000001
 40
0.0
 40
0.0
 40
0.0
 40
0.0
 40
0.5188669467
 40
1.0
 40
1.0
 40
1.0
 40
1.0
 10
18.7533627874
 20
23.9939394028
 30
0.0
 10
18.7533627207
 20
24.0031930193
 30
0.0
 10
18.7511973549
 20
24.0211654529
 30
0.0
 10
18.7434614794
 20
24.0376618364
 30
0.0
 10
18.7385078305
 20
24.0446681968
 30
0.0
  0
SPLINE
  5
34F
100
AcDbEntity
  8
0
100
AcDbSpline
 62
7
  6
BYLAYER
 70
0
 71
3
 72
11
 73
7
 74
0
 42
0.0000001
 43
0.0000001
 44
0.0000000001
 40
0.0
 40
0.0
 40
0.0
 40
0.0
 40
0.2177157896
 40
0.45093883
 40
0.7102926367
 40
1.0
 40
1.0
 40
1.0
 40
1.0
 10
10.0961796339
 20
18.6191242381
 30
0.0
 10
10.0961797163
 20
18.6077012371
 30
0.0
 10
10.0919504348
 20
18.5838855848
 30
0.0
 10
10.0739093684
 20
18.5506940439
 30
0.0
 10
10.045354342
 20
18.5207023738
 30
0.0
 10
10.0214763462
 20
18.5042513657
 30
0.0
 10
10.0083125515
 20
18.4966512906
 30
0.0
  0
SPLINE
  5
350
100
AcDbEntity
  8
0
100
AcDbSpline
 62
7
  6
BYLAYER
 70
0
 71
3
 72
17
 73
13
 74
0
 42
0.0000001
 43
0.0000001
 44
0.0000000001
 40
0.0
 40
0.0
 40
0.0
 40
0.0
 40
0.1550519061
 40
0.3062890161
 40
0.4498678718
 40
0.5829723262
 40
0.7036621586
 40
0.8116114805
 40
0.8614339792
 40
0.9090199069
 40
0.9549779533
 40
1.0
 40
1.0
 40
1.0
 40
1.0
 10
14.6132302028
 20
21.0222106599
 30
0.0
 10
14.6457876274
 20
21.0222107381
 30
0.0
 10
14.7101620993
 20
21.0185886537
 30
0.0
 10
14.8034572761
 20
21.0024827058
 30
0.0
 10
14.8896703512
 20
20.9762645676
 30
0.0
 10
14.9656135247
 20
20.9409106446
 30
0.0
 10
15.0285097658
 20
20.8976092042
 30
0.0
 10
15.0692176881
 20
20.8547905663
 30
0.0
 10
15.0921432372
 20
20.8181148196
 30
0.0
 10
15.1042461563
 20
20.7904193387
 30
0.0
 10
15.1115737595
 20
20.7621353667
 30
0.0
 10
15.1132322163
 20
20.7429944746
 30
0.0
 10
15.1132322845
 20
20.733540854
 30
0.0
  0
SPLINE
  5
351
100
AcDbEntity
  8
0
100
AcDbSpline
 62
7
  6
BYLAYER
 70
0
 71
3
 72
11
 73
7
 74
0
 42
0.0000001
 43
0.0000001
 44
0.0000000001
 40
0.0
 40
0.0
 40
0.0
 40
0.0
 40
0.2897060281
 40
0.5490591642
 40
0.7822835676
 40
1.0
 40
1.0
 40
1.0
 40
1.0
 10
10.0083125515
 20
16.3577291133
 30
0.0
 10
10.0214762401
 20
16.3653291271
 30
0.0
 10
10.0453538538
 20
16.3817803965
 30
0.0
 10
10.0739082723
 20
16.411772326
 30
0.0
 10
10.0919496996
 20
16.4449634559
 30
0.0
 10
10.0961797163
 20
16.4687790655
 30
0.0
 10
10.0961796339
 20
16.4802020608
 30
0.0
  0
SPLINE
  5
352
100
AcDbEntity
  8
0
100
AcDbSpline
 62
7
  6
BYLAYER
 70
0
 71
3
 72
9
 73
5
 74
0
 42
0.0000001
 43
0.0000001
 44
0.0000000001
 40
0.0
 40
0.0
 40
0.0
 40
0.0
 40
0.4922271593
 40
1.0
 40
1.0
 40
1.0
 40
1.0
 10
18.7935551663
 20
23.8714655675
 30
0.0
 10
18.7935550123
 20
23.8928709023
 30
0.0
 10
18.7864084962
 20
23.9366266014
 30
0.0
 10
18.7661114232
 20
23.9759100109
 30
0.0
 10
18.7533627874
 20
23.9939394028
 30
0.0
  0
SPLINE
  5
353
100
AcDbEntity
  8
0
100
AcDbSpline
 62
7
  6
BYLAYER
 70
0
 71
3
 72
11
 73
7
 74
0
 42
0.0000001
 43
0.0000001
 44
0.0000000001
 40
0.0
 40
0.0
 40
0.0
 40
0.0
 40
0.2282523097
 40
0.4746465477
 40
0.7340278385
 40
1.0
 40
1.0
 40
1.0
 40
1.0
 10
7.3279936249
 20
16.949177674
 30
0.0
 10
7.3134752092
 20
16.9407955128
 30
0.0
 10
7.2817176198
 20
16.9260168275
 30
0.0
 10
7.2300047249
 20
16.9102803747
 30
0.0
 10
7.1740174213
 20
16.9006227967
 30
0.0
 10
7.1353967554
 20
16.8984473427
 30
0.0
 10
7.1158619563
 20
16.8984472957
 30
0.0
  0
SPLINE
  5
354
100
AcDbEntity
  8
0
100
AcDbSpline
 62
7
  6
BYLAYER
 70
0
 71
3
 72
21
 73
17
 74
0
 42
0.0000001
 43
0.0000001
 44
0.0000000001
 40
0.0
 40
0.0
 40
0.0
 40
0.0
 40
0.1925936373
 40
0.3777927222
 40
0.5485610735
 40
0.6984595172
 40
0.7637990883
 40
0.8219030853
 40
0.8722530948
 40
0.9144212831
 40
0.9480967838
 40
0.9617076002
 40
0.9731743779
 40
0.9825422888
 40
0.9899336539
 40
1.0
 40
1.0
 40
1.0
 40
1.0
 10
7.115861789
 20
17.0441274073
 30
0.0
 10
7.1353804083
 20
17.0441274542
 30
0.0
 10
7.1736691321
 20
17.0444673706
 30
0.0
 10
7.229246499
 20
17.0459827342
 30
0.0
 10
7.2804589654
 20
17.0484376077
 30
0.0
 10
7.3194823223
 20
17.0512824321
 30
0.0
 10
7.3470484107
 20
17.0540420394
 30
0.0
 10
7.3645333484
 20
17.0561778886
 30
0.0
 10
7.379631524
 20
17.0584482536
 30
0.0
 10
7.3922000396
 20
17.0608314163
 30
0.0
 10
7.4010116901
 20
17.0629992599
 30
0.0
 10
7.4066768008
 20
17.0648497482
 30
0.0
 10
7.4099178254
 20
17.0661409799
 30
0.0
 10
7.4124772666
 20
17.0674686062
 30
0.0
 10
7.4146785413
 20
17.0689877268
 30
0.0
 10
7.4158607474
 20
17.0706304363
 30
0.0
 10
7.4158607073
 20
17.0716506215
 30
0.0
  0
SPLINE
  5
355
100
AcDbEntity
  8
0
100
AcDbSpline
 62
7
  6
BYLAYER
 70
0
 71
3
 72
17
 73
13
 74
0
 42
0.0000001
 43
0.0000001
 44
0.0000000001
 40
0.0
 40
0.0
 40
0.0
 40
0.0
 40
0.0450220393
 40
0.0909800644
 40
0.1385659638
 40
0.1883884373
 40
0.2963377319
 40
0.4170275439
 40
0.5501319931
 40
0.6937108637
 40
0.8449480495
 40
1.0
 40
1.0
 40
1.0
 40
1.0
 10
15.1132322845
 20
23.5912993139
 30
0.0
 10
15.1132322163
 20
23.600752933
 30
0.0
 10
15.1115737635
 20
23.6198938191
 30
0.0
 10
15.1042461701
 20
23.6481777817
 30
0.0
 10
15.0921432526
 20
23.6758732462
 30
0.0
 10
15.0692177228
 20
23.7125489843
 30
0.0
 10
15.0285098173
 20
23.7553676178
 30
0.0
 10
14.9656135948
 20
23.7986690653
 30
0.0
 10
14.8896704285
 20
23.8340229992
 30
0.0
 10
14.8034573388
 20
23.8602411532
 30
0.0
 10
14.7101621336
 20
23.8763471048
 30
0.0
 10
14.6457876367
 20
23.8799691981
 30
0.0
 10
14.6132302028
 20
23.8799691198
 30
0.0
  0
SPLINE
  5
356
100
AcDbEntity
  8
0
100
AcDbSpline
 62
7
  6
BYLAYER
 70
0
 71
3
 72
11
 73
7
 74
0
 42
0.0000001
 43
0.0000001
 44
0.0000000001
 40
0.0
 40
0.0
 40
0.0
 40
0.0
 40
0.2177157896
 40
0.45093883
 40
0.7102926367
 40
1.0
 40
1.0
 40
1.0
 40
1.0
 10
7.4158607073
 20
17.0716506215
 30
0.0
 10
7.4158607897
 20
17.0602276205
 30
0.0
 10
7.4116315082
 20
17.0364119682
 30
0.0
 10
7.3935904418
 20
17.0032204273
 30
0.0
 10
7.3650354154
 20
16.9732287572
 30
0.0
 10
7.3411574196
 20
16.956777749
 30
0.0
 10
7.3279936249
 20
16.949177674
 30
0.0
  0
SPLINE
  5
357
100
AcDbEntity
  8
0
100
AcDbSpline
 62
7
  6
BYLAYER
 70
0
 71
3
 72
13
 73
9
 74
0
 42
0.0000001
 43
0.0000001
 44
0.0000000001
 40
0.0
 40
0.0
 40
0.0
 40
0.0
 40
0.2893084611
 40
0.5483056839
 40
0.6677428711
 40
0.7818307727
 40
0.8920365267
 40
1.0
 40
1.0
 40
1.0
 40
1.0
 10
16.2596752139
 20
24.1016051374
 30
0.0
 10
16.2377357328
 20
24.0889384477
 30
0.0
 10
16.1979496915
 20
24.0615410797
 30
0.0
 10
16.1572374035
 20
24.0187420748
 30
0.0
 10
16.1343149321
 20
23.9820532113
 30
0.0
 10
16.1222183369
 20
23.9543607933
 30
0.0
 10
16.1148899062
 20
23.926078677
 30
0.0
 10
16.1132300083
 20
23.9069374535
 30
0.0
 10
16.1132300765
 20
23.8974835583
 30
0.0
  0
SPLINE
  5
358
100
AcDbEntity
  8
0
100
AcDbSpline
 62
7
  6
BYLAYER
 70
0
 71
3
 72
15
 73
11
 74
0
 42
0.0000001
 43
0.0000001
 44
0.0000000001
 40
0.0
 40
0.0
 40
0.0
 40
0.0
 40
0.0906764977
 40
0.1879256768
 40
0.2959406066
 40
0.4167062588
 40
0.549851489
 40
0.6935181406
 40
0.844937003
 40
1.0
 40
1.0
 40
1.0
 40
1.0
 10
19.4619265039
 20
22.4648306794
 30
0.0
 10
19.4619265863
 20
22.4534133423
 30
0.0
 10
19.4661718
 20
22.4295981767
 30
0.0
 10
19.4841937854
 20
22.3964069919
 30
0.0
 10
19.512754446
 20
22.3663936657
 30
0.0
 10
19.5505104019
 20
22.3404221606
 30
0.0
 10
19.5960576367
 20
22.3191910847
 30
0.0
 10
19.6477969898
 20
22.3034609116
 30
0.0
 10
19.703777744
 20
22.2938131857
 30
0.0
 10
19.7424033276
 20
22.291628749
 30
0.0
 10
19.7619277529
 20
22.2916287959
 30
0.0
  0
SPLINE
  5
359
100
AcDbEntity
  8
0
100
AcDbSpline
 62
7
  6
BYLAYER
 70
0
 71
3
 72
11
 73
7
 74
0
 42
0.0000001
 43
0.0000001
 44
0.0000000001
 40
0.0
 40
0.0
 40
0.0
 40
0.0
 40
0.2659715471
 40
0.5253522779
 40
0.7717470148
 40
1.0
 40
1.0
 40
1.0
 40
1.0
 10
20.1619277529
 20
22.2916297574
 30
0.0
 10
20.1814624906
 20
22.2916298043
 30
0.0
 10
20.2200830316
 20
22.2938056296
 30
0.0
 10
20.2760701534
 20
22.3034635579
 30
0.0
 10
20.3277831061
 20
22.3191996845
 30
0.0
 10
20.3595409749
 20
22.3339779567
 30
0.0
 10
20.3740594215
 20
22.3423601357
 30
0.0
  0
SPLINE
  5
35A
100
AcDbEntity
  8
0
100
AcDbSpline
 62
7
  6
BYLAYER
 70
0
 71
3
 72
11
 73
7
 74
0
 42
0.0000001
 43
0.0000001
 44
0.0000000001
 40
0.0
 40
0.0
 40
0.0
 40
0.0
 40
0.2897060281
 40
0.5490591642
 40
0.7822835676
 40
1.0
 40
1.0
 40
1.0
 40
1.0
 10
20.3740594215
 20
22.3423601357
 30
0.0
 10
20.3872231101
 20
22.3499601495
 30
0.0
 10
20.4111007238
 20
22.3664114188
 30
0.0
 10
20.4396551423
 20
22.3964033483
 30
0.0
 10
20.4576965696
 20
22.4295944783
 30
0.0
 10
20.4619265863
 20
22.4534100878
 30
0.0
 10
20.4619265039
 20
22.4648330831
 30
0.0
  0
SPLINE
  5
35B
100
AcDbEntity
  8
0
100
AcDbSpline
 62
7
  6
BYLAYER
 70
0
 71
3
 72
11
 73
7
 74
0
 42
0.0000001
 43
0.0000001
 44
0.0000000001
 40
0.0
 40
0.0
 40
0.0
 40
0.0
 40
0.2659715471
 40
0.5253522779
 40
0.7717470148
 40
1.0
 40
1.0
 40
1.0
 40
1.0
 10
16.6132279948
 20
24.1861557679
 30
0.0
 10
16.5806700987
 20
24.1861556896
 30
0.0
 10
16.5163025304
 20
24.1825293141
 30
0.0
 10
16.4229906607
 20
24.166432767
 30
0.0
 10
16.3368024061
 20
24.1402058894
 30
0.0
 10
16.2838726248
 20
24.1155754357
 30
0.0
 10
16.2596752139
 20
24.1016051374
 30
0.0
  0
SPLINE
  5
35C
100
AcDbEntity
  8
0
100
AcDbSpline
 62
7
  6
BYLAYER
 70
0
 71
3
 72
13
 73
9
 74
0
 42
0.0000001
 43
0.0000001
 44
0.0000000001
 40
0.0
 40
0.0
 40
0.0
 40
0.0
 40
0.1079634733
 40
0.2181692273
 40
0.3322571289
 40
0.4516943161
 40
0.7106915389
 40
1.0
 40
1.0
 40
1.0
 40
1.0
 10
20.4619186754
 20
23.5504266447
 30
0.0
 10
20.4619186072
 20
23.5598805399
 30
0.0
 10
20.4635785051
 20
23.5790217634
 30
0.0
 10
20.4709069357
 20
23.6073038797
 30
0.0
 10
20.483003531
 20
23.6349962977
 30
0.0
 10
20.5059260024
 20
23.6716851612
 30
0.0
 10
20.5466382904
 20
23.714484166
 30
0.0
 10
20.5864243317
 20
23.7418815341
 30
0.0
 10
20.6083638128
 20
23.7545482238
 30
0.0
  0
SPLINE
  5
35D
100
AcDbEntity
  8
0
100
AcDbSpline
 62
7
  6
BYLAYER
 70
0
 71
3
 72
11
 73
7
 74
0
 42
0.0000001
 43
0.0000001
 44
0.0000000001
 40
0.0
 40
0.0
 40
0.0
 40
0.0
 40
0.2282529852
 40
0.4746477221
 40
0.7340284529
 40
1.0
 40
1.0
 40
1.0
 40
1.0
 10
20.6083638128
 20
23.7545482238
 30
0.0
 10
20.6325612237
 20
23.7685185221
 30
0.0
 10
20.685491005
 20
23.7931489757
 30
0.0
 10
20.7716792595
 20
23.8193758533
 30
0.0
 10
20.8649911293
 20
23.8354724004
 30
0.0
 10
20.9293586976
 20
23.839098776
 30
0.0
 10
20.9619165937
 20
23.8390988542
 30
0.0
  0
SPLINE
  5
35E
100
AcDbEntity
  8
0
100
AcDbSpline
 62
7
  6
BYLAYER
 70
0
 71
3
 72
11
 73
7
 74
0
 42
0.0000001
 43
0.0000001
 44
0.0000000001
 40
0.0
 40
0.0
 40
0.0
 40
0.0
 40
0.2659715471
 40
0.5253522779
 40
0.7717470148
 40
1.0
 40
1.0
 40
1.0
 40
1.0
 10
22.8422466796
 20
23.839103374
 30
0.0
 10
22.8617814173
 20
23.8391034209
 30
0.0
 10
22.9004019582
 20
23.8412792463
 30
0.0
 10
22.95638908
 20
23.8509371745
 30
0.0
 10
23.0081020327
 20
23.8666733011
 30
0.0
 10
23.0398599015
 20
23.8814515733
 30
0.0
 10
23.054378348
 20
23.8898337523
 30
0.0
  0
SPLINE
  5
35F
100
AcDbEntity
  8
0
100
AcDbSpline
 62
7
  6
BYLAYER
 70
0
 71
3
 72
11
 73
7
 74
0
 42
0.0000001
 43
0.0000001
 44
0.0000000001
 40
0.0
 40
0.0
 40
0.0
 40
0.0
 40
0.2897060281
 40
0.5490591642
 40
0.7822835676
 40
1.0
 40
1.0
 40
1.0
 40
1.0
 10
23.054378348
 20
23.8898337523
 30
0.0
 10
23.0675420367
 20
23.8974337661
 30
0.0
 10
23.0914196504
 20
23.9138850354
 30
0.0
 10
23.1199740689
 20
23.9438769649
 30
0.0
 10
23.1380154962
 20
23.9770680949
 30
0.0
 10
23.1422455129
 20
24.0008837044
 30
0.0
 10
23.1422454305
 20
24.0123066997
 30
0.0
  0
SPLINE
  5
360
100
AcDbEntity
  8
0
100
AcDbSpline
 62
7
  6
BYLAYER
 70
0
 71
3
 72
11
 73
7
 74
0
 42
0.0000001
 43
0.0000001
 44
0.0000000001
 40
0.0
 40
0.0
 40
0.0
 40
0.0
 40
0.2659717519
 40
0.5253529253
 40
0.7717473172
 40
1.0
 40
1.0
 40
1.0
 40
1.0
 10
15.4132391541
 20
21.9198494268
 30
0.0
 10
15.3937043444
 20
21.9198493799
 30
0.0
 10
15.3550836265
 20
21.9220246518
 30
0.0
 10
15.2990961855
 20
21.931681964
 30
0.0
 10
15.247383068
 20
21.9474181709
 30
0.0
 10
15.215625284
 20
21.9621966977
 30
0.0
 10
15.2011067539
 20
21.9705787853
 30
0.0
  0
SPLINE
  5
361
100
AcDbEntity
  8
0
100
AcDbSpline
 62
7
  6
BYLAYER
 70
0
 71
3
 72
9
 73
5
 74
0
 42
0.0000001
 43
0.0000001
 44
0.0000000001
 40
0.0
 40
0.0
 40
0.0
 40
0.0
 40
0.4664445497
 40
1.0
 40
1.0
 40
1.0
 40
1.0
 10
15.2168426215
 20
22.0722465102
 30
0.0
 10
15.2473059281
 20
22.0698262632
 30
0.0
 10
15.3127655662
 20
22.0665583527
 30
0.0
 10
15.3782828926
 20
22.0655294544
 30
0.0
 10
15.4132389867
 20
22.0655295384
 30
0.0
  0
SPLINE
  5
362
100
AcDbEntity
  8
0
100
AcDbSpline
 62
7
  6
BYLAYER
 70
0
 71
3
 72
17
 73
13
 74
0
 42
0.0000001
 43
0.0000001
 44
0.0000000001
 40
0.0
 40
0.0
 40
0.0
 40
0.0
 40
0.0317282096
 40
0.0558912238
 40
0.0868615784
 40
0.1249808027
 40
0.1703520292
 40
0.2827980845
 40
0.4235205685
 40
0.5911850323
 40
0.7840868129
 40
1.0
 40
1.0
 40
1.0
 40
1.0
 10
15.1132379051
 20
22.0930513104
 30
0.0
 10
15.1132379497
 20
22.09191475
 30
0.0
 10
15.1146987915
 20
22.0901068289
 30
0.0
 10
15.1172766702
 20
22.0884860079
 30
0.0
 10
15.1203224726
 20
22.0870411175
 30
0.0
 10
15.124171581
 20
22.0856423288
 30
0.0
 10
15.1309046296
 20
22.0836367816
 30
0.0
 10
15.1413494929
 20
22.0813036364
 30
0.0
 10
15.1562114997
 20
22.0787573112
 30
0.0
 10
15.1740106734
 20
22.07635897
 30
0.0
 10
15.1945428271
 20
22.0741359999
 30
0.0
 10
15.2091325255
 20
22.0728590615
 30
0.0
 10
15.2168426215
 20
22.0722465102
 30
0.0
  0
SPLINE
  5
363
100
AcDbEntity
  8
0
100
AcDbSpline
 62
7
  6
BYLAYER
 70
0
 71
3
 72
11
 73
7
 74
0
 42
0.0000001
 43
0.0000001
 44
0.0000000001
 40
0.0
 40
0.0
 40
0.0
 40
0.0
 40
0.2897075663
 40
0.5490616243
 40
0.7822846958
 40
1.0
 40
1.0
 40
1.0
 40
1.0
 10
15.2011067539
 20
21.9705787853
 30
0.0
 10
15.1879428448
 20
21.9781787998
 30
0.0
 10
15.1640646117
 20
21.9946296954
 30
0.0
 10
15.135509168
 20
22.0246212122
 30
0.0
 10
15.1174676286
 20
22.0578126372
 30
0.0
 10
15.1132379874
 20
22.0816282912
 30
0.0
 10
15.1132379051
 20
22.0930513104
 30
0.0
  0
SPLINE
  5
364
100
AcDbEntity
  8
0
100
AcDbSpline
 62
7
  6
BYLAYER
 70
0
 71
3
 72
17
 73
13
 74
0
 42
0.0000001
 43
0.0000001
 44
0.0000000001
 40
0.0
 40
0.0
 40
0.0
 40
0.0
 40
0.1550519061
 40
0.3062890161
 40
0.4498678718
 40
0.5829723262
 40
0.7036621586
 40
0.8116114805
 40
0.8614339792
 40
0.9090199069
 40
0.9549779533
 40
1.0
 40
1.0
 40
1.0
 40
1.0
 10
18.9619188017
 20
23.5329122062
 30
0.0
 10
18.9944762263
 20
23.5329122844
 30
0.0
 10
19.0588506982
 20
23.5292902
 30
0.0
 10
19.152145875
 20
23.5131842521
 30
0.0
 10
19.2383589501
 20
23.4869661139
 30
0.0
 10
19.3143021236
 20
23.4516121909
 30
0.0
 10
19.3771983647
 20
23.4083107505
 30
0.0
 10
19.417906287
 20
23.3654921126
 30
0.0
 10
19.4408318361
 20
23.3288163659
 30
0.0
 10
19.4529347552
 20
23.301120885
 30
0.0
 10
19.4602623583
 20
23.272836913
 30
0.0
 10
19.4619208152
 20
23.2536960209
 30
0.0
 10
19.4619208833
 20
23.2442424003
 30
0.0
  0
SPLINE
  5
365
100
AcDbEntity
  8
0
100
AcDbSpline
 62
7
  6
BYLAYER
 70
0
 71
3
 72
11
 73
7
 74
0
 42
0.0000001
 43
0.0000001
 44
0.0000000001
 40
0.0
 40
0.0
 40
0.0
 40
0.0
 40
0.2897075663
 40
0.5490616243
 40
0.7822846958
 40
1.0
 40
1.0
 40
1.0
 40
1.0
 10
19.5497953528
 20
24.4812803316
 30
0.0
 10
19.5366314437
 20
24.4888803462
 30
0.0
 10
19.5127532105
 20
24.5053312417
 30
0.0
 10
19.4841977669
 20
24.5353227585
 30
0.0
 10
19.4661562275
 20
24.5685141835
 30
0.0
 10
19.4619265863
 20
24.5923298375
 30
0.0
 10
19.4619265039
 20
24.6037528567
 30
0.0
  0
SPLINE
  5
366
100
AcDbEntity
  8
0
100
AcDbSpline
 62
7
  6
BYLAYER
 70
0
 71
3
 72
17
 73
13
 74
0
 42
0.0000001
 43
0.0000001
 44
0.0000000001
 40
0.0
 40
0.0
 40
0.0
 40
0.0
 40
0.0317282096
 40
0.0558912238
 40
0.0868615784
 40
0.1249808027
 40
0.1703520292
 40
0.2827980845
 40
0.4235205685
 40
0.5911850323
 40
0.7840868129
 40
1.0
 40
1.0
 40
1.0
 40
1.0
 10
19.4619265039
 20
24.6037528567
 30
0.0
 10
19.4619265486
 20
24.6026162963
 30
0.0
 10
19.4633873904
 20
24.6008083752
 30
0.0
 10
19.4659652691
 20
24.5991875542
 30
0.0
 10
19.4690110714
 20
24.5977426638
 30
0.0
 10
19.4728601799
 20
24.5963438751
 30
0.0
 10
19.4795932285
 20
24.5943383279
 30
0.0
 10
19.4900380918
 20
24.5920051827
 30
0.0
 10
19.5049000986
 20
24.5894588575
 30
0.0
 10
19.5226992722
 20
24.5870605163
 30
0.0
 10
19.543231426
 20
24.5848375462
 30
0.0
 10
19.5578211244
 20
24.5835606078
 30
0.0
 10
19.5655312204
 20
24.5829480566
 30
0.0
  0
SPLINE
  5
367
100
AcDbEntity
  8
0
100
AcDbSpline
 62
7
  6
BYLAYER
 70
0
 71
3
 72
9
 73
5
 74
0
 42
0.0000001
 43
0.0000001
 44
0.0000000001
 40
0.0
 40
0.0
 40
0.0
 40
0.0
 40
0.4664445497
 40
1.0
 40
1.0
 40
1.0
 40
1.0
 10
19.5655312204
 20
24.5829480566
 30
0.0
 10
19.595994527
 20
24.5805278095
 30
0.0
 10
19.6614541651
 20
24.577259899
 30
0.0
 10
19.7269714915
 20
24.5762310007
 30
0.0
 10
19.7619275856
 20
24.5762310847
 30
0.0
  0
SPLINE
  5
368
100
AcDbEntity
  8
0
100
AcDbSpline
 62
7
  6
BYLAYER
 70
0
 71
3
 72
11
 73
7
 74
0
 42
0.0000001
 43
0.0000001
 44
0.0000000001
 40
0.0
 40
0.0
 40
0.0
 40
0.0
 40
0.2659717519
 40
0.5253529253
 40
0.7717473172
 40
1.0
 40
1.0
 40
1.0
 40
1.0
 10
19.7619277529
 20
24.4305509732
 30
0.0
 10
19.7423929432
 20
24.4305509262
 30
0.0
 10
19.7037722253
 20
24.4327261981
 30
0.0
 10
19.6477847844
 20
24.4423835103
 30
0.0
 10
19.5960716668
 20
24.4581197172
 30
0.0
 10
19.5643138829
 20
24.472898244
 30
0.0
 10
19.5497953528
 20
24.4812803316
 30
0.0
  0
SPLINE
  5
369
100
AcDbEntity
  8
0
100
AcDbSpline
 62
7
  6
BYLAYER
 70
0
 71
3
 72
11
 73
7
 74
0
 42
0.0000001
 43
0.0000001
 44
0.0000000001
 40
0.0
 40
0.0
 40
0.0
 40
0.0
 40
0.2659715471
 40
0.5253522779
 40
0.7717470148
 40
1.0
 40
1.0
 40
1.0
 40
1.0
 10
20.9619165936
 20
26.6968573142
 30
0.0
 10
20.9293586975
 20
26.6968572359
 30
0.0
 10
20.8649911292
 20
26.6932308604
 30
0.0
 10
20.7716792595
 20
26.6771343133
 30
0.0
 10
20.685491005
 20
26.6509074357
 30
0.0
 10
20.6325612237
 20
26.626276982
 30
0.0
 10
20.6083638128
 20
26.6123066837
 30
0.0
  0
SPLINE
  5
36A
100
AcDbEntity
  8
0
100
AcDbSpline
 62
7
  6
BYLAYER
 70
0
 71
3
 72
13
 73
9
 74
0
 42
0.0000001
 43
0.0000001
 44
0.0000000001
 40
0.0
 40
0.0
 40
0.0
 40
0.0
 40
0.2893084611
 40
0.5483056839
 40
0.6677428711
 40
0.7818307727
 40
0.8920365267
 40
1.0
 40
1.0
 40
1.0
 40
1.0
 10
20.6083638128
 20
26.6123066837
 30
0.0
 10
20.5864243317
 20
26.599639994
 30
0.0
 10
20.5466382904
 20
26.572242626
 30
0.0
 10
20.5059260024
 20
26.5294436211
 30
0.0
 10
20.483003531
 20
26.4927547576
 30
0.0
 10
20.4709069357
 20
26.4650623396
 30
0.0
 10
20.4635785051
 20
26.4367802233
 30
0.0
 10
20.4619186072
 20
26.4176389998
 30
0.0
 10
20.4619186754
 20
26.4081851046
 30
0.0
  0
SPLINE
  5
36B
100
AcDbEntity
  8
0
100
AcDbSpline
 62
7
  6
BYLAYER
 70
0
 71
3
 72
17
 73
13
 74
0
 42
0.0000001
 43
0.0000001
 44
0.0000000001
 40
0.0
 40
0.0
 40
0.0
 40
0.0
 40
0.0450220393
 40
0.0909800644
 40
0.1385659638
 40
0.1883884373
 40
0.2963377319
 40
0.4170275439
 40
0.5501319931
 40
0.6937108636
 40
0.8449480495
 40
1.0
 40
1.0
 40
1.0
 40
1.0
 10
19.4619208833
 20
26.1020008602
 30
0.0
 10
19.4619208152
 20
26.1114544793
 30
0.0
 10
19.4602623624
 20
26.1305953654
 30
0.0
 10
19.4529347689
 20
26.158879328
 30
0.0
 10
19.4408318515
 20
26.1865747925
 30
0.0
 10
19.4179063217
 20
26.2232505306
 30
0.0
 10
19.3771984162
 20
26.2660691641
 30
0.0
 10
19.3143021937
 20
26.3093706116
 30
0.0
 10
19.2383590273
 20
26.3447245456
 30
0.0
 10
19.1521459377
 20
26.3709426995
 30
0.0
 10
19.0588507324
 20
26.3870486511
 30
0.0
 10
18.9944762356
 20
26.3906707444
 30
0.0
 10
18.9619188017
 20
26.3906706661
 30
0.0
  0
SPLINE
  5
36C
100
AcDbEntity
  8
0
100
AcDbSpline
 62
7
  6
BYLAYER
 70
0
 71
3
 72
9
 73
5
 74
0
 42
0.0000001
 43
0.0000001
 44
0.0000000001
 40
0.0
 40
0.0
 40
0.0
 40
0.0
 40
0.4811326545
 40
1.0
 40
1.0
 40
1.0
 40
1.0
 10
13.0182700149
 20
23.7384672641
 30
0.0
 10
13.0133176968
 20
23.7314612725
 30
0.0
 10
13.005584157
 20
23.7149664074
 30
0.0
 10
13.0034196006
 20
23.696996219
 30
0.0
 10
13.0034196673
 20
23.687743741
 30
0.0
  0
SPLINE
  5
36D
100
AcDbEntity
  8
0
100
AcDbSpline
 62
7
  6
BYLAYER
 70
0
 71
3
 72
9
 73
5
 74
0
 42
0.0000001
 43
0.0000001
 44
0.0000000001
 40
0.0
 40
0.0
 40
0.0
 40
0.0
 40
0.5188669467
 40
1.0
 40
1.0
 40
1.0
 40
1.0
 10
23.1020513863
 20
26.5046409491
 30
0.0
 10
23.1020513196
 20
26.5138945656
 30
0.0
 10
23.0998859537
 20
26.5318669993
 30
0.0
 10
23.0921500783
 20
26.5483633827
 30
0.0
 10
23.0871964294
 20
26.5553697431
 30
0.0
  0
SPLINE
  5
36E
100
AcDbEntity
  8
0
100
AcDbSpline
 62
7
  6
BYLAYER
 70
0
 71
3
 72
9
 73
5
 74
0
 42
0.0000001
 43
0.0000001
 44
0.0000000001
 40
0.0
 40
0.0
 40
0.0
 40
0.0
 40
0.4811326545
 40
1.0
 40
1.0
 40
1.0
 40
1.0
 10
17.3669586137
 20
26.2491688104
 30
0.0
 10
17.3620062957
 20
26.2421628188
 30
0.0
 10
17.3542727558
 20
26.2256679537
 30
0.0
 10
17.3521081994
 20
26.2076977653
 30
0.0
 10
17.3521082661
 20
26.1984452873
 30
0.0
  0
SPLINE
  5
36F
100
AcDbEntity
  8
0
100
AcDbSpline
 62
7
  6
BYLAYER
 70
0
 71
3
 72
9
 73
5
 74
0
 42
0.0000001
 43
0.0000001
 44
0.0000000001
 40
0.0
 40
0.0
 40
0.0
 40
0.0
 40
0.5188669467
 40
1.0
 40
1.0
 40
1.0
 40
1.0
 10
10.0559855897
 20
18.9725363102
 30
0.0
 10
10.055985523
 20
18.9817899267
 30
0.0
 10
10.0538201571
 20
18.9997623603
 30
0.0
 10
10.0460842817
 20
19.0162587438
 30
0.0
 10
10.0411306328
 20
19.0232651042
 30
0.0
  0
SPLINE
  5
370
100
AcDbEntity
  8
0
100
AcDbSpline
 62
7
  6
BYLAYER
 70
0
 71
3
 72
11
 73
7
 74
0
 42
0.0000001
 43
0.0000001
 44
0.0000000001
 40
0.0
 40
0.0
 40
0.0
 40
0.0
 40
0.2177157896
 40
0.45093883
 40
0.7102926367
 40
1.0
 40
1.0
 40
1.0
 40
1.0
 10
24.8106151028
 20
27.1144568067
 30
0.0
 10
24.8106151852
 20
27.1030338057
 30
0.0
 10
24.8063859036
 20
27.0792181535
 30
0.0
 10
24.7883448373
 20
27.0460266126
 30
0.0
 10
24.7597898109
 20
27.0160349424
 30
0.0
 10
24.735911815
 20
26.9995839343
 30
0.0
 10
24.7227480203
 20
26.9919838592
 30
0.0
  0
SPLINE
  5
371
100
AcDbEntity
  8
0
100
AcDbSpline
 62
7
  6
BYLAYER
 70
0
 71
3
 72
21
 73
17
 74
0
 42
0.0000001
 43
0.0000001
 44
0.0000000001
 40
0.0
 40
0.0
 40
0.0
 40
0.0
 40
0.1925936373
 40
0.3777927222
 40
0.5485610735
 40
0.6984595172
 40
0.7637990883
 40
0.8219030853
 40
0.8722530948
 40
0.9144212831
 40
0.9480967838
 40
0.9617076002
 40
0.9731743779
 40
0.9825422888
 40
0.9899336539
 40
1.0
 40
1.0
 40
1.0
 40
1.0
 10
24.5106161845
 20
27.0869335925
 30
0.0
 10
24.5301348037
 20
27.0869336395
 30
0.0
 10
24.5684235276
 20
27.0872735558
 30
0.0
 10
24.6240008945
 20
27.0887889194
 30
0.0
 10
24.6752133609
 20
27.091243793
 30
0.0
 10
24.7142367178
 20
27.0940886174
 30
0.0
 10
24.7418028061
 20
27.0968482246
 30
0.0
 10
24.7592877439
 20
27.0989840738
 30
0.0
 10
24.7743859195
 20
27.1012544388
 30
0.0
 10
24.7869544351
 20
27.1036376015
 30
0.0
 10
24.7957660856
 20
27.1058054451
 30
0.0
 10
24.8014311963
 20
27.1076559334
 30
0.0
 10
24.8046722209
 20
27.1089471651
 30
0.0
 10
24.807231662
 20
27.1102747915
 30
0.0
 10
24.8094329367
 20
27.111793912
 30
0.0
 10
24.8106151429
 20
27.1134366215
 30
0.0
 10
24.8106151028
 20
27.1144568067
 30
0.0
  0
SPLINE
  5
372
100
AcDbEntity
  8
0
100
AcDbSpline
 62
7
  6
BYLAYER
 70
0
 71
3
 72
11
 73
7
 74
0
 42
0.0000001
 43
0.0000001
 44
0.0000000001
 40
0.0
 40
0.0
 40
0.0
 40
0.0
 40
0.2282523097
 40
0.4746465477
 40
0.7340278385
 40
1.0
 40
1.0
 40
1.0
 40
1.0
 10
24.7227480203
 20
26.9919838592
 30
0.0
 10
24.7082296047
 20
26.9836016981
 30
0.0
 10
24.6764720152
 20
26.9688230127
 30
0.0
 10
24.6247591204
 20
26.95308656
 30
0.0
 10
24.5687718167
 20
26.9434289819
 30
0.0
 10
24.5301511509
 20
26.9412535279
 30
0.0
 10
24.5106163518
 20
26.9412534809
 30
0.0
  0
SPLINE
  5
373
100
AcDbEntity
  8
0
100
AcDbSpline
 62
7
  6
BYLAYER
 70
0
 71
3
 72
9
 73
5
 74
0
 42
0.0000001
 43
0.0000001
 44
0.0000000001
 40
0.0
 40
0.0
 40
0.0
 40
0.0
 40
0.4922271593
 40
1.0
 40
1.0
 40
1.0
 40
1.0
 10
23.1422437651
 20
26.3821671138
 30
0.0
 10
23.1422436112
 20
26.4035724486
 30
0.0
 10
23.1350970951
 20
26.4473281477
 30
0.0
 10
23.1148000221
 20
26.4866115572
 30
0.0
 10
23.1020513863
 20
26.5046409491
 30
0.0
  0
SPLINE
  5
374
100
AcDbEntity
  8
0
100
AcDbSpline
 62
7
  6
BYLAYER
 70
0
 71
3
 72
9
 73
5
 74
0
 42
0.0000001
 43
0.0000001
 44
0.0000000001
 40
0.0
 40
0.0
 40
0.0
 40
0.0
 40
0.504807562
 40
1.0
 40
1.0
 40
1.0
 40
1.0
 10
17.3359633537
 20
26.1720581044
 30
0.0
 10
17.3281892256
 20
26.1571765556
 30
0.0
 10
17.3160794919
 20
26.1258250063
 30
0.0
 10
17.3119158873
 20
26.0924398362
 30
0.0
 10
17.3119158873
 20
26.0759698281
 30
0.0
  0
SPLINE
  5
375
100
AcDbEntity
  8
0
100
AcDbSpline
 62
7
  6
BYLAYER
 70
0
 71
3
 72
9
 73
5
 74
0
 42
0.0000001
 43
0.0000001
 44
0.0000000001
 40
0.0
 40
0.0
 40
0.0
 40
0.0
 40
0.4811326545
 40
1.0
 40
1.0
 40
1.0
 40
1.0
 10
21.7156472126
 20
28.7598703567
 30
0.0
 10
21.7106948945
 20
28.7528643651
 30
0.0
 10
21.7029613547
 20
28.7363695
 30
0.0
 10
21.7007967983
 20
28.7183993116
 30
0.0
 10
21.700796865
 20
28.7091468336
 30
0.0
  0
SPLINE
  5
376
100
AcDbEntity
  8
0
100
AcDbSpline
 62
7
  6
BYLAYER
 70
0
 71
3
 72
11
 73
7
 74
0
 42
0.0000001
 43
0.0000001
 44
0.0000000001
 40
0.0
 40
0.0
 40
0.0
 40
0.0
 40
0.2897075663
 40
0.5490616243
 40
0.7822846958
 40
1.0
 40
1.0
 40
1.0
 40
1.0
 10
17.3997864015
 20
25.7225604969
 30
0.0
 10
17.3866224924
 20
25.7301605114
 30
0.0
 10
17.3627442593
 20
25.7466114069
 30
0.0
 10
17.3341888156
 20
25.7766029238
 30
0.0
 10
17.3161472762
 20
25.8097943488
 30
0.0
 10
17.311917635
 20
25.8336100027
 30
0.0
 10
17.3119175526
 20
25.845033022
 30
0.0
  0
SPLINE
  5
377
100
AcDbEntity
  8
0
100
AcDbSpline
 62
7
  6
BYLAYER
 70
0
 71
3
 72
9
 73
5
 74
0
 42
0.0000001
 43
0.0000001
 44
0.0000000001
 40
0.0
 40
0.0
 40
0.0
 40
0.0
 40
0.4922268468
 40
1.0
 40
1.0
 40
1.0
 40
1.0
 10
17.3119175526
 20
25.845033022
 30
0.0
 10
17.3119175526
 20
25.866438604
 30
0.0
 10
17.3190639301
 20
25.9101948914
 30
0.0
 10
17.3393611614
 20
25.949478838
 30
0.0
 10
17.3521099315
 20
25.9675084811
 30
0.0
  0
SPLINE
  5
378
100
AcDbEntity
  8
0
100
AcDbSpline
 62
7
  6
BYLAYER
 70
0
 71
3
 72
15
 73
11
 74
0
 42
0.0000001
 43
0.0000001
 44
0.0000000001
 40
0.0
 40
0.0
 40
0.0
 40
0.0
 40
0.0890910195
 40
0.191959764
 40
0.3084649204
 40
0.4367547321
 40
0.5738649096
 40
0.7161418136
 40
0.8595525455
 40
1.0
 40
1.0
 40
1.0
 40
1.0
 10
17.3521099315
 20
25.9675084811
 30
0.0
 10
17.3521100192
 20
25.955340251
 30
0.0
 10
17.3562269134
 20
25.9290988979
 30
0.0
 10
17.3716140687
 20
25.8896548217
 30
0.0
 10
17.3959157736
 20
25.8486557561
 30
0.0
 10
17.4282536082
 20
25.8075708056
 30
0.0
 10
17.4674448608
 20
25.7678706348
 30
0.0
 10
17.5120430711
 20
25.7310376325
 30
0.0
 10
17.5603741219
 20
25.698454641
 30
0.0
 10
17.5945674981
 20
25.6800106381
 30
0.0
 10
17.6119188017
 20
25.6718311384
 30
0.0
  0
SPLINE
  5
379
100
AcDbEntity
  8
0
100
AcDbSpline
 62
7
  6
BYLAYER
 70
0
 71
3
 72
11
 73
7
 74
0
 42
0.0000001
 43
0.0000001
 44
0.0000000001
 40
0.0
 40
0.0
 40
0.0
 40
0.0
 40
0.2659717519
 40
0.5253529253
 40
0.7717473172
 40
1.0
 40
1.0
 40
1.0
 40
1.0
 10
17.6119188016
 20
25.6718311384
 30
0.0
 10
17.5923839919
 20
25.6718310915
 30
0.0
 10
17.553763274
 20
25.6740063634
 30
0.0
 10
17.4977758331
 20
25.6836636756
 30
0.0
 10
17.4460627155
 20
25.6993998825
 30
0.0
 10
17.4143049316
 20
25.7141784093
 30
0.0
 10
17.3997864015
 20
25.7225604969
 30
0.0
  0
SPLINE
  5
37A
100
AcDbEntity
  8
0
100
AcDbSpline
 62
7
  6
BYLAYER
 70
0
 71
3
 72
15
 73
11
 74
0
 42
0.0000001
 43
0.0000001
 44
0.0000000001
 40
0.0
 40
0.0
 40
0.0
 40
0.0
 40
0.0906764977
 40
0.1879256768
 40
0.2959406066
 40
0.4167062588
 40
0.549851489
 40
0.6935181406
 40
0.844937003
 40
1.0
 40
1.0
 40
1.0
 40
1.0
 10
6.4158607073
 20
14.9327260405
 30
0.0
 10
6.4158607897
 20
14.9213087034
 30
0.0
 10
6.4201060034
 20
14.8974935377
 30
0.0
 10
6.4381279888
 20
14.864302353
 30
0.0
 10
6.4666886494
 20
14.8342890267
 30
0.0
 10
6.5044446053
 20
14.8083175216
 30
0.0
 10
6.5499918401
 20
14.7870864458
 30
0.0
 10
6.6017311933
 20
14.7713562726
 30
0.0
 10
6.6577119474
 20
14.7617085468
 30
0.0
 10
6.6963375311
 20
14.75952411
 30
0.0
 10
6.7158619563
 20
14.759524157
 30
0.0
  0
SPLINE
  5
37B
100
AcDbEntity
  8
0
100
AcDbSpline
 62
7
  6
BYLAYER
 70
0
 71
3
 72
15
 73
11
 74
0
 42
0.0000001
 43
0.0000001
 44
0.0000000001
 40
0.0
 40
0.0
 40
0.0
 40
0.0
 40
0.0906764977
 40
0.1879256768
 40
0.2959406066
 40
0.4167062588
 40
0.549851489
 40
0.6935181406
 40
0.844937003
 40
1.0
 40
1.0
 40
1.0
 40
1.0
 10
10.7645493062
 20
17.4434275868
 30
0.0
 10
10.7645493885
 20
17.4320102497
 30
0.0
 10
10.7687946023
 20
17.4081950841
 30
0.0
 10
10.7868165877
 20
17.3750038993
 30
0.0
 10
10.8153772483
 20
17.344990573
 30
0.0
 10
10.8531332042
 20
17.319019068
 30
0.0
 10
10.8986804389
 20
17.2977879921
 30
0.0
 10
10.9504197921
 20
17.2820578189
 30
0.0
 10
11.0064005463
 20
17.2724100931
 30
0.0
 10
11.0450261299
 20
17.2702256563
 30
0.0
 10
11.0645505552
 20
17.2702257033
 30
0.0
  0
SPLINE
  5
37C
100
AcDbEntity
  8
0
100
AcDbSpline
 62
7
  6
BYLAYER
 70
0
 71
3
 72
11
 73
7
 74
0
 42
0.0000001
 43
0.0000001
 44
0.0000000001
 40
0.0
 40
0.0
 40
0.0
 40
0.0
 40
0.2659715471
 40
0.5253522779
 40
0.7717470148
 40
1.0
 40
1.0
 40
1.0
 40
1.0
 10
11.4645505552
 20
17.2702266648
 30
0.0
 10
11.4840852929
 20
17.2702267117
 30
0.0
 10
11.5227058338
 20
17.272402537
 30
0.0
 10
11.5786929557
 20
17.2820604653
 30
0.0
 10
11.6304059084
 20
17.2977965919
 30
0.0
 10
11.6621637772
 20
17.312574864
 30
0.0
 10
11.6766822237
 20
17.320957043
 30
0.0
  0
SPLINE
  5
37D
100
AcDbEntity
  8
0
100
AcDbSpline
 62
7
  6
BYLAYER
 70
0
 71
3
 72
11
 73
7
 74
0
 42
0.0000001
 43
0.0000001
 44
0.0000000001
 40
0.0
 40
0.0
 40
0.0
 40
0.0
 40
0.2897060281
 40
0.5490591642
 40
0.7822835676
 40
1.0
 40
1.0
 40
1.0
 40
1.0
 10
11.6766822237
 20
17.320957043
 30
0.0
 10
11.6898459124
 20
17.3285570569
 30
0.0
 10
11.7137235261
 20
17.3450083262
 30
0.0
 10
11.7422779446
 20
17.3750002557
 30
0.0
 10
11.7603193719
 20
17.4081913856
 30
0.0
 10
11.7645493886
 20
17.4320069952
 30
0.0
 10
11.7645493062
 20
17.4434299905
 30
0.0
  0
SPLINE
  5
37E
100
AcDbEntity
  8
0
100
AcDbSpline
 62
7
  6
BYLAYER
 70
0
 71
3
 72
11
 73
7
 74
0
 42
0.0000001
 43
0.0000001
 44
0.0000000001
 40
0.0
 40
0.0
 40
0.0
 40
0.0
 40
0.2282523097
 40
0.4746465477
 40
0.7340278385
 40
1.0
 40
1.0
 40
1.0
 40
1.0
 10
23.054378348
 20
26.0287559295
 30
0.0
 10
23.0398599324
 20
26.0203737684
 30
0.0
 10
23.0081023429
 20
26.005595083
 30
0.0
 10
22.9563894481
 20
25.9898586303
 30
0.0
 10
22.9004021445
 20
25.9802010522
 30
0.0
 10
22.8617814786
 20
25.9780255982
 30
0.0
 10
22.8422466795
 20
25.9780255512
 30
0.0
  0
SPLINE
  5
37F
100
AcDbEntity
  8
0
100
AcDbSpline
 62
7
  6
BYLAYER
 70
0
 71
3
 72
15
 73
11
 74
0
 42
0.0000001
 43
0.0000001
 44
0.0000000001
 40
0.0
 40
0.0
 40
0.0
 40
0.0
 40
0.1404486061
 40
0.2838603843
 40
0.4261377629
 40
0.5632479636
 40
0.6915373792
 40
0.8080418731
 40
0.9109096311
 40
1.0
 40
1.0
 40
1.0
 40
1.0
 10
22.8422466795
 20
25.9780255512
 30
0.0
 10
22.8595980762
 20
25.9862051783
 30
0.0
 10
22.8937915992
 20
26.0046494653
 30
0.0
 10
22.9421227389
 20
26.0372328797
 30
0.0
 10
22.9867208226
 20
26.0740662835
 30
0.0
 10
23.0259117264
 20
26.1137667436
 30
0.0
 10
23.0582490648
 20
26.1548518458
 30
0.0
 10
23.0825501283
 20
26.195850912
 30
0.0
 10
23.0979366973
 20
26.2352948417
 30
0.0
 10
23.1020531394
 20
26.2615360136
 30
0.0
 10
23.1020530516
 20
26.273704143
 30
0.0
  0
SPLINE
  5
380
100
AcDbEntity
  8
0
100
AcDbSpline
 62
7
  6
BYLAYER
 70
0
 71
3
 72
9
 73
5
 74
0
 42
0.0000001
 43
0.0000001
 44
0.0000000001
 40
0.0
 40
0.0
 40
0.0
 40
0.0
 40
0.5077728572
 40
1.0
 40
1.0
 40
1.0
 40
1.0
 10
23.1020530516
 20
26.273704143
 30
0.0
 10
23.1148018259
 20
26.2556745552
 30
0.0
 10
23.1350990672
 20
26.2163906741
 30
0.0
 10
23.1422454305
 20
26.1726344429
 30
0.0
 10
23.1422454305
 20
26.151228877
 30
0.0
  0
SPLINE
  5
381
100
AcDbEntity
  8
0
100
AcDbSpline
 62
7
  6
BYLAYER
 70
0
 71
3
 72
11
 73
7
 74
0
 42
0.0000001
 43
0.0000001
 44
0.0000000001
 40
0.0
 40
0.0
 40
0.0
 40
0.0
 40
0.2177157896
 40
0.45093883
 40
0.7102926367
 40
1.0
 40
1.0
 40
1.0
 40
1.0
 10
23.1422454305
 20
26.151228877
 30
0.0
 10
23.1422455129
 20
26.139805876
 30
0.0
 10
23.1380162313
 20
26.1159902238
 30
0.0
 10
23.119975165
 20
26.0827986829
 30
0.0
 10
23.0914201386
 20
26.0528070127
 30
0.0
 10
23.0675421428
 20
26.0363560046
 30
0.0
 10
23.054378348
 20
26.0287559295
 30
0.0
  0
SPLINE
  5
382
100
AcDbEntity
  8
0
100
AcDbSpline
 62
7
  6
BYLAYER
 70
0
 71
3
 72
13
 73
9
 74
0
 42
0.0000001
 43
0.0000001
 44
0.0000000001
 40
0.0
 40
0.0
 40
0.0
 40
0.0
 40
0.1079634733
 40
0.2181692273
 40
0.3322571289
 40
0.4516943161
 40
0.7106915389
 40
1.0
 40
1.0
 40
1.0
 40
1.0
 10
11.7645414776
 20
18.529023552
 30
0.0
 10
11.7645414095
 20
18.5384774472
 30
0.0
 10
11.7662013073
 20
18.5576186708
 30
0.0
 10
11.773529738
 20
18.5859007871
 30
0.0
 10
11.7856263333
 20
18.613593205
 30
0.0
 10
11.8085488047
 20
18.6502820686
 30
0.0
 10
11.8492610926
 20
18.6930810734
 30
0.0
 10
11.889047134
 20
18.7204784414
 30
0.0
 10
11.910986615
 20
18.7331451311
 30
0.0
  0
SPLINE
  5
383
100
AcDbEntity
  8
0
100
AcDbSpline
 62
7
  6
BYLAYER
 70
0
 71
3
 72
11
 73
7
 74
0
 42
0.0000001
 43
0.0000001
 44
0.0000000001
 40
0.0
 40
0.0
 40
0.0
 40
0.0
 40
0.2282529852
 40
0.4746477221
 40
0.7340284529
 40
1.0
 40
1.0
 40
1.0
 40
1.0
 10
11.910986615
 20
18.7331451311
 30
0.0
 10
11.935184026
 20
18.7471154295
 30
0.0
 10
11.9881138073
 20
18.7717458831
 30
0.0
 10
12.0743020618
 20
18.7979727607
 30
0.0
 10
12.1676139315
 20
18.8140693078
 30
0.0
 10
12.2319814998
 20
18.8176956833
 30
0.0
 10
12.2645393959
 20
18.8176957616
 30
0.0
  0
SPLINE
  5
384
100
AcDbEntity
  8
0
100
AcDbSpline
 62
7
  6
BYLAYER
 70
0
 71
3
 72
11
 73
7
 74
0
 42
0.0000001
 43
0.0000001
 44
0.0000000001
 40
0.0
 40
0.0
 40
0.0
 40
0.0
 40
0.2282523097
 40
0.4746465477
 40
0.7340278385
 40
1.0
 40
1.0
 40
1.0
 40
1.0
 10
20.3740594215
 20
24.4812823129
 30
0.0
 10
20.3595410058
 20
24.4729001518
 30
0.0
 10
20.3277834164
 20
24.4581214664
 30
0.0
 10
20.2760705215
 20
24.4423850137
 30
0.0
 10
20.2200832179
 20
24.4327274356
 30
0.0
 10
20.181462552
 20
24.4305519816
 30
0.0
 10
20.1619277529
 20
24.4305519346
 30
0.0
  0
SPLINE
  5
385
100
AcDbEntity
  8
0
100
AcDbSpline
 62
7
  6
BYLAYER
 70
0
 71
3
 72
21
 73
17
 74
0
 42
0.0000001
 43
0.0000001
 44
0.0000000001
 40
0.0
 40
0.0
 40
0.0
 40
0.0
 40
0.1925936373
 40
0.3777927222
 40
0.5485610735
 40
0.6984595172
 40
0.7637990883
 40
0.8219030853
 40
0.8722530948
 40
0.9144212831
 40
0.9480967838
 40
0.9617076002
 40
0.9731743779
 40
0.9825422888
 40
0.9899336539
 40
1.0
 40
1.0
 40
1.0
 40
1.0
 10
20.1619275856
 20
24.5762320462
 30
0.0
 10
20.1814462049
 20
24.5762320931
 30
0.0
 10
20.2197349287
 20
24.5765720095
 30
0.0
 10
20.2753122956
 20
24.5780873731
 30
0.0
 10
20.326524762
 20
24.5805422466
 30
0.0
 10
20.3655481189
 20
24.583387071
 30
0.0
 10
20.3931142073
 20
24.5861466783
 30
0.0
 10
20.410599145
 20
24.5882825275
 30
0.0
 10
20.4256973206
 20
24.5905528925
 30
0.0
 10
20.4382658362
 20
24.5929360552
 30
0.0
 10
20.4470774867
 20
24.5951038988
 30
0.0
 10
20.4527425974
 20
24.5969543871
 30
0.0
 10
20.455983622
 20
24.5982456188
 30
0.0
 10
20.4585430632
 20
24.5995732451
 30
0.0
 10
20.4607443379
 20
24.6010923657
 30
0.0
 10
20.461926544
 20
24.6027350752
 30
0.0
 10
20.4619265039
 20
24.6037552604
 30
0.0
  0
SPLINE
  5
386
100
AcDbEntity
  8
0
100
AcDbSpline
 62
7
  6
BYLAYER
 70
0
 71
3
 72
11
 73
7
 74
0
 42
0.0000001
 43
0.0000001
 44
0.0000000001
 40
0.0
 40
0.0
 40
0.0
 40
0.0
 40
0.2177157896
 40
0.45093883
 40
0.7102926367
 40
1.0
 40
1.0
 40
1.0
 40
1.0
 10
20.4619265039
 20
24.6037552604
 30
0.0
 10
20.4619265863
 20
24.5923322594
 30
0.0
 10
20.4576973048
 20
24.5685166072
 30
0.0
 10
20.4396562384
 20
24.5353250663
 30
0.0
 10
20.411101212
 20
24.5053333961
 30
0.0
 10
20.3872232162
 20
24.488882388
 30
0.0
 10
20.3740594215
 20
24.4812823129
 30
0.0
  0
SPLINE
  5
387
100
AcDbEntity
  8
0
100
AcDbSpline
 62
7
  6
BYLAYER
 70
0
 71
3
 72
11
 73
7
 74
0
 42
0.0000001
 43
0.0000001
 44
0.0000000001
 40
0.0
 40
0.0
 40
0.0
 40
0.0
 40
0.2659715471
 40
0.5253522779
 40
0.7717470148
 40
1.0
 40
1.0
 40
1.0
 40
1.0
 10
14.1448694818
 20
18.8177002814
 30
0.0
 10
14.1644042195
 20
18.8177003283
 30
0.0
 10
14.2030247604
 20
18.8198761536
 30
0.0
 10
14.2590118823
 20
18.8295340819
 30
0.0
 10
14.310724835
 20
18.8452702085
 30
0.0
 10
14.3424827038
 20
18.8600484807
 30
0.0
 10
14.3570011503
 20
18.8684306596
 30
0.0
  0
SPLINE
  5
388
100
AcDbEntity
  8
0
100
AcDbSpline
 62
7
  6
BYLAYER
 70
0
 71
3
 72
11
 73
7
 74
0
 42
0.0000001
 43
0.0000001
 44
0.0000000001
 40
0.0
 40
0.0
 40
0.0
 40
0.0
 40
0.2897060281
 40
0.5490591642
 40
0.7822835676
 40
1.0
 40
1.0
 40
1.0
 40
1.0
 10
14.3570011503
 20
18.8684306596
 30
0.0
 10
14.370164839
 20
18.8760306735
 30
0.0
 10
14.3940424527
 20
18.8924819428
 30
0.0
 10
14.4225968711
 20
18.9224738723
 30
0.0
 10
14.4406382985
 20
18.9556650022
 30
0.0
 10
14.4448683151
 20
18.9794806118
 30
0.0
 10
14.4448682328
 20
18.9909036071
 30
0.0
  0
SPLINE
  5
389
100
AcDbEntity
  8
0
100
AcDbSpline
 62
7
  6
BYLAYER
 70
0
 71
3
 72
11
 73
7
 74
0
 42
0.0000001
 43
0.0000001
 44
0.0000000001
 40
0.0
 40
0.0
 40
0.0
 40
0.0
 40
0.2177157896
 40
0.45093883
 40
0.7102926367
 40
1.0
 40
1.0
 40
1.0
 40
1.0
 10
27.4909340294
 20
28.6619304233
 30
0.0
 10
27.4909341117
 20
28.6505074223
 30
0.0
 10
27.4867048302
 20
28.6266917701
 30
0.0
 10
27.4686637639
 20
28.5935002292
 30
0.0
 10
27.4401087375
 20
28.563508559
 30
0.0
 10
27.4162307416
 20
28.5470575509
 30
0.0
 10
27.4030669469
 20
28.5394574758
 30
0.0
  0
SPLINE
  5
38A
100
AcDbEntity
  8
0
100
AcDbSpline
 62
7
  6
BYLAYER
 70
0
 71
3
 72
9
 73
5
 74
0
 42
0.0000001
 43
0.0000001
 44
0.0000000001
 40
0.0
 40
0.0
 40
0.0
 40
0.0
 40
0.5077728572
 40
1.0
 40
1.0
 40
1.0
 40
1.0
 10
27.4507416505
 20
28.7844056893
 30
0.0
 10
27.4634904248
 20
28.7663761015
 30
0.0
 10
27.483787666
 20
28.7270922204
 30
0.0
 10
27.4909340294
 20
28.6833359892
 30
0.0
 10
27.4909340294
 20
28.6619304233
 30
0.0
  0
SPLINE
  5
38B
100
AcDbEntity
  8
0
100
AcDbSpline
 62
7
  6
BYLAYER
 70
0
 71
3
 72
15
 73
11
 74
0
 42
0.0000001
 43
0.0000001
 44
0.0000000001
 40
0.0
 40
0.0
 40
0.0
 40
0.0
 40
0.1404486061
 40
0.2838603843
 40
0.4261377629
 40
0.5632479636
 40
0.6915373792
 40
0.8080418731
 40
0.9109096311
 40
1.0
 40
1.0
 40
1.0
 40
1.0
 10
27.1909352784
 20
28.4887270976
 30
0.0
 10
27.2082866751
 20
28.4969067246
 30
0.0
 10
27.2424801981
 20
28.5153510116
 30
0.0
 10
27.2908113378
 20
28.547934426
 30
0.0
 10
27.3354094214
 20
28.5847678298
 30
0.0
 10
27.3746003253
 20
28.6244682899
 30
0.0
 10
27.4069376636
 20
28.6655533921
 30
0.0
 10
27.4312387272
 20
28.7065524583
 30
0.0
 10
27.4466252962
 20
28.745996388
 30
0.0
 10
27.4507417383
 20
28.7722375599
 30
0.0
 10
27.4507416505
 20
28.7844056893
 30
0.0
  0
SPLINE
  5
38C
100
AcDbEntity
  8
0
100
AcDbSpline
 62
7
  6
BYLAYER
 70
0
 71
3
 72
11
 73
7
 74
0
 42
0.0000001
 43
0.0000001
 44
0.0000000001
 40
0.0
 40
0.0
 40
0.0
 40
0.0
 40
0.2282523097
 40
0.4746465477
 40
0.7340278385
 40
1.0
 40
1.0
 40
1.0
 40
1.0
 10
27.4030669469
 20
28.5394574758
 30
0.0
 10
27.3885485313
 20
28.5310753147
 30
0.0
 10
27.3567909418
 20
28.5162966293
 30
0.0
 10
27.305078047
 20
28.5005601766
 30
0.0
 10
27.2490907433
 20
28.4909025985
 30
0.0
 10
27.2104700775
 20
28.4887271445
 30
0.0
 10
27.1909352784
 20
28.4887270976
 30
0.0
  0
SPLINE
  5
38D
100
AcDbEntity
  8
0
100
AcDbSpline
 62
7
  6
BYLAYER
 70
0
 71
3
 72
11
 73
7
 74
0
 42
0.0000001
 43
0.0000001
 44
0.0000000001
 40
0.0
 40
0.0
 40
0.0
 40
0.0
 40
0.2177157896
 40
0.45093883
 40
0.7102926367
 40
1.0
 40
1.0
 40
1.0
 40
1.0
 10
16.1132379051
 20
22.0930537141
 30
0.0
 10
16.1132379874
 20
22.0816307131
 30
0.0
 10
16.1090087059
 20
22.0578150609
 30
0.0
 10
16.0909676395
 20
22.02462352
 30
0.0
 10
16.0624126132
 20
21.9946318498
 30
0.0
 10
16.0385346173
 20
21.9781808417
 30
0.0
 10
16.0253708226
 20
21.9705807666
 30
0.0
  0
SPLINE
  5
38E
100
AcDbEntity
  8
0
100
AcDbSpline
 62
7
  6
BYLAYER
 70
0
 71
3
 72
21
 73
17
 74
0
 42
0.0000001
 43
0.0000001
 44
0.0000000001
 40
0.0
 40
0.0
 40
0.0
 40
0.0
 40
0.1925936373
 40
0.3777927222
 40
0.5485610735
 40
0.6984595172
 40
0.7637990883
 40
0.8219030853
 40
0.8722530948
 40
0.9144212831
 40
0.9480967838
 40
0.9617076002
 40
0.9731743779
 40
0.9825422888
 40
0.9899336539
 40
1.0
 40
1.0
 40
1.0
 40
1.0
 10
15.8132389867
 20
22.0655304999
 30
0.0
 10
15.832757606
 20
22.0655305468
 30
0.0
 10
15.8710463298
 20
22.0658704632
 30
0.0
 10
15.9266236968
 20
22.0673858268
 30
0.0
 10
15.9778361632
 20
22.0698407003
 30
0.0
 10
16.0168595201
 20
22.0726855247
 30
0.0
 10
16.0444256084
 20
22.075445132
 30
0.0
 10
16.0619105461
 20
22.0775809812
 30
0.0
 10
16.0770087218
 20
22.0798513462
 30
0.0
 10
16.0895772374
 20
22.0822345089
 30
0.0
 10
16.0983888878
 20
22.0844023525
 30
0.0
 10
16.1040539985
 20
22.0862528408
 30
0.0
 10
16.1072950232
 20
22.0875440725
 30
0.0
 10
16.1098544643
 20
22.0888716988
 30
0.0
 10
16.112055739
 20
22.0903908194
 30
0.0
 10
16.1132379451
 20
22.0920335289
 30
0.0
 10
16.1132379051
 20
22.0930537141
 30
0.0
  0
SPLINE
  5
38F
100
AcDbEntity
  8
0
100
AcDbSpline
 62
7
  6
BYLAYER
 70
0
 71
3
 72
15
 73
11
 74
0
 42
0.0000001
 43
0.0000001
 44
0.0000000001
 40
0.0
 40
0.0
 40
0.0
 40
0.0
 40
0.0906764977
 40
0.1879256768
 40
0.2959406066
 40
0.4167062588
 40
0.549851489
 40
0.6935181406
 40
0.844937003
 40
1.0
 40
1.0
 40
1.0
 40
1.0
 10
23.8106151028
 20
24.9755322257
 30
0.0
 10
23.8106151851
 20
24.9641148886
 30
0.0
 10
23.8148603989
 20
24.940299723
 30
0.0
 10
23.8328823843
 20
24.9071085382
 30
0.0
 10
23.8614430449
 20
24.877095212
 30
0.0
 10
23.8991990008
 20
24.8511237069
 30
0.0
 10
23.9447462355
 20
24.829892631
 30
0.0
 10
23.9964855887
 20
24.8141624579
 30
0.0
 10
24.0524663429
 20
24.804514732
 30
0.0
 10
24.0910919265
 20
24.8023302953
 30
0.0
 10
24.1106163518
 20
24.8023303422
 30
0.0
  0
SPLINE
  5
390
100
AcDbEntity
  8
0
100
AcDbSpline
 62
7
  6
BYLAYER
 70
0
 71
3
 72
11
 73
7
 74
0
 42
0.0000001
 43
0.0000001
 44
0.0000000001
 40
0.0
 40
0.0
 40
0.0
 40
0.0
 40
0.2659715471
 40
0.5253522779
 40
0.7717470148
 40
1.0
 40
1.0
 40
1.0
 40
1.0
 10
24.5106163518
 20
24.8023313037
 30
0.0
 10
24.5301510895
 20
24.8023313506
 30
0.0
 10
24.5687716304
 20
24.804507176
 30
0.0
 10
24.6247587523
 20
24.8141651042
 30
0.0
 10
24.676471705
 20
24.8299012308
 30
0.0
 10
24.7082295738
 20
24.844679503
 30
0.0
 10
24.7227480203
 20
24.853061682
 30
0.0
  0
SPLINE
  5
391
100
AcDbEntity
  8
0
100
AcDbSpline
 62
7
  6
BYLAYER
 70
0
 71
3
 72
11
 73
7
 74
0
 42
0.0000001
 43
0.0000001
 44
0.0000000001
 40
0.0
 40
0.0
 40
0.0
 40
0.0
 40
0.2897060281
 40
0.5490591642
 40
0.7822835676
 40
1.0
 40
1.0
 40
1.0
 40
1.0
 10
24.7227480203
 20
24.853061682
 30
0.0
 10
24.735911709
 20
24.8606616958
 30
0.0
 10
24.7597893227
 20
24.8771129651
 30
0.0
 10
24.7883437412
 20
24.9071048946
 30
0.0
 10
24.8063851685
 20
24.9402960246
 30
0.0
 10
24.8106151852
 20
24.9641116341
 30
0.0
 10
24.8106151028
 20
24.9755346294
 30
0.0
  0
SPLINE
  5
392
100
AcDbEntity
  8
0
100
AcDbSpline
 62
7
  6
BYLAYER
 70
0
 71
3
 72
13
 73
9
 74
0
 42
0.0000001
 43
0.0000001
 44
0.0000000001
 40
0.0
 40
0.0
 40
0.0
 40
0.0
 40
0.1079634733
 40
0.2181692273
 40
0.3322571289
 40
0.4516943161
 40
0.7106915389
 40
1.0
 40
1.0
 40
1.0
 40
1.0
 10
24.8106072742
 20
26.061128191
 30
0.0
 10
24.810607206
 20
26.0705820862
 30
0.0
 10
24.8122671039
 20
26.0897233097
 30
0.0
 10
24.8195955346
 20
26.118005426
 30
0.0
 10
24.8316921299
 20
26.145697844
 30
0.0
 10
24.8546146013
 20
26.1823867075
 30
0.0
 10
24.8953268892
 20
26.2251857123
 30
0.0
 10
24.9351129306
 20
26.2525830804
 30
0.0
 10
24.9570524116
 20
26.2652497701
 30
0.0
  0
SPLINE
  5
393
100
AcDbEntity
  8
0
100
AcDbSpline
 62
7
  6
BYLAYER
 70
0
 71
3
 72
11
 73
7
 74
0
 42
0.0000001
 43
0.0000001
 44
0.0000000001
 40
0.0
 40
0.0
 40
0.0
 40
0.0
 40
0.2282529852
 40
0.4746477221
 40
0.7340284529
 40
1.0
 40
1.0
 40
1.0
 40
1.0
 10
24.9570524116
 20
26.2652497701
 30
0.0
 10
24.9812498226
 20
26.2792200684
 30
0.0
 10
25.0341796039
 20
26.303850522
 30
0.0
 10
25.1203678584
 20
26.3300773996
 30
0.0
 10
25.2136797281
 20
26.3461739468
 30
0.0
 10
25.2780472964
 20
26.3498003223
 30
0.0
 10
25.3106051926
 20
26.3498004005
 30
0.0
  0
SPLINE
  5
394
100
AcDbEntity
  8
0
100
AcDbSpline
 62
7
  6
BYLAYER
 70
0
 71
3
 72
11
 73
7
 74
0
 42
0.0000001
 43
0.0000001
 44
0.0000000001
 40
0.0
 40
0.0
 40
0.0
 40
0.0
 40
0.2659715471
 40
0.5253522779
 40
0.7717470148
 40
1.0
 40
1.0
 40
1.0
 40
1.0
 10
27.1909352785
 20
26.3498049203
 30
0.0
 10
27.2104700161
 20
26.3498049672
 30
0.0
 10
27.2490905571
 20
26.3519807926
 30
0.0
 10
27.3050776789
 20
26.3616387208
 30
0.0
 10
27.3567906316
 20
26.3773748474
 30
0.0
 10
27.3885485004
 20
26.3921531196
 30
0.0
 10
27.4030669469
 20
26.4005352986
 30
0.0
  0
SPLINE
  5
395
100
AcDbEntity
  8
0
100
AcDbSpline
 62
7
  6
BYLAYER
 70
0
 71
3
 72
11
 73
7
 74
0
 42
0.0000001
 43
0.0000001
 44
0.0000000001
 40
0.0
 40
0.0
 40
0.0
 40
0.0
 40
0.2897060281
 40
0.5490591642
 40
0.7822835676
 40
1.0
 40
1.0
 40
1.0
 40
1.0
 10
27.4030669469
 20
26.4005352986
 30
0.0
 10
27.4162306356
 20
26.4081353124
 30
0.0
 10
27.4401082493
 20
26.4245865817
 30
0.0
 10
27.4686626677
 20
26.4545785112
 30
0.0
 10
27.4867040951
 20
26.4877696412
 30
0.0
 10
27.4909341117
 20
26.5115852507
 30
0.0
 10
27.4909340294
 20
26.523008246
 30
0.0
  0
SPLINE
  5
396
100
AcDbEntity
  8
0
100
AcDbSpline
 62
7
  6
BYLAYER
 70
0
 71
3
 72
11
 73
7
 74
0
 42
0.0000001
 43
0.0000001
 44
0.0000000001
 40
0.0
 40
0.0
 40
0.0
 40
0.0
 40
0.2282523097
 40
0.4746465477
 40
0.7340278385
 40
1.0
 40
1.0
 40
1.0
 40
1.0
 10
16.0253708226
 20
21.9705807666
 30
0.0
 10
16.0108524069
 20
21.9621986055
 30
0.0
 10
15.9790948175
 20
21.9474199201
 30
0.0
 10
15.9273819226
 20
21.9316834673
 30
0.0
 10
15.871394619
 20
21.9220258893
 30
0.0
 10
15.8327739531
 20
21.9198504353
 30
0.0
 10
15.8132391541
 20
21.9198503883
 30
0.0
  0
SPLINE
  5
397
100
AcDbEntity
  8
0
100
AcDbSpline
 62
7
  6
BYLAYER
 70
0
 71
3
 72
9
 73
5
 74
0
 42
0.0000001
 43
0.0000001
 44
0.0000000001
 40
0.0
 40
0.0
 40
0.0
 40
0.0
 40
0.4922271593
 40
1.0
 40
1.0
 40
1.0
 40
1.0
 10
27.490932364
 20
28.8928686601
 30
0.0
 10
27.49093221
 20
28.9142739949
 30
0.0
 10
27.483785694
 20
28.958029694
 30
0.0
 10
27.4634886209
 20
28.9973131036
 30
0.0
 10
27.4507399851
 20
29.0153424954
 30
0.0
  0
SPLINE
  5
398
100
AcDbEntity
  8
0
100
AcDbSpline
 62
7
  6
BYLAYER
 70
0
 71
3
 72
11
 73
7
 74
0
 42
0.0000001
 43
0.0000001
 44
0.0000000001
 40
0.0
 40
0.0
 40
0.0
 40
0.0
 40
0.2659717519
 40
0.5253529253
 40
0.7717473172
 40
1.0
 40
1.0
 40
1.0
 40
1.0
 10
21.9606074005
 20
28.1825326847
 30
0.0
 10
21.9410725908
 20
28.1825326378
 30
0.0
 10
21.9024518729
 20
28.1847079097
 30
0.0
 10
21.846464432
 20
28.1943652219
 30
0.0
 10
21.7947513144
 20
28.2101014288
 30
0.0
 10
21.7629935304
 20
28.2248799556
 30
0.0
 10
21.7484750003
 20
28.2332620432
 30
0.0
  0
SPLINE
  5
399
100
AcDbEntity
  8
0
100
AcDbSpline
 62
7
  6
BYLAYER
 70
0
 71
3
 72
15
 73
11
 74
0
 42
0.0000001
 43
0.0000001
 44
0.0000000001
 40
0.0
 40
0.0
 40
0.0
 40
0.0
 40
0.0890910195
 40
0.191959764
 40
0.3084649204
 40
0.4367547321
 40
0.5738649096
 40
0.7161418136
 40
0.8595525455
 40
1.0
 40
1.0
 40
1.0
 40
1.0
 10
21.7007985304
 20
28.4782100275
 30
0.0
 10
21.7007986181
 20
28.4660417973
 30
0.0
 10
21.7049155123
 20
28.4398004442
 30
0.0
 10
21.7203026675
 20
28.400356368
 30
0.0
 10
21.7446043724
 20
28.3593573024
 30
0.0
 10
21.776942207
 20
28.3182723519
 30
0.0
 10
21.8161334596
 20
28.2785721811
 30
0.0
 10
21.86073167
 20
28.2417391788
 30
0.0
 10
21.9090627207
 20
28.2091561873
 30
0.0
 10
21.9432560969
 20
28.1907121844
 30
0.0
 10
21.9606074005
 20
28.1825326847
 30
0.0
  0
SPLINE
  5
39A
100
AcDbEntity
  8
0
100
AcDbSpline
 62
7
  6
BYLAYER
 70
0
 71
3
 72
9
 73
5
 74
0
 42
0.0000001
 43
0.0000001
 44
0.0000000001
 40
0.0
 40
0.0
 40
0.0
 40
0.0
 40
0.4922268468
 40
1.0
 40
1.0
 40
1.0
 40
1.0
 10
21.6606061515
 20
28.3557345683
 30
0.0
 10
21.6606061515
 20
28.3771401503
 30
0.0
 10
21.667752529
 20
28.4208964377
 30
0.0
 10
21.6880497602
 20
28.4601803843
 30
0.0
 10
21.7007985304
 20
28.4782100274
 30
0.0
  0
SPLINE
  5
39B
100
AcDbEntity
  8
0
100
AcDbSpline
 62
7
  6
BYLAYER
 70
0
 71
3
 72
11
 73
7
 74
0
 42
0.0000001
 43
0.0000001
 44
0.0000000001
 40
0.0
 40
0.0
 40
0.0
 40
0.0
 40
0.2897075663
 40
0.5490616243
 40
0.7822846958
 40
1.0
 40
1.0
 40
1.0
 40
1.0
 10
21.7484750003
 20
28.2332620432
 30
0.0
 10
21.7353110912
 20
28.2408620577
 30
0.0
 10
21.7114328581
 20
28.2573129532
 30
0.0
 10
21.6828774145
 20
28.2873044701
 30
0.0
 10
21.6648358751
 20
28.3204958951
 30
0.0
 10
21.6606062339
 20
28.344311549
 30
0.0
 10
21.6606061515
 20
28.3557345683
 30
0.0
  0
SPLINE
  5
39C
100
AcDbEntity
  8
0
100
AcDbSpline
 62
7
  6
BYLAYER
 70
0
 71
3
 72
17
 73
13
 74
0
 42
0.0000001
 43
0.0000001
 44
0.0000000001
 40
0.0
 40
0.0
 40
0.0
 40
0.0
 40
0.1550519061
 40
0.3062890161
 40
0.4498678718
 40
0.5829723262
 40
0.7036621586
 40
0.8116114805
 40
0.8614339792
 40
0.9090199069
 40
0.9549779533
 40
1.0
 40
1.0
 40
1.0
 40
1.0
 10
23.3106074005
 20
26.0436137525
 30
0.0
 10
23.3431648251
 20
26.0436138307
 30
0.0
 10
23.407539297
 20
26.0399917463
 30
0.0
 10
23.5008344738
 20
26.0238857984
 30
0.0
 10
23.5870475489
 20
25.9976676602
 30
0.0
 10
23.6629907224
 20
25.9623137373
 30
0.0
 10
23.7258869635
 20
25.9190122968
 30
0.0
 10
23.7665948858
 20
25.8761936589
 30
0.0
 10
23.789520435
 20
25.8395179122
 30
0.0
 10
23.8016233541
 20
25.8118224313
 30
0.0
 10
23.8089509572
 20
25.7835384593
 30
0.0
 10
23.810609414
 20
25.7643975672
 30
0.0
 10
23.8106094822
 20
25.7549439466
 30
0.0
  0
SPLINE
  5
39D
100
AcDbEntity
  8
0
100
AcDbSpline
 62
7
  6
BYLAYER
 70
0
 71
3
 72
11
 73
7
 74
0
 42
0.0000001
 43
0.0000001
 44
0.0000000001
 40
0.0
 40
0.0
 40
0.0
 40
0.0
 40
0.2897075663
 40
0.5490616243
 40
0.7822846958
 40
1.0
 40
1.0
 40
1.0
 40
1.0
 10
23.8984839516
 20
26.9919818779
 30
0.0
 10
23.8853200425
 20
26.9995818925
 30
0.0
 10
23.8614418094
 20
27.016032788
 30
0.0
 10
23.8328863658
 20
27.0460243048
 30
0.0
 10
23.8148448264
 20
27.0792157298
 30
0.0
 10
23.8106151852
 20
27.1030313838
 30
0.0
 10
23.8106151028
 20
27.114454403
 30
0.0
  0
SPLINE
  5
39E
100
AcDbEntity
  8
0
100
AcDbSpline
 62
7
  6
BYLAYER
 70
0
 71
3
 72
17
 73
13
 74
0
 42
0.0000001
 43
0.0000001
 44
0.0000000001
 40
0.0
 40
0.0
 40
0.0
 40
0.0
 40
0.0317282096
 40
0.0558912238
 40
0.0868615784
 40
0.1249808027
 40
0.1703520292
 40
0.2827980845
 40
0.4235205685
 40
0.5911850323
 40
0.7840868129
 40
1.0
 40
1.0
 40
1.0
 40
1.0
 10
23.8106151028
 20
27.114454403
 30
0.0
 10
23.8106151475
 20
27.1133178426
 30
0.0
 10
23.8120759893
 20
27.1115099215
 30
0.0
 10
23.814653868
 20
27.1098891005
 30
0.0
 10
23.8176996703
 20
27.1084442101
 30
0.0
 10
23.8215487788
 20
27.1070454214
 30
0.0
 10
23.8282818273
 20
27.1050398742
 30
0.0
 10
23.8387266906
 20
27.102706729
 30
0.0
 10
23.8535886975
 20
27.1001604038
 30
0.0
 10
23.8713878711
 20
27.0977620626
 30
0.0
 10
23.8919200249
 20
27.0955390925
 30
0.0
 10
23.9065097233
 20
27.0942621541
 30
0.0
 10
23.9142198192
 20
27.0936496029
 30
0.0
  0
SPLINE
  5
39F
100
AcDbEntity
  8
0
100
AcDbSpline
 62
7
  6
BYLAYER
 70
0
 71
3
 72
9
 73
5
 74
0
 42
0.0000001
 43
0.0000001
 44
0.0000000001
 40
0.0
 40
0.0
 40
0.0
 40
0.0
 40
0.4664445497
 40
1.0
 40
1.0
 40
1.0
 40
1.0
 10
23.9142198192
 20
27.0936496029
 30
0.0
 10
23.9446831259
 20
27.0912293558
 30
0.0
 10
24.010142764
 20
27.0879614453
 30
0.0
 10
24.0756600904
 20
27.086932547
 30
0.0
 10
24.1106161845
 20
27.0869326311
 30
0.0
  0
SPLINE
  5
3A0
100
AcDbEntity
  8
0
100
AcDbSpline
 62
7
  6
BYLAYER
 70
0
 71
3
 72
11
 73
7
 74
0
 42
0.0000001
 43
0.0000001
 44
0.0000000001
 40
0.0
 40
0.0
 40
0.0
 40
0.0
 40
0.2659717519
 40
0.5253529253
 40
0.7717473172
 40
1.0
 40
1.0
 40
1.0
 40
1.0
 10
24.1106163518
 20
26.9412525195
 30
0.0
 10
24.0910815421
 20
26.9412524725
 30
0.0
 10
24.0524608242
 20
26.9434277444
 30
0.0
 10
23.9964733833
 20
26.9530850567
 30
0.0
 10
23.9447602657
 20
26.9688212635
 30
0.0
 10
23.9130024817
 20
26.9835997903
 30
0.0
 10
23.8984839516
 20
26.9919818779
 30
0.0
  0
SPLINE
  5
3A1
100
AcDbEntity
  8
0
100
AcDbSpline
 62
7
  6
BYLAYER
 70
0
 71
3
 72
11
 73
7
 74
0
 42
0.0000001
 43
0.0000001
 44
0.0000000001
 40
0.0
 40
0.0
 40
0.0
 40
0.0
 40
0.2659715471
 40
0.5253522779
 40
0.7717470148
 40
1.0
 40
1.0
 40
1.0
 40
1.0
 10
25.3106051925
 20
29.2075588605
 30
0.0
 10
25.2780472964
 20
29.2075587822
 30
0.0
 10
25.2136797281
 20
29.2039324067
 30
0.0
 10
25.1203678584
 20
29.1878358596
 30
0.0
 10
25.0341796039
 20
29.161608982
 30
0.0
 10
24.9812498226
 20
29.1369785283
 30
0.0
 10
24.9570524116
 20
29.12300823
 30
0.0
  0
SPLINE
  5
3A2
100
AcDbEntity
  8
0
100
AcDbSpline
 62
7
  6
BYLAYER
 70
0
 71
3
 72
13
 73
9
 74
0
 42
0.0000001
 43
0.0000001
 44
0.0000000001
 40
0.0
 40
0.0
 40
0.0
 40
0.0
 40
0.2893084611
 40
0.5483056839
 40
0.6677428711
 40
0.7818307727
 40
0.8920365267
 40
1.0
 40
1.0
 40
1.0
 40
1.0
 10
24.9570524116
 20
29.12300823
 30
0.0
 10
24.9351129306
 20
29.1103415403
 30
0.0
 10
24.8953268892
 20
29.0829441723
 30
0.0
 10
24.8546146013
 20
29.0401451674
 30
0.0
 10
24.8316921299
 20
29.0034563039
 30
0.0
 10
24.8195955346
 20
28.9757638859
 30
0.0
 10
24.8122671039
 20
28.9474817696
 30
0.0
 10
24.810607206
 20
28.9283405461
 30
0.0
 10
24.8106072742
 20
28.9188866509
 30
0.0
  0
SPLINE
  5
3A3
100
AcDbEntity
  8
0
100
AcDbSpline
 62
7
  6
BYLAYER
 70
0
 71
3
 72
17
 73
13
 74
0
 42
0.0000001
 43
0.0000001
 44
0.0000000001
 40
0.0
 40
0.0
 40
0.0
 40
0.0
 40
0.1550519061
 40
0.3062890161
 40
0.4498678718
 40
0.5829723262
 40
0.7036621586
 40
0.8116114805
 40
0.8614339792
 40
0.9090199069
 40
0.9549779533
 40
1.0
 40
1.0
 40
1.0
 40
1.0
 10
10.2645416039
 20
18.5115091135
 30
0.0
 10
10.2970990285
 20
18.5115091918
 30
0.0
 10
10.3614735004
 20
18.5078871074
 30
0.0
 10
10.4547686772
 20
18.4917811595
 30
0.0
 10
10.5409817523
 20
18.4655630212
 30
0.0
 10
10.6169249258
 20
18.4302090983
 30
0.0
 10
10.6798211669
 20
18.3869076579
 30
0.0
 10
10.7205290892
 20
18.34408902
 30
0.0
 10
10.7434546384
 20
18.3074132733
 30
0.0
 10
10.7555575575
 20
18.2797177924
 30
0.0
 10
10.7628851606
 20
18.2514338204
 30
0.0
 10
10.7645436174
 20
18.2322929283
 30
0.0
 10
10.7645436856
 20
18.2228393077
 30
0.0
  0
SPLINE
  5
3A4
100
AcDbEntity
  8
0
100
AcDbSpline
 62
7
  6
BYLAYER
 70
0
 71
3
 72
17
 73
13
 74
0
 42
0.0000001
 43
0.0000001
 44
0.0000000001
 40
0.0
 40
0.0
 40
0.0
 40
0.0
 40
0.0450220393
 40
0.0909800644
 40
0.1385659638
 40
0.1883884373
 40
0.2963377319
 40
0.4170275439
 40
0.5501319931
 40
0.6937108637
 40
0.8449480495
 40
1.0
 40
1.0
 40
1.0
 40
1.0
 10
23.8106094822
 20
28.6127024066
 30
0.0
 10
23.810609414
 20
28.6221560256
 30
0.0
 10
23.8089509613
 20
28.6412969117
 30
0.0
 10
23.8016233678
 20
28.6695808743
 30
0.0
 10
23.7895204504
 20
28.6972763388
 30
0.0
 10
23.7665949205
 20
28.7339520769
 30
0.0
 10
23.725887015
 20
28.7767707105
 30
0.0
 10
23.6629907926
 20
28.8200721579
 30
0.0
 10
23.5870476262
 20
28.8554260919
 30
0.0
 10
23.5008345365
 20
28.8816442458
 30
0.0
 10
23.4075393313
 20
28.8977501975
 30
0.0
 10
23.3431648345
 20
28.9013722907
 30
0.0
 10
23.3106074006
 20
28.9013722124
 30
0.0
  0
SPLINE
  5
3A5
100
AcDbEntity
  8
0
100
AcDbSpline
 62
7
  6
BYLAYER
 70
0
 71
3
 72
11
 73
7
 74
0
 42
0.0000001
 43
0.0000001
 44
0.0000000001
 40
0.0
 40
0.0
 40
0.0
 40
0.0
 40
0.2659715471
 40
0.5253522779
 40
0.7717470148
 40
1.0
 40
1.0
 40
1.0
 40
1.0
 10
7.1158619563
 20
14.7595251184
 30
0.0
 10
7.135396694
 20
14.7595251654
 30
0.0
 10
7.174017235
 20
14.7617009907
 30
0.0
 10
7.2300043568
 20
14.771358919
 30
0.0
 10
7.2817173095
 20
14.7870950456
 30
0.0
 10
7.3134751783
 20
14.8018733177
 30
0.0
 10
7.3279936249
 20
14.8102554967
 30
0.0
  0
SPLINE
  5
3A6
100
AcDbEntity
  8
0
100
AcDbSpline
 62
7
  6
BYLAYER
 70
0
 71
3
 72
11
 73
7
 74
0
 42
0.0000001
 43
0.0000001
 44
0.0000000001
 40
0.0
 40
0.0
 40
0.0
 40
0.0
 40
0.2897075663
 40
0.5490616243
 40
0.7822846958
 40
1.0
 40
1.0
 40
1.0
 40
1.0
 10
10.852418155
 20
19.459877239
 30
0.0
 10
10.8392542459
 20
19.4674772535
 30
0.0
 10
10.8153760128
 20
19.483928149
 30
0.0
 10
10.7868205692
 20
19.5139196659
 30
0.0
 10
10.7687790298
 20
19.5471110909
 30
0.0
 10
10.7645493886
 20
19.5709267448
 30
0.0
 10
10.7645493062
 20
19.5823497641
 30
0.0
  0
SPLINE
  5
3A7
100
AcDbEntity
  8
0
100
AcDbSpline
 62
7
  6
BYLAYER
 70
0
 71
3
 72
17
 73
13
 74
0
 42
0.0000001
 43
0.0000001
 44
0.0000000001
 40
0.0
 40
0.0
 40
0.0
 40
0.0
 40
0.0317282096
 40
0.0558912238
 40
0.0868615784
 40
0.1249808027
 40
0.1703520292
 40
0.2827980845
 40
0.4235205685
 40
0.5911850323
 40
0.7840868129
 40
1.0
 40
1.0
 40
1.0
 40
1.0
 10
10.7645493062
 20
19.5823497641
 30
0.0
 10
10.7645493509
 20
19.5812132037
 30
0.0
 10
10.7660101927
 20
19.5794052825
 30
0.0
 10
10.7685880714
 20
19.5777844616
 30
0.0
 10
10.7716338737
 20
19.5763395712
 30
0.0
 10
10.7754829822
 20
19.5749407825
 30
0.0
 10
10.7822160307
 20
19.5729352353
 30
0.0
 10
10.792660894
 20
19.5706020901
 30
0.0
 10
10.8075229009
 20
19.5680557649
 30
0.0
 10
10.8253220745
 20
19.5656574237
 30
0.0
 10
10.8458542283
 20
19.5634344536
 30
0.0
 10
10.8604439267
 20
19.5621575152
 30
0.0
 10
10.8681540227
 20
19.5615449639
 30
0.0
  0
SPLINE
  5
3A8
100
AcDbEntity
  8
0
100
AcDbSpline
 62
7
  6
BYLAYER
 70
0
 71
3
 72
9
 73
5
 74
0
 42
0.0000001
 43
0.0000001
 44
0.0000000001
 40
0.0
 40
0.0
 40
0.0
 40
0.0
 40
0.4664445497
 40
1.0
 40
1.0
 40
1.0
 40
1.0
 10
10.8681540227
 20
19.5615449639
 30
0.0
 10
10.8986173293
 20
19.5591247169
 30
0.0
 10
10.9640769674
 20
19.5558568064
 30
0.0
 10
11.0295942938
 20
19.5548279081
 30
0.0
 10
11.0645503879
 20
19.5548279921
 30
0.0
  0
SPLINE
  5
3A9
100
AcDbEntity
  8
0
100
AcDbSpline
 62
7
  6
BYLAYER
 70
0
 71
3
 72
11
 73
7
 74
0
 42
0.0000001
 43
0.0000001
 44
0.0000000001
 40
0.0
 40
0.0
 40
0.0
 40
0.0
 40
0.2659717519
 40
0.5253529253
 40
0.7717473172
 40
1.0
 40
1.0
 40
1.0
 40
1.0
 10
11.0645505552
 20
19.4091478805
 30
0.0
 10
11.0450157455
 20
19.4091478336
 30
0.0
 10
11.0063950276
 20
19.4113231055
 30
0.0
 10
10.9504075867
 20
19.4209804177
 30
0.0
 10
10.8986944691
 20
19.4367166246
 30
0.0
 10
10.8669366851
 20
19.4514951514
 30
0.0
 10
10.852418155
 20
19.459877239
 30
0.0
  0
SPLINE
  5
3AA
100
AcDbEntity
  8
0
100
AcDbSpline
 62
7
  6
BYLAYER
 70
0
 71
3
 72
9
 73
5
 74
0
 42
0.0000001
 43
0.0000001
 44
0.0000000001
 40
0.0
 40
0.0
 40
0.0
 40
0.0
 40
0.5188669467
 40
1.0
 40
1.0
 40
1.0
 40
1.0
 10
27.4507399851
 20
29.0153424954
 30
0.0
 10
27.4507399184
 20
29.024596112
 30
0.0
 10
27.4485745526
 20
29.0425685456
 30
0.0
 10
27.4408386771
 20
29.059064929
 30
0.0
 10
27.4358850283
 20
29.0660712894
 30
0.0
  0
SPLINE
  5
3AB
100
AcDbEntity
  8
0
100
AcDbSpline
 62
7
  6
BYLAYER
 70
0
 71
3
 72
9
 73
5
 74
0
 42
0.0000001
 43
0.0000001
 44
0.0000000001
 40
0.0
 40
0.0
 40
0.0
 40
0.0
 40
0.504807562
 40
1.0
 40
1.0
 40
1.0
 40
1.0
 10
21.6846519526
 20
28.6827596507
 30
0.0
 10
21.6768778245
 20
28.667878102
 30
0.0
 10
21.6647680908
 20
28.6365265526
 30
0.0
 10
21.6606044861
 20
28.6031413825
 30
0.0
 10
21.6606044861
 20
28.5866713745
 30
0.0
  0
SPLINE
  5
3AC
100
AcDbEntity
  8
0
100
AcDbSpline
 62
7
  6
BYLAYER
 70
0
 71
3
 72
11
 73
7
 74
0
 42
0.0000001
 43
0.0000001
 44
0.0000000001
 40
0.0
 40
0.0
 40
0.0
 40
0.0
 40
0.2659715471
 40
0.5253522779
 40
0.7717470148
 40
1.0
 40
1.0
 40
1.0
 40
1.0
 10
12.2645393959
 20
21.6754542216
 30
0.0
 10
12.2319814998
 20
21.6754541433
 30
0.0
 10
12.1676139315
 20
21.6718277678
 30
0.0
 10
12.0743020618
 20
21.6557312207
 30
0.0
 10
11.9881138073
 20
21.629504343
 30
0.0
 10
11.935184026
 20
21.6048738894
 30
0.0
 10
11.910986615
 20
21.5909035911
 30
0.0
  0
SPLINE
  5
3AD
100
AcDbEntity
  8
0
100
AcDbSpline
 62
7
  6
BYLAYER
 70
0
 71
3
 72
13
 73
9
 74
0
 42
0.0000001
 43
0.0000001
 44
0.0000000001
 40
0.0
 40
0.0
 40
0.0
 40
0.0
 40
0.2893084611
 40
0.5483056839
 40
0.6677428711
 40
0.7818307727
 40
0.8920365267
 40
1.0
 40
1.0
 40
1.0
 40
1.0
 10
11.910986615
 20
21.5909035911
 30
0.0
 10
11.889047134
 20
21.5782369014
 30
0.0
 10
11.8492610926
 20
21.5508395334
 30
0.0
 10
11.8085488047
 20
21.5080405285
 30
0.0
 10
11.7856263333
 20
21.471351665
 30
0.0
 10
11.773529738
 20
21.443659247
 30
0.0
 10
11.7662013073
 20
21.4153771307
 30
0.0
 10
11.7645414094
 20
21.3962359072
 30
0.0
 10
11.7645414776
 20
21.386782012
 30
0.0
  0
SPLINE
  5
3AE
100
AcDbEntity
  8
0
100
AcDbSpline
 62
7
  6
BYLAYER
 70
0
 71
3
 72
11
 73
7
 74
0
 42
0.0000001
 43
0.0000001
 44
0.0000000001
 40
0.0
 40
0.0
 40
0.0
 40
0.0
 40
0.2897060281
 40
0.5490591642
 40
0.7822835676
 40
1.0
 40
1.0
 40
1.0
 40
1.0
 10
7.3279936249
 20
14.8102554967
 30
0.0
 10
7.3411573135
 20
14.8178555105
 30
0.0
 10
7.3650349272
 20
14.8343067799
 30
0.0
 10
7.3935893457
 20
14.8642987094
 30
0.0
 10
7.411630773
 20
14.8974898393
 30
0.0
 10
7.4158607897
 20
14.9213054489
 30
0.0
 10
7.4158607073
 20
14.9327284442
 30
0.0
  0
SPLINE
  5
3AF
100
AcDbEntity
  8
0
100
AcDbSpline
 62
7
  6
BYLAYER
 70
0
 71
3
 72
17
 73
13
 74
0
 42
0.0000001
 43
0.0000001
 44
0.0000000001
 40
0.0
 40
0.0
 40
0.0
 40
0.0
 40
0.0450220393
 40
0.0909800644
 40
0.1385659638
 40
0.1883884373
 40
0.2963377319
 40
0.4170275439
 40
0.5501319931
 40
0.6937108637
 40
0.8449480495
 40
1.0
 40
1.0
 40
1.0
 40
1.0
 10
10.7645436856
 20
21.0805977676
 30
0.0
 10
10.7645436174
 20
21.0900513867
 30
0.0
 10
10.7628851647
 20
21.1091922728
 30
0.0
 10
10.7555575712
 20
21.1374762354
 30
0.0
 10
10.7434546538
 20
21.1651716999
 30
0.0
 10
10.7205291239
 20
21.201847438
 30
0.0
 10
10.6798212184
 20
21.2446660715
 30
0.0
 10
10.616924996
 20
21.287967519
 30
0.0
 10
10.5409818296
 20
21.3233214529
 30
0.0
 10
10.4547687399
 20
21.3495396069
 30
0.0
 10
10.3614735347
 20
21.3656455585
 30
0.0
 10
10.2970990379
 20
21.3692676518
 30
0.0
 10
10.2645416039
 20
21.3692675735
 30
0.0
  0
ELLIPSE
  5
3B0
100
AcDbEntity
  8
0
100
AcDbEllipse
 62
7
  6
BYLAYER
 10
7.6461711335
 20
20.5167193805
 30
0.0
 11
0.3
 21
-0.0000004327
 31
0.0
 40
0.6666571361
 41
0.000005769
 42
1.5708020958
  0
ELLIPSE
  5
3B1
100
AcDbEntity
  8
0
100
AcDbEllipse
 62
7
  6
BYLAYER
 10
7.2461711335
 20
20.516718419
 30
0.0
 11
0.3
 21
-0.0000004327
 31
0.0
 40
0.6666571361
 41
1.5708020957
 42
3.1415984225
  0
ELLIPSE
  5
3B2
100
AcDbEntity
  8
0
100
AcDbEllipse
 62
7
  6
BYLAYER
 10
15.9435483312
 20
25.5381215116
 30
0.0
 11
0.3
 21
-0.0000004327
 31
0.0
 40
0.6666571361
 41
7.8539874029
 42
9.4247837297
  0
ELLIPSE
  5
3B3
100
AcDbEntity
  8
0
100
AcDbEllipse
 62
7
  6
BYLAYER
 10
11.9948597323
 20
23.0274209268
 30
0.0
 11
0.3
 21
-0.0000004327
 31
0.0
 40
0.6666571361
 41
0.0000057687
 42
1.5708020958
  0
ELLIPSE
  5
3B4
100
AcDbEntity
  8
0
100
AcDbEllipse
 62
7
  6
BYLAYER
 10
11.5948597323
 20
23.0274199653
 30
0.0
 11
0.3
 21
-0.0000004327
 31
0.0
 40
0.6666571361
 41
1.5708020957
 42
3.1415984225
  0
ELLIPSE
  5
3B5
100
AcDbEntity
  8
0
100
AcDbEllipse
 62
7
  6
BYLAYER
 10
16.3435483312
 20
25.5381224731
 30
0.0
 11
0.3
 21
-0.0000004327
 31
0.0
 40
0.6666571361
 41
0.0000057693
 42
1.5708020956
  0
ELLIPSE
  5
3B6
100
AcDbEntity
  8
0
100
AcDbEllipse
 62
7
  6
BYLAYER
 10
20.6922369301
 20
28.0488240194
 30
0.0
 11
0.3
 21
-0.0000004327
 31
0.0
 40
0.6666571361
 41
0.000005769
 42
1.5708020956
  0
ELLIPSE
  5
3B7
100
AcDbEntity
  8
0
100
AcDbEllipse
 62
7
  6
BYLAYER
 10
20.2922369301
 20
28.0488230579
 30
0.0
 11
0.3
 21
-0.0000004327
 31
0.0
 40
0.6666571361
 41
1.5708020958
 42
3.1415984225
  0
ELLIPSE
  5
3B8
100
AcDbEntity
  8
0
100
AcDbEllipse
 62
7
  6
BYLAYER
 10
24.6409255289
 20
30.5595246042
 30
0.0
 11
0.3
 21
-0.0000004327
 31
0.0
 40
0.6666571361
 41
7.8539874029
 42
9.4247837297
  0
ELLIPSE
  5
3B9
100
AcDbEntity
  8
0
100
AcDbEllipse
 62
7
  6
BYLAYER
 10
25.0409255289
 20
30.5595255657
 30
0.0
 11
0.3
 21
-0.0000004327
 31
0.0
 40
0.6666571361
 41
0.000005769
 42
1.5708020956
  0
ELLIPSE
  5
3BA
100
AcDbEntity
  8
0
100
AcDbEllipse
 62
7
  6
BYLAYER
 10
9.4228290664
 20
21.7734049611
 30
0.0
 11
0.3464101615
 21
0.0000002776
 31
0.0
 40
0.4999928521
 41
7.8539848389
 42
9.4247811657
  0
ELLIPSE
  5
3BB
100
AcDbEntity
  8
0
100
AcDbEllipse
 62
7
  6
BYLAYER
 10
13.6365761906
 20
22.0795969304
 30
0.0
 11
0.3464101615
 21
0.0000002776
 31
0.0
 40
0.4999928521
 41
0.000003205
 42
1.5707995318
  0
ELLIPSE
  5
3BC
100
AcDbEntity
  8
0
100
AcDbEllipse
 62
7
  6
BYLAYER
 10
18.1202062641
 20
26.7948080537
 30
0.0
 11
0.3464101615
 21
0.0000002776
 31
0.0
 40
0.4999928521
 41
7.853984839
 42
9.4247811658
  0
ELLIPSE
  5
3BD
100
AcDbEntity
  8
0
100
AcDbEllipse
 62
7
  6
BYLAYER
 10
13.7715176653
 20
24.2841065074
 30
0.0
 11
0.3464101615
 21
0.0000002776
 31
0.0
 40
0.4999928521
 41
7.8539848389
 42
9.4247811658
  0
ELLIPSE
  5
3BE
100
AcDbEntity
  8
0
100
AcDbEllipse
 62
7
  6
BYLAYER
 10
5.0741404675
 20
19.2627034148
 30
0.0
 11
0.3464101615
 21
0.0000002776
 31
0.0
 40
0.4999928521
 41
7.8539848389
 42
9.4247811657
  0
ELLIPSE
  5
3BF
100
AcDbEntity
  8
0
100
AcDbEllipse
 62
7
  6
BYLAYER
 10
13.7715193306
 20
24.0531697012
 30
0.0
 11
0.3464101615
 21
0.0000002776
 31
0.0
 40
0.4999928521
 41
-3.1415894487
 42
-1.5707931218
  0
ELLIPSE
  5
3C0
100
AcDbEntity
  8
0
100
AcDbEllipse
 62
7
  6
BYLAYER
 10
9.4228307318
 20
21.5424681549
 30
0.0
 11
0.3464101615
 21
0.0000002776
 31
0.0
 40
0.4999928521
 41
-3.1415894484
 42
-1.5707931218
  0
ELLIPSE
  5
3C1
100
AcDbEntity
  8
0
100
AcDbEllipse
 62
7
  6
BYLAYER
 10
6.7158585911
 20
18.0839426122
 30
0.0
 11
0.3
 21
-0.0000004327
 31
0.0
 40
0.6666571361
 41
3.1415984226
 42
4.7123947494
  0
ELLIPSE
  5
3C2
100
AcDbEntity
  8
0
100
AcDbEllipse
 62
7
  6
BYLAYER
 10
5.0741421329
 20
19.0317666086
 30
0.0
 11
0.3464101615
 21
0.0000002776
 31
0.0
 40
0.4999928521
 41
-3.1415894484
 42
-1.5707931218
  0
ELLIPSE
  5
3C3
100
AcDbEntity
  8
0
100
AcDbEllipse
 62
7
  6
BYLAYER
 10
11.46454719
 20
20.59464512
 30
0.0
 11
0.3
 21
-0.0000004327
 31
0.0
 40
0.6666571361
 41
-1.5707905579
 42
0.0000057689
  0
ELLIPSE
  5
3C4
100
AcDbEntity
  8
0
100
AcDbEllipse
 62
7
  6
BYLAYER
 10
13.6365778559
 20
21.8486601242
 30
0.0
 11
0.3464101615
 21
0.0000002776
 31
0.0
 40
0.4999928521
 41
-1.5707931219
 42
0.0000032049
  0
ELLIPSE
  5
3C5
100
AcDbEntity
  8
0
100
AcDbEllipse
 62
7
  6
BYLAYER
 10
17.9852647894
 20
24.5902984767
 30
0.0
 11
0.3464101615
 21
0.0000002776
 31
0.0
 40
0.4999928521
 41
0.0000032048
 42
1.5707995318
  0
ELLIPSE
  5
3C6
100
AcDbEntity
  8
0
100
AcDbEllipse
 62
7
  6
BYLAYER
 10
15.4132357888
 20
23.1053457048
 30
0.0
 11
0.3
 21
-0.0000004327
 31
0.0
 40
0.6666571361
 41
-3.1415868848
 42
-1.5707905578
  0
ELLIPSE
  5
3C7
100
AcDbEntity
  8
0
100
AcDbEllipse
 62
7
  6
BYLAYER
 10
7.1158585911
 20
18.0839435737
 30
0.0
 11
0.3
 21
-0.0000004327
 31
0.0
 40
0.6666571361
 41
-1.5707905579
 42
0.0000057689
  0
ELLIPSE
  5
3C8
100
AcDbEntity
  8
0
100
AcDbEllipse
 62
7
  6
BYLAYER
 10
9.287889257
 20
19.3379585779
 30
0.0
 11
0.3464101615
 21
0.0000002776
 31
0.0
 40
0.4999928521
 41
-1.5707931219
 42
0.0000032049
  0
ELLIPSE
  5
3C9
100
AcDbEntity
  8
0
100
AcDbEllipse
 62
7
  6
BYLAYER
 10
19.7619243877
 20
25.6160472511
 30
0.0
 11
0.3
 21
-0.0000004327
 31
0.0
 40
0.6666571361
 41
3.1415984227
 42
4.7123947494
  0
ELLIPSE
  5
3CA
100
AcDbEntity
  8
0
100
AcDbEllipse
 62
7
  6
BYLAYER
 10
22.3339533883
 20
27.101000023
 30
0.0
 11
0.3464101615
 21
0.0000002776
 31
0.0
 40
0.4999928521
 41
0.0000032049
 42
1.5707995318
  0
ELLIPSE
  5
3CB
100
AcDbEntity
  8
0
100
AcDbEllipse
 62
7
  6
BYLAYER
 10
9.2878875917
 20
19.5688953841
 30
0.0
 11
0.3464101615
 21
0.0000002776
 31
0.0
 40
0.4999928521
 41
0.000003205
 42
1.5707995318
  0
ELLIPSE
  5
3CC
100
AcDbEntity
  8
0
100
AcDbEllipse
 62
7
  6
BYLAYER
 10
26.6826436525
 20
29.3807647631
 30
0.0
 11
0.3464101615
 21
0.0000002776
 31
0.0
 40
0.4999928521
 41
-1.5707931218
 42
0.0000032051
  0
ELLIPSE
  5
3CD
100
AcDbEntity
  8
0
100
AcDbEllipse
 62
7
  6
BYLAYER
 10
22.468894863
 20
29.3055096
 30
0.0
 11
0.3464101615
 21
0.0000002776
 31
0.0
 40
0.4999928521
 41
7.8539848389
 42
9.4247811658
  0
ELLIPSE
  5
3CE
100
AcDbEntity
  8
0
100
AcDbEllipse
 62
7
  6
BYLAYER
 10
24.5106129866
 20
28.1267497589
 30
0.0
 11
0.3
 21
-0.0000004327
 31
0.0
 40
0.6666571361
 41
-1.5707905578
 42
0.0000057689
  0
ELLIPSE
  5
3CF
100
AcDbEntity
  8
0
100
AcDbEllipse
 62
7
  6
BYLAYER
 10
18.1202079295
 20
26.5638712475
 30
0.0
 11
0.3464101615
 21
0.0000002776
 31
0.0
 40
0.4999928521
 41
-3.1415894488
 42
-1.5707931218
  0
ELLIPSE
  5
3D0
100
AcDbEntity
  8
0
100
AcDbEllipse
 62
7
  6
BYLAYER
 10
17.9852664548
 20
24.3593616705
 30
0.0
 11
0.3464101615
 21
0.0000002776
 31
0.0
 40
0.4999928521
 41
-1.5707931217
 42
0.0000032053
  0
ELLIPSE
  5
3D1
100
AcDbEntity
  8
0
100
AcDbEllipse
 62
7
  6
BYLAYER
 10
20.1619243877
 20
25.6160482126
 30
0.0
 11
0.3
 21
-0.0000004327
 31
0.0
 40
0.6666571361
 41
-1.5707905578
 42
0.0000057689
  0
ELLIPSE
  5
3D2
100
AcDbEntity
  8
0
100
AcDbEllipse
 62
7
  6
BYLAYER
 10
22.3339550536
 20
26.8700632168
 30
0.0
 11
0.3464101615
 21
0.0000002776
 31
0.0
 40
0.4999928521
 41
-1.5707931218
 42
0.0000032051
  0
ELLIPSE
  5
3D3
100
AcDbEntity
  8
0
100
AcDbEllipse
 62
7
  6
BYLAYER
 10
15.8132357888
 20
23.1053466663
 30
0.0
 11
0.3
 21
-0.0000004327
 31
0.0
 40
0.6666571361
 41
-1.5707905579
 42
0.0000057689
  0
ELLIPSE
  5
3D4
100
AcDbEntity
  8
0
100
AcDbEllipse
 62
7
  6
BYLAYER
 10
22.4688965284
 20
29.0745727938
 30
0.0
 11
0.3464101615
 21
0.0000002776
 31
0.0
 40
0.4999928521
 41
-3.1415894487
 42
-1.5707931218
  0
ELLIPSE
  5
3D5
100
AcDbEntity
  8
0
100
AcDbEllipse
 62
7
  6
BYLAYER
 10
24.1106129866
 20
28.1267487974
 30
0.0
 11
0.3
 21
-0.0000004327
 31
0.0
 40
0.6666571361
 41
3.1415984226
 42
4.7123947493
  0
ELLIPSE
  5
3D6
100
AcDbEntity
  8
0
100
AcDbEllipse
 62
7
  6
BYLAYER
 10
26.6826419872
 20
29.6117015693
 30
0.0
 11
0.3464101615
 21
0.0000002776
 31
0.0
 40
0.4999928521
 41
0.0000032049
 42
1.5707995318
  0
ELLIPSE
  5
3D7
100
AcDbEntity
  8
0
100
AcDbEllipse
 62
7
  6
BYLAYER
 10
11.06454719
 20
20.5946441585
 30
0.0
 11
0.3
 21
-0.0000004327
 31
0.0
 40
0.6666571361
 41
3.1415984224
 42
4.7123947494
  0
ENDSEC
  0
SECTION
  2
OBJECTS
  0
DICTIONARY
  5
C
100
AcDbDictionary
280
0
281
1
  3
ACAD_GROUP
350
D
  3
ACAD_MLINESTYLE
350
17
  3
ACAD_LAYOUT
350
1A
  3
ACAD_PLOTSETTINGS
350
19
  3
ACAD_PLOTSTYLENAME
350
E
  0
DICTIONARY
  5
D
102
{ACAD_REACTORS
330
C
102
}
100
AcDbDictionary
280
0
281
1
  0
ACDBDICTIONARYWDFLT
  5
E
102
{ACAD_REACTORS
330
C
102
}
100
AcDbDictionary
281
1
  3
Normal
350
F
100
AcDbDictionaryWithDefault
340
F
  0
DICTIONARY
  5
17
102
{ACAD_REACTORS
330
C
102
}
100
AcDbDictionary
280
0
281
1
  3
Standard
350
18
  0
DICTIONARY
  5
19
102
{ACAD_REACTORS
330
C
102
}
100
AcDbDictionary
281
1
  0
DICTIONARY
  5
1A
102
{ACAD_REACTORS
330
C
102
}
100
AcDbDictionary
281
1
  3
Model
350
3D8
  3
Layout1
350
3D9
  0
ACDBPLACEHOLDER
  5
F
102
{ACAD_REACTORS
330
E
102
}
  0
MLINESTYLE
  5
18
102
{ACAD_REACTORS
330
17
102
}
100
AcDbMlineStyle
  2
STANDARD
 70
0
  3

 62
256
 51
90.0
 52
90.0
 71
2
 49
0.5
 62
256
  6
BYLAYER
 49
-0.5
 62
256
  6
BYLAYER
  0
LAYOUT
  5
3D8
102
{ACAD_REACTORS
330
1A
102
}
100
AcDbPlotSettings
  1

  2
none_device
  4

  6

 40
0.0
 41
0.0
 42
0.0
 43
0.0
 44
210.0
 45
297.0
 46
0.0
 47
0.0
 48
0.0
 49
0.0
140
0.0
141
0.0
142
1.0
143
1.0
 70
1024
 72
1
 73
0
 74
0
  7

 75
0
147
1.0
148
0.0
149
0.0
100
AcDbLayout
  1
Model
 70
0
 71
0
 10
0.0
 20
0.0
 11
210.0
 21
297.0
 12
0.0
 22
0.0
 32
0.0
 14
0.0
 24
0.0
 34
0.0
 15
0.0
 25
0.0
 35
0.0
146
0.0
 13
0.0
 23
0.0
 33
0.0
 16
1.0
 26
0.0
 36
0.0
 17
0.0
 27
1.0
 37
0.0
 76
0
330
210
345
0
346
0
  0
LAYOUT
  5
3D9
102
{ACAD_REACTORS
330
1A
102
}
100
AcDbPlotSettings
  1

  2
none_device
  4

  6

 40
0.0
 41
0.0
 42
0.0
 43
0.0
 44
210.0
 45
297.0
 46
0.0
 47
0.0
 48
0.0
 49
0.0
140
0.0
141
0.0
142
1.0
143
1.0
 70
0
 72
1
 73
0
 74
0
  7

 75
0
147
1.0
148
0.0
149
0.0
100
AcDbLayout
  1
Layout1
 70
0
 71
1
 10
0.0
 20
0.0
 11
210.0
 21
297.0
 12
0.0
 22
0.0
 32
0.0
 14
0.0
 24
0.0
 34
0.0
 15
0.0
 25
0.0
 35
0.0
146
0.0
 13
0.0
 23
0.0
 33
0.0
 16
1.0
 26
0.0
 36
0.0
 17
0.0
 27
1.0
 37
0.0
 76
0
330
211
345
0
346
0
  0
ENDSEC
  0
EOF
