999
DXF file: C:\Users\sesa63760\Dev\_Creo\CAD\MCADUE0002753_3D-CAD\drw0001_3.dxf
999
Pro/ENGINEER 2019471 by Parametric Technology Corporation
  0
SECTION
  2
HEADER
  9
$ACADVER
  1
AC1024
  9
$DWGCODEPAGE
  3
ANSI_1252
  9
$EXTMAX
 10
41.5535891348
 20
58.7686474906
 30
0.0
  9
$EXTMIN
 10
0.0
 20
0.0
 30
0.0
  9
$LIMMIN
 10
0.0
 20
0.0
  9
$LIMMAX
 10
41.5535891348
 20
58.7686474906
  9
$VIEWCTR
 10
20.7767945674
 20
29.3843237453
  9
$VIEWSIZE
 40
58.7686474906
  9
$CLAYER
  8
0
  9
$LTSCALE
 40
3.8308451698
  9
$CELTYPE
  6
BYLAYER
  9
$DIMSCALE
 40
1.0
  9
$DIMASZ
 40
0.4946855849
  9
$DIMEXO
 40
1.0
  9
$DIMDLI
 40
2.6467657537
  9
$DIMEXE
 40
1.0
  9
$DIMCEN
 40
0.6268655732
  9
$DIMLFAC
 40
1.0
  9
$DIMBLK
  1
_FILLED
  9
$DIMALT
 70
0
  9
$DIMALTF
 40
0.0393700787
  9
$DIMTXT
 40
0.6925598189
  9
$DIMTOL
 70
1
  9
$DIMLIM
 70
0
  9
$DIMTFAC
 40
1.0
  9
$DIMTP
 40
0.01
  9
$DIMTM
 40
0.01
  9
$DIMGAP
 40
0.625
  9
$DIMDSEP
 70
46
  9
$AUNITS
 70
0
  9
$PDMODE
 70
3
  9
$PDSIZE
 40
0.3125
  9
$HANDSEED
  5
280
  9
$TILEMODE
 70
1
  9
$MEASUREMENT
 70
1
  9
$INSUNITS
 70
4
  0
ENDSEC
  0
SECTION
  2
CLASSES
  0
CLASS
  1
ACDBDICTIONARYWDFLT
  2
AcDbDictionaryWithDefault
  3
AutoCAD 2000
 90
0
 91
1
280
0
281
0
  0
CLASS
  1
ACDBPLACEHOLDER
  2
AcDbPlaceHolder
  3
AutoCAD 2000
 90
0
 91
1
280
0
281
0
  0
CLASS
  1
LAYOUT
  2
AcDbLayout
  3
AutoCAD 2000
 90
0
 91
0
280
0
281
0
  0
ENDSEC
  0
SECTION
  2
TABLES
  0
TABLE
  2
VPORT
  5
8
100
AcDbSymbolTable
 70
2
  0
VPORT
  5
1F4
100
AcDbSymbolTableRecord
100
AcDbViewportTableRecord
  2
*ACTIVE
 70
0
 10
0.0
 20
0.0
 11
1.0
 21
1.0
 12
20.7767945674
 22
29.3843237453
 13
0.0
 23
0.0
 14
1.0
 24
1.0
 15
0.0
 25
0.0
 16
0.0
 26
0.0
 36
1.0
 17
0.0
 27
0.0
 37
0.0
 40
58.7686474906
 41
0.7070707071
 42
50.0
 43
0.0
 44
0.0
 50
0.0
 51
0.0
 71
0
 72
100
 73
1
 74
1
 75
0
 76
0
 77
0
 78
0
  0
ENDTAB
  0
TABLE
  2
LTYPE
  5
5
100
AcDbSymbolTable
 70
6
  0
LTYPE
  5
14
100
AcDbSymbolTableRecord
100
AcDbLinetypeTableRecord
  2
BYBLOCK
 70
0
  3

 72
65
 73
0
 40
0.0
  0
LTYPE
  5
15
100
AcDbSymbolTableRecord
100
AcDbLinetypeTableRecord
  2
BYLAYER
 70
0
  3

 72
65
 73
0
 40
0.0
  0
LTYPE
  5
16
100
AcDbSymbolTableRecord
100
AcDbLinetypeTableRecord
  2
CONTINUOUS
 70
64
  3
Solid line
 72
65
 73
0
 40
0.0
  0
LTYPE
  5
1F5
100
AcDbSymbolTableRecord
100
AcDbLinetypeTableRecord
  2
CENTER
 70
64
  3
____ _ ____ _ ____ _ ____ _ ____ _ ____ _ ____
 72
65
 73
4
 40
0.6
 49
0.375
 74
0
 49
-0.075
 74
0
 49
0.075
 74
0
 49
-0.075
 74
0
  0
LTYPE
  5
1F6
100
AcDbSymbolTableRecord
100
AcDbLinetypeTableRecord
  2
HIDDEN
 70
64
  3
- - - - - - - - - - - - - - - - - - - -
 72
65
 73
2
 40
0.2
 49
0.1
 74
0
 49
-0.1
 74
0
  0
LTYPE
  5
1F7
100
AcDbSymbolTableRecord
100
AcDbLinetypeTableRecord
  2
PHANTOM
 70
64
  3
_____ _ _ _____ _ _ _____ _ _ _____
 72
65
 73
6
 40
0.8
 49
0.45
 74
0
 49
-0.05
 74
0
 49
0.1
 74
0
 49
-0.05
 74
0
 49
0.1
 74
0
 49
-0.05
 74
0
  0
LTYPE
  5
1F8
100
AcDbSymbolTableRecord
100
AcDbLinetypeTableRecord
  2
DOT
 70
64
  3
. . . . . . . . . . . . . . . . . . . .
 72
65
 73
2
 40
0.2
 49
0.1
 74
0
 49
-0.1
 74
0
  0
LTYPE
  5
1F9
100
AcDbSymbolTableRecord
100
AcDbLinetypeTableRecord
  2
DASHED
 70
64
  3
- - - - - - - - - - - - - - - - - - - -
 72
65
 73
2
 40
0.2
 49
0.1
 74
0
 49
-0.1
 74
0
  0
ENDTAB
  0
TABLE
  2
LAYER
  5
2
100
AcDbSymbolTable
 70
36
  0
LAYER
  5
10
100
AcDbSymbolTableRecord
100
AcDbLayerTableRecord
  2
0
 70
0
 62
7
  6
CONTINUOUS
370
-3
390
F
  0
LAYER
  5
1FA
100
AcDbSymbolTableRecord
100
AcDbLayerTableRecord
  2
DEFAULT_1
 70
0
 62
7
  6
CENTER
370
-3
390
F
  0
LAYER
  5
1FB
100
AcDbSymbolTableRecord
100
AcDbLayerTableRecord
  2
DEFAULT_2
 70
0
 62
8
  6
HIDDEN
370
-3
390
F
  0
LAYER
  5
1FC
100
AcDbSymbolTableRecord
100
AcDbLayerTableRecord
  2
DEFAULT_3
 70
0
 62
7
  6
PHANTOM
370
-3
390
F
  0
LAYER
  5
1FD
100
AcDbSymbolTableRecord
100
AcDbLayerTableRecord
  2
00_COMPONENTS
 70
0
 62
7
  6
CONTINUOUS
370
-3
390
F
  0
LAYER
  5
1FE
100
AcDbSymbolTableRecord
100
AcDbLayerTableRecord
  2
01_1_DEFAULT_DATUMS
 70
0
 62
7
  6
CONTINUOUS
370
-3
390
F
  0
LAYER
  5
1FF
100
AcDbSymbolTableRecord
100
AcDbLayerTableRecord
  2
01_PLANES
 70
0
 62
7
  6
CONTINUOUS
370
-3
390
F
  0
LAYER
  5
200
100
AcDbSymbolTableRecord
100
AcDbLayerTableRecord
  2
02_COORD_SYS
 70
0
 62
7
  6
CONTINUOUS
370
-3
390
F
  0
LAYER
  5
201
100
AcDbSymbolTableRecord
100
AcDbLayerTableRecord
  2
03_AXES
 70
0
 62
7
  6
CONTINUOUS
370
-3
390
F
  0
LAYER
  5
202
100
AcDbSymbolTableRecord
100
AcDbLayerTableRecord
  2
04_POINTS
 70
0
 62
7
  6
CONTINUOUS
370
-3
390
F
  0
LAYER
  5
203
100
AcDbSymbolTableRecord
100
AcDbLayerTableRecord
  2
05_CURVES
 70
0
 62
7
  6
CONTINUOUS
370
-3
390
F
  0
LAYER
  5
204
100
AcDbSymbolTableRecord
100
AcDbLayerTableRecord
  2
06_SURFS
 70
0
 62
7
  6
CONTINUOUS
370
-3
390
F
  0
LAYER
  5
205
100
AcDbSymbolTableRecord
100
AcDbLayerTableRecord
  2
07_COSMETICS
 70
0
 62
7
  6
CONTINUOUS
370
-3
390
F
  0
LAYER
  5
206
100
AcDbSymbolTableRecord
100
AcDbLayerTableRecord
  2
10_NOTES
 70
0
 62
7
  6
CONTINUOUS
370
-3
390
F
  0
LAYER
  5
207
100
AcDbSymbolTableRecord
100
AcDbLayerTableRecord
  2
11_NOTES_PUB
 70
0
 62
7
  6
CONTINUOUS
370
-3
390
F
  0
LAYER
  5
208
100
AcDbSymbolTableRecord
100
AcDbLayerTableRecord
  2
13_REF_GTOL
 70
0
 62
7
  6
CONTINUOUS
370
-3
390
F
  0
LAYER
  5
209
100
AcDbSymbolTableRecord
100
AcDbLayerTableRecord
  2
16_MISC
 70
0
 62
7
  6
CONTINUOUS
370
-3
390
F
  0
LAYER
  5
20A
100
AcDbSymbolTableRecord
100
AcDbLayerTableRecord
  2
17_NO_PRINT
 70
0
 62
7
  6
CONTINUOUS
370
-3
390
F
  0
LAYER
  5
20B
100
AcDbSymbolTableRecord
100
AcDbLayerTableRecord
  2
18_DATUM_CAMS_JOINTS
 70
0
 62
7
  6
CONTINUOUS
370
-3
390
F
  0
LAYER
  5
20C
100
AcDbSymbolTableRecord
100
AcDbLayerTableRecord
  2
19_DATUM_FUNCTIONAL
 70
0
 62
7
  6
CONTINUOUS
370
-3
390
F
  0
LAYER
  5
20D
100
AcDbSymbolTableRecord
100
AcDbLayerTableRecord
  2
20_DATUM_KINEMATIC_SCHEME
 70
0
 62
7
  6
CONTINUOUS
370
-3
390
F
  0
ENDTAB
  0
TABLE
  2
STYLE
  5
3
100
AcDbSymbolTable
 70
1
  0
STYLE
  5
11
100
AcDbSymbolTableRecord
100
AcDbTextStyleTableRecord
  2
STANDARD
 70
0
 40
0.0
 41
0.8
 50
0.0
 71
0
 42
0.2
  3
txt
  4

  0
STYLE
  5
20E
100
AcDbSymbolTableRecord
100
AcDbTextStyleTableRecord
  2
TEXTSTYLE_1
 70
0
 40
0.0
 41
0.8
 50
0.0
 71
0
 42
0.2
  3
gdt
  4

  0
ENDTAB
  0
TABLE
  2
VIEW
  5
6
100
AcDbSymbolTable
 70
0
  0
ENDTAB
  0
TABLE
  2
UCS
  5
7
100
AcDbSymbolTable
 70
0
  0
ENDTAB
  0
TABLE
  2
APPID
  5
9
100
AcDbSymbolTable
 70
1
  0
APPID
  5
20F
100
AcDbSymbolTableRecord
100
AcDbRegAppTableRecord
  2
ACAD
 70
0
  0
ENDTAB
  0
TABLE
  2
BLOCK_RECORD
  5
1
100
AcDbSymbolTable
 70
0
  0
BLOCK_RECORD
  5
210
100
AcDbSymbolTableRecord
100
AcDbBlockTableRecord
  2
*Model_Space
  0
BLOCK_RECORD
  5
211
100
AcDbSymbolTableRecord
100
AcDbBlockTableRecord
  2
*Paper_Space
  0
BLOCK_RECORD
  5
212
100
AcDbSymbolTableRecord
100
AcDbBlockTableRecord
  2
_FILLED
  0
ENDTAB
  0
TABLE
  2
DIMSTYLE
  5
A
100
AcDbSymbolTable
 70
1
100
AcDbDimStyleTable
 71
0
  0
DIMSTYLE
105
213
100
AcDbSymbolTableRecord
100
AcDbDimStyleTableRecord
  2
STANDARD
 70
0
  3

  4

 40
1.0
 41
0.4946855849
 42
1.0
 43
0.38
 44
1.0
 45
0.0
 46
0.0
 47
0.01
 48
0.01
140
0.6925598189
141
0.09
142
0.0
143
25.4
144
1.0
145
0.0
146
1.0
147
0.625
 71
1
 72
0
 73
0
 74
0
 75
0
 76
0
 77
1
 78
8
 79
2
170
0
171
1
172
0
173
0
174
0
175
0
176
0
177
0
178
0
270
2
179
2
271
2
272
2
273
2
274
2
275
0
280
0
281
0
282
0
283
1
284
8
285
0
286
0
287
3
288
0
340
11
278
46
341
212
342
212
343
212
344
212
  0
ENDTAB
  0
ENDSEC
  0
SECTION
  2
BLOCKS
  0
BLOCK
  5
20
100
AcDbEntity
  8
0
100
AcDbBlockBegin
  2
*Model_Space
 70
0
 10
0.0
 20
0.0
 30
0.0
  3
*Model_Space
  1

  0
ENDBLK
  5
21
100
AcDbEntity
  8
0
100
AcDbBlockEnd
  0
BLOCK
  5
1C
100
AcDbEntity
  8
0
100
AcDbBlockBegin
  2
*Paper_Space
 70
0
 10
0.0
 20
0.0
 30
0.0
  3
*Paper_Space
  1

  0
ENDBLK
  5
1D
100
AcDbEntity
  8
0
100
AcDbBlockEnd
  0
BLOCK
  5
214
100
AcDbEntity
  8
0
100
AcDbBlockBegin
  2
_FILLED
 70
64
 10
0.0
 20
0.0
  3
_FILLED
  1

  0
SOLID
  5
215
100
AcDbEntity
  8
0
  6
BYBLOCK
 62
0
100
AcDbTrace
 10
0.0
 20
0.0
 11
-1.0
 21
0.25
 12
-1.0
 22
-0.25
 13
-1.0
 23
-0.25
  0
ENDBLK
  5
216
100
AcDbEntity
  8
0
  6
BYBLOCK
 62
0
100
AcDbBlockEnd
  0
ENDSEC
  0
SECTION
  2
ENTITIES
  0
LINE
  5
217
100
AcDbEntity
  8
0
100
AcDbLine
 62
7
  6
CONTINUOUS
 10
18.2182838024
 20
4.7115623141
 11
24.4862213175
 21
4.7115623141
  0
LINE
  5
218
100
AcDbEntity
  8
0
100
AcDbLine
 62
7
  6
CONTINUOUS
 10
17.3522525599
 20
6.2115623141
 11
25.3522525599
 21
6.2115623141
  0
LINE
  5
219
100
AcDbEntity
  8
0
100
AcDbLine
 62
7
  6
CONTINUOUS
 10
25.3522525599
 20
6.7115623141
 11
17.3522525599
 21
6.7115623141
  0
LINE
  5
21A
100
AcDbEntity
  8
0
100
AcDbLine
 62
7
  6
CONTINUOUS
 10
18.6871890505
 20
54.1289767979
 11
18.7541763486
 21
54.1756728754
  0
LINE
  5
21B
100
AcDbEntity
  8
0
100
AcDbLine
 62
7
  6
CONTINUOUS
 10
13.8522525599
 20
7.7115623141
 11
28.8522525599
 21
7.7115623141
  0
LINE
  5
21C
100
AcDbEntity
  8
0
100
AcDbLine
 62
7
  6
CONTINUOUS
 10
28.3522525613
 20
8.2115623141
 11
27.8547588414
 21
8.2115623141
  0
LINE
  5
21D
100
AcDbEntity
  8
0
100
AcDbLine
 62
7
  6
CONTINUOUS
 10
25.3522525599
 20
8.2115623141
 11
17.3522525599
 21
8.2115623141
  0
LINE
  5
21E
100
AcDbEntity
  8
0
100
AcDbLine
 62
7
  6
CONTINUOUS
 10
14.8497462785
 20
8.2115623141
 11
14.3522525592
 21
8.2115623141
  0
LINE
  5
21F
100
AcDbEntity
  8
0
100
AcDbLine
 62
7
  6
CONTINUOUS
 10
14.8522525599
 20
8.7115623141
 11
27.8522525599
 21
8.7115623141
  0
LINE
  5
220
100
AcDbEntity
  8
0
100
AcDbLine
 62
7
  6
CONTINUOUS
 10
13.3522525599
 20
10.7115623141
 11
13.8522525599
 21
10.7115623141
  0
LINE
  5
221
100
AcDbEntity
  8
0
100
AcDbLine
 62
7
  6
CONTINUOUS
 10
28.8522525599
 20
10.7115623141
 11
29.3522525599
 21
10.7115623141
  0
LINE
  5
222
100
AcDbEntity
  8
0
100
AcDbLine
 62
7
  6
CONTINUOUS
 10
25.3522525599
 20
12.4115623141
 11
17.3522525599
 21
12.4115623141
  0
LINE
  5
223
100
AcDbEntity
  8
0
100
AcDbLine
 62
7
  6
CONTINUOUS
 10
14.4022525599
 20
12.4115623141
 11
14.8522525599
 21
12.4115623141
  0
LINE
  5
224
100
AcDbEntity
  8
0
100
AcDbLine
 62
7
  6
CONTINUOUS
 10
27.8522525599
 20
12.4115623141
 11
28.3022525599
 21
12.4115623141
  0
LINE
  5
225
100
AcDbEntity
  8
0
100
AcDbLine
 62
7
  6
CONTINUOUS
 10
27.8522525599
 20
14.5115623141
 11
14.8522525599
 21
14.5115623141
  0
LINE
  5
226
100
AcDbEntity
  8
0
100
AcDbLine
 62
7
  6
CONTINUOUS
 10
18.2182779637
 20
4.7115623141
 11
17.3522525599
 21
6.2115623141
  0
LINE
  5
227
100
AcDbEntity
  8
0
100
AcDbLine
 62
7
  6
CONTINUOUS
 10
7.3522525599
 20
15.6115623141
 11
7.3522525599
 21
49.6115623141
  0
LINE
  5
228
100
AcDbEntity
  8
0
100
AcDbLine
 62
7
  6
CONTINUOUS
 10
7.9380389976
 20
49.6115623141
 11
7.9380389976
 21
46.6115623141
  0
LINE
  5
229
100
AcDbEntity
  8
0
100
AcDbLine
 62
7
  6
CONTINUOUS
 10
15.1022525599
 20
15.5115623141
 11
27.6022525599
 21
15.5115623141
  0
LINE
  5
22A
100
AcDbEntity
  8
0
100
AcDbLine
 62
7
  6
CONTINUOUS
 10
35.3522525599
 20
15.6115623141
 11
7.3522525599
 21
15.6115623141
  0
LINE
  5
22B
100
AcDbEntity
  8
0
100
AcDbLine
 62
7
  6
CONTINUOUS
 10
7.3522525599
 20
19.6115623141
 11
35.3522525599
 21
19.6115623141
  0
LINE
  5
22C
100
AcDbEntity
  8
0
100
AcDbLine
 62
7
  6
CONTINUOUS
 10
25.3522525599
 20
19.7115623141
 11
17.3522525599
 21
19.7115623141
  0
LINE
  5
22D
100
AcDbEntity
  8
0
100
AcDbLine
 62
7
  6
CONTINUOUS
 10
12.7664661223
 20
46.6115623141
 11
12.7664661223
 21
49.6115623141
  0
LINE
  5
22E
100
AcDbEntity
  8
0
100
AcDbLine
 62
7
  6
CONTINUOUS
 10
13.3522525599
 20
8.7115623141
 11
13.3522525599
 21
10.7115623141
  0
LINE
  5
22F
100
AcDbEntity
  8
0
100
AcDbLine
 62
7
  6
CONTINUOUS
 10
13.3522525599
 20
46.6115623141
 11
13.3522525599
 21
49.6115623141
  0
LINE
  5
230
100
AcDbEntity
  8
0
100
AcDbLine
 62
7
  6
CONTINUOUS
 10
13.8522525599
 20
7.848119574
 11
13.8522525599
 21
7.7115623141
  0
LINE
  5
231
100
AcDbEntity
  8
0
100
AcDbLine
 62
7
  6
CONTINUOUS
 10
13.8522525599
 20
8.7115623141
 11
13.8522525599
 21
10.7115623141
  0
LINE
  5
232
100
AcDbEntity
  8
0
100
AcDbLine
 62
7
  6
CONTINUOUS
 10
14.3522525592
 20
8.2115623141
 11
14.3522525592
 21
7.7115623142
  0
LINE
  5
233
100
AcDbEntity
  8
0
100
AcDbLine
 62
7
  6
CONTINUOUS
 10
14.4022525599
 20
8.2115623141
 11
14.4022525599
 21
12.4115623141
  0
LINE
  5
234
100
AcDbEntity
  8
0
100
AcDbLine
 62
7
  6
CONTINUOUS
 10
14.8522525599
 20
14.5115623141
 11
14.8522525599
 21
7.7115623141
  0
LINE
  5
235
100
AcDbEntity
  8
0
100
AcDbLine
 62
7
  6
CONTINUOUS
 10
15.3522525599
 20
49.6115623141
 11
15.3522525599
 21
46.6115623141
  0
LINE
  5
236
100
AcDbEntity
  8
0
100
AcDbLine
 62
7
  6
CONTINUOUS
 10
15.3522525599
 20
50.1115623141
 11
15.3522525599
 21
52.0856198937
  0
LINE
  5
237
100
AcDbEntity
  8
0
100
AcDbLine
 62
7
  6
CONTINUOUS
 10
17.3522525599
 20
12.4115623141
 11
17.3522525599
 21
8.2115623141
  0
LINE
  5
238
100
AcDbEntity
  8
0
100
AcDbLine
 62
7
  6
CONTINUOUS
 10
17.3522525599
 20
6.2115623141
 11
17.3522525599
 21
7.7115623141
  0
LINE
  5
239
100
AcDbEntity
  8
0
100
AcDbLine
 62
7
  6
CONTINUOUS
 10
17.8522525599
 20
19.7115623141
 11
17.8522525599
 21
6.7115623141
  0
LINE
  5
23A
100
AcDbEntity
  8
0
100
AcDbLine
 62
7
  6
CONTINUOUS
 10
18.3522525599
 20
46.6115623141
 11
18.3522525599
 21
39.1115623141
  0
LINE
  5
23B
100
AcDbEntity
  8
0
100
AcDbLine
 62
7
  6
CONTINUOUS
 10
18.7541763486
 20
54.1756728754
 11
18.7541763486
 21
54.1289767979
  0
LINE
  5
23C
100
AcDbEntity
  8
0
100
AcDbLine
 62
7
  6
CONTINUOUS
 10
19.1871890505
 20
54.1756728754
 11
19.1871890505
 21
54.327362826
  0
LINE
  5
23D
100
AcDbEntity
  8
0
100
AcDbLine
 62
7
  6
CONTINUOUS
 10
19.2541763486
 20
54.189387822
 11
19.2541763486
 21
54.3448134705
  0
LINE
  5
23E
100
AcDbEntity
  8
0
100
AcDbLine
 62
7
  6
CONTINUOUS
 10
22.8522525599
 20
35.6115623141
 11
24.3522525599
 21
39.1115623141
  0
LINE
  5
23F
100
AcDbEntity
  8
0
100
AcDbLine
 62
7
  6
CONTINUOUS
 10
23.4503287713
 20
54.1894292048
 11
23.4503287713
 21
54.3448134705
  0
LINE
  5
240
100
AcDbEntity
  8
0
100
AcDbLine
 62
7
  6
CONTINUOUS
 10
19.8522525599
 20
35.6115623141
 11
18.3522525599
 21
39.1115623141
  0
LINE
  5
241
100
AcDbEntity
  8
0
100
AcDbLine
 62
7
  6
CONTINUOUS
 10
23.5173160694
 20
54.327362826
 11
23.5173160694
 21
54.1756728754
  0
LINE
  5
242
100
AcDbEntity
  8
0
100
AcDbLine
 62
7
  6
CONTINUOUS
 10
23.9503287713
 20
54.1289283799
 11
23.9503287713
 21
54.1756728754
  0
LINE
  5
243
100
AcDbEntity
  8
0
100
AcDbLine
 62
7
  6
CONTINUOUS
 10
24.3522525599
 20
39.1115623141
 11
24.3522525599
 21
46.6115623141
  0
LINE
  5
244
100
AcDbEntity
  8
0
100
AcDbLine
 62
7
  6
CONTINUOUS
 10
24.8522525599
 20
19.7115623141
 11
24.8522525599
 21
6.7115623141
  0
LINE
  5
245
100
AcDbEntity
  8
0
100
AcDbLine
 62
7
  6
CONTINUOUS
 10
25.3522525599
 20
12.4115623141
 11
25.3522525599
 21
8.2115623141
  0
LINE
  5
246
100
AcDbEntity
  8
0
100
AcDbLine
 62
7
  6
CONTINUOUS
 10
25.3522525599
 20
6.2115623141
 11
25.3522525599
 21
7.7115623141
  0
LINE
  5
247
100
AcDbEntity
  8
0
100
AcDbLine
 62
7
  6
CONTINUOUS
 10
27.3522525599
 20
46.6115623141
 11
27.3522525599
 21
49.6115623141
  0
LINE
  5
248
100
AcDbEntity
  8
0
100
AcDbLine
 62
7
  6
CONTINUOUS
 10
27.3522525599
 20
50.1115623141
 11
27.3522525599
 21
52.0856198937
  0
LINE
  5
249
100
AcDbEntity
  8
0
100
AcDbLine
 62
7
  6
CONTINUOUS
 10
27.8522525599
 20
7.7115623141
 11
27.8522525599
 21
14.5115623141
  0
LINE
  5
24A
100
AcDbEntity
  8
0
100
AcDbLine
 62
7
  6
CONTINUOUS
 10
28.3022525599
 20
12.4115623141
 11
28.3022525599
 21
8.2115623141
  0
LINE
  5
24B
100
AcDbEntity
  8
0
100
AcDbLine
 62
7
  6
CONTINUOUS
 10
28.3522525724
 20
7.7115623141
 11
28.3522525613
 21
8.2115623143
  0
LINE
  5
24C
100
AcDbEntity
  8
0
100
AcDbLine
 62
7
  6
CONTINUOUS
 10
28.8522525599
 20
7.8481195734
 11
28.8522525599
 21
7.7115623141
  0
LINE
  5
24D
100
AcDbEntity
  8
0
100
AcDbLine
 62
7
  6
CONTINUOUS
 10
28.8522525599
 20
8.7115623141
 11
28.8522525599
 21
10.7115623141
  0
LINE
  5
24E
100
AcDbEntity
  8
0
100
AcDbLine
 62
7
  6
CONTINUOUS
 10
19.8524529995
 20
35.6115623141
 11
22.8520521203
 21
35.6115623141
  0
LINE
  5
24F
100
AcDbEntity
  8
0
100
AcDbLine
 62
7
  6
CONTINUOUS
 10
29.3522525599
 20
49.6115623141
 11
29.3522525599
 21
46.6115623141
  0
LINE
  5
250
100
AcDbEntity
  8
0
100
AcDbLine
 62
7
  6
CONTINUOUS
 10
29.3522525599
 20
10.7115623141
 11
29.3522525599
 21
8.7115623141
  0
LINE
  5
251
100
AcDbEntity
  8
0
100
AcDbLine
 62
7
  6
CONTINUOUS
 10
29.9380389976
 20
49.6115623141
 11
29.9380389976
 21
46.6115623141
  0
LINE
  5
252
100
AcDbEntity
  8
0
100
AcDbLine
 62
7
  6
CONTINUOUS
 10
18.3522525599
 20
39.1115623141
 11
24.3522525599
 21
39.1115623141
  0
LINE
  5
253
100
AcDbEntity
  8
0
100
AcDbLine
 62
7
  6
CONTINUOUS
 10
34.7664661223
 20
46.6115623141
 11
34.7664661223
 21
49.6115623141
  0
LINE
  5
254
100
AcDbEntity
  8
0
100
AcDbLine
 62
7
  6
CONTINUOUS
 10
35.3522525599
 20
15.6115623141
 11
35.3522525599
 21
49.6115623141
  0
LINE
  5
255
100
AcDbEntity
  8
0
100
AcDbLine
 62
7
  6
CONTINUOUS
 10
24.4862271562
 20
4.7115623141
 11
25.3522525599
 21
6.2115623141
  0
LINE
  5
256
100
AcDbEntity
  8
0
100
AcDbLine
 62
7
  6
CONTINUOUS
 10
35.3522525599
 20
45.6115623141
 11
24.3522525599
 21
45.6115623141
  0
LINE
  5
257
100
AcDbEntity
  8
0
100
AcDbLine
 62
7
  6
CONTINUOUS
 10
18.3522525599
 20
45.6115623141
 11
7.3522525599
 21
45.6115623141
  0
LINE
  5
258
100
AcDbEntity
  8
0
100
AcDbLine
 62
7
  6
CONTINUOUS
 10
7.3522525599
 20
46.6115623141
 11
35.3522525599
 21
46.6115623141
  0
LINE
  5
259
100
AcDbEntity
  8
0
100
AcDbLine
 62
7
  6
CONTINUOUS
 10
35.3522525599
 20
49.6115623141
 11
7.3522525599
 21
49.6115623141
  0
LINE
  5
25A
100
AcDbEntity
  8
0
100
AcDbLine
 62
7
  6
CONTINUOUS
 10
15.3522525599
 20
50.1115623141
 11
27.3522525599
 21
50.1115623141
  0
LINE
  5
25B
100
AcDbEntity
  8
0
100
AcDbLine
 62
7
  6
CONTINUOUS
 10
27.3522525599
 20
52.0856198937
 11
15.3522525599
 21
52.0856199213
  0
LINE
  5
25C
100
AcDbEntity
  8
0
100
AcDbLine
 62
7
  6
CONTINUOUS
 10
24.0173160694
 20
54.1289283799
 11
23.9503287713
 21
54.1756728754
  0
LINE
  5
25D
100
AcDbEntity
  8
0
100
AcDbLine
 62
7
  6
CONTINUOUS
 10
19.1871890505
 20
54.327362826
 11
19.2541763486
 21
54.3448141728
  0
LINE
  5
25E
100
AcDbEntity
  8
0
100
AcDbLine
 62
7
  6
CONTINUOUS
 10
15.8087744145
 20
52.9250432109
 11
26.8954646682
 21
52.9252154304
  0
LINE
  5
25F
100
AcDbEntity
  8
0
100
AcDbLine
 62
7
  6
CONTINUOUS
 10
23.4503287713
 20
54.3448134705
 11
23.5173160694
 21
54.327362826
  0
ARC
  5
260
100
AcDbEntity
  8
0
100
AcDbCircle
 62
7
  6
CONTINUOUS
 10
21.3522525599
 20
44.3629260632
 40
10.2
100
AcDbArc
 50
57.079265606
 51
77.7732384901
  0
ARC
  5
261
100
AcDbEntity
  8
0
100
AcDbCircle
 62
7
  6
CONTINUOUS
 10
21.3522525599
 20
44.3629260632
 40
10.2
100
AcDbArc
 50
102.485270525
 51
122.9207337556
  0
ARC
  5
262
100
AcDbEntity
  8
0
100
AcDbCircle
 62
7
  6
CONTINUOUS
 10
21.3522525599
 20
44.3629260632
 40
10.0487561419
100
AcDbArc
 50
97.427614003
 51
102.4422736346
  0
ARC
  5
263
100
AcDbEntity
  8
0
100
AcDbCircle
 62
7
  6
CONTINUOUS
 10
21.3522525599
 20
44.3629260632
 40
10.0487561419
100
AcDbArc
 50
77.5577263654
 51
82.572385997
  0
ARC
  5
264
100
AcDbEntity
  8
0
100
AcDbCircle
 62
7
  6
CONTINUOUS
 10
22.7622630753
 20
51.4861970464
 40
2.94020073
100
AcDbArc
 50
66.1667380895
 51
72.1677319479
  0
ARC
  5
265
100
AcDbEntity
  8
0
100
AcDbCircle
 62
7
  6
CONTINUOUS
 10
19.9261420469
 20
51.5284830637
 40
2.8950159753
100
AcDbArc
 50
107.6513673814
 51
113.8799632975
  0
ARC
  5
266
100
AcDbEntity
  8
0
100
AcDbCircle
 62
7
  6
CONTINUOUS
 10
22.8174617548
 20
51.647887359
 40
2.7693765788
100
AcDbArc
 50
72.2304634447
 51
74.4899330271
  0
ARC
  5
267
100
AcDbEntity
  8
0
100
AcDbCircle
 62
7
  6
CONTINUOUS
 10
19.8829381843
 20
51.6615919889
 40
2.7550735806
100
AcDbArc
 50
105.500520041
 51
107.6345653966
  0
ARC
  5
268
100
AcDbEntity
  8
0
100
AcDbCircle
 62
7
  6
CONTINUOUS
 10
19.872979883
 20
51.6972611764
 40
2.7180404252
100
AcDbArc
 50
104.6142930131
 51
105.499179143
  0
ARC
  5
269
100
AcDbEntity
  8
0
100
AcDbCircle
 62
7
  6
CONTINUOUS
 10
22.8320700663
 20
51.6993611934
 40
2.7158708853
100
AcDbArc
 50
74.4965115735
 51
75.385650982
  0
ARC
  5
26A
100
AcDbEntity
  8
0
100
AcDbCircle
 62
7
  6
CONTINUOUS
 10
14.3522525599
 20
8.7115623141
 40
1.0
100
AcDbArc
 50
180.0
 51
269.9999999559
  0
ARC
  5
26B
100
AcDbEntity
  8
0
100
AcDbCircle
 62
7
  6
CONTINUOUS
 10
28.3522525599
 20
8.7115623141
 40
1.0
100
AcDbArc
 50
270.0000007156
 51
360.0
  0
ARC
  5
26C
100
AcDbEntity
  8
0
100
AcDbCircle
 62
7
  6
CONTINUOUS
 10
26.3522525599
 20
52.0856198937
 40
1.0
100
AcDbArc
 50
0.0
 51
57.0792654719
  0
ARC
  5
26D
100
AcDbEntity
  8
0
100
AcDbCircle
 62
7
  6
CONTINUOUS
 10
16.3522525599
 20
52.0856198937
 40
1.0
100
AcDbArc
 50
122.9207345281
 51
180.0
  0
ARC
  5
26E
100
AcDbEntity
  8
0
100
AcDbCircle
 62
7
  6
CONTINUOUS
 10
14.3522525599
 20
8.7115623141
 40
0.5
100
AcDbArc
 50
180.0
 51
269.9999999118
  0
ARC
  5
26F
100
AcDbEntity
  8
0
100
AcDbCircle
 62
7
  6
CONTINUOUS
 10
28.3522525599
 20
8.7115623141
 40
0.5
100
AcDbArc
 50
270.0000001591
 51
360.0
  0
ARC
  5
270
100
AcDbEntity
  8
0
100
AcDbCircle
 62
7
  6
CONTINUOUS
 10
15.8522525599
 20
50.1115623141
 40
0.5
100
AcDbArc
 50
180.0
 51
270.0
  0
ARC
  5
271
100
AcDbEntity
  8
0
100
AcDbCircle
 62
7
  6
CONTINUOUS
 10
26.8522525599
 20
50.1115623141
 40
0.5
100
AcDbArc
 50
270.0
 51
360.0
  0
SPLINE
  5
272
100
AcDbEntity
  8
0
100
AcDbSpline
 62
7
  6
CONTINUOUS
 70
0
 71
3
 72
13
 73
9
 74
0
 42
0.0000001
 43
0.0000001
 44
0.0000000001
 40
0.0
 40
0.0
 40
0.0
 40
0.0
 40
0.0864576661
 40
0.1783266776
 40
0.2797577926
 40
0.3937091798
 40
0.6655186433
 40
1.0
 40
1.0
 40
1.0
 40
1.0
 10
16.1022525599
 20
15.5115623141
 30
0.0
 10
16.106527268
 20
15.5115623141
 30
0.0
 10
16.1153776676
 20
15.5127262568
 30
0.0
 10
16.1283673467
 20
15.5177747501
 30
0.0
 10
16.1412426682
 20
15.5259852646
 30
0.0
 10
16.1593444581
 20
15.5419893656
 30
0.0
 10
16.1813711827
 20
15.5702779392
 30
0.0
 10
16.1964949765
 20
15.5962018668
 30
0.0
 10
16.204263869
 20
15.6108011656
 30
0.0
  0
SPLINE
  5
273
100
AcDbEntity
  8
0
100
AcDbSpline
 62
7
  6
CONTINUOUS
 70
0
 71
3
 72
13
 73
9
 74
0
 42
0.0000001
 43
0.0000001
 44
0.0000000001
 40
0.0
 40
0.0
 40
0.0
 40
0.0
 40
0.3344815594
 40
0.6062911411
 40
0.720242517
 40
0.8216735758
 40
0.9135424808
 40
1.0
 40
1.0
 40
1.0
 40
1.0
 10
26.5002408797
 20
15.6108018624
 30
0.0
 10
26.5080097996
 20
15.5962024675
 30
0.0
 10
26.5231336444
 20
15.5702783677
 30
0.0
 10
26.5451604451
 20
15.5419895926
 30
0.0
 10
26.563262307
 20
15.5259853756
 30
0.0
 10
26.5761376755
 20
15.5177748003
 30
0.0
 10
26.5891274024
 20
15.512726267
 30
0.0
 10
26.5979778365
 20
15.5115623141
 30
0.0
 10
26.6022525599
 20
15.5115623141
 30
0.0
  0
SPLINE
  5
274
100
AcDbEntity
  8
0
100
AcDbSpline
 62
7
  6
CONTINUOUS
 70
0
 71
3
 72
22
 73
18
 74
0
 42
0.0000001
 43
0.0000001
 44
0.0000000001
 40
0.0
 40
0.0
 40
0.0
 40
0.0
 40
0.1886666688
 40
0.3704096109
 40
0.5381899865
 40
0.6149465646
 40
0.6860004666
 40
0.7506910503
 40
0.8084937476
 40
0.8589438666
 40
0.9017017573
 40
0.9366400916
 40
0.9638741735
 40
0.9748266565
 40
0.9842435703
 40
0.992463074
 40
1.0
 40
1.0
 40
1.0
 40
1.0
 10
14.8522525599
 20
14.5115623141
 30
0.0
 10
14.8626008219
 20
14.5765823615
 30
0.0
 10
14.8829138527
 20
14.7042372852
 30
0.0
 10
14.913541564
 20
14.889534827
 30
0.0
 10
14.9396999823
 20
15.0359844362
 30
0.0
 10
14.9610273533
 20
15.1440336813
 30
0.0
 10
14.9765255438
 20
15.2165560345
 30
0.0
 10
14.9920096338
 20
15.2823048032
 30
0.0
 10
15.0074568673
 20
15.3406574474
 30
0.0
 10
15.0228556783
 20
15.3910694651
 30
0.0
 10
15.0382055804
 20
15.4331136524
 30
0.0
 10
15.0534753811
 20
15.4664283378
 30
0.0
 10
15.0670156855
 20
15.4882522466
 30
0.0
 10
15.0782375796
 20
15.500570246
 30
0.0
 10
15.0861058212
 20
15.5067998032
 30
0.0
 10
15.0940955748
 20
15.5106609065
 30
0.0
 10
15.0996224237
 20
15.5115623141
 30
0.0
 10
15.1022525599
 20
15.5115623141
 30
0.0
  0
SPLINE
  5
275
100
AcDbEntity
  8
0
100
AcDbSpline
 62
7
  6
CONTINUOUS
 70
0
 71
3
 72
22
 73
18
 74
0
 42
0.0000001
 43
0.0000001
 44
0.0000000001
 40
0.0
 40
0.0
 40
0.0
 40
0.0
 40
0.0075369261
 40
0.0157564298
 40
0.0251733438
 40
0.0361258269
 40
0.0633599092
 40
0.0982982443
 40
0.1410561358
 40
0.1915062551
 40
0.249308953
 40
0.313999537
 40
0.3850534393
 40
0.4618100178
 40
0.629590393
 40
0.8113333325
 40
1.0
 40
1.0
 40
1.0
 40
1.0
 10
27.6022525599
 20
15.5115623141
 30
0.0
 10
27.6048826962
 20
15.5115623141
 30
0.0
 10
27.6104095451
 20
15.5106609064
 30
0.0
 10
27.6183992988
 20
15.506799803
 30
0.0
 10
27.6262675404
 20
15.5005702456
 30
0.0
 10
27.6374894347
 20
15.488252246
 30
0.0
 10
27.6510297394
 20
15.4664283368
 30
0.0
 10
27.6662995401
 20
15.4331136507
 30
0.0
 10
27.6816494423
 20
15.3910694628
 30
0.0
 10
27.6970482535
 20
15.3406574445
 30
0.0
 10
27.7124954869
 20
15.2823047998
 30
0.0
 10
27.7279795769
 20
15.2165560307
 30
0.0
 10
27.7434777674
 20
15.1440336772
 30
0.0
 10
27.7648051382
 20
15.035984432
 30
0.0
 10
27.7909635564
 20
14.8895348237
 30
0.0
 10
27.8215912675
 20
14.7042372834
 30
0.0
 10
27.8419042981
 20
14.576582361
 30
0.0
 10
27.8522525599
 20
14.5115623141
 30
0.0
  0
SPLINE
  5
276
100
AcDbEntity
  8
0
100
AcDbSpline
 62
7
  6
CONTINUOUS
 70
0
 71
3
 72
12
 73
8
 74
0
 42
0.0000001
 43
0.0000001
 44
0.0000000001
 40
0.0
 40
0.0
 40
0.0
 40
0.0
 40
0.2983908198
 40
0.5764570131
 40
0.8152098284
 40
0.9150875775
 40
1.0
 40
1.0
 40
1.0
 40
1.0
 10
20.0532144543
 20
54.327362826
 30
0.0
 10
20.0961142616
 20
54.332955564
 30
0.0
 10
20.1793244854
 20
54.3414290113
 30
0.0
 10
20.2974859542
 20
54.3461820307
 30
0.0
 10
20.3870075651
 20
54.3431850641
 30
0.0
 10
20.447993015
 20
54.3357110124
 30
0.0
 10
20.4743142269
 20
54.3304689422
 30
0.0
 10
20.4862271562
 20
54.327362826
 30
0.0
  0
SPLINE
  5
277
100
AcDbEntity
  8
0
100
AcDbSpline
 62
7
  6
CONTINUOUS
 70
0
 71
3
 72
9
 73
5
 74
0
 42
0.0000001
 43
0.0000001
 44
0.0000000001
 40
0.0
 40
0.0
 40
0.0
 40
0.0
 40
0.2464074249
 40
1.0
 40
1.0
 40
1.0
 40
1.0
 10
20.4862271562
 20
54.327362826
 30
0.0
 10
20.522715332
 20
54.3178490859
 30
0.0
 10
20.6699799674
 20
54.2761515344
 30
0.0
 10
20.8137323821
 20
54.2222307639
 30
0.0
 10
20.9192398581
 20
54.1756728754
 30
0.0
  0
SPLINE
  5
278
100
AcDbEntity
  8
0
100
AcDbSpline
 62
7
  6
CONTINUOUS
 70
0
 71
3
 72
12
 73
8
 74
0
 42
0.0000001
 43
0.0000001
 44
0.0000000001
 40
0.0
 40
0.0
 40
0.0
 40
0.0
 40
0.0870384302
 40
0.1880799294
 40
0.426767154
 40
0.7033968607
 40
1.0
 40
1.0
 40
1.0
 40
1.0
 10
20.9192398581
 20
54.1756728754
 30
0.0
 10
20.9309210633
 20
54.170518243
 30
0.0
 10
20.9568153652
 20
54.1608546938
 30
0.0
 10
21.0170155394
 20
54.143535301
 30
0.0
 10
21.1060577554
 20
54.1267817647
 30
0.0
 10
21.2246186806
 20
54.1145624239
 30
0.0
 10
21.3087428498
 20
54.1117721488
 30
0.0
 10
21.3522525599
 20
54.1117721488
 30
0.0
  0
SPLINE
  5
279
100
AcDbEntity
  8
0
100
AcDbSpline
 62
7
  6
CONTINUOUS
 70
0
 71
3
 72
12
 73
8
 74
0
 42
0.0000001
 43
0.0000001
 44
0.0000000001
 40
0.0
 40
0.0
 40
0.0
 40
0.0
 40
0.2966046688
 40
0.5732348985
 40
0.8119202876
 40
0.9129615746
 40
1.0
 40
1.0
 40
1.0
 40
1.0
 10
21.3522525599
 20
54.1117721488
 30
0.0
 10
21.3957624918
 20
54.1117721488
 30
0.0
 10
21.4798869445
 20
54.1145627726
 30
0.0
 10
21.5984479046
 20
54.1267819314
 30
0.0
 10
21.6874898981
 20
54.1435354257
 30
0.0
 10
21.747689784
 20
54.1608547143
 30
0.0
 10
21.773584058
 20
54.1705182436
 30
0.0
 10
21.7852652618
 20
54.1756728754
 30
0.0
  0
SPLINE
  5
27A
100
AcDbEntity
  8
0
100
AcDbSpline
 62
7
  6
CONTINUOUS
 70
0
 71
3
 72
9
 73
5
 74
0
 42
0.0000001
 43
0.0000001
 44
0.0000000001
 40
0.0
 40
0.0
 40
0.0
 40
0.0
 40
0.2540749689
 40
1.0
 40
1.0
 40
1.0
 40
1.0
 10
21.7852652618
 20
54.1756728754
 30
0.0
 10
21.8208368305
 20
54.1913697453
 30
0.0
 10
21.9620007145
 20
54.2504747169
 30
0.0
 10
22.1078222832
 20
54.2985631775
 30
0.0
 10
22.2182779637
 20
54.327362826
 30
0.0
  0
SPLINE
  5
27B
100
AcDbEntity
  8
0
100
AcDbSpline
 62
7
  6
CONTINUOUS
 70
0
 71
3
 72
19
 73
15
 74
0
 42
0.0000001
 43
0.0000001
 44
0.0000000001
 40
0.0
 40
0.0
 40
0.0
 40
0.0
 40
0.1920522694
 40
0.3776383015
 40
0.5488029689
 40
0.626895599
 40
0.6989425304
 40
0.8221616756
 40
0.9135381111
 40
0.9464702569
 40
0.9709458586
 40
0.9802244997
 40
0.9878241261
 40
1.0
 40
1.0
 40
1.0
 40
1.0
 10
23.5173160694
 20
54.1756728754
 30
0.0
 10
23.5492712593
 20
54.1686223505
 30
0.0
 10
23.612267637
 20
54.1554796315
 30
0.0
 10
23.7042424062
 20
54.1385552328
 30
0.0
 10
23.7774679825
 20
54.1271584125
 30
0.0
 10
23.8317699161
 20
54.1201775773
 30
0.0
 10
23.8780877795
 20
54.1151925364
 30
0.0
 10
23.9267926544
 20
54.111648557
 30
0.0
 10
23.9691028456
 20
54.1114615126
 30
0.0
 10
23.9942791331
 20
54.1145375997
 30
0.0
 10
24.0053858249
 20
54.1173211848
 30
0.0
 10
24.0117303266
 20
54.1204734886
 30
0.0
 10
24.0156931983
 20
54.1234655741
 30
0.0
 10
24.0173142667
 20
54.1268608047
 30
0.0
 10
24.0173150836
 20
54.1289354496
 30
0.0
  0
SPLINE
  5
27C
100
AcDbEntity
  8
0
100
AcDbSpline
 62
7
  6
CONTINUOUS
 70
0
 71
3
 72
19
 73
15
 74
0
 42
0.0000001
 43
0.0000001
 44
0.0000000001
 40
0.0
 40
0.0
 40
0.0
 40
0.0
 40
0.1920274697
 40
0.3775870708
 40
0.5487742016
 40
0.626883424
 40
0.698939093
 40
0.822158583
 40
0.9135381557
 40
0.9464722174
 40
0.9709498123
 40
0.9802288689
 40
0.9878274958
 40
1.0
 40
1.0
 40
1.0
 40
1.0
 10
19.1871890505
 20
54.1756728754
 30
0.0
 10
19.1552382804
 20
54.1686233257
 30
0.0
 10
19.0922503675
 20
54.1554854337
 30
0.0
 10
19.0002800769
 20
54.1385688157
 30
0.0
 10
18.9270536063
 20
54.127168712
 30
0.0
 10
18.8727446624
 20
54.120182466
 30
0.0
 10
18.8264231886
 20
54.1151940079
 30
0.0
 10
18.7777166936
 20
54.1116490775
 30
0.0
 10
18.7354058289
 20
54.1114643219
 30
0.0
 10
18.7102288946
 20
54.1145437559
 30
0.0
 10
18.699122024
 20
54.1173288114
 30
0.0
 10
18.6927773255
 20
54.1204810539
 30
0.0
 10
18.6888150701
 20
54.123472873
 30
0.0
 10
18.6871949735
 20
54.1268676361
 30
0.0
 10
18.6871944244
 20
54.1289416879
 30
0.0
  0
SPLINE
  5
27D
100
AcDbEntity
  8
0
100
AcDbSpline
 62
7
  6
CONTINUOUS
 70
0
 71
3
 72
12
 73
8
 74
0
 42
0.0000001
 43
0.0000001
 44
0.0000000001
 40
0.0
 40
0.0
 40
0.0
 40
0.0
 40
0.2982286368
 40
0.5764767472
 40
0.8152615737
 40
0.9151631477
 40
1.0
 40
1.0
 40
1.0
 40
1.0
 10
22.6512906656
 20
54.327362826
 30
0.0
 10
22.6084144219
 20
54.3329524921
 30
0.0
 10
22.5252000141
 20
54.3414029042
 30
0.0
 10
22.4070333127
 20
54.3461918843
 30
0.0
 10
22.3174770526
 20
54.3431750171
 30
0.0
 10
22.2564967493
 20
54.3356930977
 30
0.0
 10
22.2301802223
 20
54.33046616
 30
0.0
 10
22.2182779637
 20
54.327362826
 30
0.0
  0
ENDSEC
  0
SECTION
  2
OBJECTS
  0
DICTIONARY
  5
C
100
AcDbDictionary
280
0
281
1
  3
ACAD_GROUP
350
D
  3
ACAD_MLINESTYLE
350
17
  3
ACAD_LAYOUT
350
1A
  3
ACAD_PLOTSETTINGS
350
19
  3
ACAD_PLOTSTYLENAME
350
E
  0
DICTIONARY
  5
D
102
{ACAD_REACTORS
330
C
102
}
100
AcDbDictionary
280
0
281
1
  0
ACDBDICTIONARYWDFLT
  5
E
102
{ACAD_REACTORS
330
C
102
}
100
AcDbDictionary
281
1
  3
Normal
350
F
100
AcDbDictionaryWithDefault
340
F
  0
DICTIONARY
  5
17
102
{ACAD_REACTORS
330
C
102
}
100
AcDbDictionary
280
0
281
1
  3
Standard
350
18
  0
DICTIONARY
  5
19
102
{ACAD_REACTORS
330
C
102
}
100
AcDbDictionary
281
1
  0
DICTIONARY
  5
1A
102
{ACAD_REACTORS
330
C
102
}
100
AcDbDictionary
281
1
  3
Model
350
27E
  3
Layout1
350
27F
  0
ACDBPLACEHOLDER
  5
F
102
{ACAD_REACTORS
330
E
102
}
  0
MLINESTYLE
  5
18
102
{ACAD_REACTORS
330
17
102
}
100
AcDbMlineStyle
  2
STANDARD
 70
0
  3

 62
256
 51
90.0
 52
90.0
 71
2
 49
0.5
 62
256
  6
BYLAYER
 49
-0.5
 62
256
  6
BYLAYER
  0
LAYOUT
  5
27E
102
{ACAD_REACTORS
330
1A
102
}
100
AcDbPlotSettings
  1

  2
none_device
  4

  6

 40
0.0
 41
0.0
 42
0.0
 43
0.0
 44
210.0
 45
297.0
 46
0.0
 47
0.0
 48
0.0
 49
0.0
140
0.0
141
0.0
142
1.0
143
1.0
 70
1024
 72
1
 73
0
 74
0
  7

 75
0
147
1.0
148
0.0
149
0.0
100
AcDbLayout
  1
Model
 70
0
 71
0
 10
0.0
 20
0.0
 11
210.0
 21
297.0
 12
0.0
 22
0.0
 32
0.0
 14
0.0
 24
0.0
 34
0.0
 15
0.0
 25
0.0
 35
0.0
146
0.0
 13
0.0
 23
0.0
 33
0.0
 16
1.0
 26
0.0
 36
0.0
 17
0.0
 27
1.0
 37
0.0
 76
0
330
210
345
0
346
0
  0
LAYOUT
  5
27F
102
{ACAD_REACTORS
330
1A
102
}
100
AcDbPlotSettings
  1

  2
none_device
  4

  6

 40
0.0
 41
0.0
 42
0.0
 43
0.0
 44
210.0
 45
297.0
 46
0.0
 47
0.0
 48
0.0
 49
0.0
140
0.0
141
0.0
142
1.0
143
1.0
 70
0
 72
1
 73
0
 74
0
  7

 75
0
147
1.0
148
0.0
149
0.0
100
AcDbLayout
  1
Layout1
 70
0
 71
1
 10
0.0
 20
0.0
 11
210.0
 21
297.0
 12
0.0
 22
0.0
 32
0.0
 14
0.0
 24
0.0
 34
0.0
 15
0.0
 25
0.0
 35
0.0
146
0.0
 13
0.0
 23
0.0
 33
0.0
 16
1.0
 26
0.0
 36
0.0
 17
0.0
 27
1.0
 37
0.0
 76
0
330
211
345
0
346
0
  0
ENDSEC
  0
EOF
