999
DXF file: C:\Users\sesa63760\Dev\_Creo\CAD\MCADDE0000131_3D-CAD\drw0001_4.dxf
999
Pro/ENGINEER 2019471 by Parametric Technology Corporation
  0
SECTION
  2
HEADER
  9
$ACADVER
  1
AC1024
  9
$DWGCODEPAGE
  3
ANSI_1252
  9
$EXTMAX
 10
179.2789968652
 20
253.5517241379
 30
0.0
  9
$EXTMIN
 10
0.0
 20
0.0
 30
0.0
  9
$LIMMIN
 10
0.0
 20
0.0
  9
$LIMMAX
 10
179.2789968652
 20
253.5517241379
  9
$VIEWCTR
 10
89.6394984326
 20
126.775862069
  9
$VIEWSIZE
 40
253.5517241379
  9
$CLAYER
  8
0
  9
$LTSCALE
 40
16.527816092
  9
$CELTYPE
  6
BYLAYER
  9
$DIMSCALE
 40
1.0
  9
$DIMASZ
 40
2.1342737722
  9
$DIMEXO
 40
1.0
  9
$DIMDLI
 40
11.4192183908
  9
$DIMEXE
 40
1.0
  9
$DIMCEN
 40
2.7045517241
  9
$DIMLFAC
 40
1.0
  9
$DIMBLK
  1
_FILLED
  9
$DIMALT
 70
0
  9
$DIMALTF
 40
0.0393700787
  9
$DIMTXT
 40
2.9879832811
  9
$DIMTOL
 70
1
  9
$DIMLIM
 70
0
  9
$DIMTFAC
 40
1.0
  9
$DIMTP
 40
0.01
  9
$DIMTM
 40
0.01
  9
$DIMGAP
 40
0.625
  9
$DIMDSEP
 70
46
  9
$AUNITS
 70
0
  9
$PDMODE
 70
3
  9
$PDSIZE
 40
0.3125
  9
$HANDSEED
  5
2AA
  9
$TILEMODE
 70
1
  9
$MEASUREMENT
 70
1
  9
$INSUNITS
 70
4
  0
ENDSEC
  0
SECTION
  2
CLASSES
  0
CLASS
  1
ACDBDICTIONARYWDFLT
  2
AcDbDictionaryWithDefault
  3
AutoCAD 2000
 90
0
 91
1
280
0
281
0
  0
CLASS
  1
ACDBPLACEHOLDER
  2
AcDbPlaceHolder
  3
AutoCAD 2000
 90
0
 91
1
280
0
281
0
  0
CLASS
  1
LAYOUT
  2
AcDbLayout
  3
AutoCAD 2000
 90
0
 91
0
280
0
281
0
  0
ENDSEC
  0
SECTION
  2
TABLES
  0
TABLE
  2
VPORT
  5
8
100
AcDbSymbolTable
 70
2
  0
VPORT
  5
1F4
100
AcDbSymbolTableRecord
100
AcDbViewportTableRecord
  2
*ACTIVE
 70
0
 10
0.0
 20
0.0
 11
1.0
 21
1.0
 12
89.6394984326
 22
126.775862069
 13
0.0
 23
0.0
 14
1.0
 24
1.0
 15
0.0
 25
0.0
 16
0.0
 26
0.0
 36
1.0
 17
0.0
 27
0.0
 37
0.0
 40
253.5517241379
 41
0.7070707071
 42
50.0
 43
0.0
 44
0.0
 50
0.0
 51
0.0
 71
0
 72
100
 73
1
 74
1
 75
0
 76
0
 77
0
 78
0
  0
ENDTAB
  0
TABLE
  2
LTYPE
  5
5
100
AcDbSymbolTable
 70
6
  0
LTYPE
  5
14
100
AcDbSymbolTableRecord
100
AcDbLinetypeTableRecord
  2
BYBLOCK
 70
0
  3

 72
65
 73
0
 40
0.0
  0
LTYPE
  5
15
100
AcDbSymbolTableRecord
100
AcDbLinetypeTableRecord
  2
BYLAYER
 70
0
  3

 72
65
 73
0
 40
0.0
  0
LTYPE
  5
16
100
AcDbSymbolTableRecord
100
AcDbLinetypeTableRecord
  2
CONTINUOUS
 70
64
  3
Solid line
 72
65
 73
0
 40
0.0
  0
LTYPE
  5
1F5
100
AcDbSymbolTableRecord
100
AcDbLinetypeTableRecord
  2
CENTER
 70
64
  3
____ _ ____ _ ____ _ ____ _ ____ _ ____ _ ____
 72
65
 73
4
 40
0.6
 49
0.375
 74
0
 49
-0.075
 74
0
 49
0.075
 74
0
 49
-0.075
 74
0
  0
LTYPE
  5
1F6
100
AcDbSymbolTableRecord
100
AcDbLinetypeTableRecord
  2
HIDDEN
 70
64
  3
- - - - - - - - - - - - - - - - - - - -
 72
65
 73
2
 40
0.2
 49
0.1
 74
0
 49
-0.1
 74
0
  0
LTYPE
  5
1F7
100
AcDbSymbolTableRecord
100
AcDbLinetypeTableRecord
  2
PHANTOM
 70
64
  3
_____ _ _ _____ _ _ _____ _ _ _____
 72
65
 73
6
 40
0.8
 49
0.45
 74
0
 49
-0.05
 74
0
 49
0.1
 74
0
 49
-0.05
 74
0
 49
0.1
 74
0
 49
-0.05
 74
0
  0
LTYPE
  5
1F8
100
AcDbSymbolTableRecord
100
AcDbLinetypeTableRecord
  2
DOT
 70
64
  3
. . . . . . . . . . . . . . . . . . . .
 72
65
 73
2
 40
0.2
 49
0.1
 74
0
 49
-0.1
 74
0
  0
LTYPE
  5
1F9
100
AcDbSymbolTableRecord
100
AcDbLinetypeTableRecord
  2
DASHED
 70
64
  3
- - - - - - - - - - - - - - - - - - - -
 72
65
 73
2
 40
0.2
 49
0.1
 74
0
 49
-0.1
 74
0
  0
ENDTAB
  0
TABLE
  2
LAYER
  5
2
100
AcDbSymbolTable
 70
36
  0
LAYER
  5
10
100
AcDbSymbolTableRecord
100
AcDbLayerTableRecord
  2
0
 70
0
 62
7
  6
CONTINUOUS
370
-3
390
F
  0
LAYER
  5
1FA
100
AcDbSymbolTableRecord
100
AcDbLayerTableRecord
  2
DEFAULT_1
 70
0
 62
7
  6
CENTER
370
-3
390
F
  0
LAYER
  5
1FB
100
AcDbSymbolTableRecord
100
AcDbLayerTableRecord
  2
DEFAULT_2
 70
0
 62
7
  6
HIDDEN
370
-3
390
F
  0
LAYER
  5
1FC
100
AcDbSymbolTableRecord
100
AcDbLayerTableRecord
  2
DEFAULT_3
 70
0
 62
7
  6
PHANTOM
370
-3
390
F
  0
LAYER
  5
1FD
100
AcDbSymbolTableRecord
100
AcDbLayerTableRecord
  2
00_COMPONENTS
 70
0
 62
7
  6
CONTINUOUS
370
-3
390
F
  0
LAYER
  5
1FE
100
AcDbSymbolTableRecord
100
AcDbLayerTableRecord
  2
01_1_DEFAULT_DATUMS
 70
0
 62
7
  6
CONTINUOUS
370
-3
390
F
  0
LAYER
  5
1FF
100
AcDbSymbolTableRecord
100
AcDbLayerTableRecord
  2
01_PLANES
 70
0
 62
7
  6
CONTINUOUS
370
-3
390
F
  0
LAYER
  5
200
100
AcDbSymbolTableRecord
100
AcDbLayerTableRecord
  2
02_COORD_SYS
 70
0
 62
7
  6
CONTINUOUS
370
-3
390
F
  0
LAYER
  5
201
100
AcDbSymbolTableRecord
100
AcDbLayerTableRecord
  2
03_AXES
 70
0
 62
7
  6
CONTINUOUS
370
-3
390
F
  0
LAYER
  5
202
100
AcDbSymbolTableRecord
100
AcDbLayerTableRecord
  2
04_POINTS
 70
0
 62
7
  6
CONTINUOUS
370
-3
390
F
  0
LAYER
  5
203
100
AcDbSymbolTableRecord
100
AcDbLayerTableRecord
  2
05_CURVES
 70
0
 62
7
  6
CONTINUOUS
370
-3
390
F
  0
LAYER
  5
204
100
AcDbSymbolTableRecord
100
AcDbLayerTableRecord
  2
06_SURFS
 70
0
 62
7
  6
CONTINUOUS
370
-3
390
F
  0
LAYER
  5
205
100
AcDbSymbolTableRecord
100
AcDbLayerTableRecord
  2
07_COSMETICS
 70
0
 62
7
  6
CONTINUOUS
370
-3
390
F
  0
LAYER
  5
206
100
AcDbSymbolTableRecord
100
AcDbLayerTableRecord
  2
10_NOTES
 70
0
 62
7
  6
CONTINUOUS
370
-3
390
F
  0
LAYER
  5
207
100
AcDbSymbolTableRecord
100
AcDbLayerTableRecord
  2
11_NOTES_PUB
 70
0
 62
7
  6
CONTINUOUS
370
-3
390
F
  0
LAYER
  5
208
100
AcDbSymbolTableRecord
100
AcDbLayerTableRecord
  2
13_REF_GTOL
 70
0
 62
7
  6
CONTINUOUS
370
-3
390
F
  0
LAYER
  5
209
100
AcDbSymbolTableRecord
100
AcDbLayerTableRecord
  2
16_MISC
 70
0
 62
7
  6
CONTINUOUS
370
-3
390
F
  0
LAYER
  5
20A
100
AcDbSymbolTableRecord
100
AcDbLayerTableRecord
  2
17_NO_PRINT
 70
0
 62
7
  6
CONTINUOUS
370
-3
390
F
  0
LAYER
  5
20B
100
AcDbSymbolTableRecord
100
AcDbLayerTableRecord
  2
18_DATUM_CAMS_JOINTS
 70
0
 62
7
  6
CONTINUOUS
370
-3
390
F
  0
LAYER
  5
20C
100
AcDbSymbolTableRecord
100
AcDbLayerTableRecord
  2
19_DATUM_FUNCTIONAL
 70
0
 62
7
  6
CONTINUOUS
370
-3
390
F
  0
LAYER
  5
20D
100
AcDbSymbolTableRecord
100
AcDbLayerTableRecord
  2
20_DATUM_KINEMATIC_SCHEME
 70
0
 62
7
  6
CONTINUOUS
370
-3
390
F
  0
LAYER
  5
20E
100
AcDbSymbolTableRecord
100
AcDbLayerTableRecord
  2
INTFCLR_10356
 70
0
 62
7
  6
CONTINUOUS
370
-3
390
F
  0
LAYER
  5
20F
100
AcDbSymbolTableRecord
100
AcDbLayerTableRecord
  2
NONE
 70
0
 62
7
  6
CONTINUOUS
370
-3
390
F
  0
ENDTAB
  0
TABLE
  2
STYLE
  5
3
100
AcDbSymbolTable
 70
1
  0
STYLE
  5
11
100
AcDbSymbolTableRecord
100
AcDbTextStyleTableRecord
  2
STANDARD
 70
0
 40
0.0
 41
1.0
 50
0.0
 71
0
 42
0.2
  3
ARIAL.TTF
  4

  0
STYLE
  5
210
100
AcDbSymbolTableRecord
100
AcDbTextStyleTableRecord
  2
TEXTSTYLE_1
 70
0
 40
0.0
 41
0.8
 50
0.0
 71
0
 42
0.2
  3
gdt
  4

  0
ENDTAB
  0
TABLE
  2
VIEW
  5
6
100
AcDbSymbolTable
 70
0
  0
ENDTAB
  0
TABLE
  2
UCS
  5
7
100
AcDbSymbolTable
 70
0
  0
ENDTAB
  0
TABLE
  2
APPID
  5
9
100
AcDbSymbolTable
 70
1
  0
APPID
  5
211
100
AcDbSymbolTableRecord
100
AcDbRegAppTableRecord
  2
ACAD
 70
0
  0
ENDTAB
  0
TABLE
  2
BLOCK_RECORD
  5
1
100
AcDbSymbolTable
 70
0
  0
BLOCK_RECORD
  5
212
100
AcDbSymbolTableRecord
100
AcDbBlockTableRecord
  2
*Model_Space
  0
BLOCK_RECORD
  5
213
100
AcDbSymbolTableRecord
100
AcDbBlockTableRecord
  2
*Paper_Space
  0
BLOCK_RECORD
  5
214
100
AcDbSymbolTableRecord
100
AcDbBlockTableRecord
  2
_FILLED
  0
ENDTAB
  0
TABLE
  2
DIMSTYLE
  5
A
100
AcDbSymbolTable
 70
1
100
AcDbDimStyleTable
 71
0
  0
DIMSTYLE
105
215
100
AcDbSymbolTableRecord
100
AcDbDimStyleTableRecord
  2
STANDARD
 70
0
  3

  4

 40
1.0
 41
2.1342737722
 42
1.0
 43
0.38
 44
1.0
 45
0.0
 46
0.0
 47
0.01
 48
0.01
140
2.9879832811
141
0.09
142
0.0
143
25.4
144
1.0
145
0.0
146
1.0
147
0.625
 71
1
 72
0
 73
0
 74
0
 75
0
 76
0
 77
1
 78
8
 79
2
170
0
171
1
172
0
173
0
174
0
175
0
176
0
177
0
178
0
270
2
179
2
271
2
272
2
273
2
274
2
275
0
280
0
281
0
282
0
283
1
284
8
285
0
286
0
287
3
288
0
340
11
278
46
341
214
342
214
343
214
344
214
  0
ENDTAB
  0
ENDSEC
  0
SECTION
  2
BLOCKS
  0
BLOCK
  5
20
100
AcDbEntity
  8
0
100
AcDbBlockBegin
  2
*Model_Space
 70
0
 10
0.0
 20
0.0
 30
0.0
  3
*Model_Space
  1

  0
ENDBLK
  5
21
100
AcDbEntity
  8
0
100
AcDbBlockEnd
  0
BLOCK
  5
1C
100
AcDbEntity
  8
0
100
AcDbBlockBegin
  2
*Paper_Space
 70
0
 10
0.0
 20
0.0
 30
0.0
  3
*Paper_Space
  1

  0
ENDBLK
  5
1D
100
AcDbEntity
  8
0
100
AcDbBlockEnd
  0
BLOCK
  5
216
100
AcDbEntity
  8
0
100
AcDbBlockBegin
  2
_FILLED
 70
64
 10
0.0
 20
0.0
  3
_FILLED
  1

  0
SOLID
  5
217
100
AcDbEntity
  8
0
  6
BYBLOCK
 62
0
100
AcDbTrace
 10
0.0
 20
0.0
 11
-1.0
 21
0.25
 12
-1.0
 22
-0.25
 13
-1.0
 23
-0.25
  0
ENDBLK
  5
218
100
AcDbEntity
  8
0
  6
BYBLOCK
 62
0
100
AcDbBlockEnd
  0
ENDSEC
  0
SECTION
  2
ENTITIES
  0
LINE
  5
219
100
AcDbEntity
  8
0
100
AcDbLine
 62
7
  6
BYLAYER
 10
19.9670846395
 20
92.2191258632
 11
19.9670846395
 21
159.7191211419
  0
LINE
  5
21A
100
AcDbEntity
  8
0
100
AcDbLine
 62
7
  6
BYLAYER
 10
21.9670846395
 20
133.7191258632
 11
21.9670846395
 21
125.7191258632
  0
LINE
  5
21B
100
AcDbEntity
  8
0
100
AcDbLine
 62
7
  6
BYLAYER
 10
24.9670846395
 20
141.7191258632
 11
24.9670846395
 21
157.7191258632
  0
LINE
  5
21C
100
AcDbEntity
  8
0
100
AcDbLine
 62
7
  6
BYLAYER
 10
43.9670846395
 20
92.2191258632
 11
43.9670846395
 21
97.2191258632
  0
LINE
  5
21D
100
AcDbEntity
  8
0
100
AcDbLine
 62
7
  6
BYLAYER
 10
47.9670846395
 20
92.2191258632
 11
47.9670846395
 21
94.2191258632
  0
LINE
  5
21E
100
AcDbEntity
  8
0
100
AcDbLine
 62
7
  6
BYLAYER
 10
48.4670846395
 20
94.2191258632
 11
48.4670846395
 21
92.2191258632
  0
LINE
  5
21F
100
AcDbEntity
  8
0
100
AcDbLine
 62
7
  6
BYLAYER
 10
48.9670846395
 20
94.2191258632
 11
48.9670846395
 21
92.2191258632
  0
LINE
  5
220
100
AcDbEntity
  8
0
100
AcDbLine
 62
7
  6
BYLAYER
 10
50.9670846395
 20
94.2191258632
 11
50.9670846395
 21
92.2191258632
  0
LINE
  5
221
100
AcDbEntity
  8
0
100
AcDbLine
 62
7
  6
BYLAYER
 10
51.4670846395
 20
94.2191258632
 11
51.4670846395
 21
92.2191258632
  0
LINE
  5
222
100
AcDbEntity
  8
0
100
AcDbLine
 62
7
  6
BYLAYER
 10
51.9670846395
 20
94.2191258632
 11
51.9670846395
 21
92.2191258632
  0
LINE
  5
223
100
AcDbEntity
  8
0
100
AcDbLine
 62
7
  6
BYLAYER
 10
55.9670846395
 20
92.2191258632
 11
55.9670846395
 21
97.2191258632
  0
LINE
  5
224
100
AcDbEntity
  8
0
100
AcDbLine
 62
7
  6
BYLAYER
 10
58.9670846395
 20
116.2191258632
 11
58.9670846395
 21
131.2191258632
  0
LINE
  5
225
100
AcDbEntity
  8
0
100
AcDbLine
 62
7
  6
BYLAYER
 10
59.9670846395
 20
118.2191258632
 11
59.9670846395
 21
125.2191258632
  0
LINE
  5
226
100
AcDbEntity
  8
0
100
AcDbLine
 62
7
  6
BYLAYER
 10
19.9670846395
 20
92.2191258632
 11
163.9670846395
 21
92.2191258632
  0
LINE
  5
227
100
AcDbEntity
  8
0
100
AcDbLine
 62
7
  6
BYLAYER
 10
139.9670846395
 20
94.2191258632
 11
127.9670846395
 21
94.2191258632
  0
LINE
  5
228
100
AcDbEntity
  8
0
100
AcDbLine
 62
7
  6
BYLAYER
 10
55.9670846395
 20
94.2191258632
 11
43.9670846395
 21
94.2191258632
  0
LINE
  5
229
100
AcDbEntity
  8
0
100
AcDbLine
 62
7
  6
BYLAYER
 10
63.9670846395
 20
125.2191258632
 11
63.9670846395
 21
118.2191258632
  0
LINE
  5
22A
100
AcDbEntity
  8
0
100
AcDbLine
 62
7
  6
BYLAYER
 10
64.9670846395
 20
118.2191258632
 11
64.9670846395
 21
125.2191258632
  0
LINE
  5
22B
100
AcDbEntity
  8
0
100
AcDbLine
 62
7
  6
BYLAYER
 10
43.9670846395
 20
97.2191258632
 11
55.9670846395
 21
97.2191258632
  0
LINE
  5
22C
100
AcDbEntity
  8
0
100
AcDbLine
 62
7
  6
BYLAYER
 10
127.9670846395
 20
97.2191258632
 11
139.9670846395
 21
97.2191258632
  0
LINE
  5
22D
100
AcDbEntity
  8
0
100
AcDbLine
 62
7
  6
BYLAYER
 10
68.9670846395
 20
125.2191258632
 11
68.9670846395
 21
118.2191258632
  0
LINE
  5
22E
100
AcDbEntity
  8
0
100
AcDbLine
 62
7
  6
BYLAYER
 10
69.9670846395
 20
118.2191258632
 11
69.9670846395
 21
125.2191258632
  0
LINE
  5
22F
100
AcDbEntity
  8
0
100
AcDbLine
 62
7
  6
BYLAYER
 10
73.9670846395
 20
125.2191258632
 11
73.9670846395
 21
118.2191258632
  0
LINE
  5
230
100
AcDbEntity
  8
0
100
AcDbLine
 62
7
  6
BYLAYER
 10
74.9670846395
 20
118.2191258632
 11
74.9670846395
 21
125.2191258632
  0
LINE
  5
231
100
AcDbEntity
  8
0
100
AcDbLine
 62
7
  6
BYLAYER
 10
78.9670846395
 20
125.2191258632
 11
78.9670846395
 21
118.2191258632
  0
LINE
  5
232
100
AcDbEntity
  8
0
100
AcDbLine
 62
7
  6
BYLAYER
 10
79.9670846395
 20
118.2191258632
 11
79.9670846395
 21
125.2191258632
  0
LINE
  5
233
100
AcDbEntity
  8
0
100
AcDbLine
 62
7
  6
BYLAYER
 10
83.9670846395
 20
125.2191258632
 11
83.9670846395
 21
118.2191258632
  0
LINE
  5
234
100
AcDbEntity
  8
0
100
AcDbLine
 62
7
  6
BYLAYER
 10
84.9670846395
 20
118.2191258632
 11
84.9670846395
 21
125.2191258632
  0
LINE
  5
235
100
AcDbEntity
  8
0
100
AcDbLine
 62
7
  6
BYLAYER
 10
142.9670846395
 20
116.2191258632
 11
91.9670846395
 21
116.2191258632
  0
LINE
  5
236
100
AcDbEntity
  8
0
100
AcDbLine
 62
7
  6
BYLAYER
 10
89.9670846395
 20
116.2191258632
 11
58.9670846395
 21
116.2191258632
  0
LINE
  5
237
100
AcDbEntity
  8
0
100
AcDbLine
 62
7
  6
BYLAYER
 10
141.9670846395
 20
118.2191258632
 11
137.9670846395
 21
118.2191258632
  0
LINE
  5
238
100
AcDbEntity
  8
0
100
AcDbLine
 62
7
  6
BYLAYER
 10
136.9670846395
 20
118.2191258632
 11
132.9670846395
 21
118.2191258632
  0
LINE
  5
239
100
AcDbEntity
  8
0
100
AcDbLine
 62
7
  6
BYLAYER
 10
131.9670846395
 20
118.2191258632
 11
127.9670846395
 21
118.2191258632
  0
LINE
  5
23A
100
AcDbEntity
  8
0
100
AcDbLine
 62
7
  6
BYLAYER
 10
126.9670846395
 20
118.2191258632
 11
122.9670846395
 21
118.2191258632
  0
LINE
  5
23B
100
AcDbEntity
  8
0
100
AcDbLine
 62
7
  6
BYLAYER
 10
121.9670846395
 20
118.2191258632
 11
117.9670846395
 21
118.2191258632
  0
LINE
  5
23C
100
AcDbEntity
  8
0
100
AcDbLine
 62
7
  6
BYLAYER
 10
116.9670846395
 20
118.2191258632
 11
112.9670846395
 21
118.2191258632
  0
LINE
  5
23D
100
AcDbEntity
  8
0
100
AcDbLine
 62
7
  6
BYLAYER
 10
111.9670846395
 20
118.2191258632
 11
107.9670846395
 21
118.2191258632
  0
LINE
  5
23E
100
AcDbEntity
  8
0
100
AcDbLine
 62
7
  6
BYLAYER
 10
106.9670846395
 20
118.2191258632
 11
102.9670846395
 21
118.2191258632
  0
LINE
  5
23F
100
AcDbEntity
  8
0
100
AcDbLine
 62
7
  6
BYLAYER
 10
101.9670846395
 20
118.2191258632
 11
97.9670846395
 21
118.2191258632
  0
LINE
  5
240
100
AcDbEntity
  8
0
100
AcDbLine
 62
7
  6
BYLAYER
 10
96.9670846395
 20
118.2191258632
 11
92.9670846395
 21
118.2191258632
  0
LINE
  5
241
100
AcDbEntity
  8
0
100
AcDbLine
 62
7
  6
BYLAYER
 10
88.9670846395
 20
118.2191258632
 11
84.9670846395
 21
118.2191258632
  0
LINE
  5
242
100
AcDbEntity
  8
0
100
AcDbLine
 62
7
  6
BYLAYER
 10
83.9670846395
 20
118.2191258632
 11
79.9670846395
 21
118.2191258632
  0
LINE
  5
243
100
AcDbEntity
  8
0
100
AcDbLine
 62
7
  6
BYLAYER
 10
78.9670846395
 20
118.2191258632
 11
74.9670846395
 21
118.2191258632
  0
LINE
  5
244
100
AcDbEntity
  8
0
100
AcDbLine
 62
7
  6
BYLAYER
 10
73.9670846395
 20
118.2191258632
 11
69.9670846395
 21
118.2191258632
  0
LINE
  5
245
100
AcDbEntity
  8
0
100
AcDbLine
 62
7
  6
BYLAYER
 10
68.9670846395
 20
118.2191258632
 11
64.9670846395
 21
118.2191258632
  0
LINE
  5
246
100
AcDbEntity
  8
0
100
AcDbLine
 62
7
  6
BYLAYER
 10
63.9670846395
 20
118.2191258632
 11
59.9670846395
 21
118.2191258632
  0
LINE
  5
247
100
AcDbEntity
  8
0
100
AcDbLine
 62
7
  6
BYLAYER
 10
88.9670846395
 20
125.2191258632
 11
88.9670846395
 21
118.2191258632
  0
LINE
  5
248
100
AcDbEntity
  8
0
100
AcDbLine
 62
7
  6
BYLAYER
 10
89.9670846395
 20
131.2191258632
 11
89.9670846395
 21
116.2191258632
  0
LINE
  5
249
100
AcDbEntity
  8
0
100
AcDbLine
 62
7
  6
BYLAYER
 10
91.9670846395
 20
116.2191258632
 11
91.9670846395
 21
131.2191258632
  0
LINE
  5
24A
100
AcDbEntity
  8
0
100
AcDbLine
 62
7
  6
BYLAYER
 10
59.9670846395
 20
125.2191258632
 11
63.9670846395
 21
125.2191258632
  0
LINE
  5
24B
100
AcDbEntity
  8
0
100
AcDbLine
 62
7
  6
BYLAYER
 10
64.9670846395
 20
125.2191258632
 11
68.9670846395
 21
125.2191258632
  0
LINE
  5
24C
100
AcDbEntity
  8
0
100
AcDbLine
 62
7
  6
BYLAYER
 10
69.9670846395
 20
125.2191258632
 11
73.9670846395
 21
125.2191258632
  0
LINE
  5
24D
100
AcDbEntity
  8
0
100
AcDbLine
 62
7
  6
BYLAYER
 10
74.9670846395
 20
125.2191258632
 11
78.9670846395
 21
125.2191258632
  0
LINE
  5
24E
100
AcDbEntity
  8
0
100
AcDbLine
 62
7
  6
BYLAYER
 10
79.9670846395
 20
125.2191258632
 11
83.9670846395
 21
125.2191258632
  0
LINE
  5
24F
100
AcDbEntity
  8
0
100
AcDbLine
 62
7
  6
BYLAYER
 10
84.9670846395
 20
125.2191258632
 11
88.9670846395
 21
125.2191258632
  0
LINE
  5
250
100
AcDbEntity
  8
0
100
AcDbLine
 62
7
  6
BYLAYER
 10
92.9670846395
 20
125.2191258632
 11
96.9670846395
 21
125.2191258632
  0
LINE
  5
251
100
AcDbEntity
  8
0
100
AcDbLine
 62
7
  6
BYLAYER
 10
97.9670846395
 20
125.2191258632
 11
101.9670846395
 21
125.2191258632
  0
LINE
  5
252
100
AcDbEntity
  8
0
100
AcDbLine
 62
7
  6
BYLAYER
 10
102.9670846395
 20
125.2191258632
 11
106.9670846395
 21
125.2191258632
  0
LINE
  5
253
100
AcDbEntity
  8
0
100
AcDbLine
 62
7
  6
BYLAYER
 10
107.9670846395
 20
125.2191258632
 11
111.9670846395
 21
125.2191258632
  0
LINE
  5
254
100
AcDbEntity
  8
0
100
AcDbLine
 62
7
  6
BYLAYER
 10
112.9670846395
 20
125.2191258632
 11
116.9670846395
 21
125.2191258632
  0
LINE
  5
255
100
AcDbEntity
  8
0
100
AcDbLine
 62
7
  6
BYLAYER
 10
117.9670846395
 20
125.2191258632
 11
121.9670846395
 21
125.2191258632
  0
LINE
  5
256
100
AcDbEntity
  8
0
100
AcDbLine
 62
7
  6
BYLAYER
 10
122.9670846395
 20
125.2191258632
 11
126.9670846395
 21
125.2191258632
  0
LINE
  5
257
100
AcDbEntity
  8
0
100
AcDbLine
 62
7
  6
BYLAYER
 10
127.9670846395
 20
125.2191258632
 11
131.9670846395
 21
125.2191258632
  0
LINE
  5
258
100
AcDbEntity
  8
0
100
AcDbLine
 62
7
  6
BYLAYER
 10
132.9670846395
 20
125.2191258632
 11
136.9670846395
 21
125.2191258632
  0
LINE
  5
259
100
AcDbEntity
  8
0
100
AcDbLine
 62
7
  6
BYLAYER
 10
137.9670846395
 20
125.2191258632
 11
141.9670846395
 21
125.2191258632
  0
LINE
  5
25A
100
AcDbEntity
  8
0
100
AcDbLine
 62
7
  6
BYLAYER
 10
163.9670846395
 20
125.7191258632
 11
161.9670846395
 21
125.7191258632
  0
LINE
  5
25B
100
AcDbEntity
  8
0
100
AcDbLine
 62
7
  6
BYLAYER
 10
19.9670846395
 20
125.7191258632
 11
21.9670846395
 21
125.7191258632
  0
LINE
  5
25C
100
AcDbEntity
  8
0
100
AcDbLine
 62
7
  6
BYLAYER
 10
92.9670846395
 20
118.2191258632
 11
92.9670846395
 21
125.2191258632
  0
LINE
  5
25D
100
AcDbEntity
  8
0
100
AcDbLine
 62
7
  6
BYLAYER
 10
96.9670846395
 20
125.2191258632
 11
96.9670846395
 21
118.2191258632
  0
LINE
  5
25E
100
AcDbEntity
  8
0
100
AcDbLine
 62
7
  6
BYLAYER
 10
97.9670846395
 20
118.2191258632
 11
97.9670846395
 21
125.2191258632
  0
LINE
  5
25F
100
AcDbEntity
  8
0
100
AcDbLine
 62
7
  6
BYLAYER
 10
21.9670846395
 20
130.2191258632
 11
19.9670846395
 21
130.2191258632
  0
LINE
  5
260
100
AcDbEntity
  8
0
100
AcDbLine
 62
7
  6
BYLAYER
 10
161.9670846395
 20
130.2191258632
 11
163.9670846395
 21
130.2191258632
  0
LINE
  5
261
100
AcDbEntity
  8
0
100
AcDbLine
 62
7
  6
BYLAYER
 10
58.9670846395
 20
131.2191258632
 11
89.9670846395
 21
131.2191258632
  0
LINE
  5
262
100
AcDbEntity
  8
0
100
AcDbLine
 62
7
  6
BYLAYER
 10
91.9670846395
 20
131.2191258632
 11
142.9670846395
 21
131.2191258632
  0
LINE
  5
263
100
AcDbEntity
  8
0
100
AcDbLine
 62
7
  6
BYLAYER
 10
101.9670846395
 20
125.2191258632
 11
101.9670846395
 21
118.2191258632
  0
LINE
  5
264
100
AcDbEntity
  8
0
100
AcDbLine
 62
7
  6
BYLAYER
 10
102.9670846395
 20
118.2191258632
 11
102.9670846395
 21
125.2191258632
  0
LINE
  5
265
100
AcDbEntity
  8
0
100
AcDbLine
 62
7
  6
BYLAYER
 10
163.9670846395
 20
133.7191258632
 11
161.9670846395
 21
133.7191258632
  0
LINE
  5
266
100
AcDbEntity
  8
0
100
AcDbLine
 62
7
  6
BYLAYER
 10
21.9670846395
 20
133.7191258632
 11
19.9670846395
 21
133.7191258632
  0
LINE
  5
267
100
AcDbEntity
  8
0
100
AcDbLine
 62
7
  6
BYLAYER
 10
106.9670846395
 20
125.2191258632
 11
106.9670846395
 21
118.2191258632
  0
LINE
  5
268
100
AcDbEntity
  8
0
100
AcDbLine
 62
7
  6
BYLAYER
 10
107.9670846395
 20
118.2191258632
 11
107.9670846395
 21
125.2191258632
  0
LINE
  5
269
100
AcDbEntity
  8
0
100
AcDbLine
 62
7
  6
BYLAYER
 10
19.9670846395
 20
140.7191258632
 11
163.9670846395
 21
140.7191258632
  0
LINE
  5
26A
100
AcDbEntity
  8
0
100
AcDbLine
 62
7
  6
BYLAYER
 10
163.9670846395
 20
141.7191258632
 11
19.9670846395
 21
141.7191258632
  0
LINE
  5
26B
100
AcDbEntity
  8
0
100
AcDbLine
 62
7
  6
BYLAYER
 10
111.9670846395
 20
125.2191258632
 11
111.9670846395
 21
118.2191258632
  0
LINE
  5
26C
100
AcDbEntity
  8
0
100
AcDbLine
 62
7
  6
BYLAYER
 10
112.9670846395
 20
118.2191258632
 11
112.9670846395
 21
125.2191258632
  0
LINE
  5
26D
100
AcDbEntity
  8
0
100
AcDbLine
 62
7
  6
BYLAYER
 10
116.9670846395
 20
125.2191258632
 11
116.9670846395
 21
118.2191258632
  0
LINE
  5
26E
100
AcDbEntity
  8
0
100
AcDbLine
 62
7
  6
BYLAYER
 10
117.9670846395
 20
118.2191258632
 11
117.9670846395
 21
125.2191258632
  0
LINE
  5
26F
100
AcDbEntity
  8
0
100
AcDbLine
 62
7
  6
BYLAYER
 10
121.9670846395
 20
125.2191258632
 11
121.9670846395
 21
118.2191258632
  0
LINE
  5
270
100
AcDbEntity
  8
0
100
AcDbLine
 62
7
  6
BYLAYER
 10
122.9670846395
 20
118.2191258632
 11
122.9670846395
 21
125.2191258632
  0
LINE
  5
271
100
AcDbEntity
  8
0
100
AcDbLine
 62
7
  6
BYLAYER
 10
24.9670846395
 20
157.7191258632
 11
158.9670846395
 21
157.7191258632
  0
LINE
  5
272
100
AcDbEntity
  8
0
100
AcDbLine
 62
7
  6
BYLAYER
 10
126.9670846395
 20
125.2191258632
 11
126.9670846395
 21
118.2191258632
  0
LINE
  5
273
100
AcDbEntity
  8
0
100
AcDbLine
 62
7
  6
BYLAYER
 10
127.9670846395
 20
97.2191258632
 11
127.9670846395
 21
92.2191258632
  0
LINE
  5
274
100
AcDbEntity
  8
0
100
AcDbLine
 62
7
  6
BYLAYER
 10
127.9670846395
 20
118.2191258632
 11
127.9670846395
 21
125.2191258632
  0
LINE
  5
275
100
AcDbEntity
  8
0
100
AcDbLine
 62
7
  6
BYLAYER
 10
163.9670846395
 20
159.0537895911
 11
133.8670846395
 21
159.0537895911
  0
LINE
  5
276
100
AcDbEntity
  8
0
100
AcDbLine
 62
7
  6
BYLAYER
 10
133.9670846395
 20
159.0615085009
 11
163.9670846395
 21
159.0615085009
  0
LINE
  5
277
100
AcDbEntity
  8
0
100
AcDbLine
 62
7
  6
BYLAYER
 10
158.7170846395
 20
159.2573816863
 11
156.2170846395
 21
159.2573816863
  0
LINE
  5
278
100
AcDbEntity
  8
0
100
AcDbLine
 62
7
  6
BYLAYER
 10
156.2170846395
 20
159.5016781632
 11
158.7170846395
 21
159.5016781632
  0
LINE
  5
279
100
AcDbEntity
  8
0
100
AcDbLine
 62
7
  6
BYLAYER
 10
158.7170846395
 20
159.5365776599
 11
156.2170846395
 21
159.5365776599
  0
LINE
  5
27A
100
AcDbEntity
  8
0
100
AcDbLine
 62
7
  6
BYLAYER
 10
163.9670846395
 20
159.7191258632
 11
158.9670846395
 21
159.7191258632
  0
LINE
  5
27B
100
AcDbEntity
  8
0
100
AcDbLine
 62
7
  6
BYLAYER
 10
155.9670846395
 20
159.7191258632
 11
132.9670846395
 21
159.7191258632
  0
LINE
  5
27C
100
AcDbEntity
  8
0
100
AcDbLine
 62
7
  6
BYLAYER
 10
132.8670846395
 20
159.7191258632
 11
19.9670846395
 21
159.7191258632
  0
LINE
  5
27D
100
AcDbEntity
  8
0
100
AcDbLine
 62
7
  6
BYLAYER
 10
156.2170846395
 20
159.7808741369
 11
158.7170846395
 21
159.7808741369
  0
LINE
  5
27E
100
AcDbEntity
  8
0
100
AcDbLine
 62
7
  6
BYLAYER
 10
131.9670846395
 20
125.2191258632
 11
131.9670846395
 21
118.2191258632
  0
LINE
  5
27F
100
AcDbEntity
  8
0
100
AcDbLine
 62
7
  6
BYLAYER
 10
131.9670846395
 20
92.2191258632
 11
131.9670846395
 21
94.2191258632
  0
LINE
  5
280
100
AcDbEntity
  8
0
100
AcDbLine
 62
7
  6
BYLAYER
 10
132.4670846395
 20
94.2191258632
 11
132.4670846395
 21
92.2191258632
  0
LINE
  5
281
100
AcDbEntity
  8
0
100
AcDbLine
 62
7
  6
BYLAYER
 10
132.8670846395
 20
159.7191006871
 11
132.8670846395
 21
159.1289436214
  0
LINE
  5
282
100
AcDbEntity
  8
0
100
AcDbLine
 62
7
  6
BYLAYER
 10
132.9670846395
 20
94.2191258632
 11
132.9670846395
 21
92.2191258632
  0
LINE
  5
283
100
AcDbEntity
  8
0
100
AcDbLine
 62
7
  6
BYLAYER
 10
132.9670846395
 20
118.2191258632
 11
132.9670846395
 21
125.2191258632
  0
LINE
  5
284
100
AcDbEntity
  8
0
100
AcDbLine
 62
7
  6
BYLAYER
 10
132.9670846395
 20
159.1109713399
 11
132.9670846395
 21
159.7191009011
  0
LINE
  5
285
100
AcDbEntity
  8
0
100
AcDbLine
 62
7
  6
BYLAYER
 10
134.9670846395
 20
94.2191258632
 11
134.9670846395
 21
92.2191258632
  0
LINE
  5
286
100
AcDbEntity
  8
0
100
AcDbLine
 62
7
  6
BYLAYER
 10
135.4670846395
 20
94.2191258632
 11
135.4670846395
 21
92.2191258632
  0
LINE
  5
287
100
AcDbEntity
  8
0
100
AcDbLine
 62
7
  6
BYLAYER
 10
135.9670846395
 20
94.2191258632
 11
135.9670846395
 21
92.2191258632
  0
LINE
  5
288
100
AcDbEntity
  8
0
100
AcDbLine
 62
7
  6
BYLAYER
 10
136.9670846395
 20
125.2191258632
 11
136.9670846395
 21
118.2191258632
  0
LINE
  5
289
100
AcDbEntity
  8
0
100
AcDbLine
 62
7
  6
BYLAYER
 10
137.9670846395
 20
118.2191258632
 11
137.9670846395
 21
125.2191258632
  0
LINE
  5
28A
100
AcDbEntity
  8
0
100
AcDbLine
 62
7
  6
BYLAYER
 10
139.9670846395
 20
92.2191258632
 11
139.9670846395
 21
97.2191258632
  0
LINE
  5
28B
100
AcDbEntity
  8
0
100
AcDbLine
 62
7
  6
BYLAYER
 10
141.9670846395
 20
125.2191258632
 11
141.9670846395
 21
118.2191258632
  0
LINE
  5
28C
100
AcDbEntity
  8
0
100
AcDbLine
 62
7
  6
BYLAYER
 10
142.9670846395
 20
131.2191258632
 11
142.9670846395
 21
116.2191258632
  0
LINE
  5
28D
100
AcDbEntity
  8
0
100
AcDbLine
 62
7
  6
BYLAYER
 10
155.9670846395
 20
159.0805804605
 11
155.9670846395
 21
159.4854153373
  0
LINE
  5
28E
100
AcDbEntity
  8
0
100
AcDbLine
 62
7
  6
BYLAYER
 10
155.9670846395
 20
159.5453025341
 11
155.9670846395
 21
159.7721492626
  0
LINE
  5
28F
100
AcDbEntity
  8
0
100
AcDbLine
 62
7
  6
BYLAYER
 10
156.2170846395
 20
159.0615085009
 11
156.2170846395
 21
159.2573816863
  0
LINE
  5
290
100
AcDbEntity
  8
0
100
AcDbLine
 62
7
  6
BYLAYER
 10
158.7170846395
 20
159.2573816863
 11
158.7170846395
 21
159.0615085009
  0
LINE
  5
291
100
AcDbEntity
  8
0
100
AcDbLine
 62
7
  6
BYLAYER
 10
158.9670846395
 20
159.4854153373
 11
158.9670846395
 21
159.0805804605
  0
LINE
  5
292
100
AcDbEntity
  8
0
100
AcDbLine
 62
7
  6
BYLAYER
 10
158.9670846395
 20
157.7191258632
 11
158.9670846395
 21
141.7191258632
  0
LINE
  5
293
100
AcDbEntity
  8
0
100
AcDbLine
 62
7
  6
BYLAYER
 10
158.9670846395
 20
159.5453025341
 11
158.9670846395
 21
159.7721492626
  0
LINE
  5
294
100
AcDbEntity
  8
0
100
AcDbLine
 62
7
  6
BYLAYER
 10
161.9670846395
 20
125.7191258632
 11
161.9670846395
 21
133.7191258632
  0
LINE
  5
295
100
AcDbEntity
  8
0
100
AcDbLine
 62
7
  6
BYLAYER
 10
163.9670846395
 20
159.7191236747
 11
163.9670846395
 21
159.0615085009
  0
LINE
  5
296
100
AcDbEntity
  8
0
100
AcDbLine
 62
7
  6
BYLAYER
 10
163.9670846395
 20
92.2191258632
 11
163.9670846395
 21
159.0537895911
  0
ARC
  5
297
100
AcDbEntity
  8
0
100
AcDbCircle
 62
7
  6
BYLAYER
 10
133.9669364505
 20
171.8156797428
 40
12.7541712428
100
AcDbArc
 50
269.5360319465
 51
270.0006657121
  0
ARC
  5
298
100
AcDbEntity
  8
0
100
AcDbCircle
 62
7
  6
BYLAYER
 10
158.7178621063
 20
166.131480023
 40
6.5949024089
100
AcDbArc
 50
269.9932454545
 51
271.0831494654
  0
SPLINE
  5
299
100
AcDbEntity
  8
0
100
AcDbSpline
 62
7
  6
BYLAYER
 70
0
 71
3
 72
14
 73
10
 74
0
 42
0.0000001
 43
0.0000001
 44
0.0000000001
 40
0.0
 40
0.0
 40
0.0
 40
0.0
 40
0.0205524214
 40
0.0777248507
 40
0.1699416808
 40
0.2940909188
 40
0.4453494974
 40
0.6185373308
 40
1.0
 40
1.0
 40
1.0
 40
1.0
 10
158.9670846395
 20
159.7721492626
 30
0.0
 10
158.9670846396
 20
159.773865279
 30
0.0
 10
158.9572558706
 20
159.7736263657
 30
0.0
 10
158.9462817313
 20
159.7763392165
 30
0.0
 10
158.9217648267
 20
159.7770057351
 30
0.0
 10
158.8918131784
 20
159.7785523309
 30
0.0
 10
158.8541124713
 20
159.7794853025
 30
0.0
 10
158.7952911938
 20
159.7805915366
 30
0.0
 10
158.7489347152
 20
159.7808741368
 30
0.0
 10
158.7170846395
 20
159.7808741368
 30
0.0
  0
SPLINE
  5
29A
100
AcDbEntity
  8
0
100
AcDbSpline
 62
7
  6
BYLAYER
 70
0
 71
3
 72
14
 73
10
 74
0
 42
0.0000001
 43
0.0000001
 44
0.0000000001
 40
0.0
 40
0.0
 40
0.0
 40
0.0
 40
0.3814605464
 40
0.5546465279
 40
0.7059051621
 40
0.8300554589
 40
0.922273172
 40
0.97944691
 40
1.0
 40
1.0
 40
1.0
 40
1.0
 10
156.2170846395
 20
159.7808741368
 30
0.0
 10
156.1852347421
 20
159.7808741368
 30
0.0
 10
156.1388785974
 20
159.7805915588
 30
0.0
 10
156.0800576479
 20
159.7794853203
 30
0.0
 10
156.0423570038
 20
159.778552363
 30
0.0
 10
156.0124051959
 20
159.7770057644
 30
0.0
 10
155.9878879954
 20
159.7763392605
 30
0.0
 10
155.9769137033
 20
159.773626301
 30
0.0
 10
155.9670846394
 20
159.7738653348
 30
0.0
 10
155.9670846395
 20
159.7721492626
 30
0.0
  0
SPLINE
  5
29B
100
AcDbEntity
  8
0
100
AcDbSpline
 62
7
  6
BYLAYER
 70
0
 71
3
 72
9
 73
5
 74
0
 42
0.0000001
 43
0.0000001
 44
0.0000000001
 40
0.0
 40
0.0
 40
0.0
 40
0.0
 40
0.3248607574
 40
1.0
 40
1.0
 40
1.0
 40
1.0
 10
132.8670846395
 20
159.1289436214
 30
0.0
 10
132.8671013889
 20
159.1249351654
 30
0.0
 10
132.8794385089
 20
159.1161897521
 30
0.0
 10
132.8902500133
 20
159.1131220833
 30
0.0
 10
132.8982491635
 20
159.110795557
 30
0.0
  0
SPLINE
  5
29C
100
AcDbEntity
  8
0
100
AcDbSpline
 62
7
  6
BYLAYER
 70
0
 71
3
 72
12
 73
8
 74
0
 42
0.0000001
 43
0.0000001
 44
0.0000000001
 40
0.0
 40
0.0
 40
0.0
 40
0.0
 40
0.0565523364
 40
0.1382851675
 40
0.3681173717
 40
0.6661850319
 40
1.0
 40
1.0
 40
1.0
 40
1.0
 10
132.8982491635
 20
159.110795557
 30
0.0
 10
132.915840389
 20
159.1056792075
 30
0.0
 10
132.9599538919
 20
159.0972058035
 30
0.0
 10
133.0781655252
 20
159.0816675504
 30
0.0
 10
133.2752974989
 20
159.0673158251
 30
0.0
 10
133.55422061
 20
159.0562648858
 30
0.0
 10
133.7589451024
 20
159.0537870396
 30
0.0
 10
133.8670846395
 20
159.0537895911
 30
0.0
  0
SPLINE
  5
29D
100
AcDbEntity
  8
0
100
AcDbSpline
 62
7
  6
BYLAYER
 70
0
 71
3
 72
14
 73
10
 74
0
 42
0.0000001
 43
0.0000001
 44
0.0000000001
 40
0.0
 40
0.0
 40
0.0
 40
0.0
 40
0.0205524217
 40
0.0777248509
 40
0.1699416808
 40
0.2940909187
 40
0.4453494973
 40
0.6185373308
 40
1.0
 40
1.0
 40
1.0
 40
1.0
 10
155.9670846395
 20
159.2661065604
 30
0.0
 10
155.9670846396
 20
159.2643905441
 30
0.0
 10
155.9769134082
 20
159.2646294574
 30
0.0
 10
155.9878875479
 20
159.2619166066
 30
0.0
 10
156.0124044523
 20
159.261250088
 30
0.0
 10
156.0423561006
 20
159.2597034922
 30
0.0
 10
156.0800568077
 20
159.2587705206
 30
0.0
 10
156.1388780852
 20
159.2576642865
 30
0.0
 10
156.1852345638
 20
159.2573816863
 30
0.0
 10
156.2170846395
 20
159.2573816863
 30
0.0
  0
SPLINE
  5
29E
100
AcDbEntity
  8
0
100
AcDbSpline
 62
7
  6
BYLAYER
 70
0
 71
3
 72
14
 73
10
 74
0
 42
0.0000001
 43
0.0000001
 44
0.0000000001
 40
0.0
 40
0.0
 40
0.0
 40
0.0
 40
0.3814605463
 40
0.5546465279
 40
0.7059051622
 40
0.830055459
 40
0.9222731719
 40
0.9794469097
 40
1.0
 40
1.0
 40
1.0
 40
1.0
 10
158.7170846395
 20
159.2573816863
 30
0.0
 10
158.7489345369
 20
159.2573816863
 30
0.0
 10
158.7952906816
 20
159.2576642643
 30
0.0
 10
158.8541116311
 20
159.2587705027
 30
0.0
 10
158.8918122752
 20
159.2597034601
 30
0.0
 10
158.9217640832
 20
159.2612500586
 30
0.0
 10
158.9462812834
 20
159.2619165626
 30
0.0
 10
158.9572555759
 20
159.2646295221
 30
0.0
 10
158.9670846394
 20
159.2643904883
 30
0.0
 10
158.9670846395
 20
159.2661065604
 30
0.0
  0
SPLINE
  5
29F
100
AcDbEntity
  8
0
100
AcDbSpline
 62
7
  6
BYLAYER
 70
0
 71
3
 72
12
 73
8
 74
0
 42
0.0000001
 43
0.0000001
 44
0.0000000001
 40
0.0
 40
0.0
 40
0.0
 40
0.0
 40
0.414184672
 40
0.7239899745
 40
0.9181148312
 40
0.9714704123
 40
1.0
 40
1.0
 40
1.0
 40
1.0
 10
133.2605877585
 20
159.0838119609
 30
0.0
 10
133.2190161878
 20
159.0869523994
 30
0.0
 10
133.1462539386
 20
159.0934239737
 30
0.0
 10
133.0550536426
 20
159.1050249711
 30
0.0
 10
132.9991753673
 20
159.1169187976
 30
0.0
 10
132.9739815313
 20
159.1265984682
 30
0.0
 10
132.9670967135
 20
159.1333387394
 30
0.0
 10
132.9670846395
 20
159.1362103778
 30
0.0
  0
SPLINE
  5
2A0
100
AcDbEntity
  8
0
100
AcDbSpline
 62
7
  6
BYLAYER
 70
0
 71
3
 72
14
 73
10
 74
0
 42
0.0000001
 43
0.0000001
 44
0.0000000001
 40
0.0
 40
0.0
 40
0.0
 40
0.0
 40
0.3813270009
 40
0.5549466216
 40
0.7068341984
 40
0.8307000538
 40
0.92082222
 40
0.9763978752
 40
1.0
 40
1.0
 40
1.0
 40
1.0
 10
158.7170846395
 20
159.5016781632
 30
0.0
 10
158.7489188991
 20
159.5016378067
 30
0.0
 10
158.7952573832
 20
159.5013612075
 30
0.0
 10
158.8542353311
 20
159.5003089732
 30
0.0
 10
158.8917897199
 20
159.499327415
 30
0.0
 10
158.9221647071
 20
159.497934871
 30
0.0
 10
158.9449686659
 20
159.4968978605
 30
0.0
 10
158.9584035052
 20
159.4947926381
 30
0.0
 10
158.9656609436
 20
159.4943154429
 30
0.0
 10
158.9670846395
 20
159.492953289
 30
0.0
  0
SPLINE
  5
2A1
100
AcDbEntity
  8
0
100
AcDbSpline
 62
7
  6
BYLAYER
 70
0
 71
3
 72
14
 73
10
 74
0
 42
0.0000001
 43
0.0000001
 44
0.0000000001
 40
0.0
 40
0.0
 40
0.0
 40
0.0
 40
0.0235851639
 40
0.0791661526
 40
0.169298848
 40
0.2931662686
 40
0.4450511581
 40
0.6186707212
 40
1.0
 40
1.0
 40
1.0
 40
1.0
 10
155.9670846395
 20
159.492953289
 30
0.0
 10
155.9685039171
 20
159.4943180058
 30
0.0
 10
155.9757666306
 20
159.4947902636
 30
0.0
 10
155.9891959049
 20
159.4968994023
 30
0.0
 10
156.0120043382
 20
159.497934064
 30
0.0
 10
156.0423788583
 20
159.4993276806
 30
0.0
 10
156.0799336334
 20
159.5003088955
 30
0.0
 10
156.1389113909
 20
159.5013611039
 30
0.0
 10
156.1852501689
 20
159.5016376048
 30
0.0
 10
156.2170846395
 20
159.5016781632
 30
0.0
  0
SPLINE
  5
2A2
100
AcDbEntity
  8
0
100
AcDbSpline
 62
7
  6
BYLAYER
 70
0
 71
3
 72
13
 73
9
 74
0
 42
0.0000001
 43
0.0000001
 44
0.0000000001
 40
0.0
 40
0.0
 40
0.0
 40
0.0
 40
0.3790762193
 40
0.7017394865
 40
0.8254681118
 40
0.9177513728
 40
0.9758529929
 40
1.0
 40
1.0
 40
1.0
 40
1.0
 10
156.2170846395
 20
159.0615085009
 30
0.0
 10
156.1852211167
 20
159.0615085009
 30
0.0
 10
156.126351495
 20
159.0623650072
 30
0.0
 10
156.0566441962
 20
159.0655614897
 30
0.0
 10
156.0120818044
 20
159.0694814912
 30
0.0
 10
155.9882448722
 20
159.0726754097
 30
0.0
 10
155.9757588217
 20
159.0754886559
 30
0.0
 10
155.9670846395
 20
159.0785507666
 30
0.0
 10
155.9670846395
 20
159.0805804605
 30
0.0
  0
SPLINE
  5
2A3
100
AcDbEntity
  8
0
100
AcDbSpline
 62
7
  6
BYLAYER
 70
0
 71
3
 72
19
 73
15
 74
0
 42
0.0000001
 43
0.0000001
 44
0.0000000001
 40
0.0
 40
0.0
 40
0.0
 40
0.0
 40
0.0117930058
 40
0.0198005852
 40
0.0296376573
 40
0.0553108699
 40
0.0893012718
 40
0.1315383552
 40
0.1817977754
 40
0.2396881686
 40
0.3047145422
 40
0.4538696601
 40
0.6237918062
 40
1.0
 40
1.0
 40
1.0
 40
1.0
 10
163.9670846395
 20
158.33620166
 30
0.0
 10
163.9670846395
 20
158.3161382064
 30
0.0
 10
163.9490366268
 20
158.2834975947
 30
0.0
 10
163.9114712768
 20
158.2504440518
 30
0.0
 10
163.8491987944
 20
158.2096274802
 30
0.0
 10
163.7405665631
 20
158.1618557113
 30
0.0
 10
163.5755937017
 20
158.1081804588
 30
0.0
 10
163.3668126253
 20
158.0555058803
 30
0.0
 10
163.1160618765
 20
158.0043833288
 30
0.0
 10
162.8254564888
 20
157.955581279
 30
0.0
 10
162.3669859597
 20
157.8915549315
 30
0.0
 10
161.7167989023
 20
157.8240500696
 30
0.0
 10
160.5366186011
 20
157.7421674144
 30
0.0
 10
159.6071280506
 20
157.7191258632
 30
0.0
 10
158.9670846395
 20
157.7191258632
 30
0.0
  0
SPLINE
  5
2A4
100
AcDbEntity
  8
0
100
AcDbSpline
 62
7
  6
BYLAYER
 70
0
 71
3
 72
11
 73
7
 74
0
 42
0.0000001
 43
0.0000001
 44
0.0000000001
 40
0.0
 40
0.0
 40
0.0
 40
0.0
 40
0.357688616
 40
0.6710904168
 40
0.8941599582
 40
1.0
 40
1.0
 40
1.0
 40
1.0
 10
156.2170846395
 20
159.5365776599
 30
0.0
 10
156.1875388899
 20
159.5366152386
 30
0.0
 10
156.1321340207
 20
159.5370311314
 30
0.0
 10
156.0581792266
 20
159.5380931287
 30
0.0
 10
156.0053883079
 20
159.5408676955
 30
0.0
 10
155.9779820617
 20
159.5420604095
 30
0.0
 10
155.9695281054
 20
159.5442883124
 30
0.0
  0
SPLINE
  5
2A5
100
AcDbEntity
  8
0
100
AcDbSpline
 62
7
  6
BYLAYER
 70
0
 71
3
 72
9
 73
5
 74
0
 42
0.0000001
 43
0.0000001
 44
0.0000000001
 40
0.0
 40
0.0
 40
0.0
 40
0.0
 40
0.6201040246
 40
1.0
 40
1.0
 40
1.0
 40
1.0
 10
155.9695281054
 20
159.5442883124
 30
0.0
 10
155.9689964696
 20
159.5444284164
 30
0.0
 10
155.9681550969
 20
159.5446837247
 30
0.0
 10
155.9673284397
 20
159.545070139
 30
0.0
 10
155.9670846395
 20
159.5453025341
 30
0.0
  0
SPLINE
  5
2A6
100
AcDbEntity
  8
0
100
AcDbSpline
 62
7
  6
BYLAYER
 70
0
 71
3
 72
11
 73
7
 74
0
 42
0.0000001
 43
0.0000001
 44
0.0000000001
 40
0.0
 40
0.0
 40
0.0
 40
0.0
 40
0.0766087239
 40
0.2700377725
 40
0.5852297887
 40
1.0
 40
1.0
 40
1.0
 40
1.0
 10
158.9670846395
 20
159.5453025341
 30
0.0
 10
158.9647800742
 20
159.543094811
 30
0.0
 10
158.9521534023
 20
159.5432817201
 30
0.0
 10
158.9291302453
 20
159.53986423
 30
0.0
 10
158.8899798675
 20
159.5391486135
 30
0.0
 10
158.8598035272
 20
159.5380963566
 30
0.0
 10
158.8425281744
 20
159.5377560255
 30
0.0
  0
SPLINE
  5
2A7
100
AcDbEntity
  8
0
100
AcDbSpline
 62
7
  6
BYLAYER
 70
0
 71
3
 72
19
 73
15
 74
0
 42
0.0000001
 43
0.0000001
 44
0.0000000001
 40
0.0
 40
0.0
 40
0.0
 40
0.0
 40
0.3762083724
 40
0.54612471
 40
0.6952785883
 40
0.7603054091
 40
0.8181972043
 40
0.8684577577
 40
0.9106962084
 40
0.9446879724
 40
0.9703619634
 40
0.9801992348
 40
0.9882069265
 40
1.0
 40
1.0
 40
1.0
 40
1.0
 10
24.9670846395
 20
157.7191258632
 30
0.0
 10
24.3270406475
 20
157.7191258632
 30
0.0
 10
23.3975593015
 20
157.7421964448
 30
0.0
 10
22.2173924295
 20
157.8240956371
 30
0.0
 10
21.5672111607
 20
157.8915486264
 30
0.0
 10
21.1087369406
 20
157.9555585645
 30
0.0
 10
20.8181254888
 20
158.0043562444
 30
0.0
 10
20.5673684145
 20
158.0554820002
 30
0.0
 10
20.3585822268
 20
158.1081637989
 30
0.0
 10
20.1936055126
 20
158.1618468838
 30
0.0
 10
20.0849712203
 20
158.2096238053
 30
0.0
 10
20.0226979973
 20
158.250442667
 30
0.0
 10
19.985132642
 20
158.2834971825
 30
0.0
 10
19.9670846395
 20
158.3161380825
 30
0.0
 10
19.9670846395
 20
158.33620166
 30
0.0
  0
ENDSEC
  0
SECTION
  2
OBJECTS
  0
DICTIONARY
  5
C
100
AcDbDictionary
280
0
281
1
  3
ACAD_GROUP
350
D
  3
ACAD_MLINESTYLE
350
17
  3
ACAD_LAYOUT
350
1A
  3
ACAD_PLOTSETTINGS
350
19
  3
ACAD_PLOTSTYLENAME
350
E
  0
DICTIONARY
  5
D
102
{ACAD_REACTORS
330
C
102
}
100
AcDbDictionary
280
0
281
1
  0
ACDBDICTIONARYWDFLT
  5
E
102
{ACAD_REACTORS
330
C
102
}
100
AcDbDictionary
281
1
  3
Normal
350
F
100
AcDbDictionaryWithDefault
340
F
  0
DICTIONARY
  5
17
102
{ACAD_REACTORS
330
C
102
}
100
AcDbDictionary
280
0
281
1
  3
Standard
350
18
  0
DICTIONARY
  5
19
102
{ACAD_REACTORS
330
C
102
}
100
AcDbDictionary
281
1
  0
DICTIONARY
  5
1A
102
{ACAD_REACTORS
330
C
102
}
100
AcDbDictionary
281
1
  3
Model
350
2A8
  3
Layout1
350
2A9
  0
ACDBPLACEHOLDER
  5
F
102
{ACAD_REACTORS
330
E
102
}
  0
MLINESTYLE
  5
18
102
{ACAD_REACTORS
330
17
102
}
100
AcDbMlineStyle
  2
STANDARD
 70
0
  3

 62
256
 51
90.0
 52
90.0
 71
2
 49
0.5
 62
256
  6
BYLAYER
 49
-0.5
 62
256
  6
BYLAYER
  0
LAYOUT
  5
2A8
102
{ACAD_REACTORS
330
1A
102
}
100
AcDbPlotSettings
  1

  2
none_device
  4

  6

 40
0.0
 41
0.0
 42
0.0
 43
0.0
 44
210.0
 45
297.0
 46
0.0
 47
0.0
 48
0.0
 49
0.0
140
0.0
141
0.0
142
1.0
143
1.0
 70
1024
 72
1
 73
0
 74
0
  7

 75
0
147
1.0
148
0.0
149
0.0
100
AcDbLayout
  1
Model
 70
0
 71
0
 10
0.0
 20
0.0
 11
210.0
 21
297.0
 12
0.0
 22
0.0
 32
0.0
 14
0.0
 24
0.0
 34
0.0
 15
0.0
 25
0.0
 35
0.0
146
0.0
 13
0.0
 23
0.0
 33
0.0
 16
1.0
 26
0.0
 36
0.0
 17
0.0
 27
1.0
 37
0.0
 76
0
330
212
345
0
346
0
  0
LAYOUT
  5
2A9
102
{ACAD_REACTORS
330
1A
102
}
100
AcDbPlotSettings
  1

  2
none_device
  4

  6

 40
0.0
 41
0.0
 42
0.0
 43
0.0
 44
210.0
 45
297.0
 46
0.0
 47
0.0
 48
0.0
 49
0.0
140
0.0
141
0.0
142
1.0
143
1.0
 70
0
 72
1
 73
0
 74
0
  7

 75
0
147
1.0
148
0.0
149
0.0
100
AcDbLayout
  1
Layout1
 70
0
 71
1
 10
0.0
 20
0.0
 11
210.0
 21
297.0
 12
0.0
 22
0.0
 32
0.0
 14
0.0
 24
0.0
 34
0.0
 15
0.0
 25
0.0
 35
0.0
146
0.0
 13
0.0
 23
0.0
 33
0.0
 16
1.0
 26
0.0
 36
0.0
 17
0.0
 27
1.0
 37
0.0
 76
0
330
213
345
0
346
0
  0
ENDSEC
  0
EOF
