999
DXF file: C:\Users\sesa63760\Dev\_Creo\CAD\MCADID0001228_3D-CAD\drw0001_7.dxf
999
Pro/ENGINEER 2019471 by Parametric Technology Corporation
  0
SECTION
  2
HEADER
  9
$ACADVER
  1
AC1024
  9
$DWGCODEPAGE
  3
ANSI_1252
  9
$EXTMAX
 10
98.6139619307
 20
139.4683175878
 30
0.0
  9
$EXTMIN
 10
0.0
 20
0.0
 30
0.0
  9
$LIMMIN
 10
0.0
 20
0.0
  9
$LIMMAX
 10
98.6139619307
 20
139.4683175878
  9
$VIEWCTR
 10
49.3069809654
 20
69.7341587939
  9
$VIEWSIZE
 40
139.4683175878
  9
$CLAYER
  8
0
  9
$LTSCALE
 40
9.0912681094
  9
$CELTYPE
  6
BYLAYER
  9
$DIMSCALE
 40
1.0
  9
$DIMASZ
 40
1.1739757373
  9
$DIMEXO
 40
1.0
  9
$DIMDLI
 40
6.2812397847
  9
$DIMEXE
 40
1.0
  9
$DIMCEN
 40
1.4876620543
  9
$DIMLFAC
 40
1.0
  9
$DIMBLK
  1
_FILLED
  9
$DIMALT
 70
0
  9
$DIMALTF
 40
0.0393700787
  9
$DIMTXT
 40
1.6435660322
  9
$DIMTOL
 70
1
  9
$DIMLIM
 70
0
  9
$DIMTFAC
 40
1.0
  9
$DIMTP
 40
0.01
  9
$DIMTM
 40
0.01
  9
$DIMGAP
 40
0.625
  9
$DIMDSEP
 70
46
  9
$AUNITS
 70
0
  9
$PDMODE
 70
3
  9
$PDSIZE
 40
0.3125
  9
$HANDSEED
  5
26F
  9
$TILEMODE
 70
1
  9
$MEASUREMENT
 70
1
  9
$INSUNITS
 70
4
  0
ENDSEC
  0
SECTION
  2
CLASSES
  0
CLASS
  1
ACDBDICTIONARYWDFLT
  2
AcDbDictionaryWithDefault
  3
AutoCAD 2000
 90
0
 91
1
280
0
281
0
  0
CLASS
  1
ACDBPLACEHOLDER
  2
AcDbPlaceHolder
  3
AutoCAD 2000
 90
0
 91
1
280
0
281
0
  0
CLASS
  1
LAYOUT
  2
AcDbLayout
  3
AutoCAD 2000
 90
0
 91
0
280
0
281
0
  0
ENDSEC
  0
SECTION
  2
TABLES
  0
TABLE
  2
VPORT
  5
8
100
AcDbSymbolTable
 70
2
  0
VPORT
  5
1F4
100
AcDbSymbolTableRecord
100
AcDbViewportTableRecord
  2
*ACTIVE
 70
0
 10
0.0
 20
0.0
 11
1.0
 21
1.0
 12
49.3069809654
 22
69.7341587939
 13
0.0
 23
0.0
 14
1.0
 24
1.0
 15
0.0
 25
0.0
 16
0.0
 26
0.0
 36
1.0
 17
0.0
 27
0.0
 37
0.0
 40
139.4683175878
 41
0.7070707071
 42
50.0
 43
0.0
 44
0.0
 50
0.0
 51
0.0
 71
0
 72
100
 73
1
 74
1
 75
0
 76
0
 77
0
 78
0
  0
ENDTAB
  0
TABLE
  2
LTYPE
  5
5
100
AcDbSymbolTable
 70
6
  0
LTYPE
  5
14
100
AcDbSymbolTableRecord
100
AcDbLinetypeTableRecord
  2
BYBLOCK
 70
0
  3

 72
65
 73
0
 40
0.0
  0
LTYPE
  5
15
100
AcDbSymbolTableRecord
100
AcDbLinetypeTableRecord
  2
BYLAYER
 70
0
  3

 72
65
 73
0
 40
0.0
  0
LTYPE
  5
16
100
AcDbSymbolTableRecord
100
AcDbLinetypeTableRecord
  2
CONTINUOUS
 70
64
  3
Solid line
 72
65
 73
0
 40
0.0
  0
LTYPE
  5
1F5
100
AcDbSymbolTableRecord
100
AcDbLinetypeTableRecord
  2
CENTER
 70
64
  3
____ _ ____ _ ____ _ ____ _ ____ _ ____ _ ____
 72
65
 73
4
 40
0.6
 49
0.375
 74
0
 49
-0.075
 74
0
 49
0.075
 74
0
 49
-0.075
 74
0
  0
LTYPE
  5
1F6
100
AcDbSymbolTableRecord
100
AcDbLinetypeTableRecord
  2
HIDDEN
 70
64
  3
- - - - - - - - - - - - - - - - - - - -
 72
65
 73
2
 40
0.2
 49
0.1
 74
0
 49
-0.1
 74
0
  0
LTYPE
  5
1F7
100
AcDbSymbolTableRecord
100
AcDbLinetypeTableRecord
  2
PHANTOM
 70
64
  3
_____ _ _ _____ _ _ _____ _ _ _____
 72
65
 73
6
 40
0.8
 49
0.45
 74
0
 49
-0.05
 74
0
 49
0.1
 74
0
 49
-0.05
 74
0
 49
0.1
 74
0
 49
-0.05
 74
0
  0
LTYPE
  5
1F8
100
AcDbSymbolTableRecord
100
AcDbLinetypeTableRecord
  2
DOT
 70
64
  3
. . . . . . . . . . . . . . . . . . . .
 72
65
 73
2
 40
0.2
 49
0.1
 74
0
 49
-0.1
 74
0
  0
LTYPE
  5
1F9
100
AcDbSymbolTableRecord
100
AcDbLinetypeTableRecord
  2
DASHED
 70
64
  3
- - - - - - - - - - - - - - - - - - - -
 72
65
 73
2
 40
0.2
 49
0.1
 74
0
 49
-0.1
 74
0
  0
ENDTAB
  0
TABLE
  2
LAYER
  5
2
100
AcDbSymbolTable
 70
36
  0
LAYER
  5
10
100
AcDbSymbolTableRecord
100
AcDbLayerTableRecord
  2
0
 70
0
 62
7
  6
CONTINUOUS
370
-3
390
F
  0
LAYER
  5
1FA
100
AcDbSymbolTableRecord
100
AcDbLayerTableRecord
  2
DEFAULT_1
 70
0
 62
7
  6
CENTER
370
-3
390
F
  0
LAYER
  5
1FB
100
AcDbSymbolTableRecord
100
AcDbLayerTableRecord
  2
DEFAULT_2
 70
0
 62
8
  6
HIDDEN
370
-3
390
F
  0
LAYER
  5
1FC
100
AcDbSymbolTableRecord
100
AcDbLayerTableRecord
  2
DEFAULT_3
 70
0
 62
7
  6
PHANTOM
370
-3
390
F
  0
LAYER
  5
1FD
100
AcDbSymbolTableRecord
100
AcDbLayerTableRecord
  2
00_COMPONENTS
 70
0
 62
7
  6
CONTINUOUS
370
-3
390
F
  0
LAYER
  5
1FE
100
AcDbSymbolTableRecord
100
AcDbLayerTableRecord
  2
01_1_DEFAULT_DATUMS
 70
0
 62
7
  6
CONTINUOUS
370
-3
390
F
  0
LAYER
  5
1FF
100
AcDbSymbolTableRecord
100
AcDbLayerTableRecord
  2
01_PLANES
 70
0
 62
7
  6
CONTINUOUS
370
-3
390
F
  0
LAYER
  5
200
100
AcDbSymbolTableRecord
100
AcDbLayerTableRecord
  2
02_COORD_SYS
 70
0
 62
7
  6
CONTINUOUS
370
-3
390
F
  0
LAYER
  5
201
100
AcDbSymbolTableRecord
100
AcDbLayerTableRecord
  2
03_AXES
 70
0
 62
7
  6
CONTINUOUS
370
-3
390
F
  0
LAYER
  5
202
100
AcDbSymbolTableRecord
100
AcDbLayerTableRecord
  2
04_POINTS
 70
0
 62
7
  6
CONTINUOUS
370
-3
390
F
  0
LAYER
  5
203
100
AcDbSymbolTableRecord
100
AcDbLayerTableRecord
  2
05_CURVES
 70
0
 62
7
  6
CONTINUOUS
370
-3
390
F
  0
LAYER
  5
204
100
AcDbSymbolTableRecord
100
AcDbLayerTableRecord
  2
06_SURFS
 70
0
 62
7
  6
CONTINUOUS
370
-3
390
F
  0
LAYER
  5
205
100
AcDbSymbolTableRecord
100
AcDbLayerTableRecord
  2
07_COSMETICS
 70
0
 62
7
  6
CONTINUOUS
370
-3
390
F
  0
LAYER
  5
206
100
AcDbSymbolTableRecord
100
AcDbLayerTableRecord
  2
10_NOTES
 70
0
 62
7
  6
CONTINUOUS
370
-3
390
F
  0
LAYER
  5
207
100
AcDbSymbolTableRecord
100
AcDbLayerTableRecord
  2
11_NOTES_PUB
 70
0
 62
7
  6
CONTINUOUS
370
-3
390
F
  0
LAYER
  5
208
100
AcDbSymbolTableRecord
100
AcDbLayerTableRecord
  2
13_REF_GTOL
 70
0
 62
7
  6
CONTINUOUS
370
-3
390
F
  0
LAYER
  5
209
100
AcDbSymbolTableRecord
100
AcDbLayerTableRecord
  2
16_MISC
 70
0
 62
7
  6
CONTINUOUS
370
-3
390
F
  0
LAYER
  5
20A
100
AcDbSymbolTableRecord
100
AcDbLayerTableRecord
  2
17_NO_PRINT
 70
0
 62
7
  6
CONTINUOUS
370
-3
390
F
  0
LAYER
  5
20B
100
AcDbSymbolTableRecord
100
AcDbLayerTableRecord
  2
18_DATUM_CAMS_JOINTS
 70
0
 62
7
  6
CONTINUOUS
370
-3
390
F
  0
LAYER
  5
20C
100
AcDbSymbolTableRecord
100
AcDbLayerTableRecord
  2
19_DATUM_FUNCTIONAL
 70
0
 62
7
  6
CONTINUOUS
370
-3
390
F
  0
LAYER
  5
20D
100
AcDbSymbolTableRecord
100
AcDbLayerTableRecord
  2
20_DATUM_KINEMATIC_SCHEME
 70
0
 62
7
  6
CONTINUOUS
370
-3
390
F
  0
ENDTAB
  0
TABLE
  2
STYLE
  5
3
100
AcDbSymbolTable
 70
1
  0
STYLE
  5
11
100
AcDbSymbolTableRecord
100
AcDbTextStyleTableRecord
  2
STANDARD
 70
0
 40
0.0
 41
0.8
 50
0.0
 71
0
 42
0.2
  3
txt
  4

  0
STYLE
  5
20E
100
AcDbSymbolTableRecord
100
AcDbTextStyleTableRecord
  2
TEXTSTYLE_1
 70
0
 40
0.0
 41
0.8
 50
0.0
 71
0
 42
0.2
  3
gdt
  4

  0
ENDTAB
  0
TABLE
  2
VIEW
  5
6
100
AcDbSymbolTable
 70
0
  0
ENDTAB
  0
TABLE
  2
UCS
  5
7
100
AcDbSymbolTable
 70
0
  0
ENDTAB
  0
TABLE
  2
APPID
  5
9
100
AcDbSymbolTable
 70
1
  0
APPID
  5
20F
100
AcDbSymbolTableRecord
100
AcDbRegAppTableRecord
  2
ACAD
 70
0
  0
ENDTAB
  0
TABLE
  2
BLOCK_RECORD
  5
1
100
AcDbSymbolTable
 70
0
  0
BLOCK_RECORD
  5
210
100
AcDbSymbolTableRecord
100
AcDbBlockTableRecord
  2
*Model_Space
  0
BLOCK_RECORD
  5
211
100
AcDbSymbolTableRecord
100
AcDbBlockTableRecord
  2
*Paper_Space
  0
BLOCK_RECORD
  5
212
100
AcDbSymbolTableRecord
100
AcDbBlockTableRecord
  2
_FILLED
  0
ENDTAB
  0
TABLE
  2
DIMSTYLE
  5
A
100
AcDbSymbolTable
 70
1
100
AcDbDimStyleTable
 71
0
  0
DIMSTYLE
105
213
100
AcDbSymbolTableRecord
100
AcDbDimStyleTableRecord
  2
STANDARD
 70
0
  3

  4

 40
1.0
 41
1.1739757373
 42
1.0
 43
0.38
 44
1.0
 45
0.0
 46
0.0
 47
0.01
 48
0.01
140
1.6435660322
141
0.09
142
0.0
143
25.4
144
1.0
145
0.0
146
1.0
147
0.625
 71
1
 72
0
 73
0
 74
0
 75
0
 76
0
 77
1
 78
8
 79
2
170
0
171
1
172
0
173
0
174
0
175
0
176
0
177
0
178
0
270
2
179
2
271
2
272
2
273
2
274
2
275
0
280
0
281
0
282
0
283
1
284
8
285
0
286
0
287
3
288
0
340
11
278
46
341
212
342
212
343
212
344
212
  0
ENDTAB
  0
ENDSEC
  0
SECTION
  2
BLOCKS
  0
BLOCK
  5
20
100
AcDbEntity
  8
0
100
AcDbBlockBegin
  2
*Model_Space
 70
0
 10
0.0
 20
0.0
 30
0.0
  3
*Model_Space
  1

  0
ENDBLK
  5
21
100
AcDbEntity
  8
0
100
AcDbBlockEnd
  0
BLOCK
  5
1C
100
AcDbEntity
  8
0
100
AcDbBlockBegin
  2
*Paper_Space
 70
0
 10
0.0
 20
0.0
 30
0.0
  3
*Paper_Space
  1

  0
ENDBLK
  5
1D
100
AcDbEntity
  8
0
100
AcDbBlockEnd
  0
BLOCK
  5
214
100
AcDbEntity
  8
0
100
AcDbBlockBegin
  2
_FILLED
 70
64
 10
0.0
 20
0.0
  3
_FILLED
  1

  0
SOLID
  5
215
100
AcDbEntity
  8
0
  6
BYBLOCK
 62
0
100
AcDbTrace
 10
0.0
 20
0.0
 11
-1.0
 21
0.25
 12
-1.0
 22
-0.25
 13
-1.0
 23
-0.25
  0
ENDBLK
  5
216
100
AcDbEntity
  8
0
  6
BYBLOCK
 62
0
100
AcDbBlockEnd
  0
ENDSEC
  0
SECTION
  2
ENTITIES
  0
LINE
  5
217
100
AcDbEntity
  8
0
100
AcDbLine
 62
7
  6
CONTINUOUS
 10
58.0276825443
 20
10.3278252314
 11
52.2345027506
 21
10.3278252314
  0
LINE
  5
218
100
AcDbEntity
  8
0
100
AcDbLine
 62
7
  6
CONTINUOUS
 10
52.2262493717
 20
10.3278252314
 11
50.0276825443
 21
10.3278252314
  0
LINE
  5
219
100
AcDbEntity
  8
0
100
AcDbLine
 62
7
  6
CONTINUOUS
 10
50.0276825443
 20
14.8278252315
 11
52.2262493717
 21
14.8278252315
  0
LINE
  5
21A
100
AcDbEntity
  8
0
100
AcDbLine
 62
7
  6
CONTINUOUS
 10
55.43447082
 20
14.8278252315
 11
58.0276825443
 21
14.8278252315
  0
LINE
  5
21B
100
AcDbEntity
  8
0
100
AcDbLine
 62
7
  6
CONTINUOUS
 10
38.2276950966
 20
15.3278252315
 11
60.7276825443
 21
15.3278252315
  0
LINE
  5
21C
100
AcDbEntity
  8
0
100
AcDbLine
 62
7
  6
CONTINUOUS
 10
38.2276950966
 20
22.6988913321
 11
60.7276825443
 21
22.6988913321
  0
LINE
  5
21D
100
AcDbEntity
  8
0
100
AcDbLine
 62
7
  6
CONTINUOUS
 10
59.4721084633
 20
25.3724680889
 11
39.4832691776
 21
25.3724680889
  0
LINE
  5
21E
100
AcDbEntity
  8
0
100
AcDbLine
 62
7
  6
CONTINUOUS
 10
59.4721084633
 20
30.7448739374
 11
39.4832691776
 21
30.7448739374
  0
LINE
  5
21F
100
AcDbEntity
  8
0
100
AcDbLine
 62
7
  6
CONTINUOUS
 10
43.0941988025
 20
27.3203602427
 11
40.7585094922
 21
28.7683798397
  0
LINE
  5
220
100
AcDbEntity
  8
0
100
AcDbLine
 62
7
  6
CONTINUOUS
 10
41.6489034795
 20
28.993310452
 11
43.7960139642
 21
27.6622010254
  0
LINE
  5
221
100
AcDbEntity
  8
0
100
AcDbLine
 62
7
  6
CONTINUOUS
 10
48.0646309703
 20
27.3195297344
 11
45.7288791695
 21
28.7675880726
  0
LINE
  5
222
100
AcDbEntity
  8
0
100
AcDbLine
 62
7
  6
CONTINUOUS
 10
46.6192731569
 20
28.9925186851
 11
48.7675270567
 21
27.6607003938
  0
LINE
  5
223
100
AcDbEntity
  8
0
100
AcDbLine
 62
7
  6
CONTINUOUS
 10
41.3462844024
 20
115.7829145204
 11
38.2276950966
 21
111.5679442371
  0
LINE
  5
224
100
AcDbEntity
  8
0
100
AcDbLine
 62
7
  6
CONTINUOUS
 10
53.0292033422
 20
27.3223320291
 11
50.6939290885
 21
28.7700943102
  0
LINE
  5
225
100
AcDbEntity
  8
0
100
AcDbLine
 62
7
  6
CONTINUOUS
 10
51.5843230757
 20
28.9950249226
 11
53.7289573861
 21
27.6654506097
  0
LINE
  5
226
100
AcDbEntity
  8
0
100
AcDbLine
 62
7
  6
CONTINUOUS
 10
57.9997667406
 20
27.3214201637
 11
55.6642987654
 21
28.7693025431
  0
LINE
  5
227
100
AcDbEntity
  8
0
100
AcDbLine
 62
7
  6
CONTINUOUS
 10
56.5546927533
 20
28.9942331556
 11
58.7004726431
 21
27.6639486364
  0
LINE
  5
228
100
AcDbEntity
  8
0
100
AcDbLine
 62
7
  6
CONTINUOUS
 10
39.4832691776
 20
43.9990878697
 11
59.4721084633
 21
43.9990878697
  0
LINE
  5
229
100
AcDbEntity
  8
0
100
AcDbLine
 62
7
  6
CONTINUOUS
 10
39.4832691776
 20
46.7219059819
 11
59.4721084633
 21
46.7219059819
  0
LINE
  5
22A
100
AcDbEntity
  8
0
100
AcDbLine
 62
7
  6
CONTINUOUS
 10
38.2276950966
 20
15.3278252315
 11
38.2276950966
 21
128.3945527715
  0
LINE
  5
22B
100
AcDbEntity
  8
0
100
AcDbLine
 62
7
  6
CONTINUOUS
 10
39.4832691776
 20
25.3724680889
 11
39.4832691776
 21
46.7219059853
  0
LINE
  5
22C
100
AcDbEntity
  8
0
100
AcDbLine
 62
7
  6
CONTINUOUS
 10
40.8071007104
 20
128.3945527715
 11
40.8071007104
 21
129.8233237766
  0
LINE
  5
22D
100
AcDbEntity
  8
0
100
AcDbLine
 62
7
  6
CONTINUOUS
 10
41.3462844
 20
115.7829145206
 11
41.3462844
 21
94.0864859462
  0
LINE
  5
22E
100
AcDbEntity
  8
0
100
AcDbLine
 62
7
  6
CONTINUOUS
 10
57.6090932374
 20
94.0864859429
 11
60.7276825443
 21
98.3014562277
  0
LINE
  5
22F
100
AcDbEntity
  8
0
100
AcDbLine
 62
7
  6
CONTINUOUS
 10
43.0941988028
 20
27.3203602427
 11
43.0941988028
 21
28.0972940417
  0
LINE
  5
230
100
AcDbEntity
  8
0
100
AcDbLine
 62
7
  6
CONTINUOUS
 10
48.063291341
 20
27.3203602428
 11
48.063291341
 21
28.0972940421
  0
LINE
  5
231
100
AcDbEntity
  8
0
100
AcDbLine
 62
7
  6
CONTINUOUS
 10
50.0276825443
 20
14.8278252315
 11
50.0276825443
 21
10.3278252314
  0
LINE
  5
232
100
AcDbEntity
  8
0
100
AcDbLine
 62
7
  6
CONTINUOUS
 10
51.2512497417
 20
10.3278252314
 11
51.2512497417
 21
14.8278252315
  0
LINE
  5
233
100
AcDbEntity
  8
0
100
AcDbLine
 62
7
  6
CONTINUOUS
 10
52.2345027506
 20
10.3278252314
 11
52.2345027506
 21
15.3278252315
  0
LINE
  5
234
100
AcDbEntity
  8
0
100
AcDbLine
 62
7
  6
CONTINUOUS
 10
53.0323838797
 20
27.3203602427
 11
53.0323838797
 21
28.0972940417
  0
LINE
  5
235
100
AcDbEntity
  8
0
100
AcDbLine
 62
7
  6
CONTINUOUS
 10
53.8386134748
 20
10.3278252314
 11
53.8386134748
 21
15.3278252315
  0
LINE
  5
236
100
AcDbEntity
  8
0
100
AcDbLine
 62
7
  6
CONTINUOUS
 10
55.43447082
 20
10.3278252314
 11
55.43447082
 21
15.3278252315
  0
LINE
  5
237
100
AcDbEntity
  8
0
100
AcDbLine
 62
7
  6
CONTINUOUS
 10
56.2512497417
 20
14.8278252315
 11
56.2512497417
 21
10.3278252314
  0
LINE
  5
238
100
AcDbEntity
  8
0
100
AcDbLine
 62
7
  6
CONTINUOUS
 10
57.5898216603
 20
128.3945527715
 11
57.5898216603
 21
129.8233237766
  0
LINE
  5
239
100
AcDbEntity
  8
0
100
AcDbLine
 62
7
  6
CONTINUOUS
 10
57.6090932374
 20
115.7829145205
 11
57.6090932374
 21
94.0864859429
  0
LINE
  5
23A
100
AcDbEntity
  8
0
100
AcDbLine
 62
7
  6
CONTINUOUS
 10
58.0014764184
 20
27.3203602429
 11
58.0014764184
 21
28.097294042
  0
LINE
  5
23B
100
AcDbEntity
  8
0
100
AcDbLine
 62
7
  6
CONTINUOUS
 10
58.0276825443
 20
10.3278252314
 11
58.0276825443
 21
14.8278252315
  0
LINE
  5
23C
100
AcDbEntity
  8
0
100
AcDbLine
 62
7
  6
CONTINUOUS
 10
38.2276950966
 20
98.3014562264
 11
41.3462844024
 21
94.0864859431
  0
LINE
  5
23D
100
AcDbEntity
  8
0
100
AcDbLine
 62
7
  6
CONTINUOUS
 10
59.4721084633
 20
46.7219059819
 11
59.4721084633
 21
25.3724680889
  0
LINE
  5
23E
100
AcDbEntity
  8
0
100
AcDbLine
 62
7
  6
CONTINUOUS
 10
60.7276825443
 20
15.3278252315
 11
60.7276825443
 21
128.3945527715
  0
LINE
  5
23F
100
AcDbEntity
  8
0
100
AcDbLine
 62
7
  6
CONTINUOUS
 10
60.7276825443
 20
94.0864859462
 11
57.6090932393
 21
94.0864859462
  0
LINE
  5
240
100
AcDbEntity
  8
0
100
AcDbLine
 62
7
  6
CONTINUOUS
 10
41.3462844
 20
94.0864859462
 11
38.2276950966
 21
94.0864859462
  0
LINE
  5
241
100
AcDbEntity
  8
0
100
AcDbLine
 62
7
  6
CONTINUOUS
 10
57.6090932373
 20
115.7829145206
 11
60.7276825443
 21
111.5679442357
  0
LINE
  5
242
100
AcDbEntity
  8
0
100
AcDbLine
 62
7
  6
CONTINUOUS
 10
48.063291341
 20
27.3203602427
 11
48.7651065026
 21
27.6622010254
  0
LINE
  5
243
100
AcDbEntity
  8
0
100
AcDbLine
 62
7
  6
CONTINUOUS
 10
60.7276825443
 20
115.7829145206
 11
57.6090932373
 21
115.7829145206
  0
LINE
  5
244
100
AcDbEntity
  8
0
100
AcDbLine
 62
7
  6
CONTINUOUS
 10
41.3462844028
 20
115.7829145206
 11
38.2276950966
 21
115.7829145206
  0
LINE
  5
245
100
AcDbEntity
  8
0
100
AcDbLine
 62
7
  6
CONTINUOUS
 10
38.2276950966
 20
118.7885573246
 11
60.7276825443
 21
118.7885573246
  0
LINE
  5
246
100
AcDbEntity
  8
0
100
AcDbLine
 62
7
  6
CONTINUOUS
 10
60.7276825443
 20
127.2887013089
 11
38.2276950966
 21
127.2887013089
  0
LINE
  5
247
100
AcDbEntity
  8
0
100
AcDbLine
 62
7
  6
CONTINUOUS
 10
38.2276950966
 20
128.3945527715
 11
60.7276825443
 21
128.3945527715
  0
LINE
  5
248
100
AcDbEntity
  8
0
100
AcDbLine
 62
7
  6
CONTINUOUS
 10
57.5898216603
 20
129.8233237766
 11
40.8071007104
 21
129.8233237766
  0
ARC
  5
249
100
AcDbEntity
  8
0
100
AcDbCircle
 62
7
  6
CONTINUOUS
 10
50.6168532068
 20
28.4608375388
 40
0.8989849332
100
AcDbArc
 50
209.4083027576
 51
212.4340143197
  0
ARC
  5
24A
100
AcDbEntity
  8
0
100
AcDbCircle
 62
7
  6
CONTINUOUS
 10
55.5902499636
 20
28.4607743958
 40
0.8988606448
100
AcDbArc
 50
209.3891505301
 51
212.4362083995
  0
ARC
  5
24B
100
AcDbEntity
  8
0
100
AcDbCircle
 62
7
  6
CONTINUOUS
 10
40.6879885563
 20
28.4607009168
 40
0.8987160203
100
AcDbArc
 50
209.3668201578
 51
212.4387918903
  0
ARC
  5
24C
100
AcDbEntity
  8
0
100
AcDbCircle
 62
7
  6
CONTINUOUS
 10
50.5644044539
 20
28.4313641014
 40
0.8388222486
100
AcDbArc
 50
203.5714818879
 51
209.4136539169
  0
ARC
  5
24D
100
AcDbEntity
  8
0
100
AcDbCircle
 62
7
  6
CONTINUOUS
 10
55.5328648947
 20
28.4288558966
 40
0.8331970753
100
AcDbArc
 50
203.5595820696
 51
209.4132375572
  0
ARC
  5
24E
100
AcDbEntity
  8
0
100
AcDbCircle
 62
7
  6
CONTINUOUS
 10
40.6306097022
 20
28.4288033309
 40
0.8330679871
100
AcDbArc
 50
203.5682732394
 51
209.3901947186
  0
ARC
  5
24F
100
AcDbEntity
  8
0
100
AcDbCircle
 62
7
  6
CONTINUOUS
 10
58.5276825443
 20
14.8278252315
 40
0.5
100
AcDbArc
 50
90.0
 51
180.0
  0
ARC
  5
250
100
AcDbEntity
  8
0
100
AcDbCircle
 62
7
  6
CONTINUOUS
 10
49.5276825443
 20
14.8278252315
 40
0.5
100
AcDbArc
 50
0.0
 51
90.0
  0
SPLINE
  5
251
100
AcDbEntity
  8
0
100
AcDbSpline
 62
7
  6
CONTINUOUS
 70
0
 71
3
 72
11
 73
7
 74
0
 42
0.0000001
 43
0.0000001
 44
0.0000000001
 40
0.0
 40
0.0
 40
0.0
 40
0.0
 40
0.2101030718
 40
0.4401038167
 40
0.702074627
 40
1.0
 40
1.0
 40
1.0
 40
1.0
 10
54.7082900759
 20
27.8039120389
 30
0.0
 10
54.7082900759
 20
27.8908859087
 30
0.0
 10
54.7459259816
 20
28.0744665713
 30
0.0
 10
54.9031726089
 20
28.3243888609
 30
0.0
 10
55.148092038
 20
28.5455675583
 30
0.0
 10
55.3497736048
 20
28.6627831428
 30
0.0
 10
55.4608830506
 20
28.7163054781
 30
0.0
  0
SPLINE
  5
252
100
AcDbEntity
  8
0
100
AcDbSpline
 62
7
  6
CONTINUOUS
 70
0
 71
3
 72
17
 73
13
 74
0
 42
0.0000001
 43
0.0000001
 44
0.0000000001
 40
0.0
 40
0.0
 40
0.0
 40
0.0
 40
0.1324173272
 40
0.2768478346
 40
0.4255889308
 40
0.5702453627
 40
0.7030821716
 40
0.8185469296
 40
0.8692751337
 40
0.9157149307
 40
0.9588264562
 40
1.0
 40
1.0
 40
1.0
 40
1.0
 10
55.4608830506
 20
28.7163054781
 30
0.0
 10
55.6292994426
 20
28.7974330416
 30
0.0
 10
56.0017093187
 20
28.9258338425
 30
0.0
 10
56.5973847707
 20
29.0206535655
 30
0.0
 10
57.2179759921
 20
29.0219974262
 30
0.0
 10
57.8153365724
 20
28.9294974451
 30
0.0
 10
58.343491713
 20
28.7505371274
 30
0.0
 10
58.7097865027
 20
28.5298096191
 30
0.0
 10
58.9243856189
 20
28.3179753882
 30
0.0
 10
59.0380749342
 20
28.1541152493
 30
0.0
 10
59.1079163354
 20
27.9815204617
 30
0.0
 10
59.1240063909
 20
27.862038073
 30
0.0
 10
59.1240063909
 20
27.8039120389
 30
0.0
  0
SPLINE
  5
253
100
AcDbEntity
  8
0
100
AcDbSpline
 62
7
  6
CONTINUOUS
 70
0
 71
3
 72
11
 73
7
 74
0
 42
0.0000001
 43
0.0000001
 44
0.0000000001
 40
0.0
 40
0.0
 40
0.0
 40
0.0
 40
0.2100164421
 40
0.4399839642
 40
0.701991528
 40
1.0
 40
1.0
 40
1.0
 40
1.0
 10
49.7347861671
 20
27.8039120389
 30
0.0
 10
49.7347861671
 20
27.891044265
 30
0.0
 10
49.7725700334
 20
28.0749877038
 30
0.0
 10
49.9303867261
 20
28.3253015007
 30
0.0
 10
50.1761289892
 20
28.5467258467
 30
0.0
 10
50.3784422437
 20
28.6639927324
 30
0.0
 10
50.4898953656
 20
28.7175157011
 30
0.0
  0
SPLINE
  5
254
100
AcDbEntity
  8
0
100
AcDbSpline
 62
7
  6
CONTINUOUS
 70
0
 71
3
 72
17
 73
13
 74
0
 42
0.0000001
 43
0.0000001
 44
0.0000000001
 40
0.0
 40
0.0
 40
0.0
 40
0.0
 40
0.1324928758
 40
0.2769593209
 40
0.425700697
 40
0.5703326741
 40
0.7031344426
 40
0.8185677739
 40
0.8692851142
 40
0.9157182915
 40
0.9588269846
 40
1.0
 40
1.0
 40
1.0
 40
1.0
 10
50.4898953656
 20
28.7175157011
 30
0.0
 10
50.6583946314
 20
28.7984338554
 30
0.0
 10
51.0308176952
 20
28.9264536429
 30
0.0
 10
51.6263197869
 20
29.0208250173
 30
0.0
 10
52.2465174869
 20
29.0218229774
 30
0.0
 10
52.8433565947
 20
28.9291070734
 30
0.0
 10
53.3709615899
 20
28.7500669471
 30
0.0
 10
53.736823397
 20
28.529381455
 30
0.0
 10
53.9511470672
 20
28.3176493579
 30
0.0
 10
54.064687789
 20
28.1538817872
 30
0.0
 10
54.1344347293
 20
27.9813978335
 30
0.0
 10
54.1505024821
 20
27.8619991859
 30
0.0
 10
54.1505024821
 20
27.8039120389
 30
0.0
  0
SPLINE
  5
255
100
AcDbEntity
  8
0
100
AcDbSpline
 62
7
  6
CONTINUOUS
 70
0
 71
3
 72
11
 73
7
 74
0
 42
0.0000001
 43
0.0000001
 44
0.0000000001
 40
0.0
 40
0.0
 40
0.0
 40
0.0
 40
0.2102923014
 40
0.4403658691
 40
0.7022565972
 40
1.0
 40
1.0
 40
1.0
 40
1.0
 10
44.7796572582
 20
27.8039120389
 30
0.0
 10
44.7796572582
 20
27.8905405664
 30
0.0
 10
44.8169716865
 20
28.0733304894
 30
0.0
 10
44.9729783257
 20
28.3223974992
 30
0.0
 10
45.2161065957
 20
28.5430377427
 30
0.0
 10
45.4164126018
 20
28.6601390921
 30
0.0
 10
45.5267735625
 20
28.7136584605
 30
0.0
  0
SPLINE
  5
256
100
AcDbEntity
  8
0
100
AcDbSpline
 62
7
  6
CONTINUOUS
 70
0
 71
3
 72
17
 73
13
 74
0
 42
0.0000001
 43
0.0000001
 44
0.0000000001
 40
0.0
 40
0.0
 40
0.0
 40
0.0
 40
0.1322522848
 40
0.2766041467
 40
0.4253444954
 40
0.5700542742
 40
0.7029676359
 40
0.8185011252
 40
0.8692531231
 40
0.9157074484
 40
0.9588252316
 40
1.0
 40
1.0
 40
1.0
 40
1.0
 10
45.5267735625
 20
28.7136584605
 30
0.0
 10
45.6950067889
 20
28.7952428901
 30
0.0
 10
46.067384204
 20
28.9244758479
 30
0.0
 10
46.663433952
 20
29.0202745074
 30
0.0
 10
47.2848811621
 20
29.0223743156
 30
0.0
 10
47.8833782053
 20
28.9303466957
 30
0.0
 10
48.4127333332
 20
28.751561568
 30
0.0
 10
48.7799729909
 20
28.5307430891
 30
0.0
 10
48.9951734125
 20
28.3186863965
 30
0.0
 10
49.1091871394
 20
28.1546244644
 30
0.0
 10
49.179234812
 20
27.9817879684
 30
0.0
 10
49.1953735732
 20
27.8621228953
 30
0.0
 10
49.1953735732
 20
27.8039120389
 30
0.0
  0
SPLINE
  5
257
100
AcDbEntity
  8
0
100
AcDbSpline
 62
7
  6
CONTINUOUS
 70
0
 71
3
 72
11
 73
7
 74
0
 42
0.0000001
 43
0.0000001
 44
0.0000000001
 40
0.0
 40
0.0
 40
0.0
 40
0.0
 40
0.2102047643
 40
0.4402446013
 40
0.702172341
 40
1.0
 40
1.0
 40
1.0
 40
1.0
 10
39.8061533495
 20
27.8039120389
 30
0.0
 10
39.8061533495
 20
27.8907002252
 30
0.0
 10
39.8436162
 20
28.0738556552
 30
0.0
 10
40.0001955642
 20
28.3233183308
 30
0.0
 10
40.2441513651
 20
28.5442079804
 30
0.0
 10
40.4450929765
 20
28.6613625446
 30
0.0
 10
40.5557998061
 20
28.7148835547
 30
0.0
  0
SPLINE
  5
258
100
AcDbEntity
  8
0
100
AcDbSpline
 62
7
  6
CONTINUOUS
 70
0
 71
3
 72
17
 73
13
 74
0
 42
0.0000001
 43
0.0000001
 44
0.0000000001
 40
0.0
 40
0.0
 40
0.0
 40
0.0
 40
0.1323286361
 40
0.2767169038
 40
0.4254576215
 40
0.5701427342
 40
0.7030206807
 40
0.8185223606
 40
0.8692633409
 40
0.9157109337
 40
0.95882581
 40
1.0
 40
1.0
 40
1.0
 40
1.0
 10
40.5557998061
 20
28.7148835547
 30
0.0
 10
40.7241181292
 20
28.7962567337
 30
0.0
 10
41.096511183
 20
28.9251047565
 30
0.0
 10
41.6923885287
 20
29.0204506325
 30
0.0
 10
42.3134403731
 20
29.0222006766
 30
0.0
 10
42.9114121361
 20
28.9299544225
 30
0.0
 10
43.4402124456
 20
28.7510881059
 30
0.0
 10
43.8070151654
 20
28.5303115723
 30
0.0
 10
44.0219374864
 20
28.3183576821
 30
0.0
 10
44.1358011698
 20
28.1543890298
 30
0.0
 10
44.2057534326
 20
27.9816642809
 30
0.0
 10
44.2218696644
 20
27.8620836772
 30
0.0
 10
44.2218696645
 20
27.8039120389
 30
0.0
  0
SPLINE
  5
259
100
AcDbEntity
  8
0
100
AcDbSpline
 62
7
  6
CONTINUOUS
 70
0
 71
3
 72
9
 73
5
 74
0
 42
0.0000001
 43
0.0000001
 44
0.0000000001
 40
0.0
 40
0.0
 40
0.0
 40
0.0
 40
0.2401756823
 40
1.0
 40
1.0
 40
1.0
 40
1.0
 10
44.8179781446
 20
28.153572849
 30
0.0
 10
44.8254466282
 20
28.1317897607
 30
0.0
 10
44.8606998185
 20
28.0425242894
 30
0.0
 10
44.912028353
 20
27.9600113065
 30
0.0
 10
44.956700904
 20
27.90246416
 30
0.0
  0
SPLINE
  5
25A
100
AcDbEntity
  8
0
100
AcDbSpline
 62
7
  6
CONTINUOUS
 70
0
 71
3
 72
9
 73
5
 74
0
 42
0.0000001
 43
0.0000001
 44
0.0000000001
 40
0.0
 40
0.0
 40
0.0
 40
0.0
 40
0.2430872142
 40
1.0
 40
1.0
 40
1.0
 40
1.0
 10
44.956700904
 20
27.90246416
 30
0.0
 10
44.9654083868
 20
27.8912471873
 30
0.0
 10
45.0021594803
 20
27.8458292705
 30
0.0
 10
45.0424655243
 20
27.8033224135
 30
0.0
 10
45.0744648332
 20
27.7728094735
 30
0.0
  0
SPLINE
  5
25B
100
AcDbEntity
  8
0
100
AcDbSpline
 62
7
  6
CONTINUOUS
 70
0
 71
3
 72
13
 73
9
 74
0
 42
0.0000001
 43
0.0000001
 44
0.0000000001
 40
0.0
 40
0.0
 40
0.0
 40
0.0
 40
0.1002847562
 40
0.2123547975
 40
0.3348469008
 40
0.4653377526
 40
0.7370337245
 40
1.0
 40
1.0
 40
1.0
 40
1.0
 10
45.0744648332
 20
27.7728094735
 30
0.0
 10
45.1503921627
 20
27.7004089708
 30
0.0
 10
45.3294280216
 20
27.5659144634
 30
0.0
 10
45.6428768912
 20
27.4067259661
 30
0.0
 10
46.0055458615
 20
27.2833991998
 30
0.0
 10
46.5440537386
 20
27.1715555263
 30
0.0
 10
47.2446542161
 20
27.1442685433
 30
0.0
 10
47.801645422
 20
27.238781189
 30
0.0
 10
48.0646309703
 20
27.3195297344
 30
0.0
  0
SPLINE
  5
25C
100
AcDbEntity
  8
0
100
AcDbSpline
 62
7
  6
CONTINUOUS
 70
0
 71
3
 72
9
 73
5
 74
0
 42
0.0000001
 43
0.0000001
 44
0.0000000001
 40
0.0
 40
0.0
 40
0.0
 40
0.0
 40
0.2625201649
 40
1.0
 40
1.0
 40
1.0
 40
1.0
 10
48.7675270567
 20
27.6607003938
 30
0.0
 10
48.7900902233
 20
27.677598402
 30
0.0
 10
48.8743096873
 20
27.7441927334
 30
0.0
 10
48.9514470786
 20
27.8201235648
 30
0.0
 10
49.0015735424
 20
27.8814298044
 30
0.0
  0
SPLINE
  5
25D
100
AcDbEntity
  8
0
100
AcDbSpline
 62
7
  6
CONTINUOUS
 70
0
 71
3
 72
9
 73
5
 74
0
 42
0.0000001
 43
0.0000001
 44
0.0000000001
 40
0.0
 40
0.0
 40
0.0
 40
0.0
 40
0.2599677554
 40
1.0
 40
1.0
 40
1.0
 40
1.0
 10
49.0015735424
 20
27.8814298044
 30
0.0
 10
49.014605841
 20
27.897368715
 30
0.0
 10
49.0629804922
 20
27.9600720544
 30
0.0
 10
49.1039689648
 20
28.0286455094
 30
0.0
 10
49.1284016381
 20
28.0819179493
 30
0.0
  0
SPLINE
  5
25E
100
AcDbEntity
  8
0
100
AcDbSpline
 62
7
  6
CONTINUOUS
 70
0
 71
3
 72
15
 73
11
 74
0
 42
0.0000001
 43
0.0000001
 44
0.0000000001
 40
0.0
 40
0.0
 40
0.0
 40
0.0
 40
0.0390615426
 40
0.0674533079
 40
0.1031118635
 40
0.1969401071
 40
0.3191089236
 40
0.4660338014
 40
0.6327199718
 40
1.0
 40
1.0
 40
1.0
 40
1.0
 10
56.1591054742
 20
15.3278252315
 30
0.0
 10
56.1658933218
 20
15.3278252315
 30
0.0
 10
56.1767861176
 20
15.3199921633
 30
0.0
 10
56.1867620676
 20
15.3054470025
 30
0.0
 10
56.1992145778
 20
15.2807682124
 30
0.0
 10
56.2124275831
 20
15.2389701704
 30
0.0
 10
56.2258270316
 20
15.1772866429
 30
0.0
 10
56.2367961278
 20
15.1023112663
 30
0.0
 10
56.2481428229
 20
14.984507845
 30
0.0
 10
56.2512497418
 20
14.891648642
 30
0.0
 10
56.2512497418
 20
14.8278252315
 30
0.0
  0
SPLINE
  5
25F
100
AcDbEntity
  8
0
100
AcDbSpline
 62
7
  6
CONTINUOUS
 70
0
 71
3
 72
9
 73
5
 74
0
 42
0.0000001
 43
0.0000001
 44
0.0000000001
 40
0.0
 40
0.0
 40
0.0
 40
0.0
 40
0.2624452273
 40
1.0
 40
1.0
 40
1.0
 40
1.0
 10
53.7289573861
 20
27.6654506097
 30
0.0
 10
53.7512099225
 20
27.6822844026
 30
0.0
 10
53.8342788919
 20
27.7486201112
 30
0.0
 10
53.9102956254
 20
27.8241560205
 30
0.0
 10
53.9596672454
 20
27.8850769737
 30
0.0
  0
SPLINE
  5
260
100
AcDbEntity
  8
0
100
AcDbSpline
 62
7
  6
CONTINUOUS
 70
0
 71
3
 72
9
 73
5
 74
0
 42
0.0000001
 43
0.0000001
 44
0.0000000001
 40
0.0
 40
0.0
 40
0.0
 40
0.0
 40
0.2597713702
 40
1.0
 40
1.0
 40
1.0
 40
1.0
 10
53.9596672454
 20
27.8850769737
 30
0.0
 10
53.9723881182
 20
27.9007735965
 30
0.0
 10
54.0196496106
 20
27.9625417261
 30
0.0
 10
54.0597309658
 20
28.0299636634
 30
0.0
 10
54.083705334
 20
28.0823067486
 30
0.0
  0
SPLINE
  5
261
100
AcDbEntity
  8
0
100
AcDbSpline
 62
7
  6
CONTINUOUS
 70
0
 71
3
 72
15
 73
11
 74
0
 42
0.0000001
 43
0.0000001
 44
0.0000000001
 40
0.0
 40
0.0
 40
0.0
 40
0.0
 40
0.0925963437
 40
0.1987479892
 40
0.3182310256
 40
0.4487423726
 40
0.5866614116
 40
0.7275569054
 40
0.8669286794
 40
1.0
 40
1.0
 40
1.0
 40
1.0
 10
49.8581012239
 20
27.9786867963
 30
0.0
 10
49.9146581962
 20
27.8896297469
 30
0.0
 10
50.0686504036
 20
27.718813256
 30
0.0
 10
50.3701958493
 20
27.5134695903
 30
0.0
 10
50.7430367922
 20
27.3486552524
 30
0.0
 10
51.1706771564
 20
27.2317060986
 30
0.0
 10
51.6338105516
 20
27.1676232244
 30
0.0
 10
52.1113373672
 20
27.1592372227
 30
0.0
 10
52.5808950209
 20
27.2072082818
 30
0.0
 10
52.8844164651
 20
27.2773527255
 30
0.0
 10
53.0292033422
 20
27.3223320291
 30
0.0
  0
SPLINE
  5
262
100
AcDbEntity
  8
0
100
AcDbSpline
 62
7
  6
CONTINUOUS
 70
0
 71
3
 72
9
 73
5
 74
0
 42
0.0000001
 43
0.0000001
 44
0.0000000001
 40
0.0
 40
0.0
 40
0.0
 40
0.0
 40
0.2624714718
 40
1.0
 40
1.0
 40
1.0
 40
1.0
 10
58.7004726431
 20
27.6639486364
 30
0.0
 10
58.7228256554
 20
27.6808041082
 30
0.0
 10
58.8062656728
 20
27.7472270006
 30
0.0
 10
58.8826415854
 20
27.8228962697
 30
0.0
 10
58.9322535722
 20
27.8839458948
 30
0.0
  0
SPLINE
  5
263
100
AcDbEntity
  8
0
100
AcDbSpline
 62
7
  6
CONTINUOUS
 70
0
 71
3
 72
9
 73
5
 74
0
 42
0.0000001
 43
0.0000001
 44
0.0000000001
 40
0.0
 40
0.0
 40
0.0
 40
0.0
 40
0.2598346146
 40
1.0
 40
1.0
 40
1.0
 40
1.0
 10
58.9322535722
 20
27.8839458948
 30
0.0
 10
58.9450742364
 20
27.8997222585
 30
0.0
 10
58.9926921216
 20
27.9617983627
 30
0.0
 10
59.0330621314
 20
28.0295979484
 30
0.0
 10
59.0571809661
 20
28.0822450635
 30
0.0
  0
SPLINE
  5
264
100
AcDbEntity
  8
0
100
AcDbSpline
 62
7
  6
CONTINUOUS
 70
0
 71
3
 72
15
 73
11
 74
0
 42
0.0000001
 43
0.0000001
 44
0.0000000001
 40
0.0
 40
0.0
 40
0.0
 40
0.0
 40
0.0925940707
 40
0.1987312136
 40
0.3181907346
 40
0.4486769923
 40
0.586578665
 40
0.7274741562
 40
0.8668715672
 40
1.0
 40
1.0
 40
1.0
 40
1.0
 10
54.8316213427
 20
27.9786612614
 30
0.0
 10
54.8881287154
 20
27.8896890998
 30
0.0
 10
55.0419427308
 20
27.7190265149
 30
0.0
 10
55.3431176665
 20
27.5138119943
 30
0.0
 10
55.7154939466
 20
27.3490433472
 30
0.0
 10
56.1426235146
 20
27.2320406957
 30
0.0
 10
56.6052565877
 20
27.1677987599
 30
0.0
 10
57.082353077
 20
27.1591506714
 30
0.0
 10
57.5516091646
 20
27.2067673452
 30
0.0
 10
57.8550036977
 20
27.2766086592
 30
0.0
 10
57.9997667406
 20
27.3214201637
 30
0.0
  0
SPLINE
  5
265
100
AcDbEntity
  8
0
100
AcDbSpline
 62
7
  6
CONTINUOUS
 70
0
 71
3
 72
9
 73
5
 74
0
 42
0.0000001
 43
0.0000001
 44
0.0000000001
 40
0.0
 40
0.0
 40
0.0
 40
0.0
 40
0.262501885
 40
1.0
 40
1.0
 40
1.0
 40
1.0
 10
43.7960139642
 20
27.6622010254
 30
0.0
 10
43.8184842442
 20
27.6790815887
 30
0.0
 10
43.9023573225
 20
27.7456054699
 30
0.0
 10
43.9791525697
 20
27.8214296101
 30
0.0
 10
44.02904526
 20
27.8826288948
 30
0.0
  0
SPLINE
  5
266
100
AcDbEntity
  8
0
100
AcDbSpline
 62
7
  6
CONTINUOUS
 70
0
 71
3
 72
9
 73
5
 74
0
 42
0.0000001
 43
0.0000001
 44
0.0000000001
 40
0.0
 40
0.0
 40
0.0
 40
0.0
 40
0.2599082985
 40
1.0
 40
1.0
 40
1.0
 40
1.0
 10
44.02904526
 20
27.8826288948
 30
0.0
 10
44.041982467
 20
27.8984979091
 30
0.0
 10
44.0900164
 20
27.9609317655
 30
0.0
 10
44.1307234463
 20
28.0291707754
 30
0.0
 10
44.155010665
 20
28.0821718426
 30
0.0
  0
SPLINE
  5
267
100
AcDbEntity
  8
0
100
AcDbSpline
 62
7
  6
CONTINUOUS
 70
0
 71
3
 72
21
 73
17
 74
0
 42
0.0000001
 43
0.0000001
 44
0.0000000001
 40
0.0
 40
0.0
 40
0.0
 40
0.0
 40
0.0438874865
 40
0.0913864916
 40
0.1448066979
 40
0.2051435342
 40
0.2721566104
 40
0.3447941717
 40
0.4999890301
 40
0.6551842224
 40
0.7278246047
 40
0.7948421964
 40
0.8551847198
 40
0.9086096003
 40
0.9561118761
 40
1.0
 40
1.0
 40
1.0
 40
1.0
 10
59.1240063909
 20
27.8039120389
 30
0.0
 10
59.1240063909
 20
27.7237952145
 30
0.0
 10
59.0924481393
 20
27.5558104096
 30
0.0
 10
58.9590005
 20
27.3232403099
 30
0.0
 10
58.7486969523
 20
27.1134371562
 30
0.0
 10
58.4710613923
 20
26.9318109415
 30
0.0
 10
58.1360128519
 20
26.7834677396
 30
0.0
 10
57.6176627347
 20
26.6337194656
 30
0.0
 10
56.9162090421
 20
26.5613849895
 30
0.0
 10
56.2147482844
 20
26.6336972563
 30
0.0
 10
55.6963792903
 20
26.7834327533
 30
0.0
 10
55.3613070115
 20
26.9317796324
 30
0.0
 10
55.0836365518
 20
27.1134026402
 30
0.0
 10
54.8733114609
 20
27.3232208014
 30
0.0
 10
54.7398518812
 20
27.5558022146
 30
0.0
 10
54.7082900759
 20
27.723794051
 30
0.0
 10
54.7082900759
 20
27.8039120389
 30
0.0
  0
SPLINE
  5
268
100
AcDbEntity
  8
0
100
AcDbSpline
 62
7
  6
CONTINUOUS
 70
0
 71
3
 72
15
 73
11
 74
0
 42
0.0000001
 43
0.0000001
 44
0.0000000001
 40
0.0
 40
0.0
 40
0.0
 40
0.0
 40
0.0925914952
 40
0.1987118108
 40
0.3181439889
 40
0.4486010428
 40
0.5864824734
 40
0.7273779141
 40
0.8668051151
 40
1.0
 40
1.0
 40
1.0
 40
1.0
 10
39.9295037329
 20
27.9786311523
 30
0.0
 10
39.9859533185
 20
27.8897579611
 30
0.0
 10
40.1395597594
 20
27.7192748602
 30
0.0
 10
40.4403029771
 20
27.5142111192
 30
0.0
 10
40.8121377297
 20
27.3494960735
 30
0.0
 10
41.23867182
 20
27.2324315156
 30
0.0
 10
41.7007213265
 20
27.1680047091
 30
0.0
 10
42.1773154347
 20
27.1590516917
 30
0.0
 10
42.6462187492
 20
27.2062558023
 30
0.0
 10
42.9494642399
 20
27.2757441555
 30
0.0
 10
43.0941988025
 20
27.3203602427
 30
0.0
  0
SPLINE
  5
269
100
AcDbEntity
  8
0
100
AcDbSpline
 62
7
  6
CONTINUOUS
 70
0
 71
3
 72
21
 73
17
 74
0
 42
0.0000001
 43
0.0000001
 44
0.0000000001
 40
0.0
 40
0.0
 40
0.0
 40
0.0
 40
0.0438874865
 40
0.0913864916
 40
0.1448066979
 40
0.2051435342
 40
0.2721566104
 40
0.3447941717
 40
0.4999890301
 40
0.6551842224
 40
0.7278246047
 40
0.7948421964
 40
0.8551847198
 40
0.9086096003
 40
0.9561118761
 40
1.0
 40
1.0
 40
1.0
 40
1.0
 10
54.1505024821
 20
27.8039120389
 30
0.0
 10
54.1505024821
 20
27.7237952145
 30
0.0
 10
54.1189442305
 20
27.5558104096
 30
0.0
 10
53.9854965912
 20
27.3232403099
 30
0.0
 10
53.7751930435
 20
27.1134371562
 30
0.0
 10
53.4975574835
 20
26.9318109415
 30
0.0
 10
53.1625089431
 20
26.7834677396
 30
0.0
 10
52.6441588259
 20
26.6337194656
 30
0.0
 10
51.9427051333
 20
26.5613849895
 30
0.0
 10
51.2412443756
 20
26.6336972563
 30
0.0
 10
50.7228753815
 20
26.7834327533
 30
0.0
 10
50.3878031027
 20
26.9317796324
 30
0.0
 10
50.110132643
 20
27.1134026402
 30
0.0
 10
49.8998075521
 20
27.3232208014
 30
0.0
 10
49.7663479724
 20
27.5558022146
 30
0.0
 10
49.7347861671
 20
27.723794051
 30
0.0
 10
49.7347861671
 20
27.8039120389
 30
0.0
  0
SPLINE
  5
26A
100
AcDbEntity
  8
0
100
AcDbSpline
 62
7
  6
CONTINUOUS
 70
0
 71
3
 72
21
 73
17
 74
0
 42
0.0000001
 43
0.0000001
 44
0.0000000001
 40
0.0
 40
0.0
 40
0.0
 40
0.0
 40
0.0438874865
 40
0.0913864916
 40
0.1448066979
 40
0.2051435342
 40
0.2721566104
 40
0.3447941717
 40
0.4999890301
 40
0.6551842224
 40
0.7278246047
 40
0.7948421964
 40
0.8551847198
 40
0.9086096003
 40
0.9561118761
 40
1.0
 40
1.0
 40
1.0
 40
1.0
 10
49.1953735732
 20
27.8039120389
 30
0.0
 10
49.1953735732
 20
27.7237952145
 30
0.0
 10
49.1638153216
 20
27.5558104096
 30
0.0
 10
49.0303676823
 20
27.3232403099
 30
0.0
 10
48.8200641346
 20
27.1134371562
 30
0.0
 10
48.5424285746
 20
26.9318109415
 30
0.0
 10
48.2073800342
 20
26.7834677396
 30
0.0
 10
47.689029917
 20
26.6337194656
 30
0.0
 10
46.9875762244
 20
26.5613849895
 30
0.0
 10
46.2861154667
 20
26.6336972563
 30
0.0
 10
45.7677464726
 20
26.7834327533
 30
0.0
 10
45.4326741938
 20
26.9317796324
 30
0.0
 10
45.1550037341
 20
27.1134026402
 30
0.0
 10
44.9446786432
 20
27.3232208014
 30
0.0
 10
44.8112190635
 20
27.5558022146
 30
0.0
 10
44.7796572582
 20
27.723794051
 30
0.0
 10
44.7796572582
 20
27.8039120389
 30
0.0
  0
SPLINE
  5
26B
100
AcDbEntity
  8
0
100
AcDbSpline
 62
7
  6
CONTINUOUS
 70
0
 71
3
 72
21
 73
17
 74
0
 42
0.0000001
 43
0.0000001
 44
0.0000000001
 40
0.0
 40
0.0
 40
0.0
 40
0.0
 40
0.0438874865
 40
0.0913864916
 40
0.1448066979
 40
0.2051435342
 40
0.2721566104
 40
0.3447941717
 40
0.4999890301
 40
0.6551842224
 40
0.7278246047
 40
0.7948421964
 40
0.8551847198
 40
0.9086096003
 40
0.9561118761
 40
1.0
 40
1.0
 40
1.0
 40
1.0
 10
44.2218696645
 20
27.8039120389
 30
0.0
 10
44.2218696645
 20
27.7237952145
 30
0.0
 10
44.1903114129
 20
27.5558104096
 30
0.0
 10
44.0568637736
 20
27.3232403099
 30
0.0
 10
43.8465602259
 20
27.1134371562
 30
0.0
 10
43.5689246659
 20
26.9318109415
 30
0.0
 10
43.2338761255
 20
26.7834677396
 30
0.0
 10
42.7155260083
 20
26.6337194656
 30
0.0
 10
42.0140723157
 20
26.5613849895
 30
0.0
 10
41.312611558
 20
26.6336972563
 30
0.0
 10
40.7942425639
 20
26.7834327533
 30
0.0
 10
40.4591702851
 20
26.9317796324
 30
0.0
 10
40.1814998254
 20
27.1134026402
 30
0.0
 10
39.9711747345
 20
27.3232208014
 30
0.0
 10
39.8377151548
 20
27.5558022146
 30
0.0
 10
39.8061533495
 20
27.723794051
 30
0.0
 10
39.8061533495
 20
27.8039120389
 30
0.0
  0
SPLINE
  5
26C
100
AcDbEntity
  8
0
100
AcDbSpline
 62
7
  6
CONTINUOUS
 70
0
 71
3
 72
15
 73
11
 74
0
 42
0.0000001
 43
0.0000001
 44
0.0000000001
 40
0.0
 40
0.0
 40
0.0
 40
0.0
 40
0.3672800282
 40
0.5339661986
 40
0.6808910764
 40
0.8030598929
 40
0.8968881365
 40
0.9325466921
 40
0.9609384574
 40
1.0
 40
1.0
 40
1.0
 40
1.0
 10
51.2512497418
 20
14.8278252315
 30
0.0
 10
51.2512497418
 20
14.891648642
 30
0.0
 10
51.2481428229
 20
14.984507845
 30
0.0
 10
51.2367961278
 20
15.1023112663
 30
0.0
 10
51.2258270316
 20
15.1772866429
 30
0.0
 10
51.2124275831
 20
15.2389701704
 30
0.0
 10
51.1992145778
 20
15.2807682124
 30
0.0
 10
51.1867620676
 20
15.3054470025
 30
0.0
 10
51.1767861176
 20
15.3199921633
 30
0.0
 10
51.1658933218
 20
15.3278252315
 30
0.0
 10
51.1591054742
 20
15.3278252315
 30
0.0
  0
ENDSEC
  0
SECTION
  2
OBJECTS
  0
DICTIONARY
  5
C
100
AcDbDictionary
280
0
281
1
  3
ACAD_GROUP
350
D
  3
ACAD_MLINESTYLE
350
17
  3
ACAD_LAYOUT
350
1A
  3
ACAD_PLOTSETTINGS
350
19
  3
ACAD_PLOTSTYLENAME
350
E
  0
DICTIONARY
  5
D
102
{ACAD_REACTORS
330
C
102
}
100
AcDbDictionary
280
0
281
1
  0
ACDBDICTIONARYWDFLT
  5
E
102
{ACAD_REACTORS
330
C
102
}
100
AcDbDictionary
281
1
  3
Normal
350
F
100
AcDbDictionaryWithDefault
340
F
  0
DICTIONARY
  5
17
102
{ACAD_REACTORS
330
C
102
}
100
AcDbDictionary
280
0
281
1
  3
Standard
350
18
  0
DICTIONARY
  5
19
102
{ACAD_REACTORS
330
C
102
}
100
AcDbDictionary
281
1
  0
DICTIONARY
  5
1A
102
{ACAD_REACTORS
330
C
102
}
100
AcDbDictionary
281
1
  3
Model
350
26D
  3
Layout1
350
26E
  0
ACDBPLACEHOLDER
  5
F
102
{ACAD_REACTORS
330
E
102
}
  0
MLINESTYLE
  5
18
102
{ACAD_REACTORS
330
17
102
}
100
AcDbMlineStyle
  2
STANDARD
 70
0
  3

 62
256
 51
90.0
 52
90.0
 71
2
 49
0.5
 62
256
  6
BYLAYER
 49
-0.5
 62
256
  6
BYLAYER
  0
LAYOUT
  5
26D
102
{ACAD_REACTORS
330
1A
102
}
100
AcDbPlotSettings
  1

  2
none_device
  4

  6

 40
0.0
 41
0.0
 42
0.0
 43
0.0
 44
210.0
 45
297.0
 46
0.0
 47
0.0
 48
0.0
 49
0.0
140
0.0
141
0.0
142
1.0
143
1.0
 70
1024
 72
1
 73
0
 74
0
  7

 75
0
147
1.0
148
0.0
149
0.0
100
AcDbLayout
  1
Model
 70
0
 71
0
 10
0.0
 20
0.0
 11
210.0
 21
297.0
 12
0.0
 22
0.0
 32
0.0
 14
0.0
 24
0.0
 34
0.0
 15
0.0
 25
0.0
 35
0.0
146
0.0
 13
0.0
 23
0.0
 33
0.0
 16
1.0
 26
0.0
 36
0.0
 17
0.0
 27
1.0
 37
0.0
 76
0
330
210
345
0
346
0
  0
LAYOUT
  5
26E
102
{ACAD_REACTORS
330
1A
102
}
100
AcDbPlotSettings
  1

  2
none_device
  4

  6

 40
0.0
 41
0.0
 42
0.0
 43
0.0
 44
210.0
 45
297.0
 46
0.0
 47
0.0
 48
0.0
 49
0.0
140
0.0
141
0.0
142
1.0
143
1.0
 70
0
 72
1
 73
0
 74
0
  7

 75
0
147
1.0
148
0.0
149
0.0
100
AcDbLayout
  1
Layout1
 70
0
 71
1
 10
0.0
 20
0.0
 11
210.0
 21
297.0
 12
0.0
 22
0.0
 32
0.0
 14
0.0
 24
0.0
 34
0.0
 15
0.0
 25
0.0
 35
0.0
146
0.0
 13
0.0
 23
0.0
 33
0.0
 16
1.0
 26
0.0
 36
0.0
 17
0.0
 27
1.0
 37
0.0
 76
0
330
211
345
0
346
0
  0
ENDSEC
  0
EOF
