999
DXF file: C:\Users\sesa63760\Dev\_Creo\CAD\MCADUE0002381_3D-CAD\drw0001_2.dxf
999
Pro/ENGINEER 2019471 by Parametric Technology Corporation
  0
SECTION
  2
HEADER
  9
$ACADVER
  1
AC1024
  9
$DWGCODEPAGE
  3
ANSI_1252
  9
$EXTMAX
 10
255.6526971846
 20
361.5659574468
 30
0.0
  9
$EXTMIN
 10
0.0
 20
0.0
 30
0.0
  9
$LIMMIN
 10
0.0
 20
0.0
  9
$LIMMAX
 10
255.6526971846
 20
361.5659574468
  9
$VIEWCTR
 10
127.8263485923
 20
180.7829787234
  9
$VIEWSIZE
 40
361.5659574468
  9
$CLAYER
  8
0
  9
$LTSCALE
 40
23.5687438928
  9
$CELTYPE
  6
BYLAYER
  9
$DIMSCALE
 40
1.0
  9
$DIMASZ
 40
3.0434844903
  9
$DIMEXO
 40
1.0
  9
$DIMDLI
 40
16.2838594169
  9
$DIMEXE
 40
1.0
  9
$DIMCEN
 40
3.8567035461
  9
$DIMLFAC
 40
1.0
  9
$DIMBLK
  1
_FILLED
  9
$DIMALT
 70
0
  9
$DIMALTF
 40
0.0393700787
  9
$DIMTXT
 40
4.2608782864
  9
$DIMTOL
 70
1
  9
$DIMLIM
 70
0
  9
$DIMTFAC
 40
1.0
  9
$DIMTP
 40
0.01
  9
$DIMTM
 40
0.01
  9
$DIMGAP
 40
0.625
  9
$DIMDSEP
 70
46
  9
$AUNITS
 70
0
  9
$PDMODE
 70
3
  9
$PDSIZE
 40
0.3125
  9
$HANDSEED
  5
23F
  9
$TILEMODE
 70
1
  9
$MEASUREMENT
 70
1
  9
$INSUNITS
 70
4
  0
ENDSEC
  0
SECTION
  2
CLASSES
  0
CLASS
  1
ACDBDICTIONARYWDFLT
  2
AcDbDictionaryWithDefault
  3
AutoCAD 2000
 90
0
 91
1
280
0
281
0
  0
CLASS
  1
ACDBPLACEHOLDER
  2
AcDbPlaceHolder
  3
AutoCAD 2000
 90
0
 91
1
280
0
281
0
  0
CLASS
  1
LAYOUT
  2
AcDbLayout
  3
AutoCAD 2000
 90
0
 91
0
280
0
281
0
  0
ENDSEC
  0
SECTION
  2
TABLES
  0
TABLE
  2
VPORT
  5
8
100
AcDbSymbolTable
 70
2
  0
VPORT
  5
1F4
100
AcDbSymbolTableRecord
100
AcDbViewportTableRecord
  2
*ACTIVE
 70
0
 10
0.0
 20
0.0
 11
1.0
 21
1.0
 12
127.8263485923
 22
180.7829787234
 13
0.0
 23
0.0
 14
1.0
 24
1.0
 15
0.0
 25
0.0
 16
0.0
 26
0.0
 36
1.0
 17
0.0
 27
0.0
 37
0.0
 40
361.5659574468
 41
0.7070707071
 42
50.0
 43
0.0
 44
0.0
 50
0.0
 51
0.0
 71
0
 72
100
 73
1
 74
1
 75
0
 76
0
 77
0
 78
0
  0
ENDTAB
  0
TABLE
  2
LTYPE
  5
5
100
AcDbSymbolTable
 70
6
  0
LTYPE
  5
14
100
AcDbSymbolTableRecord
100
AcDbLinetypeTableRecord
  2
BYBLOCK
 70
0
  3

 72
65
 73
0
 40
0.0
  0
LTYPE
  5
15
100
AcDbSymbolTableRecord
100
AcDbLinetypeTableRecord
  2
BYLAYER
 70
0
  3

 72
65
 73
0
 40
0.0
  0
LTYPE
  5
16
100
AcDbSymbolTableRecord
100
AcDbLinetypeTableRecord
  2
CONTINUOUS
 70
64
  3
Solid line
 72
65
 73
0
 40
0.0
  0
LTYPE
  5
1F5
100
AcDbSymbolTableRecord
100
AcDbLinetypeTableRecord
  2
CENTER
 70
64
  3
____ _ ____ _ ____ _ ____ _ ____ _ ____ _ ____
 72
65
 73
4
 40
0.6
 49
0.375
 74
0
 49
-0.075
 74
0
 49
0.075
 74
0
 49
-0.075
 74
0
  0
LTYPE
  5
1F6
100
AcDbSymbolTableRecord
100
AcDbLinetypeTableRecord
  2
HIDDEN
 70
64
  3
- - - - - - - - - - - - - - - - - - - -
 72
65
 73
2
 40
0.2
 49
0.1
 74
0
 49
-0.1
 74
0
  0
LTYPE
  5
1F7
100
AcDbSymbolTableRecord
100
AcDbLinetypeTableRecord
  2
PHANTOM
 70
64
  3
_____ _ _ _____ _ _ _____ _ _ _____
 72
65
 73
6
 40
0.8
 49
0.45
 74
0
 49
-0.05
 74
0
 49
0.1
 74
0
 49
-0.05
 74
0
 49
0.1
 74
0
 49
-0.05
 74
0
  0
LTYPE
  5
1F8
100
AcDbSymbolTableRecord
100
AcDbLinetypeTableRecord
  2
DOT
 70
64
  3
. . . . . . . . . . . . . . . . . . . .
 72
65
 73
2
 40
0.2
 49
0.1
 74
0
 49
-0.1
 74
0
  0
LTYPE
  5
1F9
100
AcDbSymbolTableRecord
100
AcDbLinetypeTableRecord
  2
DASHED
 70
64
  3
- - - - - - - - - - - - - - - - - - - -
 72
65
 73
2
 40
0.2
 49
0.1
 74
0
 49
-0.1
 74
0
  0
ENDTAB
  0
TABLE
  2
LAYER
  5
2
100
AcDbSymbolTable
 70
36
  0
LAYER
  5
10
100
AcDbSymbolTableRecord
100
AcDbLayerTableRecord
  2
0
 70
0
 62
7
  6
CONTINUOUS
370
-3
390
F
  0
LAYER
  5
1FA
100
AcDbSymbolTableRecord
100
AcDbLayerTableRecord
  2
DEFAULT_1
 70
0
 62
7
  6
CENTER
370
-3
390
F
  0
LAYER
  5
1FB
100
AcDbSymbolTableRecord
100
AcDbLayerTableRecord
  2
DEFAULT_2
 70
0
 62
8
  6
HIDDEN
370
-3
390
F
  0
LAYER
  5
1FC
100
AcDbSymbolTableRecord
100
AcDbLayerTableRecord
  2
DEFAULT_3
 70
0
 62
7
  6
PHANTOM
370
-3
390
F
  0
LAYER
  5
1FD
100
AcDbSymbolTableRecord
100
AcDbLayerTableRecord
  2
00_COMPONENTS
 70
0
 62
7
  6
CONTINUOUS
370
-3
390
F
  0
LAYER
  5
1FE
100
AcDbSymbolTableRecord
100
AcDbLayerTableRecord
  2
01_1_DEFAULT_DATUMS
 70
0
 62
7
  6
CONTINUOUS
370
-3
390
F
  0
LAYER
  5
1FF
100
AcDbSymbolTableRecord
100
AcDbLayerTableRecord
  2
01_PLANES
 70
0
 62
7
  6
CONTINUOUS
370
-3
390
F
  0
LAYER
  5
200
100
AcDbSymbolTableRecord
100
AcDbLayerTableRecord
  2
02_COORD_SYS
 70
0
 62
7
  6
CONTINUOUS
370
-3
390
F
  0
LAYER
  5
201
100
AcDbSymbolTableRecord
100
AcDbLayerTableRecord
  2
03_AXES
 70
0
 62
7
  6
CONTINUOUS
370
-3
390
F
  0
LAYER
  5
202
100
AcDbSymbolTableRecord
100
AcDbLayerTableRecord
  2
04_POINTS
 70
0
 62
7
  6
CONTINUOUS
370
-3
390
F
  0
LAYER
  5
203
100
AcDbSymbolTableRecord
100
AcDbLayerTableRecord
  2
05_CURVES
 70
0
 62
7
  6
CONTINUOUS
370
-3
390
F
  0
LAYER
  5
204
100
AcDbSymbolTableRecord
100
AcDbLayerTableRecord
  2
06_SURFS
 70
0
 62
7
  6
CONTINUOUS
370
-3
390
F
  0
LAYER
  5
205
100
AcDbSymbolTableRecord
100
AcDbLayerTableRecord
  2
07_COSMETICS
 70
0
 62
7
  6
CONTINUOUS
370
-3
390
F
  0
LAYER
  5
206
100
AcDbSymbolTableRecord
100
AcDbLayerTableRecord
  2
10_NOTES
 70
0
 62
7
  6
CONTINUOUS
370
-3
390
F
  0
LAYER
  5
207
100
AcDbSymbolTableRecord
100
AcDbLayerTableRecord
  2
11_NOTES_PUB
 70
0
 62
7
  6
CONTINUOUS
370
-3
390
F
  0
LAYER
  5
208
100
AcDbSymbolTableRecord
100
AcDbLayerTableRecord
  2
13_REF_GTOL
 70
0
 62
7
  6
CONTINUOUS
370
-3
390
F
  0
LAYER
  5
209
100
AcDbSymbolTableRecord
100
AcDbLayerTableRecord
  2
16_MISC
 70
0
 62
7
  6
CONTINUOUS
370
-3
390
F
  0
LAYER
  5
20A
100
AcDbSymbolTableRecord
100
AcDbLayerTableRecord
  2
17_NO_PRINT
 70
0
 62
7
  6
CONTINUOUS
370
-3
390
F
  0
LAYER
  5
20B
100
AcDbSymbolTableRecord
100
AcDbLayerTableRecord
  2
18_DATUM_CAMS_JOINTS
 70
0
 62
7
  6
CONTINUOUS
370
-3
390
F
  0
LAYER
  5
20C
100
AcDbSymbolTableRecord
100
AcDbLayerTableRecord
  2
19_DATUM_FUNCTIONAL
 70
0
 62
7
  6
CONTINUOUS
370
-3
390
F
  0
LAYER
  5
20D
100
AcDbSymbolTableRecord
100
AcDbLayerTableRecord
  2
20_DATUM_KINEMATIC_SCHEME
 70
0
 62
7
  6
CONTINUOUS
370
-3
390
F
  0
ENDTAB
  0
TABLE
  2
STYLE
  5
3
100
AcDbSymbolTable
 70
1
  0
STYLE
  5
11
100
AcDbSymbolTableRecord
100
AcDbTextStyleTableRecord
  2
STANDARD
 70
0
 40
0.0
 41
0.8
 50
0.0
 71
0
 42
0.2
  3
txt
  4

  0
STYLE
  5
20E
100
AcDbSymbolTableRecord
100
AcDbTextStyleTableRecord
  2
TEXTSTYLE_1
 70
0
 40
0.0
 41
0.8
 50
0.0
 71
0
 42
0.2
  3
gdt
  4

  0
ENDTAB
  0
TABLE
  2
VIEW
  5
6
100
AcDbSymbolTable
 70
0
  0
ENDTAB
  0
TABLE
  2
UCS
  5
7
100
AcDbSymbolTable
 70
0
  0
ENDTAB
  0
TABLE
  2
APPID
  5
9
100
AcDbSymbolTable
 70
1
  0
APPID
  5
20F
100
AcDbSymbolTableRecord
100
AcDbRegAppTableRecord
  2
ACAD
 70
0
  0
ENDTAB
  0
TABLE
  2
BLOCK_RECORD
  5
1
100
AcDbSymbolTable
 70
0
  0
BLOCK_RECORD
  5
210
100
AcDbSymbolTableRecord
100
AcDbBlockTableRecord
  2
*Model_Space
  0
BLOCK_RECORD
  5
211
100
AcDbSymbolTableRecord
100
AcDbBlockTableRecord
  2
*Paper_Space
  0
BLOCK_RECORD
  5
212
100
AcDbSymbolTableRecord
100
AcDbBlockTableRecord
  2
_FILLED
  0
ENDTAB
  0
TABLE
  2
DIMSTYLE
  5
A
100
AcDbSymbolTable
 70
1
100
AcDbDimStyleTable
 71
0
  0
DIMSTYLE
105
213
100
AcDbSymbolTableRecord
100
AcDbDimStyleTableRecord
  2
STANDARD
 70
0
  3

  4

 40
1.0
 41
3.0434844903
 42
1.0
 43
0.38
 44
1.0
 45
0.0
 46
0.0
 47
0.01
 48
0.01
140
4.2608782864
141
0.09
142
0.0
143
25.4
144
1.0
145
0.0
146
1.0
147
0.625
 71
1
 72
0
 73
0
 74
0
 75
0
 76
0
 77
1
 78
8
 79
2
170
0
171
1
172
0
173
0
174
0
175
0
176
0
177
0
178
0
270
2
179
2
271
2
272
2
273
2
274
2
275
0
280
0
281
0
282
0
283
1
284
8
285
0
286
0
287
3
288
0
340
11
278
46
341
212
342
212
343
212
344
212
  0
ENDTAB
  0
ENDSEC
  0
SECTION
  2
BLOCKS
  0
BLOCK
  5
20
100
AcDbEntity
  8
0
100
AcDbBlockBegin
  2
*Model_Space
 70
0
 10
0.0
 20
0.0
 30
0.0
  3
*Model_Space
  1

  0
ENDBLK
  5
21
100
AcDbEntity
  8
0
100
AcDbBlockEnd
  0
BLOCK
  5
1C
100
AcDbEntity
  8
0
100
AcDbBlockBegin
  2
*Paper_Space
 70
0
 10
0.0
 20
0.0
 30
0.0
  3
*Paper_Space
  1

  0
ENDBLK
  5
1D
100
AcDbEntity
  8
0
100
AcDbBlockEnd
  0
BLOCK
  5
214
100
AcDbEntity
  8
0
100
AcDbBlockBegin
  2
_FILLED
 70
64
 10
0.0
 20
0.0
  3
_FILLED
  1

  0
SOLID
  5
215
100
AcDbEntity
  8
0
  6
BYBLOCK
 62
0
100
AcDbTrace
 10
0.0
 20
0.0
 11
-1.0
 21
0.25
 12
-1.0
 22
-0.25
 13
-1.0
 23
-0.25
  0
ENDBLK
  5
216
100
AcDbEntity
  8
0
  6
BYBLOCK
 62
0
100
AcDbBlockEnd
  0
ENDSEC
  0
SECTION
  2
ENTITIES
  0
LINE
  5
217
100
AcDbEntity
  8
0
100
AcDbLine
 62
7
  6
CONTINUOUS
 10
120.6758416429
 20
24.1191489362
 11
138.5172795652
 21
24.1191489362
  0
LINE
  5
218
100
AcDbEntity
  8
0
100
AcDbLine
 62
7
  6
CONTINUOUS
 10
119.6233241201
 20
32.6191489362
 11
120.4366783598
 21
32.6191489362
  0
LINE
  5
219
100
AcDbEntity
  8
0
100
AcDbLine
 62
7
  6
CONTINUOUS
 10
138.756449548
 20
32.6191489362
 11
139.569797088
 21
32.6191489362
  0
LINE
  5
21A
100
AcDbEntity
  8
0
100
AcDbLine
 62
7
  6
CONTINUOUS
 10
138.796560604
 20
40.1191489362
 11
120.396560604
 21
40.1191489362
  0
LINE
  5
21B
100
AcDbEntity
  8
0
100
AcDbLine
 62
7
  6
CONTINUOUS
 10
119.6233241202
 20
41.6191489362
 11
120.396560604
 21
41.6191489362
  0
LINE
  5
21C
100
AcDbEntity
  8
0
100
AcDbLine
 62
7
  6
CONTINUOUS
 10
138.796560604
 20
41.6191489362
 11
139.5697970878
 21
41.6191489362
  0
LINE
  5
21D
100
AcDbEntity
  8
0
100
AcDbLine
 62
7
  6
CONTINUOUS
 10
120.4574851314
 20
30.1437290013
 11
120.457975202
 21
30.1156509766
  0
LINE
  5
21E
100
AcDbEntity
  8
0
100
AcDbLine
 62
7
  6
CONTINUOUS
 10
120.396560604
 20
320.1191489362
 11
120.396560604
 21
40.1191489362
  0
LINE
  5
21F
100
AcDbEntity
  8
0
100
AcDbLine
 62
7
  6
CONTINUOUS
 10
120.4579153185
 20
330.1253989795
 11
120.457484979
 21
330.0945579242
  0
LINE
  5
220
100
AcDbEntity
  8
0
100
AcDbLine
 62
7
  6
CONTINUOUS
 10
138.7351609044
 20
330.1229523509
 11
138.7355449196
 21
330.1009524878
  0
LINE
  5
221
100
AcDbEntity
  8
0
100
AcDbLine
 62
7
  6
CONTINUOUS
 10
138.796560604
 20
320.1202837293
 11
138.796560604
 21
40.1180141929
  0
LINE
  5
222
100
AcDbEntity
  8
0
100
AcDbLine
 62
7
  6
CONTINUOUS
 10
138.7355449195
 20
30.1373453833
 11
138.7352077661
 21
30.1131934882
  0
LINE
  5
223
100
AcDbEntity
  8
0
100
AcDbLine
 62
7
  6
CONTINUOUS
 10
119.6233241201
 20
318.6191489362
 11
120.396560604
 21
318.6191489362
  0
LINE
  5
224
100
AcDbEntity
  8
0
100
AcDbLine
 62
7
  6
CONTINUOUS
 10
138.796560604
 20
318.6191489362
 11
139.569797088
 21
318.6191489362
  0
LINE
  5
225
100
AcDbEntity
  8
0
100
AcDbLine
 62
7
  6
CONTINUOUS
 10
120.396560604
 20
320.1191489362
 11
138.796560604
 21
320.1191489362
  0
LINE
  5
226
100
AcDbEntity
  8
0
100
AcDbLine
 62
7
  6
CONTINUOUS
 10
119.6233241202
 20
327.6191489362
 11
120.4366783807
 21
327.6191489362
  0
LINE
  5
227
100
AcDbEntity
  8
0
100
AcDbLine
 62
7
  6
CONTINUOUS
 10
138.7564495481
 20
327.6191489362
 11
139.5697970878
 21
327.6191489362
  0
LINE
  5
228
100
AcDbEntity
  8
0
100
AcDbLine
 62
7
  6
CONTINUOUS
 10
138.5172795652
 20
336.1191489362
 11
120.6758416429
 21
336.1191489362
  0
ARC
  5
229
100
AcDbEntity
  8
0
100
AcDbCircle
 62
7
  6
CONTINUOUS
 10
-704.8226085438
 20
40.0449821765
 40
843.6191723091
100
AcDbArc
 50
359.4831717508
 51
0.0049600892
  0
ARC
  5
22A
100
AcDbEntity
  8
0
100
AcDbCircle
 62
7
  6
CONTINUOUS
 10
964.0094570316
 20
40.0446287487
 40
843.612899619
100
AcDbArc
 50
179.9950162831
 51
180.5168243414
  0
ARC
  5
22B
100
AcDbEntity
  8
0
100
AcDbCircle
 62
7
  6
CONTINUOUS
 10
-651.074035527
 20
320.4334063897
 40
789.8706581955
100
AcDbArc
 50
359.9772866517
 51
0.5345815111
  0
ARC
  5
22C
100
AcDbEntity
  8
0
100
AcDbCircle
 62
7
  6
CONTINUOUS
 10
910.1997624063
 20
320.4340198878
 40
789.8032641131
100
AcDbArc
 50
179.4653999812
 51
180.0227593504
  0
ARC
  5
22D
100
AcDbEntity
  8
0
100
AcDbCircle
 62
7
  6
CONTINUOUS
 10
664.1278359372
 20
37.6026718786
 40
543.7215152762
100
AcDbArc
 50
180.5445515682
 51
180.7860261919
  0
ARC
  5
22E
100
AcDbEntity
  8
0
100
AcDbCircle
 62
7
  6
CONTINUOUS
 10
-404.7856358764
 20
37.6010487282
 40
543.5724246514
100
AcDbArc
 50
359.2132563749
 51
359.4554953914
  0
ARC
  5
22F
100
AcDbEntity
  8
0
100
AcDbCircle
 62
7
  6
CONTINUOUS
 10
633.3623066726
 20
322.9928756398
 40
512.9539842986
100
AcDbArc
 50
179.20673309
 51
179.4626903647
  0
ARC
  5
230
100
AcDbEntity
  8
0
100
AcDbCircle
 62
7
  6
CONTINUOUS
 10
-373.9252038077
 20
322.9957811664
 40
512.7099830753
100
AcDbArc
 50
0.5372138406
 51
0.7940343941
  0
SPLINE
  5
231
100
AcDbEntity
  8
0
100
AcDbSpline
 62
7
  6
CONTINUOUS
 70
0
 71
3
 72
35
 73
31
 74
0
 42
0.0000001
 43
0.0000001
 44
0.0000000001
 40
0.0
 40
0.0
 40
0.0
 40
0.0
 40
0.0007395128
 40
0.0025954577
 40
0.0056260572
 40
0.0098343205
 40
0.0217644425
 40
0.0383062364
 40
0.0592821423
 40
0.0844948802
 40
0.1137167682
 40
0.1466486626
 40
0.2223718485
 40
0.3087584144
 40
0.4025009255
 40
0.4999861857
 40
0.5974712292
 40
0.6912150577
 40
0.7776057564
 40
0.8533350104
 40
0.8862712073
 40
0.9154967389
 40
0.9407119105
 40
0.9616905136
 40
0.9782341837
 40
0.9901650967
 40
0.9943736245
 40
0.9974044075
 40
0.9992604581
 40
1.0
 40
1.0
 40
1.0
 40
1.0
 10
139.569797088
 20
41.6190793515
 30
0.0
 10
139.5720170895
 20
41.6190793515
 30
0.0
 10
139.5750998766
 20
41.6090399987
 30
0.0
 10
139.5782484731
 20
41.5948218213
 30
0.0
 10
139.5819401939
 20
41.5664620914
 30
0.0
 10
139.5874209397
 20
41.5099483158
 30
0.0
 10
139.5937571456
 20
41.4114604639
 30
0.0
 10
139.6007230594
 20
41.2634542997
 30
0.0
 10
139.6074914481
 20
41.0751525208
 30
0.0
 10
139.6139676821
 20
40.8489002674
 30
0.0
 10
139.6200531619
 20
40.5866850895
 30
0.0
 10
139.6279385339
 20
40.1728606838
 30
0.0
 10
139.6360496489
 20
39.5873993943
 30
0.0
 10
139.6430533261
 20
38.8193674607
 30
0.0
 10
139.6473733994
 20
37.9859840634
 30
0.0
 10
139.6488348753
 20
37.1192740443
 30
0.0
 10
139.6473739623
 20
36.2525600701
 30
0.0
 10
139.6430551136
 20
35.4191609557
 30
0.0
 10
139.6360519089
 20
34.6510944374
 30
0.0
 10
139.6279405303
 20
34.0655896092
 30
0.0
 10
139.6200553314
 20
33.6517231241
 30
0.0
 10
139.6139698726
 20
33.3894767737
 30
0.0
 10
139.6074929326
 20
33.1631981956
 30
0.0
 10
139.6007242562
 20
32.9748753584
 30
0.0
 10
139.5937579944
 20
32.8268531384
 30
0.0
 10
139.5874212259
 20
32.7283564192
 30
0.0
 10
139.5819402814
 20
32.6718390257
 30
0.0
 10
139.578248561
 20
32.6434774621
 30
0.0
 10
139.5750998282
 20
32.6292586066
 30
0.0
 10
139.5720171769
 20
32.6192185208
 30
0.0
 10
139.569797088
 20
32.6192185208
 30
0.0
  0
SPLINE
  5
232
100
AcDbEntity
  8
0
100
AcDbSpline
 62
7
  6
CONTINUOUS
 70
0
 71
3
 72
9
 73
5
 74
0
 42
0.0000001
 43
0.0000001
 44
0.0000000001
 40
0.0
 40
0.0
 40
0.0
 40
0.0
 40
0.2999243644
 40
1.0
 40
1.0
 40
1.0
 40
1.0
 10
138.7352077661
 20
30.1131934882
 30
0.0
 10
138.7291138708
 20
29.6775264366
 30
0.0
 10
138.7062371554
 20
28.2249915089
 30
0.0
 10
138.6764742545
 20
26.7724458516
 30
0.0
 10
138.6403405031
 20
25.7560657976
 30
0.0
  0
SPLINE
  5
233
100
AcDbEntity
  8
0
100
AcDbSpline
 62
7
  6
CONTINUOUS
 70
0
 71
3
 72
16
 73
12
 74
0
 42
0.0000001
 43
0.0000001
 44
0.0000000001
 40
0.0
 40
0.0
 40
0.0
 40
0.0
 40
0.2300224282
 40
0.4309526585
 40
0.6022006157
 40
0.7431837947
 40
0.8533951814
 40
0.9326409647
 40
0.9809494015
 40
0.9937562097
 40
1.0
 40
1.0
 40
1.0
 40
1.0
 10
138.6403405031
 20
25.7560657976
 30
0.0
 10
138.6358538343
 20
25.6298635508
 30
0.0
 10
138.6268844694
 20
25.3934338883
 30
0.0
 10
138.6122407142
 20
25.0631709711
 30
0.0
 10
138.5973236094
 20
24.7817710816
 30
0.0
 10
138.5823774485
 20
24.5505088278
 30
0.0
 10
138.5671338511
 20
24.3692452623
 30
0.0
 10
138.5528560212
 20
24.2405699562
 30
0.0
 10
138.5388279979
 20
24.1627384074
 30
0.0
 10
138.5283613524
 20
24.1291868764
 30
0.0
 10
138.5206875636
 20
24.1191489362
 30
0.0
 10
138.517259732
 20
24.1191489362
 30
0.0
  0
SPLINE
  5
234
100
AcDbEntity
  8
0
100
AcDbSpline
 62
7
  6
CONTINUOUS
 70
0
 71
3
 72
16
 73
12
 74
0
 42
0.0000001
 43
0.0000001
 44
0.0000000001
 40
0.0
 40
0.0
 40
0.0
 40
0.0
 40
0.0062437903
 40
0.0190505984
 40
0.0673590348
 40
0.1466048177
 40
0.2568162041
 40
0.3977993829
 40
0.5690473402
 40
0.769977571
 40
1.0
 40
1.0
 40
1.0
 40
1.0
 10
138.5172597311
 20
336.1191489362
 30
0.0
 10
138.5206875628
 20
336.1191489362
 30
0.0
 10
138.5283613515
 20
336.1091109961
 30
0.0
 10
138.5388279972
 20
336.0755594653
 30
0.0
 10
138.5528560206
 20
335.9977279171
 30
0.0
 10
138.5671338506
 20
335.8690526116
 30
0.0
 10
138.5823774481
 20
335.6877890466
 30
0.0
 10
138.597323609
 20
335.456526793
 30
0.0
 10
138.6122407139
 20
335.1751269033
 30
0.0
 10
138.6268844693
 20
334.8448639854
 30
0.0
 10
138.6358538342
 20
334.6084343221
 30
0.0
 10
138.640340503
 20
334.4822320749
 30
0.0
  0
SPLINE
  5
235
100
AcDbEntity
  8
0
100
AcDbSpline
 62
7
  6
CONTINUOUS
 70
0
 71
3
 72
9
 73
5
 74
0
 42
0.0000001
 43
0.0000001
 44
0.0000000001
 40
0.0
 40
0.0
 40
0.0
 40
0.0
 40
0.1970712876
 40
1.0
 40
1.0
 40
1.0
 40
1.0
 10
138.640340503
 20
334.4822320749
 30
0.0
 10
138.6505121806
 20
334.1961203428
 30
0.0
 10
138.6943776669
 20
332.7440299194
 30
0.0
 10
138.7188937318
 20
331.291433451
 30
0.0
 10
138.7352077661
 20
330.1251043818
 30
0.0
  0
SPLINE
  5
236
100
AcDbEntity
  8
0
100
AcDbSpline
 62
7
  6
CONTINUOUS
 70
0
 71
3
 72
16
 73
12
 74
0
 42
0.0000001
 43
0.0000001
 44
0.0000000001
 40
0.0
 40
0.0
 40
0.0
 40
0.0
 40
0.0062448838
 40
0.0190535379
 40
0.0673676979
 40
0.1466206469
 40
0.2568389371
 40
0.3978238622
 40
0.569067011
 40
0.7699882908
 40
1.0
 40
1.0
 40
1.0
 40
1.0
 10
120.6758615686
 20
336.1191489362
 30
0.0
 10
120.6724346573
 20
336.1191489362
 30
0.0
 10
120.6647628487
 20
336.1091142082
 30
0.0
 10
120.6542989133
 20
336.0755732273
 30
0.0
 10
120.6402747441
 20
335.9977683761
 30
0.0
 10
120.6260006903
 20
335.8691394729
 30
0.0
 10
120.6107614398
 20
335.6879478357
 30
0.0
 10
120.5958188752
 20
335.4567862259
 30
0.0
 10
120.5809049918
 20
335.1755179482
 30
0.0
 10
120.5662641529
 20
334.8454151235
 30
0.0
 10
120.5572964449
 20
334.6091012235
 30
0.0
 10
120.5528105623
 20
334.4829608844
 30
0.0
  0
SPLINE
  5
237
100
AcDbEntity
  8
0
100
AcDbSpline
 62
7
  6
CONTINUOUS
 70
0
 71
3
 72
9
 73
5
 74
0
 42
0.0000001
 43
0.0000001
 44
0.0000000001
 40
0.0
 40
0.0
 40
0.0
 40
0.0
 40
0.1970516139
 40
1.0
 40
1.0
 40
1.0
 40
1.0
 10
120.5528105623
 20
334.4829608844
 30
0.0
 10
120.5426356808
 20
334.1968492899
 30
0.0
 10
120.4987536374
 20
332.7446143596
 30
0.0
 10
120.4742330612
 20
331.291872956
 30
0.0
 10
120.4579153185
 20
330.1253989795
 30
0.0
  0
SPLINE
  5
238
100
AcDbEntity
  8
0
100
AcDbSpline
 62
7
  6
CONTINUOUS
 70
0
 71
3
 72
9
 73
5
 74
0
 42
0.0000001
 43
0.0000001
 44
0.0000000001
 40
0.0
 40
0.0
 40
0.0
 40
0.0
 40
0.2999443282
 40
1.0
 40
1.0
 40
1.0
 40
1.0
 10
120.4579153034
 20
30.1128999745
 30
0.0
 10
120.4640108377
 20
29.677160564
 30
0.0
 10
120.4868928968
 20
28.2244811217
 30
0.0
 10
120.5166628128
 20
26.771790846
 30
0.0
 10
120.5528104902
 20
25.7553390136
 30
0.0
  0
SPLINE
  5
239
100
AcDbEntity
  8
0
100
AcDbSpline
 62
7
  6
CONTINUOUS
 70
0
 71
3
 72
16
 73
12
 74
0
 42
0.0000001
 43
0.0000001
 44
0.0000000001
 40
0.0
 40
0.0
 40
0.0
 40
0.0
 40
0.2300116961
 40
0.4309329724
 40
0.6021761224
 40
0.7431610485
 40
0.8533793407
 40
0.9326322962
 40
0.9809464626
 40
0.9937551179
 40
1.0
 40
1.0
 40
1.0
 40
1.0
 10
120.5528104902
 20
25.7553390136
 30
0.0
 10
120.5572963748
 20
25.6291985264
 30
0.0
 10
120.5662640871
 20
25.3928843445
 30
0.0
 10
120.5809049332
 20
25.0627811217
 30
0.0
 10
120.5958188245
 20
24.7815124981
 30
0.0
 10
120.6107613979
 20
24.5503506014
 30
0.0
 10
120.6260006586
 20
24.3691587344
 30
0.0
 10
120.6402747209
 20
24.240529666
 30
0.0
 10
120.6542988995
 20
24.1627247059
 30
0.0
 10
120.6647628399
 20
24.1291836825
 30
0.0
 10
120.6724346529
 20
24.1191489362
 30
0.0
 10
120.6758615675
 20
24.1191489362
 30
0.0
  0
SPLINE
  5
23A
100
AcDbEntity
  8
0
100
AcDbSpline
 62
7
  6
CONTINUOUS
 70
0
 71
3
 72
35
 73
31
 74
0
 42
0.0000001
 43
0.0000001
 44
0.0000000001
 40
0.0
 40
0.0
 40
0.0
 40
0.0
 40
0.0007397033
 40
0.0025962689
 40
0.0056278008
 40
0.0098372029
 40
0.0217698055
 40
0.038312854
 40
0.0592887232
 40
0.0845011494
 40
0.1137222452
 40
0.1466529158
 40
0.2223739559
 40
0.3087586654
 40
0.4025002601
 40
0.4999865884
 40
0.5974726723
 40
0.6912156006
 40
0.7776044538
 40
0.8533315038
 40
0.886266404
 40
0.9154910814
 40
0.9407058099
 40
0.9616842076
 40
0.9782290201
 40
0.990162333
 40
0.9943719553
 40
0.997403632
 40
0.9992602763
 40
1.0
 40
1.0
 40
1.0
 40
1.0
 10
119.6233241201
 20
41.6190793516
 30
0.0
 10
119.621103547
 20
41.6190793516
 30
0.0
 10
119.6180218807
 20
41.6090353476
 30
0.0
 10
119.6148726223
 20
41.594813646
 30
0.0
 10
119.6111815147
 20
41.5664447832
 30
0.0
 10
119.6057009009
 20
41.5099177812
 30
0.0
 10
119.599365612
 20
41.4114149172
 30
0.0
 10
119.5923995357
 20
41.2633977937
 30
0.0
 10
119.5856309422
 20
41.0750932997
 30
0.0
 10
119.5791545987
 20
40.8488445264
 30
0.0
 10
119.5730688022
 20
40.5866363894
 30
0.0
 10
119.565182823
 20
40.1728245666
 30
0.0
 10
119.557071089
 20
39.5873790792
 30
0.0
 10
119.5500665522
 20
38.8193620574
 30
0.0
 10
119.545745845
 20
37.9859839291
 30
0.0
 10
119.5442842417
 20
37.119270486
 30
0.0
 10
119.5457452692
 20
36.2525530396
 30
0.0
 10
119.5500647438
 20
35.4191591961
 30
0.0
 10
119.5570688069
 20
34.6511076831
 30
0.0
 10
119.5651808075
 20
34.0656190176
 30
0.0
 10
119.5730666565
 20
33.6517656959
 30
0.0
 10
119.5791524369
 20
33.3895271864
 30
0.0
 10
119.5856294987
 20
33.1632531755
 30
0.0
 10
119.5923984081
 20
32.974928865
 30
0.0
 10
119.5993648192
 20
32.8268967655
 30
0.0
 10
119.6057006407
 20
32.7283857589
 30
0.0
 10
119.6111814343
 20
32.6718556109
 30
0.0
 10
119.6148725544
 20
32.6434852871
 30
0.0
 10
119.618021909
 20
32.6292630552
 30
0.0
 10
119.6211034857
 20
32.6192185208
 30
0.0
 10
119.6233241201
 20
32.6192185208
 30
0.0
  0
SPLINE
  5
23B
100
AcDbEntity
  8
0
100
AcDbSpline
 62
7
  6
CONTINUOUS
 70
0
 71
3
 72
35
 73
31
 74
0
 42
0.0000001
 43
0.0000001
 44
0.0000000001
 40
0.0
 40
0.0
 40
0.0
 40
0.0
 40
0.0007395128
 40
0.0025954577
 40
0.0056260572
 40
0.0098343205
 40
0.0217644425
 40
0.0383062364
 40
0.0592821423
 40
0.0844948802
 40
0.1137167682
 40
0.1466486626
 40
0.2223718485
 40
0.3087584144
 40
0.4025009255
 40
0.4999861857
 40
0.5974712292
 40
0.6912150577
 40
0.7776057564
 40
0.8533350104
 40
0.8862712073
 40
0.9154967389
 40
0.9407119105
 40
0.9616905136
 40
0.9782341837
 40
0.9901650967
 40
0.9943736245
 40
0.9974044075
 40
0.9992604581
 40
1.0
 40
1.0
 40
1.0
 40
1.0
 10
139.569797088
 20
327.6190793515
 30
0.0
 10
139.5720170895
 20
327.6190793515
 30
0.0
 10
139.5750998766
 20
327.6090399987
 30
0.0
 10
139.5782484731
 20
327.5948218213
 30
0.0
 10
139.5819401939
 20
327.5664620914
 30
0.0
 10
139.5874209397
 20
327.5099483158
 30
0.0
 10
139.5937571456
 20
327.4114604639
 30
0.0
 10
139.6007230594
 20
327.2634542997
 30
0.0
 10
139.6074914481
 20
327.0751525208
 30
0.0
 10
139.6139676821
 20
326.8489002674
 30
0.0
 10
139.6200531619
 20
326.5866850895
 30
0.0
 10
139.6279385339
 20
326.1728606838
 30
0.0
 10
139.6360496489
 20
325.5873993943
 30
0.0
 10
139.6430533261
 20
324.8193674607
 30
0.0
 10
139.6473733994
 20
323.9859840634
 30
0.0
 10
139.6488348753
 20
323.1192740443
 30
0.0
 10
139.6473739623
 20
322.2525600701
 30
0.0
 10
139.6430551136
 20
321.4191609557
 30
0.0
 10
139.6360519089
 20
320.6510944374
 30
0.0
 10
139.6279405303
 20
320.0655896092
 30
0.0
 10
139.6200553314
 20
319.6517231241
 30
0.0
 10
139.6139698726
 20
319.3894767737
 30
0.0
 10
139.6074929326
 20
319.1631981956
 30
0.0
 10
139.6007242562
 20
318.9748753584
 30
0.0
 10
139.5937579944
 20
318.8268531384
 30
0.0
 10
139.5874212259
 20
318.7283564192
 30
0.0
 10
139.5819402814
 20
318.6718390257
 30
0.0
 10
139.578248561
 20
318.6434774621
 30
0.0
 10
139.5750998282
 20
318.6292586066
 30
0.0
 10
139.5720171769
 20
318.6192185208
 30
0.0
 10
139.569797088
 20
318.6192185208
 30
0.0
  0
SPLINE
  5
23C
100
AcDbEntity
  8
0
100
AcDbSpline
 62
7
  6
CONTINUOUS
 70
0
 71
3
 72
35
 73
31
 74
0
 42
0.0000001
 43
0.0000001
 44
0.0000000001
 40
0.0
 40
0.0
 40
0.0
 40
0.0
 40
0.0007397033
 40
0.0025962689
 40
0.0056278008
 40
0.0098372029
 40
0.0217698055
 40
0.038312854
 40
0.0592887232
 40
0.0845011494
 40
0.1137222452
 40
0.1466529158
 40
0.2223739559
 40
0.3087586654
 40
0.4025002601
 40
0.4999865884
 40
0.5974726723
 40
0.6912156006
 40
0.7776044538
 40
0.8533315038
 40
0.886266404
 40
0.9154910814
 40
0.9407058099
 40
0.9616842076
 40
0.9782290201
 40
0.990162333
 40
0.9943719553
 40
0.997403632
 40
0.9992602763
 40
1.0
 40
1.0
 40
1.0
 40
1.0
 10
119.6233241201
 20
327.6190793516
 30
0.0
 10
119.621103547
 20
327.6190793516
 30
0.0
 10
119.6180218807
 20
327.6090353476
 30
0.0
 10
119.6148726223
 20
327.594813646
 30
0.0
 10
119.6111815147
 20
327.5664447832
 30
0.0
 10
119.6057009009
 20
327.5099177812
 30
0.0
 10
119.599365612
 20
327.4114149172
 30
0.0
 10
119.5923995357
 20
327.2633977937
 30
0.0
 10
119.5856309422
 20
327.0750932997
 30
0.0
 10
119.5791545987
 20
326.8488445264
 30
0.0
 10
119.5730688022
 20
326.5866363894
 30
0.0
 10
119.565182823
 20
326.1728245666
 30
0.0
 10
119.557071089
 20
325.5873790792
 30
0.0
 10
119.5500665522
 20
324.8193620574
 30
0.0
 10
119.545745845
 20
323.9859839291
 30
0.0
 10
119.5442842417
 20
323.119270486
 30
0.0
 10
119.5457452692
 20
322.2525530396
 30
0.0
 10
119.5500647438
 20
321.4191591961
 30
0.0
 10
119.5570688069
 20
320.6511076831
 30
0.0
 10
119.5651808075
 20
320.0656190176
 30
0.0
 10
119.5730666565
 20
319.6517656959
 30
0.0
 10
119.5791524369
 20
319.3895271864
 30
0.0
 10
119.5856294987
 20
319.1632531755
 30
0.0
 10
119.5923984081
 20
318.974928865
 30
0.0
 10
119.5993648192
 20
318.8268967655
 30
0.0
 10
119.6057006407
 20
318.7283857589
 30
0.0
 10
119.6111814343
 20
318.6718556109
 30
0.0
 10
119.6148725544
 20
318.6434852871
 30
0.0
 10
119.618021909
 20
318.6292630552
 30
0.0
 10
119.6211034857
 20
318.6192185208
 30
0.0
 10
119.6233241201
 20
318.6192185208
 30
0.0
  0
ENDSEC
  0
SECTION
  2
OBJECTS
  0
DICTIONARY
  5
C
100
AcDbDictionary
280
0
281
1
  3
ACAD_GROUP
350
D
  3
ACAD_MLINESTYLE
350
17
  3
ACAD_LAYOUT
350
1A
  3
ACAD_PLOTSETTINGS
350
19
  3
ACAD_PLOTSTYLENAME
350
E
  0
DICTIONARY
  5
D
102
{ACAD_REACTORS
330
C
102
}
100
AcDbDictionary
280
0
281
1
  0
ACDBDICTIONARYWDFLT
  5
E
102
{ACAD_REACTORS
330
C
102
}
100
AcDbDictionary
281
1
  3
Normal
350
F
100
AcDbDictionaryWithDefault
340
F
  0
DICTIONARY
  5
17
102
{ACAD_REACTORS
330
C
102
}
100
AcDbDictionary
280
0
281
1
  3
Standard
350
18
  0
DICTIONARY
  5
19
102
{ACAD_REACTORS
330
C
102
}
100
AcDbDictionary
281
1
  0
DICTIONARY
  5
1A
102
{ACAD_REACTORS
330
C
102
}
100
AcDbDictionary
281
1
  3
Model
350
23D
  3
Layout1
350
23E
  0
ACDBPLACEHOLDER
  5
F
102
{ACAD_REACTORS
330
E
102
}
  0
MLINESTYLE
  5
18
102
{ACAD_REACTORS
330
17
102
}
100
AcDbMlineStyle
  2
STANDARD
 70
0
  3

 62
256
 51
90.0
 52
90.0
 71
2
 49
0.5
 62
256
  6
BYLAYER
 49
-0.5
 62
256
  6
BYLAYER
  0
LAYOUT
  5
23D
102
{ACAD_REACTORS
330
1A
102
}
100
AcDbPlotSettings
  1

  2
none_device
  4

  6

 40
0.0
 41
0.0
 42
0.0
 43
0.0
 44
210.0
 45
297.0
 46
0.0
 47
0.0
 48
0.0
 49
0.0
140
0.0
141
0.0
142
1.0
143
1.0
 70
1024
 72
1
 73
0
 74
0
  7

 75
0
147
1.0
148
0.0
149
0.0
100
AcDbLayout
  1
Model
 70
0
 71
0
 10
0.0
 20
0.0
 11
210.0
 21
297.0
 12
0.0
 22
0.0
 32
0.0
 14
0.0
 24
0.0
 34
0.0
 15
0.0
 25
0.0
 35
0.0
146
0.0
 13
0.0
 23
0.0
 33
0.0
 16
1.0
 26
0.0
 36
0.0
 17
0.0
 27
1.0
 37
0.0
 76
0
330
210
345
0
346
0
  0
LAYOUT
  5
23E
102
{ACAD_REACTORS
330
1A
102
}
100
AcDbPlotSettings
  1

  2
none_device
  4

  6

 40
0.0
 41
0.0
 42
0.0
 43
0.0
 44
210.0
 45
297.0
 46
0.0
 47
0.0
 48
0.0
 49
0.0
140
0.0
141
0.0
142
1.0
143
1.0
 70
0
 72
1
 73
0
 74
0
  7

 75
0
147
1.0
148
0.0
149
0.0
100
AcDbLayout
  1
Layout1
 70
0
 71
1
 10
0.0
 20
0.0
 11
210.0
 21
297.0
 12
0.0
 22
0.0
 32
0.0
 14
0.0
 24
0.0
 34
0.0
 15
0.0
 25
0.0
 35
0.0
146
0.0
 13
0.0
 23
0.0
 33
0.0
 16
1.0
 26
0.0
 36
0.0
 17
0.0
 27
1.0
 37
0.0
 76
0
330
211
345
0
346
0
  0
ENDSEC
  0
EOF
