  0
SECTION
  2
HEADER
  9
$ACADVER
  1
AC1024
  9
$ACADMAINTVER
 70
     6
  9
$DWGCODEPAGE
  3
ANSI_1252
  9
$INSBASE
 10
0.0
 20
0.0
 30
0.0
  9
$EXTMIN
 10
1.000000000000000E+20
 20
1.000000000000000E+20
 30
1.000000000000000E+20
  9
$EXTMAX
 10
-1.000000000000000E+20
 20
-1.000000000000000E+20
 30
-1.000000000000000E+20
  9
$LIMMIN
 10
0.0
 20
0.0
  9
$LIMMAX
 10
12.0
 20
9.0
  9
$ORTHOMODE
 70
     0
  9
$REGENMODE
 70
     1
  9
$FILLMODE
 70
     1
  9
$QTEXTMODE
 70
     0
  9
$MIRRTEXT
 70
     1
  9
$LTSCALE
 40
1.0
  9
$ATTMODE
 70
     1
  9
$TEXTSIZE
 40
0.2
  9
$TRACEWID
 40
0.05
  9
$TEXTSTYLE
  7
Standard
  9
$CLAYER
  8
0
  9
$CELTYPE
  6
ByLayer
  9
$CECOLOR
 62
   256
  9
$CELTSCALE
 40
1.0
  9
$DISPSILH
 70
     0
  9
$DIMSCALE
 40
1.0
  9
$DIMASZ
 40
0.18
  9
$DIMEXO
 40
0.0625
  9
$DIMDLI
 40
0.38
  9
$DIMRND
 40
0.0
  9
$DIMDLE
 40
0.0
  9
$DIMEXE
 40
0.18
  9
$DIMTP
 40
0.0
  9
$DIMTM
 40
0.0
  9
$DIMTXT
 40
0.18
  9
$DIMCEN
 40
0.09
  9
$DIMTSZ
 40
0.0
  9
$DIMTOL
 70
     0
  9
$DIMLIM
 70
     0
  9
$DIMTIH
 70
     1
  9
$DIMTOH
 70
     1
  9
$DIMSE1
 70
     0
  9
$DIMSE2
 70
     0
  9
$DIMTAD
 70
     0
  9
$DIMZIN
 70
     0
  9
$DIMBLK
  1

  9
$DIMASO
 70
     1
  9
$DIMSHO
 70
     1
  9
$DIMPOST
  1

  9
$DIMAPOST
  1

  9
$DIMALT
 70
     0
  9
$DIMALTD
 70
     2
  9
$DIMALTF
 40
25.4
  9
$DIMLFAC
 40
1.0
  9
$DIMTOFL
 70
     0
  9
$DIMTVP
 40
0.0
  9
$DIMTIX
 70
     0
  9
$DIMSOXD
 70
     0
  9
$DIMSAH
 70
     0
  9
$DIMBLK1
  1

  9
$DIMBLK2
  1

  9
$DIMSTYLE
  2
Standard
  9
$DIMCLRD
 70
     0
  9
$DIMCLRE
 70
     0
  9
$DIMCLRT
 70
     0
  9
$DIMTFAC
 40
1.0
  9
$DIMGAP
 40
0.09
  9
$DIMJUST
 70
     0
  9
$DIMSD1
 70
     0
  9
$DIMSD2
 70
     0
  9
$DIMTOLJ
 70
     1
  9
$DIMTZIN
 70
     0
  9
$DIMALTZ
 70
     0
  9
$DIMALTTZ
 70
     0
  9
$DIMUPT
 70
     0
  9
$DIMDEC
 70
     4
  9
$DIMTDEC
 70
     4
  9
$DIMALTU
 70
     2
  9
$DIMALTTD
 70
     2
  9
$DIMTXSTY
  7
Standard
  9
$DIMAUNIT
 70
     0
  9
$DIMADEC
 70
     0
  9
$DIMALTRND
 40
0.0
  9
$DIMAZIN
 70
     0
  9
$DIMDSEP
 70
    46
  9
$DIMATFIT
 70
     3
  9
$DIMFRAC
 70
     0
  9
$DIMLDRBLK
  1

  9
$DIMLUNIT
 70
     2
  9
$DIMLWD
 70
    -2
  9
$DIMLWE
 70
    -2
  9
$DIMTMOVE
 70
     0
  9
$DIMFXL
 40
1.0
  9
$DIMFXLON
 70
     0
  9
$DIMJOGANG
 40
0.7853981633974483
  9
$DIMTFILL
 70
     0
  9
$DIMTFILLCLR
 70
     0
  9
$DIMARCSYM
 70
     0
  9
$DIMLTYPE
  6

  9
$DIMLTEX1
  6

  9
$DIMLTEX2
  6

  9
$DIMTXTDIRECTION
 70
     0
  9
$LUNITS
 70
     2
  9
$LUPREC
 70
     4
  9
$SKETCHINC
 40
0.1
  9
$FILLETRAD
 40
0.5
  9
$AUNITS
 70
     0
  9
$AUPREC
 70
     0
  9
$MENU
  1
.
  9
$ELEVATION
 40
0.0
  9
$PELEVATION
 40
0.0
  9
$THICKNESS
 40
0.0
  9
$LIMCHECK
 70
     0
  9
$CHAMFERA
 40
0.5
  9
$CHAMFERB
 40
0.5
  9
$CHAMFERC
 40
1.0
  9
$CHAMFERD
 40
0.0
  9
$SKPOLY
 70
     0
  9
$TDCREATE
 40
2457742.571010405
  9
$TDUCREATE
 40
2457742.529343738
  9
$TDUPDATE
 40
2457742.571010961
  9
$TDUUPDATE
 40
2457742.529344294
  9
$TDINDWG
 40
0.0000000116
  9
$TDUSRTIMER
 40
0.0000000116
  9
$USRTIMER
 70
     1
  9
$ANGBASE
 50
0.0
  9
$ANGDIR
 70
     0
  9
$PDMODE
 70
     0
  9
$PDSIZE
 40
0.0
  9
$PLINEWID
 40
0.0
  9
$SPLFRAME
 70
     0
  9
$SPLINETYPE
 70
     6
  9
$SPLINESEGS
 70
     8
  9
$HANDSEED
  5
383
  9
$SURFTAB1
 70
     6
  9
$SURFTAB2
 70
     6
  9
$SURFTYPE
 70
     6
  9
$SURFU
 70
     6
  9
$SURFV
 70
     6
  9
$UCSBASE
  2

  9
$UCSNAME
  2

  9
$UCSORG
 10
0.0
 20
0.0
 30
0.0
  9
$UCSXDIR
 10
1.0
 20
0.0
 30
0.0
  9
$UCSYDIR
 10
0.0
 20
1.0
 30
0.0
  9
$UCSORTHOREF
  2

  9
$UCSORTHOVIEW
 70
     0
  9
$UCSORGTOP
 10
0.0
 20
0.0
 30
0.0
  9
$UCSORGBOTTOM
 10
0.0
 20
0.0
 30
0.0
  9
$UCSORGLEFT
 10
0.0
 20
0.0
 30
0.0
  9
$UCSORGRIGHT
 10
0.0
 20
0.0
 30
0.0
  9
$UCSORGFRONT
 10
0.0
 20
0.0
 30
0.0
  9
$UCSORGBACK
 10
0.0
 20
0.0
 30
0.0
  9
$PUCSBASE
  2

  9
$PUCSNAME
  2

  9
$PUCSORG
 10
0.0
 20
0.0
 30
0.0
  9
$PUCSXDIR
 10
1.0
 20
0.0
 30
0.0
  9
$PUCSYDIR
 10
0.0
 20
1.0
 30
0.0
  9
$PUCSORTHOREF
  2

  9
$PUCSORTHOVIEW
 70
     0
  9
$PUCSORGTOP
 10
0.0
 20
0.0
 30
0.0
  9
$PUCSORGBOTTOM
 10
0.0
 20
0.0
 30
0.0
  9
$PUCSORGLEFT
 10
0.0
 20
0.0
 30
0.0
  9
$PUCSORGRIGHT
 10
0.0
 20
0.0
 30
0.0
  9
$PUCSORGFRONT
 10
0.0
 20
0.0
 30
0.0
  9
$PUCSORGBACK
 10
0.0
 20
0.0
 30
0.0
  9
$USERI1
 70
     0
  9
$USERI2
 70
     0
  9
$USERI3
 70
     0
  9
$USERI4
 70
     0
  9
$USERI5
 70
     0
  9
$USERR1
 40
0.0
  9
$USERR2
 40
0.0
  9
$USERR3
 40
0.0
  9
$USERR4
 40
0.0
  9
$USERR5
 40
0.0
  9
$WORLDVIEW
 70
     1
  9
$SHADEDGE
 70
     3
  9
$SHADEDIF
 70
    70
  9
$TILEMODE
 70
     1
  9
$MAXACTVP
 70
    64
  9
$PINSBASE
 10
0.0
 20
0.0
 30
0.0
  9
$PLIMCHECK
 70
     0
  9
$PEXTMIN
 10
1.000000000000000E+20
 20
1.000000000000000E+20
 30
1.000000000000000E+20
  9
$PEXTMAX
 10
-1.000000000000000E+20
 20
-1.000000000000000E+20
 30
-1.000000000000000E+20
  9
$PLIMMIN
 10
0.0
 20
0.0
  9
$PLIMMAX
 10
12.0
 20
9.0
  9
$UNITMODE
 70
     0
  9
$VISRETAIN
 70
     1
  9
$PLINEGEN
 70
     0
  9
$PSLTSCALE
 70
     1
  9
$TREEDEPTH
 70
  3020
  9
$CMLSTYLE
  2
Standard
  9
$CMLJUST
 70
     0
  9
$CMLSCALE
 40
1.0
  9
$PROXYGRAPHICS
 70
     1
  9
$MEASUREMENT
 70
     0
  9
$CELWEIGHT
370
    -1
  9
$ENDCAPS
280
     0
  9
$JOINSTYLE
280
     0
  9
$LWDISPLAY
290
     1
  9
$INSUNITS
 70
     1
  9
$HYPERLINKBASE
  1

  9
$STYLESHEET
  1

  9
$XEDIT
290
     1
  9
$CEPSNTYPE
380
     0
  9
$PSTYLEMODE
290
     1
  9
$FINGERPRINTGUID
  2
{B47E38E9-283E-4636-B3EE-3C382E7E6C52}
  9
$VERSIONGUID
  2
{FAEB1C32-E019-11D5-929B-00C0DF256EC4}
  9
$EXTNAMES
290
     1
  9
$PSVPSCALE
 40
0.0
  9
$OLESTARTUP
290
     0
  9
$SORTENTS
280
   127
  9
$INDEXCTL
280
     0
  9
$HIDETEXT
280
     1
  9
$XCLIPFRAME
280
     2
  9
$HALOGAP
280
     0
  9
$OBSCOLOR
 70
   257
  9
$OBSLTYPE
280
     0
  9
$INTERSECTIONDISPLAY
280
     0
  9
$INTERSECTIONCOLOR
 70
   257
  9
$DIMASSOC
280
     2
  9
$PROJECTNAME
  1

  9
$CAMERADISPLAY
290
     0
  9
$LENSLENGTH
 40
50.0
  9
$CAMERAHEIGHT
 40
0.0
  9
$STEPSPERSEC
 40
2.0
  9
$STEPSIZE
 40
6.0
  9
$3DDWFPREC
 40
2.0
  9
$PSOLWIDTH
 40
0.25
  9
$PSOLHEIGHT
 40
4.0
  9
$LOFTANG1
 40
1.570796326794897
  9
$LOFTANG2
 40
1.570796326794897
  9
$LOFTMAG1
 40
0.0
  9
$LOFTMAG2
 40
0.0
  9
$LOFTPARAM
 70
     7
  9
$LOFTNORMALS
280
     1
  9
$LATITUDE
 40
37.795
  9
$LONGITUDE
 40
-122.394
  9
$NORTHDIRECTION
 40
0.0
  9
$TIMEZONE
 70
 -8000
  9
$LIGHTGLYPHDISPLAY
280
     1
  9
$TILEMODELIGHTSYNCH
280
     1
  9
$CMATERIAL
347
3C
  9
$SOLIDHIST
280
     1
  9
$SHOWHIST
280
     1
  9
$DWFFRAME
280
     2
  9
$DGNFRAME
280
     2
  9
$REALWORLDSCALE
290
     1
  9
$INTERFERECOLOR
 62
   256
  9
$CSHADOW
280
     0
  9
$SHADOWPLANELOCATION
 40
0.0
  0
ENDSEC
  0
SECTION
  2
CLASSES
  0
CLASS
  1
ACDBDICTIONARYWDFLT
  2
AcDbDictionaryWithDefault
  3
ObjectDBX Classes
 90
        0
 91
        4
280
     0
281
     0
  0
CLASS
  1
VISUALSTYLE
  2
AcDbVisualStyle
  3
ObjectDBX Classes
 90
     4095
 91
        4
280
     0
281
     0
  0
CLASS
  1
MATERIAL
  2
AcDbMaterial
  3
ObjectDBX Classes
 90
     1153
 91
        4
280
     0
281
     0
  0
CLASS
  1
SUN
  2
AcDbSun
  3
SCENEOE
 90
     1024
 91
        4
280
     0
281
     0
  0
ENDSEC
  0
SECTION
  2
TABLES
  0
TABLE
  2
VPORT
  5
8
330
0
100
AcDbSymbolTable
 70
     1
  0
VPORT
  5
29
330
8
100
AcDbSymbolTableRecord
100
AcDbViewportTableRecord
  2
*Active
 70
     0
 10
0.0
 20
0.0
 11
1.0
 21
1.0
 12
0.0
 22
0.0
 13
0.0
 23
0.0
 14
0.5
 24
0.5
 15
0.5
 25
0.5
 16
0.0
 26
0.0
 36
1.0
 17
305.5
 27
396.5
 37
0.0
 40
792.0
 41
0.7727272727272727
 42
50.0
 43
0.0
 44
0.0
 50
0.0
 51
0.0
 71
     0
 72
   100
 73
     1
 74
     3
 75
     0
 76
     0
 77
     0
 78
     0
281
     0
 65
     1
110
0.0
120
0.0
130
0.0
111
1.0
121
0.0
131
0.0
112
0.0
122
1.0
132
0.0
 79
     0
146
0.0
 60
     3
 61
     5
292
     1
282
     1
141
0.0
142
0.0
 63
   250
361
3F
  0
ENDTAB
  0
TABLE
  2
LTYPE
  5
5
330
0
100
AcDbSymbolTable
 70
    32
  0
LTYPE
  5
14
330
5
100
AcDbSymbolTableRecord
100
AcDbLinetypeTableRecord
  2
ByBlock
 70
     0
  3

 72
    65
 73
     0
 40
0.0
  0
LTYPE
  5
15
330
5
100
AcDbSymbolTableRecord
100
AcDbLinetypeTableRecord
  2
ByLayer
 70
     0
  3

 72
    65
 73
     0
 40
0.0
  0
LTYPE
  5
16
330
5
100
AcDbSymbolTableRecord
100
AcDbLinetypeTableRecord
  2
Continuous
 70
     0
  3
Solid line
 72
    65
 73
     0
 40
0.0
  0
LTYPE
  5
30D
330
5
100
AcDbSymbolTableRecord
100
AcDbLinetypeTableRecord
  2
AI-Linetype-1
 70
     0
  3
Adobe Illustrator Linetype No. 1
 72
    65
 73
     2
 40
2.0
 49
1.0
 74
     0
 49
-1.0
 74
     0
  0
LTYPE
  5
310
330
5
100
AcDbSymbolTableRecord
100
AcDbLinetypeTableRecord
  2
AI-Linetype-2
 70
     0
  3
Adobe Illustrator Linetype No. 2
 72
    65
 73
     2
 40
2.0
 49
1.0
 74
     0
 49
-1.0
 74
     0
  0
LTYPE
  5
312
330
5
100
AcDbSymbolTableRecord
100
AcDbLinetypeTableRecord
  2
AI-Linetype-3
 70
     0
  3
Adobe Illustrator Linetype No. 3
 72
    65
 73
     2
 40
2.0
 49
1.0
 74
     0
 49
-1.0
 74
     0
  0
LTYPE
  5
314
330
5
100
AcDbSymbolTableRecord
100
AcDbLinetypeTableRecord
  2
AI-Linetype-4
 70
     0
  3
Adobe Illustrator Linetype No. 4
 72
    65
 73
     2
 40
2.0
 49
1.0
 74
     0
 49
-1.0
 74
     0
  0
LTYPE
  5
318
330
5
100
AcDbSymbolTableRecord
100
AcDbLinetypeTableRecord
  2
AI-Linetype-5
 70
     0
  3
Adobe Illustrator Linetype No. 5
 72
    65
 73
     2
 40
2.0
 49
1.0
 74
     0
 49
-1.0
 74
     0
  0
LTYPE
  5
31D
330
5
100
AcDbSymbolTableRecord
100
AcDbLinetypeTableRecord
  2
AI-Linetype-6
 70
     0
  3
Adobe Illustrator Linetype No. 6
 72
    65
 73
     2
 40
2.0
 49
1.0
 74
     0
 49
-1.0
 74
     0
  0
LTYPE
  5
322
330
5
100
AcDbSymbolTableRecord
100
AcDbLinetypeTableRecord
  2
AI-Linetype-7
 70
     0
  3
Adobe Illustrator Linetype No. 7
 72
    65
 73
     2
 40
2.0
 49
1.0
 74
     0
 49
-1.0
 74
     0
  0
LTYPE
  5
327
330
5
100
AcDbSymbolTableRecord
100
AcDbLinetypeTableRecord
  2
AI-Linetype-8
 70
     0
  3
Adobe Illustrator Linetype No. 8
 72
    65
 73
     2
 40
2.0
 49
1.0
 74
     0
 49
-1.0
 74
     0
  0
LTYPE
  5
32C
330
5
100
AcDbSymbolTableRecord
100
AcDbLinetypeTableRecord
  2
AI-Linetype-9
 70
     0
  3
Adobe Illustrator Linetype No. 9
 72
    65
 73
     2
 40
2.0
 49
1.0
 74
     0
 49
-1.0
 74
     0
  0
LTYPE
  5
331
330
5
100
AcDbSymbolTableRecord
100
AcDbLinetypeTableRecord
  2
AI-Linetype-10
 70
     0
  3
Adobe Illustrator Linetype No. 10
 72
    65
 73
     2
 40
2.0
 49
1.0
 74
     0
 49
-1.0
 74
     0
  0
LTYPE
  5
334
330
5
100
AcDbSymbolTableRecord
100
AcDbLinetypeTableRecord
  2
AI-Linetype-11
 70
     0
  3
Adobe Illustrator Linetype No. 11
 72
    65
 73
     2
 40
2.0
 49
1.0
 74
     0
 49
-1.0
 74
     0
  0
LTYPE
  5
33A
330
5
100
AcDbSymbolTableRecord
100
AcDbLinetypeTableRecord
  2
AI-Linetype-12
 70
     0
  3
Adobe Illustrator Linetype No. 12
 72
    65
 73
     2
 40
2.0
 49
1.0
 74
     0
 49
-1.0
 74
     0
  0
LTYPE
  5
33C
330
5
100
AcDbSymbolTableRecord
100
AcDbLinetypeTableRecord
  2
AI-Linetype-13
 70
     0
  3
Adobe Illustrator Linetype No. 13
 72
    65
 73
     2
 40
2.0
 49
1.0
 74
     0
 49
-1.0
 74
     0
  0
LTYPE
  5
33E
330
5
100
AcDbSymbolTableRecord
100
AcDbLinetypeTableRecord
  2
AI-Linetype-14
 70
     0
  3
Adobe Illustrator Linetype No. 14
 72
    65
 73
     2
 40
2.0
 49
1.0
 74
     0
 49
-1.0
 74
     0
  0
LTYPE
  5
342
330
5
100
AcDbSymbolTableRecord
100
AcDbLinetypeTableRecord
  2
AI-Linetype-15
 70
     0
  3
Adobe Illustrator Linetype No. 15
 72
    65
 73
     2
 40
2.0
 49
1.0
 74
     0
 49
-1.0
 74
     0
  0
LTYPE
  5
345
330
5
100
AcDbSymbolTableRecord
100
AcDbLinetypeTableRecord
  2
AI-Linetype-16
 70
     0
  3
Adobe Illustrator Linetype No. 16
 72
    65
 73
     2
 40
2.0
 49
1.0
 74
     0
 49
-1.0
 74
     0
  0
LTYPE
  5
349
330
5
100
AcDbSymbolTableRecord
100
AcDbLinetypeTableRecord
  2
AI-Linetype-17
 70
     0
  3
Adobe Illustrator Linetype No. 17
 72
    65
 73
     2
 40
2.0
 49
1.0
 74
     0
 49
-1.0
 74
     0
  0
LTYPE
  5
34C
330
5
100
AcDbSymbolTableRecord
100
AcDbLinetypeTableRecord
  2
AI-Linetype-18
 70
     0
  3
Adobe Illustrator Linetype No. 18
 72
    65
 73
     2
 40
2.0
 49
1.0
 74
     0
 49
-1.0
 74
     0
  0
LTYPE
  5
34E
330
5
100
AcDbSymbolTableRecord
100
AcDbLinetypeTableRecord
  2
AI-Linetype-19
 70
     0
  3
Adobe Illustrator Linetype No. 19
 72
    65
 73
     2
 40
2.0
 49
1.0
 74
     0
 49
-1.0
 74
     0
  0
LTYPE
  5
350
330
5
100
AcDbSymbolTableRecord
100
AcDbLinetypeTableRecord
  2
AI-Linetype-20
 70
     0
  3
Adobe Illustrator Linetype No. 20
 72
    65
 73
     2
 40
2.0
 49
1.0
 74
     0
 49
-1.0
 74
     0
  0
LTYPE
  5
352
330
5
100
AcDbSymbolTableRecord
100
AcDbLinetypeTableRecord
  2
AI-Linetype-21
 70
     0
  3
Adobe Illustrator Linetype No. 21
 72
    65
 73
     2
 40
2.0
 49
1.0
 74
     0
 49
-1.0
 74
     0
  0
LTYPE
  5
354
330
5
100
AcDbSymbolTableRecord
100
AcDbLinetypeTableRecord
  2
AI-Linetype-22
 70
     0
  3
Adobe Illustrator Linetype No. 22
 72
    65
 73
     2
 40
2.0
 49
1.0
 74
     0
 49
-1.0
 74
     0
  0
LTYPE
  5
356
330
5
100
AcDbSymbolTableRecord
100
AcDbLinetypeTableRecord
  2
AI-Linetype-23
 70
     0
  3
Adobe Illustrator Linetype No. 23
 72
    65
 73
     2
 40
2.0
 49
1.0
 74
     0
 49
-1.0
 74
     0
  0
LTYPE
  5
358
330
5
100
AcDbSymbolTableRecord
100
AcDbLinetypeTableRecord
  2
AI-Linetype-24
 70
     0
  3
Adobe Illustrator Linetype No. 24
 72
    65
 73
     2
 40
2.0
 49
1.0
 74
     0
 49
-1.0
 74
     0
  0
LTYPE
  5
35A
330
5
100
AcDbSymbolTableRecord
100
AcDbLinetypeTableRecord
  2
AI-Linetype-25
 70
     0
  3
Adobe Illustrator Linetype No. 25
 72
    65
 73
     2
 40
2.0
 49
1.0
 74
     0
 49
-1.0
 74
     0
  0
LTYPE
  5
35E
330
5
100
AcDbSymbolTableRecord
100
AcDbLinetypeTableRecord
  2
AI-Linetype-26
 70
     0
  3
Adobe Illustrator Linetype No. 26
 72
    65
 73
     2
 40
2.0
 49
1.0
 74
     0
 49
-1.0
 74
     0
  0
LTYPE
  5
363
330
5
100
AcDbSymbolTableRecord
100
AcDbLinetypeTableRecord
  2
AI-Linetype-27
 70
     0
  3
Adobe Illustrator Linetype No. 27
 72
    65
 73
     2
 40
2.0
 49
1.0
 74
     0
 49
-1.0
 74
     0
  0
LTYPE
  5
368
330
5
100
AcDbSymbolTableRecord
100
AcDbLinetypeTableRecord
  2
AI-Linetype-28
 70
     0
  3
Adobe Illustrator Linetype No. 28
 72
    65
 73
     2
 40
2.0
 49
1.0
 74
     0
 49
-1.0
 74
     0
  0
LTYPE
  5
36B
330
5
100
AcDbSymbolTableRecord
100
AcDbLinetypeTableRecord
  2
AI-Linetype-29
 70
     0
  3
Adobe Illustrator Linetype No. 29
 72
    65
 73
     2
 40
2.0
 49
1.0
 74
     0
 49
-1.0
 74
     0
  0
LTYPE
  5
36F
330
5
100
AcDbSymbolTableRecord
100
AcDbLinetypeTableRecord
  2
AI-Linetype-30
 70
     0
  3
Adobe Illustrator Linetype No. 30
 72
    65
 73
     2
 40
2.0
 49
1.0
 74
     0
 49
-1.0
 74
     0
  0
LTYPE
  5
372
330
5
100
AcDbSymbolTableRecord
100
AcDbLinetypeTableRecord
  2
AI-Linetype-31
 70
     0
  3
Adobe Illustrator Linetype No. 31
 72
    65
 73
     2
 40
2.0
 49
1.0
 74
     0
 49
-1.0
 74
     0
  0
ENDTAB
  0
TABLE
  2
LAYER
  5
2
330
0
100
AcDbSymbolTable
 70
     4
  0
LAYER
  5
10
330
2
100
AcDbSymbolTableRecord
100
AcDbLayerTableRecord
  2
0
 70
     0
 62
     7
  6
Continuous
370
    -3
390
F
347
3E
  0
LAYER
  5
40
330
2
100
AcDbSymbolTableRecord
100
AcDbLayerTableRecord
  2
Arri_U+00CBre-plan
 70
     0
 62
     7
  6
Continuous
370
    -3
390
F
347
3E
  0
LAYER
  5
41
330
2
100
AcDbSymbolTableRecord
100
AcDbLayerTableRecord
  2
Rep_U+00CBres
 70
     0
 62
     7
  6
Continuous
370
    -3
390
F
347
3E
  0
LAYER
  5
42
330
2
100
AcDbSymbolTableRecord
100
AcDbLayerTableRecord
  2
Premier plan
 70
     0
 62
     7
  6
Continuous
370
    -3
390
F
347
3E
  0
ENDTAB
  0
TABLE
  2
STYLE
  5
3
330
0
100
AcDbSymbolTable
 70
     1
  0
STYLE
  5
11
330
3
100
AcDbSymbolTableRecord
100
AcDbTextStyleTableRecord
  2
Standard
 70
     0
 40
0.0
 41
1.0
 50
0.0
 71
     0
 42
0.2
  3
txt
  4

  0
ENDTAB
  0
TABLE
  2
VIEW
  5
6
330
0
100
AcDbSymbolTable
 70
     0
  0
ENDTAB
  0
TABLE
  2
UCS
  5
7
330
0
100
AcDbSymbolTable
 70
     0
  0
ENDTAB
  0
TABLE
  2
APPID
  5
9
330
0
100
AcDbSymbolTable
 70
     1
  0
APPID
  5
12
330
9
100
AcDbSymbolTableRecord
100
AcDbRegAppTableRecord
  2
ACAD
 70
     0
  0
ENDTAB
  0
TABLE
  2
DIMSTYLE
  5
A
330
0
100
AcDbSymbolTable
 70
     1
100
AcDbDimStyleTable
  0
DIMSTYLE
105
27
330
A
100
AcDbSymbolTableRecord
100
AcDbDimStyleTableRecord
  2
Standard
 70
     0
178
     0
340
11
  0
ENDTAB
  0
TABLE
  2
BLOCK_RECORD
  5
1
330
0
100
AcDbSymbolTable
 70
    23
  0
BLOCK_RECORD
  5
1F
330
1
100
AcDbSymbolTableRecord
100
AcDbBlockTableRecord
  2
*Model_Space
340
22
 70
     0
280
     1
281
     0
  0
BLOCK_RECORD
  5
1B
330
1
100
AcDbSymbolTableRecord
100
AcDbBlockTableRecord
  2
*Paper_Space
340
1E
 70
     0
280
     1
281
     0
  0
BLOCK_RECORD
  5
23
330
1
100
AcDbSymbolTableRecord
100
AcDbBlockTableRecord
  2
*Paper_Space0
340
26
 70
     0
280
     1
281
     0
  0
BLOCK_RECORD
  5
43
330
1
100
AcDbSymbolTableRecord
100
AcDbBlockTableRecord
  2
block 2
340
0
102
{BLKREFS
331
44
102
}
 70
     0
280
     1
281
     0
  0
BLOCK_RECORD
  5
47
330
1
100
AcDbSymbolTableRecord
100
AcDbBlockTableRecord
  2
block 3
340
0
102
{BLKREFS
331
48
102
}
 70
     0
280
     1
281
     0
  0
BLOCK_RECORD
  5
4B
330
1
100
AcDbSymbolTableRecord
100
AcDbBlockTableRecord
  2
block 4
340
0
102
{BLKREFS
331
4C
102
}
 70
     0
280
     1
281
     0
  0
BLOCK_RECORD
  5
4F
330
1
100
AcDbSymbolTableRecord
100
AcDbBlockTableRecord
  2
block 5
340
0
102
{BLKREFS
331
50
102
}
 70
     0
280
     1
281
     0
  0
BLOCK_RECORD
  5
D8
330
1
100
AcDbSymbolTableRecord
100
AcDbBlockTableRecord
  2
block 6
340
0
102
{BLKREFS
331
D9
102
}
 70
     0
280
     1
281
     0
  0
BLOCK_RECORD
  5
138
330
1
100
AcDbSymbolTableRecord
100
AcDbBlockTableRecord
  2
block 7
340
0
102
{BLKREFS
331
139
102
}
 70
     0
280
     1
281
     0
  0
BLOCK_RECORD
  5
1FF
330
1
100
AcDbSymbolTableRecord
100
AcDbBlockTableRecord
  2
block 8
340
0
102
{BLKREFS
331
200
102
}
 70
     0
280
     1
281
     0
  0
BLOCK_RECORD
  5
204
330
1
100
AcDbSymbolTableRecord
100
AcDbBlockTableRecord
  2
block 9
340
0
102
{BLKREFS
331
205
102
}
 70
     0
280
     1
281
     0
  0
BLOCK_RECORD
  5
209
330
1
100
AcDbSymbolTableRecord
100
AcDbBlockTableRecord
  2
block 10
340
0
102
{BLKREFS
331
20A
102
}
 70
     0
280
     1
281
     0
  0
BLOCK_RECORD
  5
20E
330
1
100
AcDbSymbolTableRecord
100
AcDbBlockTableRecord
  2
block 11
340
0
102
{BLKREFS
331
20F
102
}
 70
     0
280
     1
281
     0
  0
BLOCK_RECORD
  5
262
330
1
100
AcDbSymbolTableRecord
100
AcDbBlockTableRecord
  2
block 12
340
0
102
{BLKREFS
331
263
102
}
 70
     0
280
     1
281
     0
  0
BLOCK_RECORD
  5
266
330
1
100
AcDbSymbolTableRecord
100
AcDbBlockTableRecord
  2
block 13
340
0
102
{BLKREFS
331
267
102
}
 70
     0
280
     1
281
     0
  0
BLOCK_RECORD
  5
272
330
1
100
AcDbSymbolTableRecord
100
AcDbBlockTableRecord
  2
block 14
340
0
102
{BLKREFS
331
273
102
}
 70
     0
280
     1
281
     0
  0
BLOCK_RECORD
  5
276
330
1
100
AcDbSymbolTableRecord
100
AcDbBlockTableRecord
  2
block 15
340
0
102
{BLKREFS
331
277
102
}
 70
     0
280
     1
281
     0
  0
BLOCK_RECORD
  5
281
330
1
100
AcDbSymbolTableRecord
100
AcDbBlockTableRecord
  2
block 16
340
0
102
{BLKREFS
331
282
102
}
 70
     0
280
     1
281
     0
  0
BLOCK_RECORD
  5
2A4
330
1
100
AcDbSymbolTableRecord
100
AcDbBlockTableRecord
  2
block 17
340
0
102
{BLKREFS
331
2A5
102
}
 70
     0
280
     1
281
     0
  0
BLOCK_RECORD
  5
2AB
330
1
100
AcDbSymbolTableRecord
100
AcDbBlockTableRecord
  2
block 18
340
0
102
{BLKREFS
331
2AC
102
}
 70
     0
280
     1
281
     0
  0
BLOCK_RECORD
  5
2DF
330
1
100
AcDbSymbolTableRecord
100
AcDbBlockTableRecord
  2
block 19
340
0
102
{BLKREFS
331
2E0
102
}
 70
     0
280
     1
281
     0
  0
BLOCK_RECORD
  5
302
330
1
100
AcDbSymbolTableRecord
100
AcDbBlockTableRecord
  2
block 20
340
0
102
{BLKREFS
331
303
102
}
 70
     0
280
     1
281
     0
  0
BLOCK_RECORD
  5
335
330
1
100
AcDbSymbolTableRecord
100
AcDbBlockTableRecord
  2
block 21
340
0
102
{BLKREFS
331
336
102
}
 70
     0
280
     1
281
     0
  0
BLOCK_RECORD
  5
373
330
1
100
AcDbSymbolTableRecord
100
AcDbBlockTableRecord
  2
block 22
340
0
102
{BLKREFS
331
374
102
}
 70
     0
280
     1
281
     0
  0
BLOCK_RECORD
  5
378
330
1
100
AcDbSymbolTableRecord
100
AcDbBlockTableRecord
  2
block 23
340
0
102
{BLKREFS
331
379
102
}
 70
     0
280
     1
281
     0
  0
ENDTAB
  0
ENDSEC
  0
SECTION
  2
BLOCKS
  0
BLOCK
  5
20
330
1F
100
AcDbEntity
  8
0
100
AcDbBlockBegin
  2
*Model_Space
 70
     0
 10
0.0
 20
0.0
 30
0.0
  3
*Model_Space
  1

  0
ENDBLK
  5
21
330
1F
100
AcDbEntity
  8
0
100
AcDbBlockEnd
  0
BLOCK
  5
1C
330
1B
100
AcDbEntity
 67
     1
  8
0
100
AcDbBlockBegin
  2
*Paper_Space
 70
     0
 10
0.0
 20
0.0
 30
0.0
  3
*Paper_Space
  1

  0
ENDBLK
  5
1D
330
1B
100
AcDbEntity
 67
     1
  8
0
100
AcDbBlockEnd
  0
BLOCK
  5
24
330
23
100
AcDbEntity
  8
0
100
AcDbBlockBegin
  2
*Paper_Space0
 70
     0
 10
0.0
 20
0.0
 30
0.0
  3
*Paper_Space0
  1

  0
ENDBLK
  5
25
330
23
100
AcDbEntity
  8
0
100
AcDbBlockEnd
  0
BLOCK
  5
45
330
43
100
AcDbEntity
  8
0
100
AcDbBlockBegin
  2
block 2
 70
     0
 10
0.0
 20
0.0
 30
0.0
  3
block 2
  1

  0
INSERT
  5
48
330
43
100
AcDbEntity
  8
Premier plan
100
AcDbBlockReference
  2
block 3
 10
0.0
 20
0.0
 30
0.0
  0
SPLINE
  5
2B4
330
43
100
AcDbEntity
  8
Premier plan
 62
    18
420
        0
370
    40
100
AcDbSpline
210
0.0
220
0.0
230
1.0
 70
    11
 71
     3
 72
    26
 73
    22
 74
     0
 42
0.0000000001
 43
0.0000000001
 12
1.0
 22
0.0
 32
0.0
 13
1.0
 23
0.0
 33
0.0
 40
0.0
 40
0.0
 40
0.0
 40
0.0
 40
1.0
 40
1.0
 40
1.0
 40
2.0
 40
2.0
 40
2.0
 40
3.0
 40
3.0
 40
3.0
 40
4.0
 40
4.0
 40
4.0
 40
5.0
 40
5.0
 40
5.0
 40
6.0
 40
6.0
 40
6.0
 40
7.0
 40
7.0
 40
7.0
 40
7.0
 10
295.6640596014231
 20
327.4073363504431
 30
0.0
 10
300.6595373472819
 20
316.6374578243158
 30
0.0
 10
306.9554079829031
 20
306.265013327331
 30
0.0
 10
314.5782536720908
 20
296.5078681530831
 30
0.0
 10
368.3055652541498
 20
227.7401385686899
 30
0.0
 10
467.607340327324
 20
215.5458170550501
 30
0.0
 10
536.3767107860294
 20
269.274782848508
 30
0.0
 10
605.1475580316128
 20
323.0055269295262
 30
0.0
 10
617.3435204195594
 20
422.3071379152689
 30
0.0
 10
563.6160447500697
 20
491.0765083739743
 30
0.0
 10
509.8887331680107
 20
559.8465351824025
 30
0.0
 10
410.5869580948365
 20
572.0385594720092
 30
0.0
 10
341.8175876361311
 20
518.3096070156416
 30
0.0
 10
300.7749035990437
 20
486.2444617092769
 30
0.0
 10
279.883443198366
 20
437.9484616876507
 30
0.0
 10
281.2430716506788
 20
389.4496144051609
 30
0.0
 10
238.4185494137619
 20
381.0593479627314
 30
0.0
 10
195.2382856266886
 20
366.5159346275395
 30
0.0
 10
117.2542573117817
 20
419.9547805061029
 30
0.0
 10
161.2068806360312
 20
367.095983695719
 30
0.0
 10
221.0034581116597
 20
336.6083749498812
 30
0.0
 10
295.6640596014231
 20
327.4073363504431
 30
0.0
  0
SPLINE
  5
2B5
330
43
100
AcDbEntity
  8
Premier plan
 62
   250
420
  1709851
370
    20
100
AcDbSpline
210
0.0
220
0.0
230
1.0
 70
    11
 71
     3
 72
    26
 73
    22
 74
     0
 42
0.0000000001
 43
0.0000000001
 12
1.0
 22
0.0
 32
0.0
 13
1.0
 23
0.0
 33
0.0
 40
0.0
 40
0.0
 40
0.0
 40
0.0
 40
1.0
 40
1.0
 40
1.0
 40
2.0
 40
2.0
 40
2.0
 40
3.0
 40
3.0
 40
3.0
 40
4.0
 40
4.0
 40
4.0
 40
5.0
 40
5.0
 40
5.0
 40
6.0
 40
6.0
 40
6.0
 40
7.0
 40
7.0
 40
7.0
 40
7.0
 10
297.0461680317658
 20
327.7789943813987
 30
0.0
 10
302.0408253404721
 20
317.0107567295781
 30
0.0
 10
308.3366959760915
 20
306.6384620484841
 30
0.0
 10
315.959554836727
 20
296.8813311457798
 30
0.0
 10
369.6868532473381
 20
228.1103198127657
 30
0.0
 10
468.9886283205124
 20
215.9191159603124
 30
0.0
 10
537.7594755660957
 20
269.6482325041125
 30
0.0
 10
606.5288665366461
 20
323.37718496048
 30
0.0
 10
618.7248084127477
 20
422.6789600336533
 30
0.0
 10
564.9973327432581
 20
491.4489868420824
 30
0.0
 10
511.2700211611991
 20
560.2183573007887
 30
0.0
 10
411.9698869623353
 20
572.4112020275497
 30
0.0
 10
343.1988756293194
 20
518.6812650465963
 30
0.0
 10
302.1561788043828
 20
486.616940177385
 30
0.0
 10
281.2647311915543
 20
438.3201021204604
 30
0.0
 10
282.6251924103717
 20
389.8214365235472
 30
0.0
 10
239.7998374069502
 20
381.4311539201117
 30
0.0
 10
196.6202299696015
 20
366.8861158716154
 30
0.0
 10
118.6355453049719
 20
420.3266026244892
 30
0.0
 10
162.5881686292196
 20
367.4676417266728
 30
0.0
 10
222.3847461048481
 20
336.9816738551435
 30
0.0
 10
297.0461680317658
 20
327.7789943813987
 30
0.0
  0
POLYLINE
  5
2B6
330
43
100
AcDbEntity
  8
Premier plan
 62
   250
420
  1709851
370
    20
100
AcDb2dPolyline
 66
     1
 10
0.0
 20
0.0
 30
0.0
  0
VERTEX
  5
2B7
330
2B6
100
AcDbEntity
  8
Premier plan
 62
   250
420
  1709851
370
    20
100
AcDbVertex
100
AcDb2dVertex
 10
515.5659941891954
 20
254.8339269815351
 30
0.0
  0
VERTEX
  5
2B8
330
2B6
100
AcDbEntity
  8
Premier plan
 62
   250
420
  1709851
370
    20
100
AcDbVertex
100
AcDb2dVertex
 10
515.5659941891954
 20
396.0027906709183
 30
0.0
  0
SEQEND
  5
2B9
330
2B6
100
AcDbEntity
  8
Premier plan
 62
   250
420
  1709851
370
    20
  0
POLYLINE
  5
2BA
330
43
100
AcDbEntity
  8
Premier plan
 62
   250
420
  1709851
370
    20
100
AcDb2dPolyline
 66
     1
 10
0.0
 20
0.0
 30
0.0
  0
VERTEX
  5
2BB
330
2BA
100
AcDbEntity
  8
Premier plan
 62
   250
420
  1709851
370
    20
100
AcDbVertex
100
AcDb2dVertex
 10
361.7261515379614
 20
257.2005599971872
 30
0.0
  0
VERTEX
  5
2BC
330
2BA
100
AcDbEntity
  8
Premier plan
 62
   250
420
  1709851
370
    20
100
AcDbVertex
100
AcDb2dVertex
 10
361.7261515379614
 20
406.4175674581038
 30
0.0
  0
SEQEND
  5
2BD
330
2BA
100
AcDbEntity
  8
Premier plan
 62
   250
420
  1709851
370
    20
  0
SPLINE
  5
2BE
330
43
100
AcDbEntity
  8
Premier plan
 62
   250
420
  1709851
370
     9
100
AcDbSpline
210
0.0
220
0.0
230
1.0
 70
     8
 71
     3
 72
    14
 73
    10
 74
     0
 42
0.0000000001
 43
0.0000000001
 12
1.0
 22
0.0
 32
0.0
 13
1.0
 23
0.0
 33
0.0
 40
0.0
 40
0.0
 40
0.0
 40
0.0
 40
1.0
 40
1.0
 40
1.0
 40
2.0
 40
2.0
 40
2.0
 40
3.0
 40
3.0
 40
3.0
 40
3.0
 10
294.801123802401
 20
453.5495488431761
 30
0.0
 10
294.801123802401
 20
453.5495488431761
 30
0.0
 10
394.6301117910079
 20
395.882498045572
 30
0.0
 10
394.6301117910079
 20
395.882498045572
 30
0.0
 10
408.8002255767315
 20
387.6725475286785
 30
0.0
 10
447.0852535214162
 20
385.7240092869215
 30
0.0
 10
475.9479044392028
 20
393.2185386051569
 30
0.0
 10
475.9479044392028
 20
393.2185386051569
 30
0.0
 10
595.7926256626288
 20
425.0385372897781
 30
0.0
 10
595.7926256626288
 20
425.0385372897781
 30
0.0
  0
SPLINE
  5
2BF
330
43
100
AcDbEntity
  8
Premier plan
 62
   250
420
  1709851
370
     9
100
AcDbSpline
210
0.0
220
0.0
230
1.0
 70
     8
 71
     3
 72
    17
 73
    13
 74
     0
 42
0.0000000001
 43
0.0000000001
 12
1.0
 22
0.0
 32
0.0
 13
1.0
 23
0.0
 33
0.0
 40
0.0
 40
0.0
 40
0.0
 40
0.0
 40
1.0
 40
1.0
 40
1.0
 40
2.0
 40
2.0
 40
2.0
 40
3.0
 40
3.0
 40
3.0
 40
4.0
 40
4.0
 40
4.0
 40
4.0
 10
460.1864862655566
 20
491.8600258564493
 30
0.0
 10
467.5144668414432
 20
490.6815499278346
 30
0.0
 10
473.4754350306284
 20
488.9837372804686
 30
0.0
 10
476.8644968281224
 20
487.1032953225285
 30
0.0
 10
476.8644968281224
 20
487.1032953225285
 30
0.0
 10
502.1298768731231
 20
473.0933463861484
 30
0.0
 10
502.1298768731231
 20
473.0933463861484
 30
0.0
 10
510.8340408573386
 20
469.4927758902422
 30
0.0
 10
521.4660859415217
 20
469.4927758902422
 30
0.0
 10
534.0210716282454
 20
473.0933463861484
 30
0.0
 10
534.0210716282454
 20
473.0933463861484
 30
0.0
 10
571.5865917053015
 20
483.2406771994984
 30
0.0
 10
571.5865917053015
 20
483.2406771994984
 30
0.0
  0
SPLINE
  5
2C0
330
43
100
AcDbEntity
  8
Premier plan
 62
   250
420
  1709851
370
     9
100
AcDbSpline
210
0.0
220
0.0
230
1.0
 70
     8
 71
     3
 72
    17
 73
    13
 74
     0
 42
0.0000000001
 43
0.0000000001
 12
1.0
 22
0.0
 32
0.0
 13
1.0
 23
0.0
 33
0.0
 40
0.0
 40
0.0
 40
0.0
 40
0.0
 40
1.0
 40
1.0
 40
1.0
 40
2.0
 40
2.0
 40
2.0
 40
3.0
 40
3.0
 40
3.0
 40
4.0
 40
4.0
 40
4.0
 40
4.0
 10
326.2630837128327
 20
502.2516828543867
 30
0.0
 10
326.2630837128327
 20
502.2516828543867
 30
0.0
 10
355.0456599643458
 20
485.3990832653581
 30
0.0
 10
355.0456599643458
 20
485.3990832653581
 30
0.0
 10
363.7403247520724
 20
480.4019646451907
 30
0.0
 10
376.783962807971
 20
480.8619017139608
 30
0.0
 10
387.6114360223401
 20
484.1388917961622
 30
0.0
 10
387.6114360223401
 20
484.1388917961622
 30
0.0
 10
410.4474837785856
 20
490.2777307604265
 30
0.0
 10
410.4474837785856
 20
490.2777307604265
 30
0.0
 10
417.6471479835182
 20
492.1982100515033
 30
0.0
 10
425.6449334522786
 20
493.1764993144379
 30
0.0
 10
433.5767557738218
 20
493.452822548049
 30
0.0
  0
SPLINE
  5
2C1
330
43
100
AcDbEntity
  8
Premier plan
 62
   250
420
  1709851
370
    20
100
AcDbSpline
210
0.0
220
0.0
230
1.0
 70
     8
 71
     3
 72
    17
 73
    13
 74
     0
 42
0.0000000001
 43
0.0000000001
 12
1.0
 22
0.0
 32
0.0
 13
1.0
 23
0.0
 33
0.0
 40
0.0
 40
0.0
 40
0.0
 40
0.0
 40
1.0
 40
1.0
 40
1.0
 40
2.0
 40
2.0
 40
2.0
 40
3.0
 40
3.0
 40
3.0
 40
4.0
 40
4.0
 40
4.0
 40
4.0
 10
460.1369318614306
 20
497.7370003895512
 30
0.0
 10
469.5014015420293
 20
496.24755967088
 30
0.0
 10
477.9686411505481
 20
493.5281576810303
 30
0.0
 10
484.245149469325
 20
489.4789531468796
 30
0.0
 10
484.245149469325
 20
489.4789531468796
 30
0.0
 10
501.8269536012067
 20
479.6601253701601
 30
0.0
 10
501.8269536012067
 20
479.6601253701601
 30
0.0
 10
510.358187307771
 20
476.1307688192583
 30
0.0
 10
518.4216077488836
 20
474.4698758438417
 30
0.0
 10
530.726524190939
 20
477.9992323947445
 30
0.0
 10
530.726524190939
 20
477.9992323947445
 30
0.0
 10
568.3432395464315
 20
488.131321942893
 30
0.0
 10
568.3432395464315
 20
488.131321942893
 30
0.0
  0
SPLINE
  5
2C2
330
43
100
AcDbEntity
  8
Premier plan
 62
   250
420
  1709851
370
    20
100
AcDbSpline
210
0.0
220
0.0
230
1.0
 70
     8
 71
     3
 72
    17
 73
    13
 74
     0
 42
0.0000000001
 43
0.0000000001
 12
1.0
 22
0.0
 32
0.0
 13
1.0
 23
0.0
 33
0.0
 40
0.0
 40
0.0
 40
0.0
 40
0.0
 40
1.0
 40
1.0
 40
1.0
 40
2.0
 40
2.0
 40
2.0
 40
3.0
 40
3.0
 40
3.0
 40
4.0
 40
4.0
 40
4.0
 40
4.0
 10
330.3603468620277
 20
506.5639005380417
 30
0.0
 10
330.3603468620277
 20
506.5639005380417
 30
0.0
 10
359.8176506293366
 20
489.3233982623997
 30
0.0
 10
359.8176506293366
 20
489.3233982623997
 30
0.0
 10
368.3377263906041
 20
484.4265370625035
 30
0.0
 10
377.8511874584456
 20
486.4590880688747
 30
0.0
 10
388.464034313216
 20
489.6704620834753
 30
0.0
 10
388.464034313216
 20
489.6704620834753
 30
0.0
 10
411.8832487988257
 20
495.3941409428471
 30
0.0
 10
411.8832487988257
 20
495.3941409428471
 30
0.0
 10
418.5701397822468
 20
497.1777713165657
 30
0.0
 10
425.9909938440142
 20
498.3395103272305
 30
0.0
 10
433.5703563640163
 20
498.8353825433642
 30
0.0
  0
SPLINE
  5
2C3
330
43
100
AcDbEntity
  8
Premier plan
 62
   250
420
  1709851
370
     9
100
AcDbSpline
210
0.0
220
0.0
230
1.0
 70
     8
 71
     3
 72
     8
 73
     4
 74
     0
 42
0.0000000001
 43
0.0000000001
 12
1.0
 22
0.0
 32
0.0
 13
1.0
 23
0.0
 33
0.0
 40
0.0
 40
0.0
 40
0.0
 40
0.0
 40
1.0
 40
1.0
 40
1.0
 40
1.0
 10
550.7343609884538
 20
507.6792028057662
 30
0.0
 10
514.332220796372
 20
497.914031618946
 30
0.0
 10
483.2053274198061
 20
489.5485262175744
 30
0.0
 10
483.3991146756834
 20
489.5485262175744
 30
0.0
  0
SPLINE
  5
2C4
330
43
100
AcDbEntity
  8
Premier plan
 62
   250
420
  1709851
370
    20
100
AcDbSpline
210
0.0
220
0.0
230
1.0
 70
     8
 71
     3
 72
    14
 73
    10
 74
     0
 42
0.0000000001
 43
0.0000000001
 12
1.0
 22
0.0
 32
0.0
 13
1.0
 23
0.0
 33
0.0
 40
0.0
 40
0.0
 40
0.0
 40
0.0
 40
1.0
 40
1.0
 40
1.0
 40
2.0
 40
2.0
 40
2.0
 40
3.0
 40
3.0
 40
3.0
 40
3.0
 10
292.1411024603258
 20
446.4163400477501
 30
0.0
 10
292.1411024603258
 20
446.4163400477501
 30
0.0
 10
394.6301117910079
 20
387.2126267763579
 30
0.0
 10
394.6301117910079
 20
387.2126267763579
 30
0.0
 10
408.8002255767315
 20
379.00348038017
 30
0.0
 10
447.0852535214162
 20
377.0565830127216
 30
0.0
 10
475.9479044392028
 20
384.5478468314705
 30
0.0
 10
475.9479044392028
 20
384.5478468314705
 30
0.0
 10
597.3822844524184
 20
416.8052863576995
 30
0.0
 10
597.3822844524184
 20
416.8052863576995
 30
0.0
  0
SPLINE
  5
2C5
330
43
100
AcDbEntity
  8
Premier plan
 62
   250
420
  1709851
370
     9
100
AcDbSpline
210
0.0
220
0.0
230
1.0
 70
     8
 71
     3
 72
    11
 73
     7
 74
     0
 42
0.0000000001
 43
0.0000000001
 12
1.0
 22
0.0
 32
0.0
 13
1.0
 23
0.0
 33
0.0
 40
0.0
 40
0.0
 40
0.0
 40
0.0
 40
1.0
 40
1.0
 40
1.0
 40
2.0
 40
2.0
 40
2.0
 40
2.0
 10
505.8777800074604
 20
411.493283957665
 30
0.0
 10
505.9243808378305
 20
411.9179422287943
 30
0.0
 10
505.5958778012009
 20
412.4059382482455
 30
0.0
 10
504.887512362071
 20
412.9571079285879
 30
0.0
 10
501.7516374704301
 20
414.9136864544589
 30
0.0
 10
499.7725789665274
 20
416.7708279972139
 30
0.0
 10
498.9554235607211
 20
418.5295170814379
 30
0.0
  0
SPLINE
  5
2C6
330
43
100
AcDbEntity
  8
Premier plan
 62
   250
420
  1709851
370
    20
100
AcDbSpline
210
0.0
220
0.0
230
1.0
 70
     8
 71
     3
 72
    20
 73
    16
 74
     0
 42
0.0000000001
 43
0.0000000001
 12
1.0
 22
0.0
 32
0.0
 13
1.0
 23
0.0
 33
0.0
 40
0.0
 40
0.0
 40
0.0
 40
0.0
 40
1.0
 40
1.0
 40
1.0
 40
2.0
 40
2.0
 40
2.0
 40
3.0
 40
3.0
 40
3.0
 40
4.0
 40
4.0
 40
4.0
 40
5.0
 40
5.0
 40
5.0
 40
5.0
 10
371.1642964750263
 20
421.3826693296633
 30
0.0
 10
371.0586241695364
 20
420.9933070259958
 30
0.0
 10
371.3132878622691
 20
420.5998081969119
 30
0.0
 10
371.9543920407323
 20
420.2737664717442
 30
0.0
 10
371.9543920407323
 20
420.2737664717442
 30
0.0
 10
403.7269548718341
 20
401.6319575363468
 30
0.0
 10
403.7269548718341
 20
401.6319575363468
 30
0.0
 10
411.8015332582472
 20
396.4730487093257
 30
0.0
 10
450.1346543369818
 20
394.7199385977528
 30
0.0
 10
463.7439017671386
 20
398.7556689603662
 30
0.0
 10
463.7439017671386
 20
398.7556689603662
 30
0.0
 10
504.1679889776387
 20
410.2601669145643
 30
0.0
 10
504.1679889776387
 20
410.2601669145643
 30
0.0
 10
505.2545759449586
 20
410.5847318528549
 30
0.0
 10
505.8249438547155
 20
410.9957708672209
 30
0.0
 10
505.8777800074604
 20
411.493283957665
 30
0.0
  0
SPLINE
  5
2C7
330
43
100
AcDbEntity
  8
Premier plan
 62
   250
420
  1709851
370
     9
100
AcDbSpline
210
0.0
220
0.0
230
1.0
 70
     8
 71
     3
 72
    11
 73
     7
 74
     0
 42
0.0000000001
 43
0.0000000001
 12
1.0
 22
0.0
 32
0.0
 13
1.0
 23
0.0
 33
0.0
 40
0.0
 40
0.0
 40
0.0
 40
0.0
 40
1.0
 40
1.0
 40
1.0
 40
2.0
 40
2.0
 40
2.0
 40
2.0
 10
385.0332943082758
 20
428.3931407267883
 30
0.0
 10
383.0270121565609
 20
425.8478164989028
 30
0.0
 10
379.0721620316599
 20
423.9376747159713
 30
0.0
 10
373.1689526181472
 20
422.6637171146012
 30
0.0
 10
371.9799750939546
 20
422.3376581774137
 30
0.0
 10
371.295730507165
 20
421.8632814147259
 30
0.0
 10
371.1642964750263
 20
421.3826693296633
 30
0.0
  0
POLYLINE
  5
2C8
330
43
100
AcDbEntity
  8
Premier plan
 62
   250
420
  1709851
370
     9
100
AcDb2dPolyline
 66
     1
 10
0.0
 20
0.0
 30
0.0
  0
VERTEX
  5
2C9
330
2C8
100
AcDbEntity
  8
Premier plan
 62
   250
420
  1709851
370
     9
100
AcDbVertex
100
AcDb2dVertex
 10
369.2365973369906
 20
476.9960018423135
 30
0.0
  0
VERTEX
  5
2CA
330
2C8
100
AcDbEntity
  8
Premier plan
 62
   250
420
  1709851
370
     9
100
AcDbVertex
100
AcDb2dVertex
 10
369.2365973369906
 20
429.7816485669364
 30
0.0
  0
SEQEND
  5
2CB
330
2C8
100
AcDbEntity
  8
Premier plan
 62
   250
420
  1709851
370
     9
  0
POLYLINE
  5
2CC
330
43
100
AcDbEntity
  8
Premier plan
 62
   250
420
  1709851
370
     9
100
AcDb2dPolyline
 66
     1
 10
0.0
 20
0.0
 30
0.0
  0
VERTEX
  5
2CD
330
2CC
100
AcDbEntity
  8
Premier plan
 62
   250
420
  1709851
370
     9
100
AcDbVertex
100
AcDb2dVertex
 10
519.5625259707194
 20
465.8183660504374
 30
0.0
  0
VERTEX
  5
2CE
330
2CC
100
AcDbEntity
  8
Premier plan
 62
   250
420
  1709851
370
     9
100
AcDbVertex
100
AcDb2dVertex
 10
519.5625259707194
 20
418.6040127750603
 30
0.0
  0
SEQEND
  5
2CF
330
2CC
100
AcDbEntity
  8
Premier plan
 62
   250
420
  1709851
370
     9
  0
POLYLINE
  5
2D0
330
43
100
AcDbEntity
  8
Premier plan
 62
   250
420
  1709851
370
    20
100
AcDb2dPolyline
 66
     1
 10
0.0
 20
0.0
 30
0.0
  0
VERTEX
  5
2D1
330
2D0
100
AcDbEntity
  8
Premier plan
 62
   250
420
  1709851
370
    20
100
AcDbVertex
100
AcDb2dVertex
 10
460.0694919273355
 20
551.0637758999692
 30
0.0
  0
VERTEX
  5
2D2
330
2D0
100
AcDbEntity
  8
Premier plan
 62
   250
420
  1709851
370
    20
100
AcDbVertex
100
AcDb2dVertex
 10
460.3084032267034
 20
427.9845630238851
 30
0.0
  0
VERTEX
  5
2D3
330
2D0
100
AcDbEntity
  8
Premier plan
 62
   250
420
  1709851
370
    20
100
AcDbVertex
100
AcDb2dVertex
 10
457.4239102791798
 20
401.5070870014433
 30
0.0
  0
VERTEX
  5
2D4
330
2D0
100
AcDbEntity
  8
Premier plan
 62
   250
420
  1709851
370
    20
100
AcDbVertex
100
AcDb2dVertex
 10
456.2062174545827
 20
397.8510549538978
 30
0.0
  0
VERTEX
  5
2D5
330
2D0
100
AcDbEntity
  8
Premier plan
 62
   250
420
  1709851
370
    20
100
AcDbVertex
100
AcDb2dVertex
 10
436.9610590358207
 20
399.5263876232311
 30
0.0
  0
VERTEX
  5
2D6
330
2D0
100
AcDbEntity
  8
Premier plan
 62
   250
420
  1709851
370
    20
100
AcDbVertex
100
AcDb2dVertex
 10
434.4035923380488
 20
424.9760199786115
 30
0.0
  0
VERTEX
  5
2D7
330
2D0
100
AcDbEntity
  8
Premier plan
 62
   250
420
  1709851
370
    20
100
AcDbVertex
100
AcDb2dVertex
 10
433.0784222462225
 20
551.7927958997125
 30
0.0
  0
SEQEND
  5
2D8
330
2D0
100
AcDbEntity
  8
Premier plan
 62
   250
420
  1709851
370
    20
  0
POLYLINE
  5
2D9
330
43
100
AcDbEntity
  8
Premier plan
 62
   250
420
  1709851
370
     9
100
AcDb2dPolyline
 66
     1
 10
0.0
 20
0.0
 30
0.0
  0
VERTEX
  5
2DA
330
2D9
100
AcDbEntity
  8
Premier plan
 62
   250
420
  1709851
370
     9
100
AcDbVertex
100
AcDb2dVertex
 10
456.2062174545827
 20
397.8510549538978
 30
0.0
  0
VERTEX
  5
2DB
330
2D9
100
AcDbEntity
  8
Premier plan
 62
   250
420
  1709851
370
     9
100
AcDbVertex
100
AcDb2dVertex
 10
458.0136405057783
 20
423.0730980426388
 30
0.0
  0
SEQEND
  5
2DC
330
2D9
100
AcDbEntity
  8
Premier plan
 62
   250
420
  1709851
370
     9
  0
SPLINE
  5
2DD
330
43
100
AcDbEntity
  8
Premier plan
 62
   250
420
  1709851
370
     9
100
AcDbSpline
210
0.0
220
0.0
230
1.0
 70
     8
 71
     3
 72
     8
 73
     4
 74
     0
 42
0.0000000001
 43
0.0000000001
 12
1.0
 22
0.0
 32
0.0
 13
1.0
 23
0.0
 33
0.0
 40
0.0
 40
0.0
 40
0.0
 40
0.0
 40
1.0
 40
1.0
 40
1.0
 40
1.0
 10
458.0136405057783
 20
423.0730980426388
 30
0.0
 10
457.5778242893502
 20
429.1776427338491
 30
0.0
 10
459.7442706393213
 20
432.3230346964801
 30
0.0
 10
460.3084032267034
 20
427.9845630238851
 30
0.0
  0
SPLINE
  5
2DE
330
43
100
AcDbEntity
  8
Premier plan
 62
   250
420
  1709851
370
     9
100
AcDbSpline
210
0.0
220
0.0
230
1.0
 70
     8
 71
     3
 72
    14
 73
    10
 74
     0
 42
0.0000000001
 43
0.0000000001
 12
1.0
 22
0.0
 32
0.0
 13
1.0
 23
0.0
 33
0.0
 40
0.0
 40
0.0
 40
0.0
 40
0.0
 40
1.0
 40
1.0
 40
1.0
 40
2.0
 40
2.0
 40
2.0
 40
3.0
 40
3.0
 40
3.0
 40
3.0
 10
458.0136405057783
 20
423.0730980426388
 30
0.0
 10
458.0136405057783
 20
423.0730980426388
 30
0.0
 10
450.19224902522
 20
438.6382676489457
 30
0.0
 10
450.19224902522
 20
438.6382676489457
 30
0.0
 10
447.7150210811524
 20
444.383624953949
 30
0.0
 10
443.8835795699906
 20
443.5953489359781
 30
0.0
 10
441.8500440390344
 20
439.7967249109934
 30
0.0
 10
441.8500440390344
 20
439.7967249109934
 30
0.0
 10
434.4035923380488
 20
424.9760199786115
 30
0.0
 10
434.4035923380488
 20
424.9760199786115
 30
0.0
  0
INSERT
  5
2E0
330
43
100
AcDbEntity
  8
Premier plan
100
AcDbBlockReference
  2
block 19
 10
0.0
 20
0.0
 30
0.0
  0
INSERT
  5
303
330
43
100
AcDbEntity
  8
Premier plan
100
AcDbBlockReference
  2
block 20
 10
0.0
 20
0.0
 30
0.0
  0
INSERT
  5
374
330
43
100
AcDbEntity
  8
Premier plan
100
AcDbBlockReference
  2
block 22
 10
0.0
 20
0.0
 30
0.0
  0
SPLINE
  5
37F
330
43
100
AcDbEntity
  8
Premier plan
 62
   250
420
  1709851
370
    20
100
AcDbSpline
210
0.0
220
0.0
230
1.0
 70
     8
 71
     3
 72
    14
 73
    10
 74
     0
 42
0.0000000001
 43
0.0000000001
 12
1.0
 22
0.0
 32
0.0
 13
1.0
 23
0.0
 33
0.0
 40
0.0
 40
0.0
 40
0.0
 40
0.0
 40
1.0
 40
1.0
 40
1.0
 40
2.0
 40
2.0
 40
2.0
 40
3.0
 40
3.0
 40
3.0
 40
3.0
 10
594.1870099107964
 20
432.706014760166
 30
0.0
 10
594.1870099107964
 20
432.706014760166
 30
0.0
 10
534.7117156248405
 20
416.8341657455348
 30
0.0
 10
534.7117156248405
 20
416.8341657455348
 30
0.0
 10
522.7097229745941
 20
413.1277588567082
 30
0.0
 10
510.7908858630162
 20
413.6925477938139
 30
0.0
 10
498.9554235607211
 20
418.5295170814379
 30
0.0
 10
498.9554235607211
 20
418.5295170814379
 30
0.0
 10
498.9554235607211
 20
408.8180193467661
 30
0.0
 10
498.9554235607211
 20
408.8180193467661
 30
0.0
  0
SPLINE
  5
380
330
43
100
AcDbEntity
  8
Premier plan
 62
   250
420
  1709851
370
    20
100
AcDbSpline
210
0.0
220
0.0
230
1.0
 70
     8
 71
     3
 72
    14
 73
    10
 74
     0
 42
0.0000000001
 43
0.0000000001
 12
1.0
 22
0.0
 32
0.0
 13
1.0
 23
0.0
 33
0.0
 40
0.0
 40
0.0
 40
0.0
 40
0.0
 40
1.0
 40
1.0
 40
1.0
 40
2.0
 40
2.0
 40
2.0
 40
3.0
 40
3.0
 40
3.0
 40
3.0
 10
298.2832231732064
 20
461.5087737656777
 30
0.0
 10
298.2832231732064
 20
461.5087737656777
 30
0.0
 10
356.1993586908975
 20
427.6816576264719
 30
0.0
 10
356.1993586908975
 20
427.6816576264719
 30
0.0
 10
363.8364799865703
 20
423.3704244674027
 30
0.0
 10
373.4477371632202
 20
423.6075308050313
 30
0.0
 10
385.0332943082758
 20
428.3931407267883
 30
0.0
 10
385.0332943082758
 20
428.3931407267883
 30
0.0
 10
385.0332943082758
 20
412.3673777019876
 30
0.0
 10
385.0332943082758
 20
412.3673777019876
 30
0.0
  0
ENDBLK
  5
46
330
43
100
AcDbEntity
  8
0
100
AcDbBlockEnd
  0
BLOCK
  5
49
330
47
100
AcDbEntity
  8
0
100
AcDbBlockBegin
  2
block 3
 70
     0
 10
0.0
 20
0.0
 30
0.0
  3
block 3
  1

  0
INSERT
  5
4C
330
47
100
AcDbEntity
  8
Premier plan
100
AcDbBlockReference
  2
block 4
 10
0.0
 20
0.0
 30
0.0
  0
INSERT
  5
D9
330
47
100
AcDbEntity
  8
Premier plan
100
AcDbBlockReference
  2
block 6
 10
0.0
 20
0.0
 30
0.0
  0
INSERT
  5
139
330
47
100
AcDbEntity
  8
Premier plan
100
AcDbBlockReference
  2
block 7
 10
0.0
 20
0.0
 30
0.0
  0
SPLINE
  5
1DE
330
47
100
AcDbEntity
  8
Premier plan
 62
   250
420
  1709851
370
    20
100
AcDbSpline
210
0.0
220
0.0
230
1.0
 70
    11
 71
     3
 72
   131
 73
   127
 74
     0
 42
0.0000000001
 43
0.0000000001
 12
1.0
 22
0.0
 32
0.0
 13
1.0
 23
0.0
 33
0.0
 40
0.0
 40
0.0
 40
0.0
 40
0.0
 40
1.0
 40
1.0
 40
1.0
 40
2.0
 40
2.0
 40
2.0
 40
3.0
 40
3.0
 40
3.0
 40
4.0
 40
4.0
 40
4.0
 40
5.0
 40
5.0
 40
5.0
 40
6.0
 40
6.0
 40
6.0
 40
7.0
 40
7.0
 40
7.0
 40
8.0
 40
8.0
 40
8.0
 40
9.0
 40
9.0
 40
9.0
 40
10.0
 40
10.0
 40
10.0
 40
11.0
 40
11.0
 40
11.0
 40
12.0
 40
12.0
 40
12.0
 40
13.0
 40
13.0
 40
13.0
 40
14.0
 40
14.0
 40
14.0
 40
15.0
 40
15.0
 40
15.0
 40
16.0
 40
16.0
 40
16.0
 40
17.0
 40
17.0
 40
17.0
 40
18.0
 40
18.0
 40
18.0
 40
19.0
 40
19.0
 40
19.0
 40
20.0
 40
20.0
 40
20.0
 40
21.0
 40
21.0
 40
21.0
 40
22.0
 40
22.0
 40
22.0
 40
23.0
 40
23.0
 40
23.0
 40
24.0
 40
24.0
 40
24.0
 40
25.0
 40
25.0
 40
25.0
 40
26.0
 40
26.0
 40
26.0
 40
27.0
 40
27.0
 40
27.0
 40
28.0
 40
28.0
 40
28.0
 40
29.0
 40
29.0
 40
29.0
 40
30.0
 40
30.0
 40
30.0
 40
31.0
 40
31.0
 40
31.0
 40
32.0
 40
32.0
 40
32.0
 40
33.0
 40
33.0
 40
33.0
 40
34.0
 40
34.0
 40
34.0
 40
35.0
 40
35.0
 40
35.0
 40
36.0
 40
36.0
 40
36.0
 40
37.0
 40
37.0
 40
37.0
 40
38.0
 40
38.0
 40
38.0
 40
39.0
 40
39.0
 40
39.0
 40
40.0
 40
40.0
 40
40.0
 40
41.0
 40
41.0
 40
41.0
 40
42.0
 40
42.0
 40
42.0
 40
42.0
 10
243.7553290158621
 20
461.9109520587763
 30
0.0
 10
243.7553290158621
 20
461.9109520587763
 30
0.0
 10
243.3436336517698
 20
468.9519437180461
 30
0.0
 10
243.3436336517698
 20
468.9519437180461
 30
0.0
 10
243.3523302856092
 20
469.2259697276231
 30
0.0
 10
243.1424737934385
 20
469.5031133983875
 30
0.0
 10
242.7419250427165
 20
469.7443219217885
 30
0.0
 10
242.7419250427165
 20
469.7443219217885
 30
0.0
 10
187.8991570418711
 20
501.9528796427467
 30
0.0
 10
187.8991570418711
 20
501.9528796427467
 30
0.0
 10
186.7029596405027
 20
502.6459849508037
 30
0.0
 10
185.1109734799056
 20
502.7388584366845
 30
0.0
 10
183.124695129045
 20
502.2324846249739
 30
0.0
 10
183.124695129045
 20
502.2324846249739
 30
0.0
 10
178.9088064765747
 20
501.0595876690095
 30
0.0
 10
178.9088064765747
 20
501.0595876690095
 30
0.0
 10
172.9550484250949
 20
499.9707034776566
 30
0.0
 10
168.6461124900579
 20
500.2319306676254
 30
0.0
 10
165.982153049642
 20
501.841464277175
 30
0.0
 10
165.982153049642
 20
501.841464277175
 30
0.0
 10
162.6595466616545
 20
503.7957455790138
 30
0.0
 10
162.6595466616545
 20
503.7957455790138
 30
0.0
 10
161.3895099466063
 20
504.6320992142337
 30
0.0
 10
159.7422362279531
 20
504.7531957382271
 30
0.0
 10
157.7177255056959
 20
504.1587069761317
 30
0.0
 10
157.7177255056959
 20
504.1587069761317
 30
0.0
 10
55.01884835091187
 20
476.6643811444956
 30
0.0
 10
55.01884835091187
 20
476.6643811444956
 30
0.0
 10
54.43305622265325
 20
476.5009500633332
 30
0.0
 10
54.06927438838102
 20
476.1627844318009
 30
0.0
 10
54.01250013729532
 20
475.8022657826268
 30
0.0
 10
54.01250013729532
 20
475.8022657826268
 30
0.0
 10
53.49808604147165
 20
468.1154259953946
 30
0.0
 10
53.49808604147165
 20
468.1154259953946
 30
0.0
 10
53.49808604147165
 20
468.1154259953946
 30
0.0
 10
40.42802990919972
 20
464.5284747562509
 30
0.0
 10
40.42802990919972
 20
464.5284747562509
 30
0.0
 10
38.43781345999832
 20
463.9019889451329
 30
0.0
 10
36.95315038535227
 20
462.6800298473336
 30
0.0
 10
36.99318771848721
 20
461.3020236027623
 30
0.0
 10
36.99318771848721
 20
461.3020236027623
 30
0.0
 10
36.99236728133201
 20
459.827880274559
 30
0.0
 10
36.99236728133201
 20
459.827880274559
 30
0.0
 10
36.99564902995098
 20
458.9224276800696
 30
0.0
 10
37.65659320155555
 20
457.9474382691133
 30
0.0
 10
39.26629089853486
 20
457.0283664653671
 30
0.0
 10
39.26629089853486
 20
457.0283664653671
 30
0.0
 10
39.62432967272616
 20
456.8544337886287
 30
0.0
 10
39.62432967272616
 20
456.8544337886287
 30
0.0
 10
39.62432967272616
 20
456.8544337886287
 30
0.0
 10
39.58347190243512
 20
406.9528206576488
 30
0.0
 10
39.58347190243512
 20
406.9528206576488
 30
0.0
 10
39.58347190243512
 20
406.0170468308024
 30
0.0
 10
40.12988304728242
 20
405.266330043014
 30
0.0
 10
40.94949976455246
 20
404.7430552259229
 30
0.0
 10
40.94949976455246
 20
404.7430552259229
 30
0.0
 10
46.96018644529522
 20
401.3228168165588
 30
0.0
 10
46.96018644529522
 20
401.3228168165588
 30
0.0
 10
47.08768237909226
 20
401.2530796584333
 30
0.0
 10
47.2319216136566
 20
401.2433985000116
 30
0.0
 10
47.39288500053863
 20
401.2939374287234
 30
0.0
 10
47.39288500053863
 20
401.2939374287234
 30
0.0
 10
48.55150635001701
 20
401.5935610775186
 30
0.0
 10
48.55150635001701
 20
401.5935610775186
 30
0.0
 10
48.55150635001701
 20
401.5935610775186
 30
0.0
 10
48.55150635001701
 20
402.7177240665114
 30
0.0
 10
48.55150635001701
 20
402.7177240665114
 30
0.0
 10
48.55150635001701
 20
402.7177240665114
 30
0.0
 10
105.2978625729265
 20
369.5540134103721
 30
0.0
 10
105.2978625729265
 20
369.5540134103721
 30
0.0
 10
105.2978625729265
 20
369.5540134103721
 30
0.0
 10
105.2978625729265
 20
367.3186661533146
 30
0.0
 10
105.2978625729265
 20
367.3186661533146
 30
0.0
 10
105.2978625729265
 20
367.1599777937627
 30
0.0
 10
105.4340551405612
 20
367.0159090294455
 30
0.0
 10
105.6631211940758
 20
366.8683944290806
 30
0.0
 10
105.6631211940758
 20
366.8683944290806
 30
0.0
 10
111.4519616682628
 20
363.3976170910046
 30
0.0
 10
111.4519616682628
 20
363.3976170910046
 30
0.0
 10
113.3875370029809
 20
362.4762661665864
 30
0.0
 10
116.1765391902336
 20
361.9698923548749
 30
0.0
 10
118.1227720834559
 20
361.9698923548749
 30
0.0
 10
120.1257873522673
 20
361.9698923548749
 30
0.0
 10
122.0390467963853
 20
362.1925746829766
 30
0.0
 10
123.7993767549178
 20
362.6956510616783
 30
0.0
 10
123.7993767549178
 20
362.6956510616783
 30
0.0
 10
131.6110870770535
 20
364.7675830514618
 30
0.0
 10
131.6110870770535
 20
364.7675830514618
 30
0.0
 10
132.0646247360182
 20
364.835022985555
 30
0.0
 10
132.2881118168843
 20
365.1361234212291
 30
0.0
 10
132.2881118168843
 20
365.6488966427441
 30
0.0
 10
132.2881118168843
 20
365.6488966427441
 30
0.0
 10
132.2881118168843
 20
367.2080554110125
 30
0.0
 10
132.2881118168843
 20
367.2080554110125
 30
0.0
 10
132.2881118168843
 20
367.2080554110125
 30
0.0
 10
238.8054675757876
 20
395.7607451718559
 30
0.0
 10
238.8054675757876
 20
395.7607451718559
 30
0.0
 10
238.8054675757876
 20
395.7607451718559
 30
0.0
 10
238.8054675757876
 20
394.5734085219719
 30
0.0
 10
238.8054675757876
 20
394.5734085219719
 30
0.0
 10
238.8054675757876
 20
394.5734085219719
 30
0.0
 10
239.8703950022309
 20
393.8827810103303
 30
0.0
 10
239.8703950022309
 20
393.8827810103303
 30
0.0
 10
240.0489221270336
 20
393.8177859027473
 30
0.0
 10
240.2453347818046
 20
393.807448394602
 30
0.0
 10
240.4607815785557
 20
393.850767476355
 30
0.0
 10
240.4607815785557
 20
393.850767476355
 30
0.0
 10
249.6915200029825
 20
396.260719573761
 30
0.0
 10
249.6915200029825
 20
396.260719573761
 30
0.0
 10
251.2762879478796
 20
396.8896666963428
 30
0.0
 10
252.6647842506172
 20
397.8504151893558
 30
0.0
 10
252.6647842506172
 20
399.028874532788
 30
0.0
 10
252.6647842506172
 20
399.028874532788
 30
0.0
 10
252.6775946430353
 20
449.0330423080713
 30
0.0
 10
252.6775946430353
 20
449.0330423080713
 30
0.0
 10
254.3650582094451
 20
449.7967052114082
 30
0.0
 10
255.2847682595548
 20
450.8366913483569
 30
0.0
 10
255.2831273852462
 20
451.9551112772679
 30
0.0
 10
255.2831273852462
 20
451.9551112772679
 30
0.0
 10
255.2814865109376
 20
453.4036751171197
 30
0.0
 10
255.2814865109376
 20
453.4036751171197
 30
0.0
 10
255.3167653085775
 20
454.4533424124902
 30
0.0
 10
254.5380063615967
 20
455.5750440900192
 30
0.0
 10
252.815428088461
 20
456.6037081942359
 30
0.0
 10
252.815428088461
 20
456.6037081942359
 30
0.0
 10
243.7553290158621
 20
461.9109520587763
 30
0.0
 10
243.7553290158621
 20
461.9109520587763
 30
0.0
  0
POLYLINE
  5
1DF
330
47
100
AcDbEntity
  8
Premier plan
 62
   250
420
  1709851
370
     9
100
AcDb2dPolyline
 66
     1
 10
0.0
 20
0.0
 30
0.0
  0
VERTEX
  5
1E0
330
1DF
100
AcDbEntity
  8
Premier plan
 62
   250
420
  1709851
370
     9
100
AcDbVertex
100
AcDb2dVertex
 10
47.65805028884824
 20
452.221917439887
 30
0.0
  0
VERTEX
  5
1E1
330
1DF
100
AcDbEntity
  8
Premier plan
 62
   250
420
  1709851
370
     9
100
AcDbVertex
100
AcDb2dVertex
 10
47.65805028884824
 20
403.256915364399
 30
0.0
  0
SEQEND
  5
1E2
330
1DF
100
AcDbEntity
  8
Premier plan
 62
   250
420
  1709851
370
     9
  0
POLYLINE
  5
1E3
330
47
100
AcDbEntity
  8
Premier plan
 62
   250
420
  1709851
370
     9
100
AcDb2dPolyline
 66
     1
 10
0.0
 20
0.0
 30
0.0
  0
VERTEX
  5
1E4
330
1E3
100
AcDbEntity
  8
Premier plan
 62
   250
420
  1709851
370
     9
100
AcDbVertex
100
AcDb2dVertex
 10
48.55150635001701
 20
402.7177240665114
 30
0.0
  0
VERTEX
  5
1E5
330
1E3
100
AcDbEntity
  8
Premier plan
 62
   250
420
  1709851
370
     9
100
AcDbVertex
100
AcDb2dVertex
 10
47.65805028884824
 20
403.256915364399
 30
0.0
  0
SEQEND
  5
1E6
330
1E3
100
AcDbEntity
  8
Premier plan
 62
   250
420
  1709851
370
     9
  0
POLYLINE
  5
1E7
330
47
100
AcDbEntity
  8
Premier plan
 62
   250
420
  1709851
370
     9
100
AcDb2dPolyline
 66
     1
 10
0.0
 20
0.0
 30
0.0
  0
VERTEX
  5
1E8
330
1E7
100
AcDbEntity
  8
Premier plan
 62
   250
420
  1709851
370
     9
100
AcDbVertex
100
AcDb2dVertex
 10
47.12607883791952
 20
452.4598442146698
 30
0.0
  0
VERTEX
  5
1E9
330
1E7
100
AcDbEntity
  8
Premier plan
 62
   250
420
  1709851
370
     9
100
AcDbVertex
100
AcDb2dVertex
 10
47.12607883791952
 20
401.3764734064589
 30
0.0
  0
SEQEND
  5
1EA
330
1E7
100
AcDbEntity
  8
Premier plan
 62
   250
420
  1709851
370
     9
  0
POLYLINE
  5
1EB
330
47
100
AcDbEntity
  8
Premier plan
 62
   250
420
  1709851
370
    20
100
AcDb2dPolyline
 66
     1
 10
0.0
 20
0.0
 30
0.0
  0
VERTEX
  5
1EC
330
1EB
100
AcDbEntity
  8
Premier plan
 62
   250
420
  1709851
370
    20
100
AcDbVertex
100
AcDb2dVertex
 10
132.2881118168843
 20
367.2080554110125
 30
0.0
  0
VERTEX
  5
1ED
330
1EB
100
AcDbEntity
  8
Premier plan
 62
   250
420
  1709851
370
    20
100
AcDbVertex
100
AcDb2dVertex
 10
132.2881118168843
 20
417.0921111868865
 30
0.0
  0
SEQEND
  5
1EE
330
1EB
100
AcDbEntity
  8
Premier plan
 62
   250
420
  1709851
370
    20
  0
POLYLINE
  5
1EF
330
47
100
AcDbEntity
  8
Premier plan
 62
   250
420
  1709851
370
    20
100
AcDb2dPolyline
 66
     1
 10
0.0
 20
0.0
 30
0.0
  0
VERTEX
  5
1F0
330
1EF
100
AcDbEntity
  8
Premier plan
 62
   250
420
  1709851
370
    20
100
AcDbVertex
100
AcDb2dVertex
 10
105.2978625729265
 20
369.5540134103721
 30
0.0
  0
VERTEX
  5
1F1
330
1EF
100
AcDbEntity
  8
Premier plan
 62
   250
420
  1709851
370
    20
100
AcDbVertex
100
AcDb2dVertex
 10
105.2978625729265
 20
419.1448449472564
 30
0.0
  0
SEQEND
  5
1F2
330
1EF
100
AcDbEntity
  8
Premier plan
 62
   250
420
  1709851
370
    20
  0
POLYLINE
  5
1F3
330
47
100
AcDbEntity
  8
Premier plan
 62
   250
420
  1709851
370
     9
100
AcDb2dPolyline
 66
     1
 10
0.0
 20
0.0
 30
0.0
  0
VERTEX
  5
1F4
330
1F3
100
AcDbEntity
  8
Premier plan
 62
   250
420
  1709851
370
     9
100
AcDbVertex
100
AcDb2dVertex
 10
238.7790494994151
 20
396.0717073936312
 30
0.0
  0
VERTEX
  5
1F5
330
1F3
100
AcDbEntity
  8
Premier plan
 62
   250
420
  1709851
370
     9
100
AcDbVertex
100
AcDb2dVertex
 10
238.7790494994151
 20
445.2170250154122
 30
0.0
  0
SEQEND
  5
1F6
330
1F3
100
AcDbEntity
  8
Premier plan
 62
   250
420
  1709851
370
     9
  0
POLYLINE
  5
1F7
330
47
100
AcDbEntity
  8
Premier plan
 62
   250
420
  1709851
370
     9
100
AcDb2dPolyline
 66
     1
 10
0.0
 20
0.0
 30
0.0
  0
VERTEX
  5
1F8
330
1F7
100
AcDbEntity
  8
Premier plan
 62
   250
420
  1709851
370
     9
100
AcDbVertex
100
AcDb2dVertex
 10
240.0738634165282
 20
394.3138222063117
 30
0.0
  0
VERTEX
  5
1F9
330
1F7
100
AcDbEntity
  8
Premier plan
 62
   250
420
  1709851
370
     9
100
AcDbVertex
100
AcDb2dVertex
 10
240.0738634165282
 20
445.5319087952812
 30
0.0
  0
SEQEND
  5
1FA
330
1F7
100
AcDbEntity
  8
Premier plan
 62
   250
420
  1709851
370
     9
  0
SPLINE
  5
1FB
330
47
100
AcDbEntity
  8
Premier plan
 62
   250
420
  1709851
370
     9
100
AcDbSpline
210
0.0
220
0.0
230
1.0
 70
     8
 71
     3
 72
    20
 73
    16
 74
     0
 42
0.0000000001
 43
0.0000000001
 12
1.0
 22
0.0
 32
0.0
 13
1.0
 23
0.0
 33
0.0
 40
0.0
 40
0.0
 40
0.0
 40
0.0
 40
1.0
 40
1.0
 40
1.0
 40
2.0
 40
2.0
 40
2.0
 40
3.0
 40
3.0
 40
3.0
 40
4.0
 40
4.0
 40
4.0
 40
5.0
 40
5.0
 40
5.0
 40
5.0
 10
36.99318771848721
 20
461.3020236027623
 30
0.0
 10
37.01878535770629
 20
460.4102084159031
 30
0.0
 10
37.68465215223569
 20
459.4527582566898
 30
0.0
 10
39.26629089853486
 20
458.5491287748073
 30
0.0
 10
39.26629089853486
 20
458.5491287748073
 30
0.0
 10
111.0704583914558
 20
417.0712720831643
 30
0.0
 10
111.0704583914558
 20
417.0712720831643
 30
0.0
 10
113.5567111442233
 20
415.6307485274265
 30
0.0
 10
120.2731378652015
 20
415.2894466711859
 30
0.0
 10
125.3368759823088
 20
416.604279254866
 30
0.0
 10
125.3368759823088
 20
416.604279254866
 30
0.0
 10
251.3773542678937
 20
450.0682699095232
 30
0.0
 10
251.3773542678937
 20
450.0682699095232
 30
0.0
 10
253.8434242666626
 20
450.8237284413181
 30
0.0
 10
255.2366906423058
 20
452.0537278232305
 30
0.0
 10
255.2814865109376
 20
453.4036751171197
 30
0.0
  0
SPLINE
  5
1FC
330
47
100
AcDbEntity
  8
Premier plan
 62
   250
420
  1709851
370
     9
100
AcDbSpline
210
0.0
220
0.0
230
1.0
 70
     8
 71
     3
 72
    14
 73
    10
 74
     0
 42
0.0000000001
 43
0.0000000001
 12
1.0
 22
0.0
 32
0.0
 13
1.0
 23
0.0
 33
0.0
 40
0.0
 40
0.0
 40
0.0
 40
0.0
 40
1.0
 40
1.0
 40
1.0
 40
2.0
 40
2.0
 40
2.0
 40
3.0
 40
3.0
 40
3.0
 40
3.0
 10
232.8709174629757
 20
463.7408550880036
 30
0.0
 10
232.8380999767987
 20
464.7152062525984
 30
0.0
 10
233.8925258076652
 20
465.577321614468
 30
0.0
 10
235.7521286618839
 20
466.1629496552951
 30
0.0
 10
235.7521286618839
 20
466.1629496552951
 30
0.0
 10
241.4037920438495
 20
467.7173498880684
 30
0.0
 10
241.4037920438495
 20
467.7173498880684
 30
0.0
 10
242.6424880596005
 20
467.9664346081508
 30
0.0
 10
243.3739898264848
 20
468.4583687259437
 30
0.0
 10
243.3436336517698
 20
468.9519437180461
 30
0.0
  0
SPLINE
  5
1FD
330
47
100
AcDbEntity
  8
Premier plan
 62
   250
420
  1709851
370
     9
100
AcDbSpline
210
0.0
220
0.0
230
1.0
 70
     8
 71
     3
 72
    32
 73
    28
 74
     0
 42
0.0000000001
 43
0.0000000001
 12
1.0
 22
0.0
 32
0.0
 13
1.0
 23
0.0
 33
0.0
 40
0.0
 40
0.0
 40
0.0
 40
0.0
 40
1.0
 40
1.0
 40
1.0
 40
2.0
 40
2.0
 40
2.0
 40
3.0
 40
3.0
 40
3.0
 40
4.0
 40
4.0
 40
4.0
 40
5.0
 40
5.0
 40
5.0
 40
6.0
 40
6.0
 40
6.0
 40
7.0
 40
7.0
 40
7.0
 40
8.0
 40
8.0
 40
8.0
 40
9.0
 40
9.0
 40
9.0
 40
9.0
 10
48.98896344075547
 20
465.5715785543862
 30
0.0
 10
48.98732256644689
 20
465.2896763481258
 30
0.0
 10
49.14435423780378
 20
464.9971084588587
 30
0.0
 10
49.51601870927425
 20
464.7511413999619
 30
0.0
 10
49.51601870927425
 20
464.7511413999619
 30
0.0
 10
104.1256219666848
 20
432.7757519182915
 30
0.0
 10
104.1256219666848
 20
432.7757519182915
 30
0.0
 10
105.6511428116219
 20
431.8991968625051
 30
0.0
 10
107.940162472466
 20
431.9794356162074
 30
0.0
 10
109.8398026598197
 20
432.55472614889
 30
0.0
 10
109.8398026598197
 20
432.55472614889
 30
0.0
 10
113.8458331974416
 20
433.6314678703566
 30
0.0
 10
113.8458331974416
 20
433.6314678703566
 30
0.0
 10
118.0258045830233
 20
434.746770138081
 30
0.0
 10
123.7383362306291
 20
434.0513851056858
 30
0.0
 10
125.4978457520065
 20
433.0747192173649
 30
0.0
 10
125.4978457520065
 20
433.0747192173649
 30
0.0
 10
129.930175435069
 20
430.6165254152775
 30
0.0
 10
129.930175435069
 20
430.6165254152775
 30
0.0
 10
131.4580020145822
 20
429.9851169812327
 30
0.0
 10
133.3225189811819
 20
429.9851169812327
 30
0.0
 10
135.5257295289784
 20
430.6165254152775
 30
0.0
 10
135.5257295289784
 20
430.6165254152775
 30
0.0
 10
236.6823514763064
 20
457.9425156460629
 30
0.0
 10
236.6823514763064
 20
457.9425156460629
 30
0.0
 10
237.6598091333517
 20
458.2037247327944
 30
0.0
 10
238.170121043403
 20
458.5346890808887
 30
0.0
 10
238.2126196880008
 20
458.9352446279945
 30
0.0
  0
SPLINE
  5
1FE
330
47
100
AcDbEntity
  8
Premier plan
 62
   250
420
  1709851
370
     9
100
AcDbSpline
210
0.0
220
0.0
230
1.0
 70
     8
 71
     3
 72
    14
 73
    10
 74
     0
 42
0.0000000001
 43
0.0000000001
 12
1.0
 22
0.0
 32
0.0
 13
1.0
 23
0.0
 33
0.0
 40
0.0
 40
0.0
 40
0.0
 40
0.0
 40
1.0
 40
1.0
 40
1.0
 40
2.0
 40
2.0
 40
2.0
 40
3.0
 40
3.0
 40
3.0
 40
3.0
 10
54.03251880386324
 20
475.8022657826268
 30
0.0
 10
53.96671974407855
 20
475.4384839483546
 30
0.0
 10
54.15033357923949
 20
475.0282653711429
 30
0.0
 10
54.67426474605327
 20
474.6741646952923
 30
0.0
 10
54.67426474605327
 20
474.6741646952923
 30
0.0
 10
58.3542535585093
 20
472.4107426736673
 30
0.0
 10
58.3542535585093
 20
472.4107426736673
 30
0.0
 10
59.04719477913477
 20
471.9412885339061
 30
0.0
 10
59.2780657943913
 20
471.075070986265
 30
0.0
 10
58.93512306384127
 20
470.2490732733168
 30
0.0
  0
INSERT
  5
200
330
47
100
AcDbEntity
  8
Premier plan
100
AcDbBlockReference
  2
block 8
 10
0.0
 20
0.0
 30
0.0
  0
INSERT
  5
205
330
47
100
AcDbEntity
  8
Premier plan
100
AcDbBlockReference
  2
block 9
 10
0.0
 20
0.0
 30
0.0
  0
INSERT
  5
20A
330
47
100
AcDbEntity
  8
Premier plan
100
AcDbBlockReference
  2
block 10
 10
0.0
 20
0.0
 30
0.0
  0
INSERT
  5
20F
330
47
100
AcDbEntity
  8
Premier plan
100
AcDbBlockReference
  2
block 11
 10
0.0
 20
0.0
 30
0.0
  0
SPLINE
  5
213
330
47
100
AcDbEntity
  8
Premier plan
 62
   250
420
  1709851
370
     9
100
AcDbSpline
210
0.0
220
0.0
230
1.0
 70
     8
 71
     3
 72
    14
 73
    10
 74
     0
 42
0.0000000001
 43
0.0000000001
 12
1.0
 22
0.0
 32
0.0
 13
1.0
 23
0.0
 33
0.0
 40
0.0
 40
0.0
 40
0.0
 40
0.0
 40
1.0
 40
1.0
 40
1.0
 40
2.0
 40
2.0
 40
2.0
 40
3.0
 40
3.0
 40
3.0
 40
3.0
 10
60.16019982282796
 20
470.9885969101879
 30
0.0
 10
60.17135776812756
 20
469.6481666872905
 30
0.0
 10
59.3612648110784
 20
468.2365225193871
 30
0.0
 10
57.632268862616
 20
467.7821644232663
 30
0.0
 10
57.632268862616
 20
467.7821644232663
 30
0.0
 10
51.76187693527936
 20
466.2254669664617
 30
0.0
 10
51.76187693527936
 20
466.2254669664617
 30
0.0
 10
51.13621156131467
 20
466.0339769346201
 30
0.0
 10
50.61769527971865
 20
465.8216477990545
 30
0.0
 10
50.72435210979347
 20
465.5115225546824
 30
0.0
  0
SPLINE
  5
214
330
47
100
AcDbEntity
  8
Premier plan
 62
   250
420
  1709851
370
     9
100
AcDbSpline
210
0.0
220
0.0
230
1.0
 70
     8
 71
     3
 72
    14
 73
    10
 74
     0
 42
0.0000000001
 43
0.0000000001
 12
1.0
 22
0.0
 32
0.0
 13
1.0
 23
0.0
 33
0.0
 40
0.0
 40
0.0
 40
0.0
 40
0.0
 40
1.0
 40
1.0
 40
1.0
 40
2.0
 40
2.0
 40
2.0
 40
3.0
 40
3.0
 40
3.0
 40
3.0
 10
236.3154408121109
 20
459.0025204763569
 30
0.0
 10
236.4644321993546
 20
459.2309120501341
 30
0.0
 10
236.228802648604
 20
459.4824580816803
 30
0.0
 10
235.6118339084769
 20
459.8012799598891
 30
0.0
 10
235.6118339084769
 20
459.8012799598891
 30
0.0
 10
232.9478744680609
 20
461.3620977920891
 30
0.0
 10
232.9478744680609
 20
461.3620977920891
 30
0.0
 10
232.1026711646173
 20
461.9037322118174
 30
0.0
 10
231.6844012502479
 20
462.5526980009663
 30
0.0
 10
231.593004551245
 20
463.2185647954975
 30
0.0
  0
SPLINE
  5
215
330
47
100
AcDbEntity
  8
Premier plan
 62
   250
420
  1709851
370
    20
100
AcDbSpline
210
0.0
220
0.0
230
1.0
 70
     8
 71
     3
 72
    32
 73
    28
 74
     0
 42
0.0000000001
 43
0.0000000001
 12
1.0
 22
0.0
 32
0.0
 13
1.0
 23
0.0
 33
0.0
 40
0.0
 40
0.0
 40
0.0
 40
0.0
 40
1.0
 40
1.0
 40
1.0
 40
2.0
 40
2.0
 40
2.0
 40
3.0
 40
3.0
 40
3.0
 40
4.0
 40
4.0
 40
4.0
 40
5.0
 40
5.0
 40
5.0
 40
6.0
 40
6.0
 40
6.0
 40
7.0
 40
7.0
 40
7.0
 40
8.0
 40
8.0
 40
8.0
 40
9.0
 40
9.0
 40
9.0
 40
9.0
 10
50.64263656921321
 20
465.5115225546824
 30
0.0
 10
50.65379451451372
 20
465.3649924789024
 30
0.0
 10
50.78686942096101
 20
465.1974592119695
 30
0.0
 10
51.08485219544764
 20
464.9995697703216
 30
0.0
 10
51.08485219544764
 20
464.9995697703216
 30
0.0
 10
104.9629601264905
 20
433.4647550405771
 30
0.0
 10
104.9629601264905
 20
433.4647550405771
 30
0.0
 10
106.4579607092819
 20
432.6051009901712
 30
0.0
 10
108.1268939688125
 20
432.9616629774846
 30
0.0
 10
109.9889581344933
 20
433.5249751277124
 30
0.0
 10
109.9889581344933
 20
433.5249751277124
 30
0.0
 10
114.0975513884041
 20
434.5296824670195
 30
0.0
 10
114.0975513884041
 20
434.5296824670195
 30
0.0
 10
118.1948146411041
 20
435.621701858925
 30
0.0
 10
123.8586123174673
 20
435.3845779819303
 30
0.0
 10
126.7926596691195
 20
433.4919935541038
 30
0.0
 10
126.7926596691195
 20
433.4919935541038
 30
0.0
 10
129.8773392823241
 20
431.7694037046749
 30
0.0
 10
129.8773392823241
 20
431.7694037046749
 30
0.0
 10
131.373980739424
 20
431.1501377405157
 30
0.0
 10
132.7889066559446
 20
430.8585543758336
 30
0.0
 10
134.9473127218043
 20
431.4778203399928
 30
0.0
 10
134.9473127218043
 20
431.4778203399928
 30
0.0
 10
234.8283164260019
 20
458.3799546335658
 30
0.0
 10
234.8283164260019
 20
458.3799546335658
 30
0.0
 10
235.678453405415
 20
458.5899865450974
 30
0.0
 10
236.172039553363
 20
458.7854146752816
 30
0.0
 10
236.3154408121109
 20
459.0025204763569
 30
0.0
  0
SPLINE
  5
216
330
47
100
AcDbEntity
  8
Premier plan
 62
   250
420
  1709851
370
     9
100
AcDbSpline
210
0.0
220
0.0
230
1.0
 70
     8
 71
     3
 72
    14
 73
    10
 74
     0
 42
0.0000000001
 43
0.0000000001
 12
1.0
 22
0.0
 32
0.0
 13
1.0
 23
0.0
 33
0.0
 40
0.0
 40
0.0
 40
0.0
 40
0.0
 40
1.0
 40
1.0
 40
1.0
 40
2.0
 40
2.0
 40
2.0
 40
3.0
 40
3.0
 40
3.0
 40
3.0
 10
165.0847588901324
 20
439.5884979612001
 30
0.0
 10
165.0847588901324
 20
439.5884979612001
 30
0.0
 10
161.7885705785184
 20
441.5281754816906
 30
0.0
 10
161.7885705785184
 20
441.5281754816906
 30
0.0
 10
160.5442955901171
 20
442.3477921989597
 30
0.0
 10
160.1685353733919
 20
442.5537219247208
 30
0.0
 10
158.183897896839
 20
441.9712115450793
 30
0.0
 10
158.183897896839
 20
441.9712115450793
 30
0.0
 10
126.5617886538639
 20
433.5041360239893
 30
0.0
 10
126.6443246315994
 20
433.5041360239893
 30
0.0
  0
POLYLINE
  5
217
330
47
100
AcDbEntity
  8
Premier plan
 62
   250
420
  1709851
370
     9
100
AcDb2dPolyline
 66
     1
 10
0.0
 20
0.0
 30
0.0
  0
VERTEX
  5
218
330
217
100
AcDbEntity
  8
Premier plan
 62
   250
420
  1709851
370
     9
100
AcDbVertex
100
AcDb2dVertex
 10
160.0492438111387
 20
502.2036052371386
 30
0.0
  0
VERTEX
  5
219
330
217
100
AcDbEntity
  8
Premier plan
 62
   250
420
  1709851
370
     9
100
AcDbVertex
100
AcDb2dVertex
 10
160.0492438111387
 20
443.1610095064252
 30
0.0
  0
SEQEND
  5
21A
330
217
100
AcDbEntity
  8
Premier plan
 62
   250
420
  1709851
370
     9
  0
POLYLINE
  5
21B
330
47
100
AcDbEntity
  8
Premier plan
 62
   250
420
  1709851
370
     9
100
AcDb2dPolyline
 66
     1
 10
0.0
 20
0.0
 30
0.0
  0
VERTEX
  5
21C
330
21B
100
AcDbEntity
  8
Premier plan
 62
   250
420
  1709851
370
     9
100
AcDbVertex
100
AcDb2dVertex
 10
171.4992647382833
 20
497.7153217401446
 30
0.0
  0
VERTEX
  5
21D
330
21B
100
AcDbEntity
  8
Premier plan
 62
   250
420
  1709851
370
     9
100
AcDbVertex
100
AcDb2dVertex
 10
171.4992647382833
 20
442.7532522406764
 30
0.0
  0
SEQEND
  5
21E
330
21B
100
AcDbEntity
  8
Premier plan
 62
   250
420
  1709851
370
     9
  0
POLYLINE
  5
21F
330
47
100
AcDbEntity
  8
Premier plan
 62
   250
420
  1709851
370
     9
100
AcDb2dPolyline
 66
     1
 10
0.0
 20
0.0
 30
0.0
  0
VERTEX
  5
220
330
21F
100
AcDbEntity
  8
Premier plan
 62
   250
420
  1709851
370
     9
100
AcDbVertex
100
AcDb2dVertex
 10
186.0772843603872
 20
500.2992065142889
 30
0.0
  0
VERTEX
  5
221
330
21F
100
AcDbEntity
  8
Premier plan
 62
   250
420
  1709851
370
     9
100
AcDbVertex
100
AcDb2dVertex
 10
186.0772843603872
 20
446.1792337101215
 30
0.0
  0
SEQEND
  5
222
330
21F
100
AcDbEntity
  8
Premier plan
 62
   250
420
  1709851
370
     9
  0
SPLINE
  5
223
330
47
100
AcDbEntity
  8
Premier plan
 62
   250
420
  1709851
370
     9
100
AcDbSpline
210
0.0
220
0.0
230
1.0
 70
     8
 71
     3
 72
    14
 73
    10
 74
     0
 42
0.0000000001
 43
0.0000000001
 12
1.0
 22
0.0
 32
0.0
 13
1.0
 23
0.0
 33
0.0
 40
0.0
 40
0.0
 40
0.0
 40
0.0
 40
1.0
 40
1.0
 40
1.0
 40
2.0
 40
2.0
 40
2.0
 40
3.0
 40
3.0
 40
3.0
 40
3.0
 10
48.39677190269231
 20
455.6367409640316
 30
0.0
 10
48.49703573773968
 20
455.3185754355454
 30
0.0
 10
48.70131817441415
 20
455.0798282236083
 30
0.0
 10
49.08511867525431
 20
454.9163971424477
 30
0.0
 10
49.08511867525431
 20
454.9163971424477
 30
0.0
 10
104.3282699438278
 20
422.650080645818
 30
0.0
 10
104.3282699438278
 20
422.650080645818
 30
0.0
 10
105.6680438170024
 20
421.8938016768698
 30
0.0
 10
107.3545344316371
 20
421.9354798843142
 30
0.0
 10
109.3872495254382
 20
422.7751152681531
 30
0.0
  0
SPLINE
  5
224
330
47
100
AcDbEntity
  8
Premier plan
 62
   250
420
  1709851
370
    20
100
AcDbSpline
210
0.0
220
0.0
230
1.0
 70
     8
 71
     3
 72
    14
 73
    10
 74
     0
 42
0.0000000001
 43
0.0000000001
 12
1.0
 22
0.0
 32
0.0
 13
1.0
 23
0.0
 33
0.0
 40
0.0
 40
0.0
 40
0.0
 40
0.0
 40
1.0
 40
1.0
 40
1.0
 40
2.0
 40
2.0
 40
2.0
 40
3.0
 40
3.0
 40
3.0
 40
3.0
 10
40.77097263974883
 20
461.2995622912986
 30
0.0
 10
40.76375279279
 20
460.7355937913471
 30
0.0
 10
41.12589375275275
 20
460.1450431275935
 30
0.0
 10
41.96717001090019
 20
459.5986319827471
 30
0.0
 10
41.96717001090019
 20
459.5986319827471
 30
0.0
 10
47.1733360180142
 20
456.4666951894478
 30
0.0
 10
47.1733360180142
 20
456.4666951894478
 30
0.0
 10
47.59881472629877
 20
456.2015479603942
 30
0.0
 10
48.24860095260374
 20
456.389081834639
 30
0.0
 10
48.33835677729621
 20
456.7326809149126
 30
0.0
  0
SPLINE
  5
225
330
47
100
AcDbEntity
  8
Premier plan
 62
   250
420
  1709851
370
     9
100
AcDbSpline
210
0.0
220
0.0
230
1.0
 70
     8
 71
     3
 72
    11
 73
     7
 74
     0
 42
0.0000000001
 43
0.0000000001
 12
1.0
 22
0.0
 32
0.0
 13
1.0
 23
0.0
 33
0.0
 40
0.0
 40
0.0
 40
0.0
 40
0.0
 40
1.0
 40
1.0
 40
1.0
 40
2.0
 40
2.0
 40
2.0
 40
2.0
 10
48.92956379077532
 20
465.1132823599255
 30
0.0
 10
48.92956379077532
 20
465.1132823599255
 30
0.0
 10
43.31957861625324
 20
463.5613434386159
 30
0.0
 10
43.31957861625324
 20
463.5613434386159
 30
0.0
 10
41.79799586965692
 20
463.0887716376674
 30
0.0
 10
40.78213058505025
 20
462.2297739369851
 30
0.0
 10
40.77097263974883
 20
461.2995622912986
 30
0.0
  0
SPLINE
  5
226
330
47
100
AcDbEntity
  8
Premier plan
 62
   250
420
  1709851
370
    20
100
AcDbSpline
210
0.0
220
0.0
230
1.0
 70
     8
 71
     3
 72
    14
 73
    10
 74
     0
 42
0.0000000001
 43
0.0000000001
 12
1.0
 22
0.0
 32
0.0
 13
1.0
 23
0.0
 33
0.0
 40
0.0
 40
0.0
 40
0.0
 40
0.0
 40
1.0
 40
1.0
 40
1.0
 40
2.0
 40
2.0
 40
2.0
 40
3.0
 40
3.0
 40
3.0
 40
3.0
 10
251.4277291091757
 20
453.3155601667349
 30
0.0
 10
251.2290192303735
 20
452.452624367711
 30
0.0
 10
250.1795160224337
 20
451.6138094210273
 30
0.0
 10
248.3824304793825
 20
451.128274713039
 30
0.0
 10
248.3824304793825
 20
451.128274713039
 30
0.0
 10
240.4263232180683
 20
448.9954662863984
 30
0.0
 10
240.4263232180683
 20
448.9954662863984
 30
0.0
 10
239.8999307397899
 20
448.8592737187628
 30
0.0
 10
239.2606461090627
 20
449.2173124929541
 30
0.0
 10
238.9616788099902
 20
449.5346754751235
 30
0.0
  0
SPLINE
  5
227
330
47
100
AcDbEntity
  8
Premier plan
 62
   250
420
  1709851
370
     9
100
AcDbSpline
210
0.0
220
0.0
230
1.0
 70
     8
 71
     3
 72
    17
 73
    13
 74
     0
 42
0.0000000001
 43
0.0000000001
 12
1.0
 22
0.0
 32
0.0
 13
1.0
 23
0.0
 33
0.0
 40
0.0
 40
0.0
 40
0.0
 40
0.0
 40
1.0
 40
1.0
 40
1.0
 40
2.0
 40
2.0
 40
2.0
 40
3.0
 40
3.0
 40
3.0
 40
4.0
 40
4.0
 40
4.0
 40
4.0
 10
242.4974347706975
 20
458.3246571693571
 30
0.0
 10
242.9301333259418
 20
458.1083899354498
 30
0.0
 10
243.4084481869695
 20
458.0739315749652
 30
0.0
 10
243.9323793537869
 20
458.2221025250537
 30
0.0
 10
244.5165306077351
 20
458.3960352017921
 30
0.0
 10
244.9283900592573
 20
458.4232918307007
 30
0.0
 10
245.4706990183313
 20
458.0995292141824
 30
0.0
 10
245.4706990183313
 20
458.0995292141824
 30
0.0
 10
250.5961340094509
 20
455.0237103222462
 30
0.0
 10
250.5961340094509
 20
455.0237103222462
 30
0.0
 10
251.2987563884999
 20
454.5142188493492
 30
0.0
 10
251.5647421139647
 20
453.9092464930245
 30
0.0
 10
251.4277291091757
 20
453.3155601667349
 30
0.0
  0
SPLINE
  5
228
330
47
100
AcDbEntity
  8
Premier plan
 62
   250
420
  1709851
370
    20
100
AcDbSpline
210
0.0
220
0.0
230
1.0
 70
     8
 71
     3
 72
    17
 73
    13
 74
     0
 42
0.0000000001
 43
0.0000000001
 12
1.0
 22
0.0
 32
0.0
 13
1.0
 23
0.0
 33
0.0
 40
0.0
 40
0.0
 40
0.0
 40
0.0
 40
1.0
 40
1.0
 40
1.0
 40
2.0
 40
2.0
 40
2.0
 40
3.0
 40
3.0
 40
3.0
 40
4.0
 40
4.0
 40
4.0
 40
4.0
 10
39.60513763345989
 20
456.8329383351829
 30
0.0
 10
39.60513763345989
 20
456.8329383351829
 30
0.0
 10
111.0704583914558
 20
415.5498534239996
 30
0.0
 10
111.0704583914558
 20
415.5498534239996
 30
0.0
 10
113.5567111442233
 20
414.1099862179844
 30
0.0
 10
120.2731378652015
 20
413.7678639245896
 30
0.0
 10
125.3368759823088
 20
415.0826965082706
 30
0.0
 10
125.3368759823088
 20
415.0826965082706
 30
0.0
 10
251.3773542678937
 20
448.5475076000821
 30
0.0
 10
251.3773542678937
 20
448.5475076000821
 30
0.0
 10
251.8515669431508
 20
448.6925608889851
 30
0.0
 10
252.2850859355494
 20
448.8551715329913
 30
0.0
 10
252.6775946430353
 20
449.0330423080713
 30
0.0
  0
POLYLINE
  5
229
330
47
100
AcDbEntity
  8
Premier plan
 62
   250
420
  1709851
370
     9
100
AcDb2dPolyline
 66
     1
 10
0.0
 20
0.0
 30
0.0
  0
VERTEX
  5
22A
330
229
100
AcDbEntity
  8
Premier plan
 62
   250
420
  1709851
370
     9
100
AcDbVertex
100
AcDb2dVertex
 10
53.51647037530711
 20
468.1203486183203
 30
0.0
  0
VERTEX
  5
22B
330
229
100
AcDbEntity
  8
Premier plan
 62
   250
420
  1709851
370
     9
100
AcDbVertex
100
AcDb2dVertex
 10
53.4805286863666
 20
467.5658971893608
 30
0.0
  0
SEQEND
  5
22C
330
229
100
AcDbEntity
  8
Premier plan
 62
   250
420
  1709851
370
     9
  0
POLYLINE
  5
22D
330
47
100
AcDbEntity
  8
Premier plan
 62
   250
420
  1709851
370
     9
100
AcDb2dPolyline
 66
     1
 10
0.0
 20
0.0
 30
0.0
  0
VERTEX
  5
22E
330
22D
100
AcDbEntity
  8
Premier plan
 62
   250
420
  1709851
370
     9
100
AcDbVertex
100
AcDb2dVertex
 10
244.6760235905558
 20
457.9105004938028
 30
0.0
  0
VERTEX
  5
22F
330
22D
100
AcDbEntity
  8
Premier plan
 62
   250
420
  1709851
370
     9
100
AcDbVertex
100
AcDb2dVertex
 10
244.7649589780967
 20
451.943132894814
 30
0.0
  0
SEQEND
  5
230
330
22D
100
AcDbEntity
  8
Premier plan
 62
   250
420
  1709851
370
     9
  0
POLYLINE
  5
231
330
47
100
AcDbEntity
  8
Premier plan
 62
   250
420
  1709851
370
     9
100
AcDb2dPolyline
 66
     1
 10
0.0
 20
0.0
 30
0.0
  0
VERTEX
  5
232
330
231
100
AcDbEntity
  8
Premier plan
 62
   250
420
  1709851
370
     9
100
AcDbVertex
100
AcDb2dVertex
 10
245.0604804411196
 20
451.3806591192115
 30
0.0
  0
VERTEX
  5
233
330
231
100
AcDbEntity
  8
Premier plan
 62
   250
420
  1709851
370
     9
100
AcDbVertex
100
AcDb2dVertex
 10
246.09734891688
 20
450.7589139061183
 30
0.0
  0
SEQEND
  5
234
330
231
100
AcDbEntity
  8
Premier plan
 62
   250
420
  1709851
370
     9
  0
POLYLINE
  5
235
330
47
100
AcDbEntity
  8
Premier plan
 62
   250
420
  1709851
370
     9
100
AcDb2dPolyline
 66
     1
 10
0.0
 20
0.0
 30
0.0
  0
VERTEX
  5
236
330
235
100
AcDbEntity
  8
Premier plan
 62
   250
420
  1709851
370
     9
100
AcDbVertex
100
AcDb2dVertex
 10
244.3795176029462
 20
451.3806591192115
 30
0.0
  0
VERTEX
  5
237
330
235
100
AcDbEntity
  8
Premier plan
 62
   250
420
  1709851
370
     9
100
AcDbVertex
100
AcDb2dVertex
 10
243.5471020660689
 20
451.1018566366665
 30
0.0
  0
SEQEND
  5
238
330
235
100
AcDbEntity
  8
Premier plan
 62
   250
420
  1709851
370
     9
  0
SPLINE
  5
239
330
47
100
AcDbEntity
  8
Premier plan
 62
   250
420
  1709851
370
     9
100
AcDbSpline
210
0.0
220
0.0
230
1.0
 70
     8
 71
     3
 72
    11
 73
     7
 74
     0
 42
0.0000000001
 43
0.0000000001
 12
1.0
 22
0.0
 32
0.0
 13
1.0
 23
0.0
 33
0.0
 40
0.0
 40
0.0
 40
0.0
 40
0.0
 40
1.0
 40
1.0
 40
1.0
 40
2.0
 40
2.0
 40
2.0
 40
2.0
 10
130.5888223826405
 20
419.8098913046324
 30
0.0
 10
130.5966985793229
 20
419.8843869982538
 30
0.0
 10
130.5382834539269
 20
419.9700406371758
 30
0.0
 10
130.4140692687479
 20
420.0662130180763
 30
0.0
 10
129.8643763752834
 20
420.409959039378
 30
0.0
 10
129.5174955463935
 20
420.7360007645457
 30
0.0
 10
129.3732626946448
 20
421.0444851346092
 30
0.0
  0
SPLINE
  5
23A
330
47
100
AcDbEntity
  8
Premier plan
 62
   250
420
  1709851
370
    20
100
AcDbSpline
210
0.0
220
0.0
230
1.0
 70
     8
 71
     3
 72
    20
 73
    16
 74
     0
 42
0.0000000001
 43
0.0000000001
 12
1.0
 22
0.0
 32
0.0
 13
1.0
 23
0.0
 33
0.0
 40
0.0
 40
0.0
 40
0.0
 40
0.0
 40
1.0
 40
1.0
 40
1.0
 40
2.0
 40
2.0
 40
2.0
 40
3.0
 40
3.0
 40
3.0
 40
4.0
 40
4.0
 40
4.0
 40
5.0
 40
5.0
 40
5.0
 40
5.0
 10
106.9538329254156
 20
421.5444595365161
 30
0.0
 10
106.9354551331571
 20
421.4763632526992
 30
0.0
 10
106.9804150892196
 20
421.4074465317271
 30
0.0
 10
107.092486804514
 20
421.3505081932099
 30
0.0
 10
107.092486804514
 20
421.3505081932099
 30
0.0
 10
112.6665368316726
 20
418.0800816082447
 30
0.0
 10
112.6665368316726
 20
418.0800816082447
 30
0.0
 10
114.0831036225009
 20
417.174647164622
 30
0.0
 10
120.8083910647483
 20
416.8669832317119
 30
0.0
 10
123.1960272715532
 20
417.57536575432
 30
0.0
 10
123.1960272715532
 20
417.57536575432
 30
0.0
 10
130.2882142092585
 20
419.5934599832954
 30
0.0
 10
130.2882142092585
 20
419.5934599832954
 30
0.0
 10
130.4790478913783
 20
419.6503983218117
 30
0.0
 10
130.5783207870645
 20
419.7224327039703
 30
0.0
 10
130.5888223826405
 20
419.8098913046324
 30
0.0
  0
SPLINE
  5
23B
330
47
100
AcDbEntity
  8
Premier plan
 62
   250
420
  1709851
370
     9
100
AcDbSpline
210
0.0
220
0.0
230
1.0
 70
     8
 71
     3
 72
    11
 73
     7
 74
     0
 42
0.0000000001
 43
0.0000000001
 12
1.0
 22
0.0
 32
0.0
 13
1.0
 23
0.0
 33
0.0
 40
0.0
 40
0.0
 40
0.0
 40
0.0
 40
1.0
 40
1.0
 40
1.0
 40
2.0
 40
2.0
 40
2.0
 40
2.0
 10
109.3872495254382
 20
422.7751152681531
 30
0.0
 10
109.0354540177259
 20
422.327977018992
 30
0.0
 10
108.3415203284103
 20
421.993074572556
 30
0.0
 10
107.3056363772339
 20
421.7695874916899
 30
0.0
 10
107.09724534001
 20
421.7126491531726
 30
0.0
 10
106.9771333406024
 20
421.6294568257144
 30
0.0
 10
106.9538329254156
 20
421.5444595365161
 30
0.0
  0
POLYLINE
  5
23C
330
47
100
AcDbEntity
  8
Premier plan
 62
   250
420
  1709851
370
     9
100
AcDb2dPolyline
 66
     1
 10
0.0
 20
0.0
 30
0.0
  0
VERTEX
  5
23D
330
23C
100
AcDbEntity
  8
Premier plan
 62
   250
420
  1709851
370
     9
100
AcDbVertex
100
AcDb2dVertex
 10
106.615812817794
 20
431.3015904392223
 30
0.0
  0
VERTEX
  5
23E
330
23C
100
AcDbEntity
  8
Premier plan
 62
   250
420
  1709851
370
     9
100
AcDbVertex
100
AcDb2dVertex
 10
106.615812817794
 20
423.0186210155862
 30
0.0
  0
SEQEND
  5
23F
330
23C
100
AcDbEntity
  8
Premier plan
 62
   250
420
  1709851
370
     9
  0
POLYLINE
  5
240
330
47
100
AcDbEntity
  8
Premier plan
 62
   250
420
  1709851
370
     9
100
AcDb2dPolyline
 66
     1
 10
0.0
 20
0.0
 30
0.0
  0
VERTEX
  5
241
330
240
100
AcDbEntity
  8
Premier plan
 62
   250
420
  1709851
370
     9
100
AcDbVertex
100
AcDb2dVertex
 10
109.3872495254382
 20
422.7751152681531
 30
0.0
  0
VERTEX
  5
242
330
240
100
AcDbEntity
  8
Premier plan
 62
   250
420
  1709851
370
     9
100
AcDbVertex
100
AcDb2dVertex
 10
109.3872495254382
 20
419.9628379340074
 30
0.0
  0
SEQEND
  5
243
330
240
100
AcDbEntity
  8
Premier plan
 62
   250
420
  1709851
370
     9
  0
POLYLINE
  5
244
330
47
100
AcDbEntity
  8
Premier plan
 62
   250
420
  1709851
370
     9
100
AcDb2dPolyline
 66
     1
 10
0.0
 20
0.0
 30
0.0
  0
VERTEX
  5
245
330
244
100
AcDbEntity
  8
Premier plan
 62
   250
420
  1709851
370
     9
100
AcDbVertex
100
AcDb2dVertex
 10
129.3732626946448
 20
421.0444851346092
 30
0.0
  0
VERTEX
  5
246
330
244
100
AcDbEntity
  8
Premier plan
 62
   250
420
  1709851
370
     9
100
AcDbVertex
100
AcDb2dVertex
 10
129.3732626946448
 20
419.3402730774396
 30
0.0
  0
SEQEND
  5
247
330
244
100
AcDbEntity
  8
Premier plan
 62
   250
420
  1709851
370
     9
  0
SPLINE
  5
248
330
47
100
AcDbEntity
  8
Premier plan
 62
   250
420
  1709851
370
     9
100
AcDbSpline
210
0.0
220
0.0
230
1.0
 70
     8
 71
     3
 72
    14
 73
    10
 74
     0
 42
0.0000000001
 43
0.0000000001
 12
1.0
 22
0.0
 32
0.0
 13
1.0
 23
0.0
 33
0.0
 40
0.0
 40
0.0
 40
0.0
 40
0.0
 40
1.0
 40
1.0
 40
1.0
 40
2.0
 40
2.0
 40
2.0
 40
3.0
 40
3.0
 40
3.0
 40
3.0
 10
129.3732626946448
 20
421.0444851346092
 30
0.0
 10
131.450117307355
 20
420.1959890295047
 30
0.0
 10
133.5412475265521
 20
420.0967161338185
 30
0.0
 10
135.6468174396668
 20
420.7465023601235
 30
0.0
 10
135.6468174396668
 20
420.7465023601235
 30
0.0
 10
237.5011477771059
 20
447.9290620730781
 30
0.0
 10
237.5011477771059
 20
447.9290620730781
 30
0.0
 10
238.4418498289488
 20
448.1358122359925
 30
0.0
 10
238.9785798153716
 20
448.5491484743916
 30
0.0
 10
238.9785798153716
 20
449.1011385918882
 30
0.0
  0
POLYLINE
  5
249
330
47
100
AcDbEntity
  8
Premier plan
 62
   250
420
  1709851
370
     9
100
AcDb2dPolyline
 66
     1
 10
0.0
 20
0.0
 30
0.0
  0
VERTEX
  5
24A
330
249
100
AcDbEntity
  8
Premier plan
 62
   250
420
  1709851
370
     9
100
AcDbVertex
100
AcDb2dVertex
 10
132.9890933216238
 20
429.3402533778562
 30
0.0
  0
VERTEX
  5
24B
330
249
100
AcDbEntity
  8
Premier plan
 62
   250
420
  1709851
370
     9
100
AcDbVertex
100
AcDb2dVertex
 10
132.9890933216238
 20
421.0573011256565
 30
0.0
  0
SEQEND
  5
24C
330
249
100
AcDbEntity
  8
Premier plan
 62
   250
420
  1709851
370
     9
  0
POLYLINE
  5
24D
330
47
100
AcDbEntity
  8
Premier plan
 62
   250
420
  1709851
370
     9
100
AcDb2dPolyline
 66
     1
 10
0.0
 20
0.0
 30
0.0
  0
VERTEX
  5
24E
330
24D
100
AcDbEntity
  8
Premier plan
 62
   250
420
  1709851
370
     9
100
AcDbVertex
100
AcDb2dVertex
 10
119.2228142201084
 20
432.7181572300515
 30
0.0
  0
VERTEX
  5
24F
330
24D
100
AcDbEntity
  8
Premier plan
 62
   250
420
  1709851
370
     9
100
AcDbVertex
100
AcDb2dVertex
 10
119.2228142201084
 20
422.6614026785492
 30
0.0
  0
SEQEND
  5
250
330
24D
100
AcDbEntity
  8
Premier plan
 62
   250
420
  1709851
370
     9
  0
POLYLINE
  5
251
330
47
100
AcDbEntity
  8
Premier plan
 62
   250
420
  1709851
370
     9
100
AcDb2dPolyline
 66
     1
 10
0.0
 20
0.0
 30
0.0
  0
VERTEX
  5
252
330
251
100
AcDbEntity
  8
Premier plan
 62
   250
420
  1709851
370
     9
100
AcDbVertex
100
AcDb2dVertex
 10
242.3948801263959
 20
458.3246571693571
 30
0.0
  0
VERTEX
  5
253
330
251
100
AcDbEntity
  8
Premier plan
 62
   250
420
  1709851
370
     9
100
AcDbVertex
100
AcDb2dVertex
 10
242.3765023341366
 20
452.4967638866192
 30
0.0
  0
SEQEND
  5
254
330
251
100
AcDbEntity
  8
Premier plan
 62
   250
420
  1709851
370
     9
  0
SPLINE
  5
255
330
47
100
AcDbEntity
  8
Premier plan
 62
   250
420
  1709851
370
     9
100
AcDbSpline
210
0.0
220
0.0
230
1.0
 70
     8
 71
     3
 72
    11
 73
     7
 74
     0
 42
0.0000000001
 43
0.0000000001
 12
1.0
 22
0.0
 32
0.0
 13
1.0
 23
0.0
 33
0.0
 40
0.0
 40
0.0
 40
0.0
 40
0.0
 40
1.0
 40
1.0
 40
1.0
 40
2.0
 40
2.0
 40
2.0
 40
2.0
 10
243.7553290158621
 20
461.9109520587763
 30
0.0
 10
243.7553290158621
 20
461.9109520587763
 30
0.0
 10
243.8908652337732
 20
459.6091335783231
 30
0.0
 10
243.8908652337732
 20
459.6091335783231
 30
0.0
 10
243.9620791787756
 20
458.8574490574392
 30
0.0
 10
243.4637456511791
 20
458.4296731251234
 30
0.0
 10
242.3948801263959
 20
458.3246571693571
 30
0.0
  0
SPLINE
  5
256
330
47
100
AcDbEntity
  8
Premier plan
 62
   250
420
  1709851
370
    20
100
AcDbSpline
210
0.0
220
0.0
230
1.0
 70
     8
 71
     3
 72
    20
 73
    16
 74
     0
 42
0.0000000001
 43
0.0000000001
 12
1.0
 22
0.0
 32
0.0
 13
1.0
 23
0.0
 33
0.0
 40
0.0
 40
0.0
 40
0.0
 40
0.0
 40
1.0
 40
1.0
 40
1.0
 40
2.0
 40
2.0
 40
2.0
 40
3.0
 40
3.0
 40
3.0
 40
4.0
 40
4.0
 40
4.0
 40
5.0
 40
5.0
 40
5.0
 40
5.0
 10
231.5843079174092
 20
457.4938825067875
 30
0.0
 10
231.5843079174092
 20
457.4938825067875
 30
0.0
 10
231.5843079174092
 20
463.3058593087289
 30
0.0
 10
231.5843079174092
 20
463.3058593087289
 30
0.0
 10
231.5843079174092
 20
463.3058593087289
 30
0.0
 10
231.593004551245
 20
463.2185647954975
 30
0.0
 10
231.593004551245
 20
463.2185647954975
 30
0.0
 10
231.3831367271441
 20
464.7455807024089
 30
0.0
 10
232.8870091040599
 20
466.3647771952838
 30
0.0
 10
234.8908337371677
 20
466.9961856293285
 30
0.0
 10
234.8908337371677
 20
466.9961856293285
 30
0.0
 10
240.2067742355466
 20
468.3902724421259
 30
0.0
 10
240.2067742355466
 20
468.3902724421259
 30
0.0
 10
240.9246567456667
 20
468.6073601131875
 30
0.0
 10
241.3420951698381
 20
468.7556951507077
 30
0.0
 10
241.5040494641207
 20
468.9022252264867
 30
0.0
  0
SPLINE
  5
257
330
47
100
AcDbEntity
  8
Premier plan
 62
   250
420
  1709851
370
    20
100
AcDbSpline
210
0.0
220
0.0
230
1.0
 70
     8
 71
     3
 72
    17
 73
    13
 74
     0
 42
0.0000000001
 43
0.0000000001
 12
1.0
 22
0.0
 32
0.0
 13
1.0
 23
0.0
 33
0.0
 40
0.0
 40
0.0
 40
0.0
 40
0.0
 40
1.0
 40
1.0
 40
1.0
 40
2.0
 40
2.0
 40
2.0
 40
3.0
 40
3.0
 40
3.0
 40
4.0
 40
4.0
 40
4.0
 40
4.0
 10
55.81598509015112
 20
475.5426794669665
 30
0.0
 10
55.83764463102762
 20
475.2991737195334
 30
0.0
 10
56.19896515383698
 20
474.9929865735021
 30
0.0
 10
56.98248263631103
 20
474.5676719526491
 30
0.0
 10
56.98248263631103
 20
474.5676719526491
 30
0.0
 10
59.01043919461699
 20
473.3128953686719
 30
0.0
 10
59.01043919461699
 20
473.3128953686719
 30
0.0
 10
59.75949831660637
 20
472.792902300198
 30
0.0
 10
60.15297997586822
 20
471.9076506105748
 30
0.0
 10
60.16019982282796
 20
470.9885969101879
 30
0.0
 10
60.16019982282796
 20
470.9885969101879
 30
0.0
 10
60.14247838029223
 20
459.6987253155867
 30
0.0
 10
60.14247838029223
 20
459.6987253155867
 30
0.0
  0
SPLINE
  5
258
330
47
100
AcDbEntity
  8
Premier plan
 62
   250
420
  1709851
370
     9
100
AcDbSpline
210
0.0
220
0.0
230
1.0
 70
     8
 71
     3
 72
    32
 73
    28
 74
     0
 42
0.0000000001
 43
0.0000000001
 12
1.0
 22
0.0
 32
0.0
 13
1.0
 23
0.0
 33
0.0
 40
0.0
 40
0.0
 40
0.0
 40
0.0
 40
1.0
 40
1.0
 40
1.0
 40
2.0
 40
2.0
 40
2.0
 40
3.0
 40
3.0
 40
3.0
 40
4.0
 40
4.0
 40
4.0
 40
5.0
 40
5.0
 40
5.0
 40
6.0
 40
6.0
 40
6.0
 40
7.0
 40
7.0
 40
7.0
 40
8.0
 40
8.0
 40
8.0
 40
9.0
 40
9.0
 40
9.0
 40
9.0
 10
241.5040494641207
 20
468.9022252264867
 30
0.0
 10
241.7291774192963
 20
469.1073345150926
 30
0.0
 10
241.4590895080582
 20
469.3109670168215
 30
0.0
 10
240.8181640030207
 20
469.6962443045386
 30
0.0
 10
240.8181640030207
 20
469.6962443045386
 30
0.0
 10
188.6217881511184
 20
500.3850242406406
 30
0.0
 10
188.6217881511184
 20
500.3850242406406
 30
0.0
 10
185.8047351376872
 20
502.1532303958556
 30
0.0
 10
184.7238912304492
 20
501.5274201387456
 30
0.0
 10
182.7769938629999
 20
501.0307082811723
 30
0.0
 10
182.7769938629999
 20
501.0307082811723
 30
0.0
 10
178.6452723533184
 20
499.8817680901175
 30
0.0
 10
178.6452723533184
 20
499.8817680901175
 30
0.0
 10
172.8108155733462
 20
498.8145434396429
 30
0.0
 10
168.499582414277
 20
498.8778811879638
 30
0.0
 10
165.0447215569975
 20
500.9586738990147
 30
0.0
 10
165.0447215569975
 20
500.9586738990147
 30
0.0
 10
161.7885705785184
 20
502.8735742174413
 30
0.0
 10
161.7885705785184
 20
502.8735742174413
 30
0.0
 10
160.5442955901171
 20
503.6940113718656
 30
0.0
 10
160.1685353733919
 20
503.8997770101951
 30
0.0
 10
158.183897896839
 20
503.3174307179843
 30
0.0
 10
158.183897896839
 20
503.3174307179843
 30
0.0
 10
57.14525736774976
 20
476.2613824142427
 30
0.0
 10
57.14525736774976
 20
476.2613824142427
 30
0.0
 10
56.2839624430344
 20
476.049053278678
 30
0.0
 10
55.78956701377865
 20
475.8439439900712
 30
0.0
 10
55.81598509015112
 20
475.5426794669665
 30
0.0
  0
SPLINE
  5
259
330
47
100
AcDbEntity
  8
Premier plan
 62
   250
420
  1709851
370
    20
100
AcDbSpline
210
0.0
220
0.0
230
1.0
 70
     8
 71
     3
 72
    20
 73
    16
 74
     0
 42
0.0000000001
 43
0.0000000001
 12
1.0
 22
0.0
 32
0.0
 13
1.0
 23
0.0
 33
0.0
 40
0.0
 40
0.0
 40
0.0
 40
0.0
 40
1.0
 40
1.0
 40
1.0
 40
2.0
 40
2.0
 40
2.0
 40
3.0
 40
3.0
 40
3.0
 40
4.0
 40
4.0
 40
4.0
 40
5.0
 40
5.0
 40
5.0
 40
5.0
 10
58.93512306384127
 20
470.2490732733168
 30
0.0
 10
58.63779663907826
 20
469.5320111822366
 30
0.0
 10
57.90793574650252
 20
468.8461257038089
 30
0.0
 10
56.67252147936961
 20
468.4752881006425
 30
0.0
 10
56.67252147936961
 20
468.4752881006425
 30
0.0
 10
49.95675110811408
 20
466.6012271831896
 30
0.0
 10
49.95675110811408
 20
466.6012271831896
 30
0.0
 10
49.3847487612511
 20
466.426474069297
 30
0.0
 10
48.99290153909624
 20
466.0114969565893
 30
0.0
 10
48.98896344075547
 20
465.5715785543862
 30
0.0
 10
48.98896344075547
 20
465.5715785543862
 30
0.0
 10
48.31259505064827
 20
456.3241032120086
 30
0.0
 10
48.31259505064827
 20
456.3241032120086
 30
0.0
 10
48.31259505064827
 20
456.0637145149685
 30
0.0
 10
48.33425459152477
 20
455.8346304056795
 30
0.0
 10
48.39677190269231
 20
455.6367409640316
 30
0.0
  0
SPLINE
  5
25A
330
47
100
AcDbEntity
  8
Premier plan
 62
   250
420
  1709851
370
    20
100
AcDbSpline
210
0.0
220
0.0
230
1.0
 70
     8
 71
     3
 72
    17
 73
    13
 74
     0
 42
0.0000000001
 43
0.0000000001
 12
1.0
 22
0.0
 32
0.0
 13
1.0
 23
0.0
 33
0.0
 40
0.0
 40
0.0
 40
0.0
 40
0.0
 40
1.0
 40
1.0
 40
1.0
 40
2.0
 40
2.0
 40
2.0
 40
3.0
 40
3.0
 40
3.0
 40
4.0
 40
4.0
 40
4.0
 40
4.0
 10
238.9585611488046
 20
449.0619216959067
 30
0.0
 10
238.9585611488046
 20
449.0619216959067
 30
0.0
 10
238.2126196880008
 20
458.9352446279945
 30
0.0
 10
238.2126196880008
 20
458.9352446279945
 30
0.0
 10
238.2398582015294
 20
459.1972741268028
 30
0.0
 10
238.0667459619453
 20
459.48967792864
 30
0.0
 10
237.6926266195287
 20
459.811781555466
 30
0.0
 10
237.6926266195287
 20
459.811781555466
 30
0.0
 10
234.0751551182402
 20
461.9662495229841
 30
0.0
 10
234.0751551182402
 20
461.9662495229841
 30
0.0
 10
233.2724394063516
 20
462.5743575418437
 30
0.0
 10
232.8894593426658
 20
463.176904823521
 30
0.0
 10
232.8709174629757
 20
463.7408550880036
 30
0.0
  0
SPLINE
  5
25B
330
47
100
AcDbEntity
  8
Premier plan
 62
   250
420
  1709851
370
    20
100
AcDbSpline
210
0.0
220
0.0
230
1.0
 70
     8
 71
     3
 72
    14
 73
    10
 74
     0
 42
0.0000000001
 43
0.0000000001
 12
1.0
 22
0.0
 32
0.0
 13
1.0
 23
0.0
 33
0.0
 40
0.0
 40
0.0
 40
0.0
 40
0.0
 40
1.0
 40
1.0
 40
1.0
 40
2.0
 40
2.0
 40
2.0
 40
3.0
 40
3.0
 40
3.0
 40
3.0
 10
242.8292195559461
 20
449.6572308951572
 30
0.0
 10
242.8292195559461
 20
449.6572308951572
 30
0.0
 10
242.7811419386981
 20
451.0818379700986
 30
0.0
 10
242.7811419386981
 20
451.0818379700986
 30
0.0
 10
242.7811419386981
 20
452.4158687831932
 30
0.0
 10
241.9871228606462
 20
453.2555041670312
 30
0.0
 10
240.8029038719496
 20
453.2555041670312
 30
0.0
 10
240.081083263487
 20
453.2555041670312
 30
0.0
 10
239.3462997479837
 20
453.1593669149379
 30
0.0
 10
238.665336909813
 20
452.9862366929492
 30
0.0
  0
POLYLINE
  5
25C
330
47
100
AcDbEntity
  8
Premier plan
 62
   250
420
  1709851
370
     9
100
AcDb2dPolyline
 66
     1
 10
0.0
 20
0.0
 30
0.0
  0
VERTEX
  5
25D
330
25C
100
AcDbEntity
  8
Premier plan
 62
   250
420
  1709851
370
     9
100
AcDbVertex
100
AcDb2dVertex
 10
240.377425163666
 20
448.9890668765929
 30
0.0
  0
VERTEX
  5
25E
330
25C
100
AcDbEntity
  8
Premier plan
 62
   250
420
  1709851
370
     9
100
AcDbVertex
100
AcDb2dVertex
 10
240.377425163666
 20
451.103497510976
 30
0.0
  0
SEQEND
  5
25F
330
25C
100
AcDbEntity
  8
Premier plan
 62
   250
420
  1709851
370
     9
  0
SPLINE
  5
260
330
47
100
AcDbEntity
  8
Premier plan
 62
   250
420
  1709851
370
     9
100
AcDbSpline
210
0.0
220
0.0
230
1.0
 70
     8
 71
     3
 72
    14
 73
    10
 74
     0
 42
0.0000000001
 43
0.0000000001
 12
1.0
 22
0.0
 32
0.0
 13
1.0
 23
0.0
 33
0.0
 40
0.0
 40
0.0
 40
0.0
 40
0.0
 40
1.0
 40
1.0
 40
1.0
 40
2.0
 40
2.0
 40
2.0
 40
3.0
 40
3.0
 40
3.0
 40
3.0
 10
242.3909533410006
 20
449.5090599450677
 30
0.0
 10
242.3909533410006
 20
449.5090599450677
 30
0.0
 10
242.3308860283496
 20
450.9840418612921
 30
0.0
 10
242.3308860283496
 20
450.9840418612921
 30
0.0
 10
242.2675482800278
 20
452.3333328054587
 30
0.0
 10
241.3637659977148
 20
452.7243531532567
 30
0.0
 10
240.2340127490725
 20
452.7049908364124
 30
0.0
 10
239.6925242271527
 20
452.7049908364124
 30
0.0
 10
239.1692494100598
 20
452.60817925219
 30
0.0
 10
238.6973451784761
 20
452.4414664224114
 30
0.0
  0
SPLINE
  5
261
330
47
100
AcDbEntity
  8
Premier plan
 62
   250
420
  1709851
370
     9
100
AcDbSpline
210
0.0
220
0.0
230
1.0
 70
     8
 71
     3
 72
    11
 73
     7
 74
     0
 42
0.0000000001
 43
0.0000000001
 12
1.0
 22
0.0
 32
0.0
 13
1.0
 23
0.0
 33
0.0
 40
0.0
 40
0.0
 40
0.0
 40
0.0
 40
1.0
 40
1.0
 40
1.0
 40
2.0
 40
2.0
 40
2.0
 40
2.0
 10
240.377425163666
 20
448.9826674667884
 30
0.0
 10
240.377425163666
 20
448.9826674667884
 30
0.0
 10
240.377425163666
 20
451.103497510976
 30
0.0
 10
240.377425163666
 20
451.103497510976
 30
0.0
 10
239.7926175599914
 20
451.044097860995
 30
0.0
 10
239.2709836172089
 20
450.91512514032
 30
0.0
 10
238.8143282970568
 20
450.7164152615187
 30
0.0
  0
INSERT
  5
263
330
47
100
AcDbEntity
  8
Premier plan
100
AcDbBlockReference
  2
block 12
 10
0.0
 20
0.0
 30
0.0
  0
INSERT
  5
282
330
47
100
AcDbEntity
  8
Premier plan
100
AcDbBlockReference
  2
block 16
 10
0.0
 20
0.0
 30
0.0
  0
INSERT
  5
2A5
330
47
100
AcDbEntity
  8
Premier plan
100
AcDbBlockReference
  2
block 17
 10
0.0
 20
0.0
 30
0.0
  0
INSERT
  5
2AC
330
47
100
AcDbEntity
  8
Premier plan
100
AcDbBlockReference
  2
block 18
 10
0.0
 20
0.0
 30
0.0
  0
SPLINE
  5
2B2
330
47
100
AcDbEntity
  8
Premier plan
370
     0
100
AcDbSpline
210
0.0
220
0.0
230
1.0
 70
    11
 71
     3
 72
    26
 73
    22
 74
     0
 42
0.0000000001
 43
0.0000000001
 12
1.0
 22
0.0
 32
0.0
 13
1.0
 23
0.0
 33
0.0
 40
0.0
 40
0.0
 40
0.0
 40
0.0
 40
1.0
 40
1.0
 40
1.0
 40
2.0
 40
2.0
 40
2.0
 40
3.0
 40
3.0
 40
3.0
 40
4.0
 40
4.0
 40
4.0
 40
5.0
 40
5.0
 40
5.0
 40
6.0
 40
6.0
 40
6.0
 40
7.0
 40
7.0
 40
7.0
 40
7.0
 10
167.970738057471
 20
505.9013154921286
 30
0.0
 10
169.1557680503865
 20
511.7308496491751
 30
0.0
 10
174.0078333816518
 20
517.9057878482336
 30
0.0
 10
181.107240166315
 20
522.0046918717371
 30
0.0
 10
181.107240166315
 20
522.0046918717371
 30
0.0
 10
177.8190921388141
 20
523.9100751191727
 30
0.0
 10
177.8190921388141
 20
523.9100751191727
 30
0.0
 10
177.8190921388141
 20
523.9100751191727
 30
0.0
 10
191.5510769672746
 20
524.8137046010552
 30
0.0
 10
191.5510769672746
 20
524.8137046010552
 30
0.0
 10
191.5510769672746
 20
524.8137046010552
 30
0.0
 10
189.9855187892026
 20
516.8866408150079
 30
0.0
 10
189.9855187892026
 20
516.8866408150079
 30
0.0
 10
189.9855187892026
 20
516.8866408150079
 30
0.0
 10
186.4706019322184
 20
518.7117853087402
 30
0.0
 10
186.4706019322184
 20
518.7117853087402
 30
0.0
 10
179.3695542732457
 20
514.6135376349594
 30
0.0
 10
174.622340810316
 20
508.4523827800949
 30
0.0
 10
173.4373013844643
 20
502.623524204746
 30
0.0
 10
173.4373013844643
 20
502.623524204746
 30
0.0
 10
167.970738057471
 20
505.9013154921286
 30
0.0
 10
167.970738057471
 20
505.9013154921286
 30
0.0
  0
HATCH
  5
2B3
330
47
100
AcDbEntity
  8
Premier plan
 62
   250
420
  1709851
100
AcDbHatch
 10
0.0
 20
0.0
 30
0.0
210
0.0
220
0.0
230
1.0
  2
SOLID
 70
     1
 71
     0
 91
        1
 92
        1
 93
        1
 72
     4
 94
        3
 73
     0
 74
     1
 95
       26
 96
       22
 40
0.0
 40
0.0
 40
0.0
 40
0.0
 40
1.0
 40
1.0
 40
1.0
 40
2.0
 40
2.0
 40
2.0
 40
3.0
 40
3.0
 40
3.0
 40
4.0
 40
4.0
 40
4.0
 40
5.0
 40
5.0
 40
5.0
 40
6.0
 40
6.0
 40
6.0
 40
7.0
 40
7.0
 40
7.0
 40
7.0
 10
167.970738057471
 20
505.9013154921286
 10
169.1557680503865
 20
511.7308496491751
 10
174.0078333816518
 20
517.9057878482336
 10
181.107240166315
 20
522.0046918717371
 10
181.107240166315
 20
522.0046918717371
 10
177.8190921388141
 20
523.9100751191727
 10
177.8190921388141
 20
523.9100751191727
 10
177.8190921388141
 20
523.9100751191727
 10
191.5510769672746
 20
524.8137046010552
 10
191.5510769672746
 20
524.8137046010552
 10
191.5510769672746
 20
524.8137046010552
 10
189.9855187892026
 20
516.8866408150079
 10
189.9855187892026
 20
516.8866408150079
 10
189.9855187892026
 20
516.8866408150079
 10
186.4706019322184
 20
518.7117853087402
 10
186.4706019322184
 20
518.7117853087402
 10
179.3695542732457
 20
514.6135376349594
 10
174.622340810316
 20
508.4523827800949
 10
173.4373013844643
 20
502.623524204746
 10
173.4373013844643
 20
502.623524204746
 10
167.970738057471
 20
505.9013154921286
 10
167.970738057471
 20
505.9013154921286
 97
        0
 97
        0
 75
     0
 76
     1
 98
        0
  0
ENDBLK
  5
4A
330
47
100
AcDbEntity
  8
0
100
AcDbBlockEnd
  0
BLOCK
  5
4D
330
4B
100
AcDbEntity
  8
0
100
AcDbBlockBegin
  2
block 4
 70
     0
 10
0.0
 20
0.0
 30
0.0
  3
block 4
  1

  0
INSERT
  5
50
330
4B
100
AcDbEntity
  8
Premier plan
100
AcDbBlockReference
  2
block 5
 10
0.0
 20
0.0
 30
0.0
  0
SPLINE
  5
D7
330
4B
100
AcDbEntity
  8
Premier plan
 62
   250
420
  1709851
370
     9
100
AcDbSpline
210
0.0
220
0.0
230
1.0
 70
    11
 71
     3
 72
    14
 73
    10
 74
     0
 42
0.0000000001
 43
0.0000000001
 12
1.0
 22
0.0
 32
0.0
 13
1.0
 23
0.0
 33
0.0
 40
0.0
 40
0.0
 40
0.0
 40
0.0
 40
1.0
 40
1.0
 40
1.0
 40
2.0
 40
2.0
 40
2.0
 40
3.0
 40
3.0
 40
3.0
 40
3.0
 10
20.35127639071379
 20
493.7404678143894
 30
0.0
 10
20.15585395934704
 20
493.3087537837318
 30
0.0
 10
19.72003204410066
 20
492.9433310751519
 30
0.0
 10
19.093382145551
 20
492.6404446575179
 30
0.0
 10
19.093382145551
 20
492.6404446575179
 30
0.0
 10
19.093382145551
 20
494.820491284474
 30
0.0
 10
19.093382145551
 20
494.820491284474
 30
0.0
 10
19.093382145551
 20
494.820491284474
 30
0.0
 10
20.35127639071379
 20
493.7404678143894
 30
0.0
 10
20.35127639071379
 20
493.7404678143894
 30
0.0
  0
ENDBLK
  5
4E
330
4B
100
AcDbEntity
  8
0
100
AcDbBlockEnd
  0
BLOCK
  5
51
330
4F
100
AcDbEntity
  8
0
100
AcDbBlockBegin
  2
block 5
 70
     0
 10
0.0
 20
0.0
 30
0.0
  3
block 5
  1

  0
SPLINE
  5
53
330
4F
100
AcDbEntity
  8
Premier plan
 62
   250
420
  1709851
370
    20
100
AcDbSpline
210
0.0
220
0.0
230
1.0
 70
    11
 71
     3
 72
   122
 73
   118
 74
     0
 42
0.0000000001
 43
0.0000000001
 12
1.0
 22
0.0
 32
0.0
 13
1.0
 23
0.0
 33
0.0
 40
0.0
 40
0.0
 40
0.0
 40
0.0
 40
1.0
 40
1.0
 40
1.0
 40
2.0
 40
2.0
 40
2.0
 40
3.0
 40
3.0
 40
3.0
 40
4.0
 40
4.0
 40
4.0
 40
5.0
 40
5.0
 40
5.0
 40
6.0
 40
6.0
 40
6.0
 40
7.0
 40
7.0
 40
7.0
 40
8.0
 40
8.0
 40
8.0
 40
9.0
 40
9.0
 40
9.0
 40
10.0
 40
10.0
 40
10.0
 40
11.0
 40
11.0
 40
11.0
 40
12.0
 40
12.0
 40
12.0
 40
13.0
 40
13.0
 40
13.0
 40
14.0
 40
14.0
 40
14.0
 40
15.0
 40
15.0
 40
15.0
 40
16.0
 40
16.0
 40
16.0
 40
17.0
 40
17.0
 40
17.0
 40
18.0
 40
18.0
 40
18.0
 40
19.0
 40
19.0
 40
19.0
 40
20.0
 40
20.0
 40
20.0
 40
21.0
 40
21.0
 40
21.0
 40
22.0
 40
22.0
 40
22.0
 40
23.0
 40
23.0
 40
23.0
 40
24.0
 40
24.0
 40
24.0
 40
25.0
 40
25.0
 40
25.0
 40
26.0
 40
26.0
 40
26.0
 40
27.0
 40
27.0
 40
27.0
 40
28.0
 40
28.0
 40
28.0
 40
29.0
 40
29.0
 40
29.0
 40
30.0
 40
30.0
 40
30.0
 40
31.0
 40
31.0
 40
31.0
 40
32.0
 40
32.0
 40
32.0
 40
33.0
 40
33.0
 40
33.0
 40
34.0
 40
34.0
 40
34.0
 40
35.0
 40
35.0
 40
35.0
 40
36.0
 40
36.0
 40
36.0
 40
37.0
 40
37.0
 40
37.0
 40
38.0
 40
38.0
 40
38.0
 40
39.0
 40
39.0
 40
39.0
 40
39.0
 10
18.90189211370853
 20
478.7363131342781
 30
0.0
 10
18.90189211370853
 20
478.7363131342781
 30
0.0
 10
18.97884911879373
 20
487.9581908374375
 30
0.0
 10
18.97884911879373
 20
487.9581908374375
 30
0.0
 10
19.00132909682452
 20
488.1760989456534
 30
0.0
 10
19.07336347898308
 20
488.3531492835791
 30
0.0
 10
19.20069532534944
 20
488.4909827255215
 30
0.0
 10
19.20069532534944
 20
488.4909827255215
 30
0.0
 10
20.65336135097277
 20
489.8706487542113
 30
0.0
 10
20.65336135097277
 20
489.8706487542113
 30
0.0
 10
20.65336135097277
 20
489.8706487542113
 30
0.0
 10
20.64368019255107
 20
490.9202971397717
 30
0.0
 10
20.64368019255107
 20
490.9202971397717
 30
0.0
 10
20.64368019255107
 20
490.9202971397717
 30
0.0
 10
20.97710585210916
 20
491.1670846358229
 30
0.0
 10
20.97710585210916
 20
491.1670846358229
 30
0.0
 10
20.97710585210916
 20
491.1670846358229
 30
0.0
 10
21.52991640676009
 20
491.1598647888641
 30
0.0
 10
21.52991640676009
 20
491.1598647888641
 30
0.0
 10
21.52991640676009
 20
491.1598647888641
 30
0.0
 10
22.02349139886155
 20
491.5403835410862
 30
0.0
 10
22.02349139886155
 20
491.5403835410862
 30
0.0
 10
22.02349139886155
 20
491.5403835410862
 30
0.0
 10
22.02349139886155
 20
493.0153654573087
 30
0.0
 10
22.02349139886155
 20
493.0153654573087
 30
0.0
 10
22.02349139886155
 20
493.0153654573087
 30
0.0
 10
21.52270229314854
 20
493.0217648671132
 30
0.0
 10
21.52270229314854
 20
493.0217648671132
 30
0.0
 10
21.56437476724568
 20
493.1515580249434
 30
0.0
 10
21.59079284361815
 20
493.2726545489377
 30
0.0
 10
21.60277122607295
 20
493.3911256740357
 30
0.0
 10
21.60277122607295
 20
493.3911256740357
 30
0.0
 10
22.73645128605676
 20
493.3760296303954
 30
0.0
 10
22.73645128605676
 20
493.3760296303954
 30
0.0
 10
22.73645128605676
 20
493.3760296303954
 30
0.0
 10
22.74137390898341
 20
494.7651938202662
 30
0.0
 10
22.74137390898341
 20
494.7651938202662
 30
0.0
 10
22.70691554849691
 20
494.8685689017238
 30
0.0
 10
22.67885659781587
 20
495.00886365513
 30
0.0
 10
22.62602044507094
 20
495.0841797859057
 30
0.0
 10
22.62602044507094
 20
495.0841797859057
 30
0.0
 10
21.98181319141713
 20
495.0841797859057
 30
0.0
 10
21.98181319141713
 20
495.0841797859057
 30
0.0
 10
21.98181319141713
 20
495.0841797859057
 30
0.0
 10
21.91125559613647
 20
495.356564921175
 30
0.0
 10
21.91125559613647
 20
495.356564921175
 30
0.0
 10
21.62771825156779
 20
496.3573341621413
 30
0.0
 10
20.54522773402005
 20
496.904565744142
 30
0.0
 10
19.23285646180284
 20
496.904565744142
 30
0.0
 10
18.40191771180253
 20
496.904565744142
 30
0.0
 10
17.27545749877845
 20
496.063308552245
 30
0.0
 10
17.27545749877845
 20
495.1970719383553
 30
0.0
 10
17.27545749877845
 20
495.1970719383553
 30
0.0
 10
17.18094876225314
 20
492.0106581180016
 30
0.0
 10
17.18094876225314
 20
492.0106581180016
 30
0.0
 10
15.90138935254799
 20
491.9250234407873
 30
0.0
 10
15.17152845997225
 20
491.3608718916976
 30
0.0
 10
14.94804137910705
 20
490.3016875253361
 30
0.0
 10
14.94804137910705
 20
490.3016875253361
 30
0.0
 10
14.5320797418135
 20
490.4708616665775
 30
0.0
 10
14.5320797418135
 20
490.4708616665775
 30
0.0
 10
14.5320797418135
 20
490.4708616665775
 30
0.0
 10
11.94589774363794
 20
489.860292336256
 30
0.0
 10
11.94589774363794
 20
489.860292336256
 30
0.0
 10
11.94589774363794
 20
489.860292336256
 30
0.0
 10
11.94589774363794
 20
489.2777819566145
 30
0.0
 10
11.94589774363794
 20
489.2777819566145
 30
0.0
 10
11.59327385466531
 20
489.1816267221157
 30
0.0
 10
11.27609285076505
 20
489.0629915095851
 30
0.0
 10
11.00042596687854
 20
488.9261425922286
 30
0.0
 10
10.65584236201994
 20
488.7553275766768
 30
0.0
 10
10.4090603185623
 20
488.5623607579564
 30
0.0
 10
10.25924304157252
 20
488.3667685403416
 30
0.0
 10
10.25924304157252
 20
488.3667685403416
 30
0.0
 10
9.070265517379994
 20
489.1054901541856
 30
0.0
 10
9.070265517379994
 20
489.1054901541856
 30
0.0
 10
7.434970181181598
 20
488.7482906986061
 30
0.0
 10
6.5
 20
487.8131375485364
 30
0.0
 10
6.5
 20
486.8565078264774
 30
0.0
 10
6.5
 20
486.8565078264774
 30
0.0
 10
6.789291501799198
 20
474.2511658137009
 30
0.0
 10
6.789291501799198
 20
474.2511658137009
 30
0.0
 10
6.789291501799198
 20
474.2511658137009
 30
0.0
 10
9.249777166768581
 20
474.0877162173101
 30
0.0
 10
9.249777166768581
 20
474.0877162173101
 30
0.0
 10
9.189721167063908
 20
473.4763264498333
 30
0.0
 10
9.483765843210676
 20
472.9707730752771
 30
0.0
 10
10.13109075805096
 20
472.5702356564871
 30
0.0
 10
10.13109075805096
 20
472.5702356564871
 30
0.0
 10
10.13109075805096
 20
471.0327364290961
 30
0.0
 10
10.13109075805096
 20
471.0327364290961
 30
0.0
 10
10.13109075805096
 20
471.0327364290961
 30
0.0
 10
10.715242012001
 20
470.755428670901
 30
0.0
 10
10.715242012001
 20
470.755428670901
 30
0.0
 10
11.12217884059555
 20
470.6353166714935
 30
0.0
 10
11.51795772388959
 20
470.6376138955256
 30
0.0
 10
11.90093778757546
 20
470.7618280807055
 30
0.0
 10
11.90093778757546
 20
470.7618280807055
 30
0.0
 10
14.37997624629043
 20
471.580788448251
 30
0.0
 10
14.37997624629043
 20
471.580788448251
 30
0.0
 10
14.37997624629043
 20
471.580788448251
 30
0.0
 10
14.37997624629043
 20
474.8375957764547
 30
0.0
 10
14.37997624629043
 20
474.8375957764547
 30
0.0
 10
14.37997624629043
 20
474.8375957764547
 30
0.0
 10
14.85747068222736
 20
474.8295554923407
 30
0.0
 10
14.85747068222736
 20
474.8295554923407
 30
0.0
 10
14.85747068222736
 20
474.8295554923407
 30
0.0
 10
16.09287938438956
 20
475.2333746597487
 30
0.0
 10
16.09287938438956
 20
475.2333746597487
 30
0.0
 10
16.09287938438956
 20
475.2333746597487
 30
0.0
 10
16.13209628037112
 20
475.7102127339003
 30
0.0
 10
16.13209628037112
 20
475.7102127339003
 30
0.0
 10
16.82044305293402
 20
475.7510705041896
 30
0.0
 10
17.31155673357262
 20
475.9223777820334
 30
0.0
 10
17.70733561686575
 20
476.2149456713023
 30
0.0
 10
17.70733561686575
 20
476.2149456713023
 30
0.0
 10
18.90189211370853
 20
478.7363131342781
 30
0.0
 10
18.90189211370853
 20
478.7363131342781
 30
0.0
  0
POLYLINE
  5
54
330
4F
100
AcDbEntity
  8
Premier plan
 62
   250
420
  1709851
370
     9
100
AcDb2dPolyline
 66
     1
 10
0.0
 20
0.0
 30
0.0
  0
VERTEX
  5
55
330
54
100
AcDbEntity
  8
Premier plan
 62
   250
420
  1709851
370
     9
100
AcDbVertex
100
AcDb2dVertex
 10
16.1120776138041
 20
475.7077514224366
 30
0.0
  0
VERTEX
  5
56
330
54
100
AcDbEntity
  8
Premier plan
 62
   250
420
  1709851
370
     9
100
AcDbVertex
100
AcDb2dVertex
 10
16.24039398475634
 20
478.9014037224515
 30
0.0
  0
VERTEX
  5
57
330
54
100
AcDbEntity
  8
Premier plan
 62
   250
420
  1709851
370
     9
100
AcDbVertex
100
AcDb2dVertex
 10
17.70733561686575
 20
479.8916527351394
 30
0.0
  0
VERTEX
  5
58
330
54
100
AcDbEntity
  8
Premier plan
 62
   250
420
  1709851
370
     9
100
AcDbVertex
100
AcDb2dVertex
 10
17.70733561686575
 20
476.2149456713023
 30
0.0
  0
SEQEND
  5
59
330
54
100
AcDbEntity
  8
Premier plan
 62
   250
420
  1709851
370
     9
  0
POLYLINE
  5
5A
330
4F
100
AcDbEntity
  8
Premier plan
 62
   250
420
  1709851
370
     9
100
AcDb2dPolyline
 66
     1
 10
0.0
 20
0.0
 30
0.0
  0
VERTEX
  5
5B
330
5A
100
AcDbEntity
  8
Premier plan
 62
   250
420
  1709851
370
     9
100
AcDbVertex
100
AcDb2dVertex
 10
12.49066801417484
 20
480.6440122824715
 30
0.0
  0
VERTEX
  5
5C
330
5A
100
AcDbEntity
  8
Premier plan
 62
   250
420
  1709851
370
     9
100
AcDbVertex
100
AcDb2dVertex
 10
12.54678591553693
 20
474.8664936950627
 30
0.0
  0
VERTEX
  5
5D
330
5A
100
AcDbEntity
  8
Premier plan
 62
   250
420
  1709851
370
     9
100
AcDbVertex
100
AcDb2dVertex
 10
14.37997624629043
 20
474.8375957764547
 30
0.0
  0
SEQEND
  5
5E
330
5A
100
AcDbEntity
  8
Premier plan
 62
   250
420
  1709851
370
     9
  0
POLYLINE
  5
5F
330
4F
100
AcDbEntity
  8
Premier plan
 62
   250
420
  1709851
370
     9
100
AcDb2dPolyline
 66
     1
 10
0.0
 20
0.0
 30
0.0
  0
VERTEX
  5
60
330
5F
100
AcDbEntity
  8
Premier plan
 62
   250
420
  1709851
370
     9
100
AcDbVertex
100
AcDb2dVertex
 10
18.97884911879373
 20
487.9581908374375
 30
0.0
  0
VERTEX
  5
61
330
5F
100
AcDbEntity
  8
Premier plan
 62
   250
420
  1709851
370
     9
100
AcDbVertex
100
AcDb2dVertex
 10
18.98360765428879
 20
488.5526795995338
 30
0.0
  0
SEQEND
  5
62
330
5F
100
AcDbEntity
  8
Premier plan
 62
   250
420
  1709851
370
     9
  0
SPLINE
  5
63
330
4F
100
AcDbEntity
  8
Premier plan
 62
   250
420
  1709851
370
     9
100
AcDbSpline
210
0.0
220
0.0
230
1.0
 70
     8
 71
     3
 72
    11
 73
     7
 74
     0
 42
0.0000000001
 43
0.0000000001
 12
1.0
 22
0.0
 32
0.0
 13
1.0
 23
0.0
 33
0.0
 40
0.0
 40
0.0
 40
0.0
 40
0.0
 40
1.0
 40
1.0
 40
1.0
 40
2.0
 40
2.0
 40
2.0
 40
2.0
 10
14.78608708482352
 20
486.0777488794984
 30
0.0
 10
13.32390398820826
 20
486.1049873930242
 30
0.0
 10
11.88256548513255
 20
486.3862332495619
 30
0.0
 10
10.96514716923775
 20
486.8821054656955
 30
0.0
 10
10.37147884429669
 20
487.2027323056445
 30
0.0
 10
10.08547445226486
 20
487.5656937027616
 30
0.0
 10
10.083013140802
 20
487.9197943786112
 30
0.0
  0
SPLINE
  5
64
330
4F
100
AcDbEntity
  8
Premier plan
 62
   250
420
  1709851
370
     9
100
AcDbSpline
210
0.0
220
0.0
230
1.0
 70
     8
 71
     3
 72
    14
 73
    10
 74
     0
 42
0.0000000001
 43
0.0000000001
 12
1.0
 22
0.0
 32
0.0
 13
1.0
 23
0.0
 33
0.0
 40
0.0
 40
0.0
 40
0.0
 40
0.0
 40
1.0
 40
1.0
 40
1.0
 40
2.0
 40
2.0
 40
2.0
 40
3.0
 40
3.0
 40
3.0
 40
3.0
 10
14.78378986079133
 20
486.4871658438915
 30
0.0
 10
13.66127328085804
 20
486.507986123278
 30
0.0
 10
12.55548254937457
 20
486.724417444615
 30
0.0
 10
11.8520397331713
 20
487.1049361968362
 30
0.0
 10
10.68948028535215
 20
487.7330628822638
 30
0.0
 10
11.0613024037375
 20
488.5718778289483
 30
0.0
 10
12.68133760886394
 20
488.9781583078193
 30
0.0
 10
13.31504879294425
 20
489.1368308534848
 30
0.0
 10
14.04654503382608
 20
489.2065680116102
 30
0.0
 10
14.84384586049509
 20
489.1944255417247
 30
0.0
  0
SPLINE
  5
65
330
4F
100
AcDbEntity
  8
Premier plan
 62
   250
420
  1709851
370
     9
100
AcDbSpline
210
0.0
220
0.0
230
1.0
 70
     8
 71
     3
 72
    11
 73
     7
 74
     0
 42
0.0000000001
 43
0.0000000001
 12
1.0
 22
0.0
 32
0.0
 13
1.0
 23
0.0
 33
0.0
 40
0.0
 40
0.0
 40
0.0
 40
0.0
 40
1.0
 40
1.0
 40
1.0
 40
2.0
 40
2.0
 40
2.0
 40
2.0
 10
17.15288418790624
 20
488.8194857621529
 30
0.0
 10
17.36045478797587
 20
488.7482906986061
 30
0.0
 10
17.55112438266406
 20
488.667212626292
 30
0.0
 10
17.71849356216717
 20
488.576800451875
 30
0.0
 10
18.71368383048411
 20
488.0390859408644
 30
0.0
 10
18.58471110980827
 20
487.3468010699607
 30
0.0
 10
17.51108704952821
 20
486.903765006572
 30
0.0
  0
SPLINE
  5
66
330
4F
100
AcDbEntity
  8
Premier plan
 62
   250
420
  1709851
370
     9
100
AcDbSpline
210
0.0
220
0.0
230
1.0
 70
     8
 71
     3
 72
    11
 73
     7
 74
     0
 42
0.0000000001
 43
0.0000000001
 12
1.0
 22
0.0
 32
0.0
 13
1.0
 23
0.0
 33
0.0
 40
0.0
 40
0.0
 40
0.0
 40
0.0
 40
1.0
 40
1.0
 40
1.0
 40
2.0
 40
2.0
 40
2.0
 40
2.0
 10
17.16092447202027
 20
487.5704522382566
 30
0.0
 10
17.36521332347093
 20
487.4990742058217
 30
0.0
 10
17.55342723977174
 20
487.4189995395509
 30
0.0
 10
17.71849356216717
 20
487.3300641520109
 30
0.0
 10
17.71849356216717
 20
487.3300641520109
 30
0.0
 10
17.96610149537264
 20
487.1769705789957
 30
0.0
 10
17.96610149537264
 20
487.1769705789957
 30
0.0
  0
SPLINE
  5
67
330
4F
100
AcDbEntity
  8
Premier plan
 62
   250
420
  1709851
370
     9
100
AcDbSpline
210
0.0
220
0.0
230
1.0
 70
     8
 71
     3
 72
    11
 73
     7
 74
     0
 42
0.0000000001
 43
0.0000000001
 12
1.0
 22
0.0
 32
0.0
 13
1.0
 23
0.0
 33
0.0
 40
0.0
 40
0.0
 40
0.0
 40
0.0
 40
1.0
 40
1.0
 40
1.0
 40
2.0
 40
2.0
 40
2.0
 40
2.0
 10
11.60131413877934
 20
487.2892063817208
 30
0.0
 10
11.85368060747987
 20
487.4623186213039
 30
0.0
 10
12.21582156744353
 20
487.614446522548
 30
0.0
 10
12.68133760886394
 20
487.7314220079561
 30
0.0
 10
13.32866252370422
 20
487.8933951620984
 30
0.0
 10
14.07788573312519
 20
487.9621289357792
 30
0.0
 10
14.81890457100053
 20
487.9462124549837
 30
0.0
  0
SPLINE
  5
68
330
4F
100
AcDbEntity
  8
Premier plan
 62
   250
420
  1709851
370
     9
100
AcDbSpline
210
0.0
220
0.0
230
1.0
 70
     8
 71
     3
 72
    11
 73
     7
 74
     0
 42
0.0000000001
 43
0.0000000001
 12
1.0
 22
0.0
 32
0.0
 13
1.0
 23
0.0
 33
0.0
 40
0.0
 40
0.0
 40
0.0
 40
0.0
 40
1.0
 40
1.0
 40
1.0
 40
2.0
 40
2.0
 40
2.0
 40
2.0
 10
12.40009175232626
 20
486.886207651467
 30
0.0
 10
12.54596547838355
 20
487.0801589947732
 30
0.0
 10
12.86478735659239
 20
487.2539275840809
 30
0.0
 10
13.34146134331331
 20
487.3742036709191
 30
0.0
 10
13.78695871816581
 20
487.4854549490592
 30
0.0
 10
14.30301368829896
 20
487.5327121291539
 30
0.0
 10
14.81250516119599
 20
487.5215541838534
 30
0.0
  0
SPLINE
  5
69
330
4F
100
AcDbEntity
  8
Premier plan
 62
   250
420
  1709851
370
     9
100
AcDbSpline
210
0.0
220
0.0
230
1.0
 70
     8
 71
     3
 72
     8
 73
     4
 74
     0
 42
0.0000000001
 43
0.0000000001
 12
1.0
 22
0.0
 32
0.0
 13
1.0
 23
0.0
 33
0.0
 40
0.0
 40
0.0
 40
0.0
 40
0.0
 40
1.0
 40
1.0
 40
1.0
 40
1.0
 10
10.2608839158811
 20
488.3708895980362
 30
0.0
 10
10.1479917634324
 20
488.223356125749
 30
0.0
 10
10.08941255060563
 20
488.0719034270414
 30
0.0
 10
10.083013140802
 20
487.9197943786112
 30
0.0
  0
SPLINE
  5
6A
330
4F
100
AcDbEntity
  8
Premier plan
 62
   250
420
  1709851
370
     9
100
AcDbSpline
210
0.0
220
0.0
230
1.0
 70
     8
 71
     3
 72
     8
 73
     4
 74
     0
 42
0.0000000001
 43
0.0000000001
 12
1.0
 22
0.0
 32
0.0
 13
1.0
 23
0.0
 33
0.0
 40
0.0
 40
0.0
 40
0.0
 40
0.0
 40
1.0
 40
1.0
 40
1.0
 40
1.0
 10
14.88864729488432
 20
489.5959474851006
 30
0.0
 10
13.84389705668309
 20
489.6167865888219
 30
0.0
 10
12.80309599565044
 20
489.5076684472842
 30
0.0
 10
11.94984133349499
 20
489.2753206451516
 30
0.0
  0
SPLINE
  5
6B
330
4F
100
AcDbEntity
  8
Premier plan
 62
   250
420
  1709851
370
     9
100
AcDbSpline
210
0.0
220
0.0
230
1.0
 70
     8
 71
     3
 72
    11
 73
     7
 74
     0
 42
0.0000000001
 43
0.0000000001
 12
1.0
 22
0.0
 32
0.0
 13
1.0
 23
0.0
 33
0.0
 40
0.0
 40
0.0
 40
0.0
 40
0.0
 40
1.0
 40
1.0
 40
1.0
 40
2.0
 40
2.0
 40
2.0
 40
2.0
 10
18.99247404498419
 20
488.5718778289483
 30
0.0
 10
18.67118518588359
 20
488.8178448878434
 30
0.0
 10
18.19598798604147
 20
489.0414960561402
 30
0.0
 10
17.57590158472794
 20
489.2201872683736
 30
0.0
 10
17.57590158472794
 20
489.2201872683736
 30
0.0
 10
17.15370462506053
 20
489.3291602186118
 30
0.0
 10
17.15370462506053
 20
489.3291602186118
 30
0.0
  0
SPLINE
  5
6C
330
4F
100
AcDbEntity
  8
Premier plan
 62
   250
420
  1709851
370
     9
100
AcDbSpline
210
0.0
220
0.0
230
1.0
 70
     8
 71
     3
 72
    11
 73
     7
 74
     0
 42
0.0000000001
 43
0.0000000001
 12
1.0
 22
0.0
 32
0.0
 13
1.0
 23
0.0
 33
0.0
 40
0.0
 40
0.0
 40
0.0
 40
0.0
 40
1.0
 40
1.0
 40
1.0
 40
2.0
 40
2.0
 40
2.0
 40
2.0
 10
6.5
 20
486.8565078264774
 30
0.0
 10
6.5
 20
486.3854316341722
 30
0.0
 10
6.931878118089116
 20
485.9479557216682
 30
0.0
 10
7.454332498025906
 20
485.5963163572815
 30
0.0
 10
7.454332498025906
 20
485.5963163572815
 30
0.0
 10
10.1471713262772
 20
486.3220750640858
 30
0.0
 10
10.1471713262772
 20
486.3220750640858
 30
0.0
  0
SPLINE
  5
6D
330
4F
100
AcDbEntity
  8
Premier plan
 62
   250
420
  1709851
370
     9
100
AcDbSpline
210
0.0
220
0.0
230
1.0
 70
     8
 71
     3
 72
    14
 73
    10
 74
     0
 42
0.0000000001
 43
0.0000000001
 12
1.0
 22
0.0
 32
0.0
 13
1.0
 23
0.0
 33
0.0
 40
0.0
 40
0.0
 40
0.0
 40
0.0
 40
1.0
 40
1.0
 40
1.0
 40
2.0
 40
2.0
 40
2.0
 40
3.0
 40
3.0
 40
3.0
 40
3.0
 10
20.81925374359798
 20
492.6148280385205
 30
0.0
 10
19.96599910299665
 20
491.9538838669159
 30
0.0
 10
18.89713357821256
 20
491.6061826008699
 30
0.0
 10
17.65925799961769
 20
491.6076593877478
 30
0.0
 10
15.78997398697629
 20
491.6076593877478
 30
0.0
 10
14.88470363078432
 20
490.9266965495763
 30
0.0
 10
14.87584290951781
 20
489.6310810990672
 30
0.0
 10
14.87584290951781
 20
489.6310810990672
 30
0.0
 10
14.6210151293526
 20
480.8738800964147
 30
0.0
 10
14.6210151293526
 20
480.8738800964147
 30
0.0
  0
SPLINE
  5
6E
330
4F
100
AcDbEntity
  8
Premier plan
 62
   250
420
  1709851
370
     9
100
AcDbSpline
210
0.0
220
0.0
230
1.0
 70
     8
 71
     3
 72
     8
 73
     4
 74
     0
 42
0.0000000001
 43
0.0000000001
 12
1.0
 22
0.0
 32
0.0
 13
1.0
 23
0.0
 33
0.0
 40
0.0
 40
0.0
 40
0.0
 40
0.0
 40
1.0
 40
1.0
 40
1.0
 40
1.0
 10
14.94804137910705
 20
490.3016875253361
 30
0.0
 10
14.90472229735406
 20
490.0965782367293
 30
0.0
 10
14.88060144501287
 20
489.873091155865
 30
0.0
 10
14.87584290951781
 20
489.6310810990672
 30
0.0
  0
POLYLINE
  5
6F
330
4F
100
AcDbEntity
  8
Premier plan
 62
   250
420
  1709851
370
     9
100
AcDb2dPolyline
 66
     1
 10
0.0
 20
0.0
 30
0.0
  0
VERTEX
  5
70
330
6F
100
AcDbEntity
  8
Premier plan
 62
   250
420
  1709851
370
     9
100
AcDbVertex
100
AcDb2dVertex
 10
19.093382145551
 20
492.6404446575179
 30
0.0
  0
VERTEX
  5
71
330
6F
100
AcDbEntity
  8
Premier plan
 62
   250
420
  1709851
370
     9
100
AcDbVertex
100
AcDb2dVertex
 10
19.093382145551
 20
494.820491284474
 30
0.0
  0
VERTEX
  5
72
330
6F
100
AcDbEntity
  8
Premier plan
 62
   250
420
  1709851
370
     9
100
AcDbVertex
100
AcDb2dVertex
 10
20.35768150443528
 20
493.7357092788943
 30
0.0
  0
SEQEND
  5
73
330
6F
100
AcDbEntity
  8
Premier plan
 62
   250
420
  1709851
370
     9
  0
POLYLINE
  5
74
330
4F
100
AcDbEntity
  8
Premier plan
 62
   250
420
  1709851
370
     9
100
AcDb2dPolyline
 66
     1
 10
0.0
 20
0.0
 30
0.0
  0
VERTEX
  5
75
330
74
100
AcDbEntity
  8
Premier plan
 62
   250
420
  1709851
370
     9
100
AcDbVertex
100
AcDb2dVertex
 10
21.52270229314854
 20
493.0217648671132
 30
0.0
  0
VERTEX
  5
76
330
74
100
AcDbEntity
  8
Premier plan
 62
   250
420
  1709851
370
     9
100
AcDbVertex
100
AcDb2dVertex
 10
20.7070179408729
 20
493.032266462691
 30
0.0
  0
SEQEND
  5
77
330
74
100
AcDbEntity
  8
Premier plan
 62
   250
420
  1709851
370
     9
  0
SPLINE
  5
78
330
4F
100
AcDbEntity
  8
Premier plan
 62
   250
420
  1709851
370
     9
100
AcDbSpline
210
0.0
220
0.0
230
1.0
 70
     8
 71
     3
 72
    11
 73
     7
 74
     0
 42
0.0000000001
 43
0.0000000001
 12
1.0
 22
0.0
 32
0.0
 13
1.0
 23
0.0
 33
0.0
 40
0.0
 40
0.0
 40
0.0
 40
0.0
 40
1.0
 40
1.0
 40
1.0
 40
2.0
 40
2.0
 40
2.0
 40
2.0
 10
15.58486469837044
 20
486.3486572278889
 30
0.0
 10
15.58486469837044
 20
486.3486572278889
 30
0.0
 10
15.68741934267382
 20
489.7521587193023
 30
0.0
 10
15.68741934267382
 20
489.7521587193023
 30
0.0
 10
17.74015310304276
 20
489.6776630256809
 30
0.0
 10
19.39218535719283
 20
490.0670424991704
 30
0.0
 10
20.64368019255107
 20
490.9202971397717
 30
0.0
  0
POLYLINE
  5
79
330
4F
100
AcDbEntity
  8
Premier plan
 62
   250
420
  1709851
370
     9
100
AcDb2dPolyline
 66
     1
 10
0.0
 20
0.0
 30
0.0
  0
VERTEX
  5
7A
330
79
100
AcDbEntity
  8
Premier plan
 62
   250
420
  1709851
370
     9
100
AcDbVertex
100
AcDb2dVertex
 10
20.81925374359798
 20
492.6148280385205
 30
0.0
  0
VERTEX
  5
7B
330
79
100
AcDbEntity
  8
Premier plan
 62
   250
420
  1709851
370
     9
100
AcDbVertex
100
AcDb2dVertex
 10
21.52991640676009
 20
492.6076271705124
 30
0.0
  0
VERTEX
  5
7C
330
79
100
AcDbEntity
  8
Premier plan
 62
   250
420
  1709851
370
     9
100
AcDbVertex
100
AcDb2dVertex
 10
22.02349139886155
 20
493.0153654573087
 30
0.0
  0
SEQEND
  5
7D
330
79
100
AcDbEntity
  8
Premier plan
 62
   250
420
  1709851
370
     9
  0
POLYLINE
  5
7E
330
4F
100
AcDbEntity
  8
Premier plan
 62
   250
420
  1709851
370
     9
100
AcDb2dPolyline
 66
     1
 10
0.0
 20
0.0
 30
0.0
  0
VERTEX
  5
7F
330
7E
100
AcDbEntity
  8
Premier plan
 62
   250
420
  1709851
370
     9
100
AcDbVertex
100
AcDb2dVertex
 10
21.52991640676009
 20
492.6076271705124
 30
0.0
  0
VERTEX
  5
80
330
7E
100
AcDbEntity
  8
Premier plan
 62
   250
420
  1709851
370
     9
100
AcDbVertex
100
AcDb2dVertex
 10
21.52991640676009
 20
491.1598647888641
 30
0.0
  0
SEQEND
  5
81
330
7E
100
AcDbEntity
  8
Premier plan
 62
   250
420
  1709851
370
     9
  0
POLYLINE
  5
82
330
4F
100
AcDbEntity
  8
Premier plan
 62
   250
420
  1709851
370
     9
100
AcDb2dPolyline
 66
     1
 10
0.0
 20
0.0
 30
0.0
  0
VERTEX
  5
83
330
82
100
AcDbEntity
  8
Premier plan
 62
   250
420
  1709851
370
     9
100
AcDbVertex
100
AcDb2dVertex
 10
21.60277122607295
 20
494.7651938202662
 30
0.0
  0
VERTEX
  5
84
330
82
100
AcDbEntity
  8
Premier plan
 62
   250
420
  1709851
370
     9
100
AcDbVertex
100
AcDb2dVertex
 10
22.74137390898341
 20
494.7651938202662
 30
0.0
  0
SEQEND
  5
85
330
82
100
AcDbEntity
  8
Premier plan
 62
   250
420
  1709851
370
     9
  0
SPLINE
  5
86
330
4F
100
AcDbEntity
  8
Premier plan
 62
   250
420
  1709851
370
     9
100
AcDbSpline
210
0.0
220
0.0
230
1.0
 70
     8
 71
     3
 72
     8
 73
     4
 74
     0
 42
0.0000000001
 43
0.0000000001
 12
1.0
 22
0.0
 32
0.0
 13
1.0
 23
0.0
 33
0.0
 40
0.0
 40
0.0
 40
0.0
 40
0.0
 40
1.0
 40
1.0
 40
1.0
 40
1.0
 10
21.60277122607295
 20
494.7651938202662
 30
0.0
 10
21.55469360882398
 20
494.2757210139362
 30
0.0
 10
21.25589039718216
 20
493.6981332572223
 30
0.0
 10
20.7070179408729
 20
493.032266462691
 30
0.0
  0
POLYLINE
  5
87
330
4F
100
AcDbEntity
  8
Premier plan
 62
   250
420
  1709851
370
     9
100
AcDb2dPolyline
 66
     1
 10
0.0
 20
0.0
 30
0.0
  0
VERTEX
  5
88
330
87
100
AcDbEntity
  8
Premier plan
 62
   250
420
  1709851
370
     9
100
AcDbVertex
100
AcDb2dVertex
 10
21.60277122607295
 20
494.7651938202662
 30
0.0
  0
VERTEX
  5
89
330
87
100
AcDbEntity
  8
Premier plan
 62
   250
420
  1709851
370
     9
100
AcDbVertex
100
AcDb2dVertex
 10
21.60277122607295
 20
493.3760296303954
 30
0.0
  0
SEQEND
  5
8A
330
87
100
AcDbEntity
  8
Premier plan
 62
   250
420
  1709851
370
     9
  0
POLYLINE
  5
8B
330
4F
100
AcDbEntity
  8
Premier plan
 62
   250
420
  1709851
370
     9
100
AcDb2dPolyline
 66
     1
 10
0.0
 20
0.0
 30
0.0
  0
VERTEX
  5
8C
330
8B
100
AcDbEntity
  8
Premier plan
 62
   250
420
  1709851
370
     9
100
AcDbVertex
100
AcDb2dVertex
 10
18.99247404498419
 20
488.5718778289483
 30
0.0
  0
VERTEX
  5
8D
330
8B
100
AcDbEntity
  8
Premier plan
 62
   250
420
  1709851
370
     9
100
AcDbVertex
100
AcDb2dVertex
 10
18.1472540190689
 20
486.85339016529
 30
0.0
  0
SEQEND
  5
8E
330
8B
100
AcDbEntity
  8
Premier plan
 62
   250
420
  1709851
370
     9
  0
POLYLINE
  5
8F
330
4F
100
AcDbEntity
  8
Premier plan
 62
   250
420
  1709851
370
     9
100
AcDb2dPolyline
 66
     1
 10
0.0
 20
0.0
 30
0.0
  0
VERTEX
  5
90
330
8F
100
AcDbEntity
  8
Premier plan
 62
   250
420
  1709851
370
     9
100
AcDbVertex
100
AcDb2dVertex
 10
17.14894608956547
 20
489.7969545879341
 30
0.0
  0
VERTEX
  5
91
330
8F
100
AcDbEntity
  8
Premier plan
 62
   250
420
  1709851
370
     9
100
AcDbVertex
100
AcDb2dVertex
 10
17.14894608956547
 20
486.9390438042119
 30
0.0
  0
SEQEND
  5
92
330
8F
100
AcDbEntity
  8
Premier plan
 62
   250
420
  1709851
370
     9
  0
POLYLINE
  5
93
330
4F
100
AcDbEntity
  8
Premier plan
 62
   250
420
  1709851
370
     9
100
AcDb2dPolyline
 66
     1
 10
0.0
 20
0.0
 30
0.0
  0
VERTEX
  5
94
330
93
100
AcDbEntity
  8
Premier plan
 62
   250
420
  1709851
370
     9
100
AcDbVertex
100
AcDb2dVertex
 10
15.58486469837044
 20
486.3486572278889
 30
0.0
  0
VERTEX
  5
95
330
93
100
AcDbEntity
  8
Premier plan
 62
   250
420
  1709851
370
     9
100
AcDbVertex
100
AcDb2dVertex
 10
17.39638993534027
 20
486.1514241359646
 30
0.0
  0
VERTEX
  5
96
330
93
100
AcDbEntity
  8
Premier plan
 62
   250
420
  1709851
370
     9
100
AcDbVertex
100
AcDb2dVertex
 10
18.59915080372502
 20
486.8036716737324
 30
0.0
  0
VERTEX
  5
97
330
93
100
AcDbEntity
  8
Premier plan
 62
   250
420
  1709851
370
     9
100
AcDbVertex
100
AcDb2dVertex
 10
17.14894608956547
 20
486.9390438042119
 30
0.0
  0
SEQEND
  5
98
330
93
100
AcDbEntity
  8
Premier plan
 62
   250
420
  1709851
370
     9
  0
POLYLINE
  5
99
330
4F
100
AcDbEntity
  8
Premier plan
 62
   250
420
  1709851
370
     9
100
AcDb2dPolyline
 66
     1
 10
0.0
 20
0.0
 30
0.0
  0
VERTEX
  5
9A
330
99
100
AcDbEntity
  8
Premier plan
 62
   250
420
  1709851
370
     9
100
AcDbVertex
100
AcDb2dVertex
 10
17.14894608956547
 20
486.9390438042119
 30
0.0
  0
VERTEX
  5
9B
330
99
100
AcDbEntity
  8
Premier plan
 62
   250
420
  1709851
370
     9
100
AcDbVertex
100
AcDb2dVertex
 10
15.58486469837044
 20
486.3486572278889
 30
0.0
  0
SEQEND
  5
9C
330
99
100
AcDbEntity
  8
Premier plan
 62
   250
420
  1709851
370
     9
  0
POLYLINE
  5
9D
330
4F
100
AcDbEntity
  8
Premier plan
 62
   250
420
  1709851
370
     9
100
AcDb2dPolyline
 66
     1
 10
0.0
 20
0.0
 30
0.0
  0
VERTEX
  5
9E
330
9D
100
AcDbEntity
  8
Premier plan
 62
   250
420
  1709851
370
     9
100
AcDbVertex
100
AcDb2dVertex
 10
17.39638993534027
 20
486.1514241359646
 30
0.0
  0
VERTEX
  5
9F
330
9D
100
AcDbEntity
  8
Premier plan
 62
   250
420
  1709851
370
     9
100
AcDbVertex
100
AcDb2dVertex
 10
17.39638993534027
 20
485.0914193324497
 30
0.0
  0
VERTEX
  5
A0
330
9D
100
AcDbEntity
  8
Premier plan
 62
   250
420
  1709851
370
     9
100
AcDbVertex
100
AcDb2dVertex
 10
15.42061318005562
 20
483.49862264085
 30
0.0
  0
VERTEX
  5
A1
330
9D
100
AcDbEntity
  8
Premier plan
 62
   250
420
  1709851
370
     9
100
AcDbVertex
100
AcDb2dVertex
 10
15.29803986918432
 20
480.689609911532
 30
0.0
  0
SEQEND
  5
A2
330
9D
100
AcDbEntity
  8
Premier plan
 62
   250
420
  1709851
370
     9
  0
POLYLINE
  5
A3
330
4F
100
AcDbEntity
  8
Premier plan
 62
   250
420
  1709851
370
     9
100
AcDb2dPolyline
 66
     1
 10
0.0
 20
0.0
 30
0.0
  0
VERTEX
  5
A4
330
A3
100
AcDbEntity
  8
Premier plan
 62
   250
420
  1709851
370
     9
100
AcDbVertex
100
AcDb2dVertex
 10
18.59915080372502
 20
486.8036716737324
 30
0.0
  0
VERTEX
  5
A5
330
A3
100
AcDbEntity
  8
Premier plan
 62
   250
420
  1709851
370
     9
100
AcDbVertex
100
AcDb2dVertex
 10
18.59915080372502
 20
485.7436668702157
 30
0.0
  0
SEQEND
  5
A6
330
A3
100
AcDbEntity
  8
Premier plan
 62
   250
420
  1709851
370
     9
  0
POLYLINE
  5
A7
330
4F
100
AcDbEntity
  8
Premier plan
 62
   250
420
  1709851
370
     9
100
AcDb2dPolyline
 66
     1
 10
0.0
 20
0.0
 30
0.0
  0
VERTEX
  5
A8
330
A7
100
AcDbEntity
  8
Premier plan
 62
   250
420
  1709851
370
     9
100
AcDbVertex
100
AcDb2dVertex
 10
17.39638993534027
 20
485.0914193324497
 30
0.0
  0
VERTEX
  5
A9
330
A7
100
AcDbEntity
  8
Premier plan
 62
   250
420
  1709851
370
     9
100
AcDbVertex
100
AcDb2dVertex
 10
18.59915080372502
 20
485.7436668702157
 30
0.0
  0
SEQEND
  5
AA
330
A7
100
AcDbEntity
  8
Premier plan
 62
   250
420
  1709851
370
     9
  0
POLYLINE
  5
AB
330
4F
100
AcDbEntity
  8
Premier plan
 62
   250
420
  1709851
370
     9
100
AcDb2dPolyline
 66
     1
 10
0.0
 20
0.0
 30
0.0
  0
VERTEX
  5
AC
330
AB
100
AcDbEntity
  8
Premier plan
 62
   250
420
  1709851
370
     9
100
AcDbVertex
100
AcDb2dVertex
 10
18.59915080372502
 20
485.7436668702157
 30
0.0
  0
VERTEX
  5
AD
330
AB
100
AcDbEntity
  8
Premier plan
 62
   250
420
  1709851
370
     9
100
AcDbVertex
100
AcDb2dVertex
 10
17.22737988152858
 20
484.5282712696517
 30
0.0
  0
VERTEX
  5
AE
330
AB
100
AcDbEntity
  8
Premier plan
 62
   250
420
  1709851
370
     9
100
AcDbVertex
100
AcDb2dVertex
 10
17.12810698584326
 20
481.4852698638924
 30
0.0
  0
VERTEX
  5
AF
330
AB
100
AcDbEntity
  8
Premier plan
 62
   250
420
  1709851
370
     9
100
AcDbVertex
100
AcDb2dVertex
 10
17.86436728822355
 20
482.1517930081473
 30
0.0
  0
VERTEX
  5
B0
330
AB
100
AcDbEntity
  8
Premier plan
 62
   250
420
  1709851
370
     9
100
AcDbVertex
100
AcDb2dVertex
 10
17.91162446831822
 20
485.1275185672439
 30
0.0
  0
SEQEND
  5
B1
330
AB
100
AcDbEntity
  8
Premier plan
 62
   250
420
  1709851
370
     9
  0
SPLINE
  5
B2
330
4F
100
AcDbEntity
  8
Premier plan
 62
   250
420
  1709851
370
     9
100
AcDbSpline
210
0.0
220
0.0
230
1.0
 70
     8
 71
     3
 72
     8
 73
     4
 74
     0
 42
0.0000000001
 43
0.0000000001
 12
1.0
 22
0.0
 32
0.0
 13
1.0
 23
0.0
 33
0.0
 40
0.0
 40
0.0
 40
0.0
 40
0.0
 40
1.0
 40
1.0
 40
1.0
 40
1.0
 10
15.42061318005562
 20
483.49862264085
 30
0.0
 10
16.31324880406828
 20
483.8463239068942
 30
0.0
 10
16.91495741312337
 20
484.1900870745985
 30
0.0
 10
17.22737988152858
 20
484.5282712696517
 30
0.0
  0
POLYLINE
  5
B3
330
4F
100
AcDbEntity
  8
Premier plan
 62
   250
420
  1709851
370
     9
100
AcDb2dPolyline
 66
     1
 10
0.0
 20
0.0
 30
0.0
  0
VERTEX
  5
B4
330
B3
100
AcDbEntity
  8
Premier plan
 62
   250
420
  1709851
370
     9
100
AcDbVertex
100
AcDb2dVertex
 10
10.083013140802
 20
487.9197943786112
 30
0.0
  0
VERTEX
  5
B5
330
B3
100
AcDbEntity
  8
Premier plan
 62
   250
420
  1709851
370
     9
100
AcDbVertex
100
AcDb2dVertex
 10
10.083013140802
 20
484.6155657828831
 30
0.0
  0
SEQEND
  5
B6
330
B3
100
AcDbEntity
  8
Premier plan
 62
   250
420
  1709851
370
     9
  0
SPLINE
  5
B7
330
4F
100
AcDbEntity
  8
Premier plan
 62
   250
420
  1709851
370
     9
100
AcDbSpline
210
0.0
220
0.0
230
1.0
 70
    11
 71
     3
 72
    23
 73
    19
 74
     0
 42
0.0000000001
 43
0.0000000001
 12
1.0
 22
0.0
 32
0.0
 13
1.0
 23
0.0
 33
0.0
 40
0.0
 40
0.0
 40
0.0
 40
0.0
 40
1.0
 40
1.0
 40
1.0
 40
2.0
 40
2.0
 40
2.0
 40
3.0
 40
3.0
 40
3.0
 40
4.0
 40
4.0
 40
4.0
 40
5.0
 40
5.0
 40
5.0
 40
6.0
 40
6.0
 40
6.0
 40
6.0
 10
13.40643996594281
 20
485.107499900676
 30
0.0
 10
13.40643996594281
 20
485.107499900676
 30
0.0
 10
12.25585890057937
 20
485.2934109598682
 30
0.0
 10
12.25585890057937
 20
485.2934109598682
 30
0.0
 10
12.25585890057937
 20
485.2934109598682
 30
0.0
 10
9.299495658326123
 20
484.3656606256454
 30
0.0
 10
9.299495658326123
 20
484.3656606256454
 30
0.0
 10
9.299495658326123
 20
484.3656606256454
 30
0.0
 10
10.715242012001
 20
483.5747592087801
 30
0.0
 10
10.715242012001
 20
483.5747592087801
 30
0.0
 10
11.12217884059555
 20
483.4546472093725
 30
0.0
 10
11.51795772388959
 20
483.456288083682
 30
0.0
 10
11.90093778757546
 20
483.5803381814312
 30
0.0
 10
11.90093778757546
 20
483.5803381814312
 30
0.0
 10
12.49066801417484
 20
483.7381902899415
 30
0.0
 10
12.49066801417484
 20
483.7381902899415
 30
0.0
 10
12.49066801417484
 20
483.7381902899415
 30
0.0
 10
13.40643996594281
 20
485.107499900676
 30
0.0
 10
13.40643996594281
 20
485.107499900676
 30
0.0
  0
POLYLINE
  5
B8
330
4F
100
AcDbEntity
  8
Premier plan
 62
   250
420
  1709851
370
     9
100
AcDb2dPolyline
 66
     1
 10
0.0
 20
0.0
 30
0.0
  0
VERTEX
  5
B9
330
B8
100
AcDbEntity
  8
Premier plan
 62
   250
420
  1709851
370
     9
100
AcDbVertex
100
AcDb2dVertex
 10
13.40643996594281
 20
485.107499900676
 30
0.0
  0
VERTEX
  5
BA
330
B8
100
AcDbEntity
  8
Premier plan
 62
   250
420
  1709851
370
     9
100
AcDbVertex
100
AcDb2dVertex
 10
13.40643996594281
 20
481.5709235028153
 30
0.0
  0
SEQEND
  5
BB
330
B8
100
AcDbEntity
  8
Premier plan
 62
   250
420
  1709851
370
     9
  0
POLYLINE
  5
BC
330
4F
100
AcDbEntity
  8
Premier plan
 62
   250
420
  1709851
370
     9
100
AcDb2dPolyline
 66
     1
 10
0.0
 20
0.0
 30
0.0
  0
VERTEX
  5
BD
330
BC
100
AcDbEntity
  8
Premier plan
 62
   250
420
  1709851
370
     9
100
AcDbVertex
100
AcDb2dVertex
 10
12.49066801417484
 20
483.7381902899415
 30
0.0
  0
VERTEX
  5
BE
330
BC
100
AcDbEntity
  8
Premier plan
 62
   250
420
  1709851
370
     9
100
AcDbVertex
100
AcDb2dVertex
 10
12.49066801417484
 20
480.6440122824715
 30
0.0
  0
SEQEND
  5
BF
330
BC
100
AcDbEntity
  8
Premier plan
 62
   250
420
  1709851
370
     9
  0
SPLINE
  5
C0
330
4F
100
AcDbEntity
  8
Premier plan
 62
   250
420
  1709851
370
     9
100
AcDbSpline
210
0.0
220
0.0
230
1.0
 70
     8
 71
     3
 72
    11
 73
     7
 74
     0
 42
0.0000000001
 43
0.0000000001
 12
1.0
 22
0.0
 32
0.0
 13
1.0
 23
0.0
 33
0.0
 40
0.0
 40
0.0
 40
0.0
 40
0.0
 40
1.0
 40
1.0
 40
1.0
 40
2.0
 40
2.0
 40
2.0
 40
2.0
 10
12.49066801417484
 20
480.6440122824715
 30
0.0
 10
12.49066801417484
 20
480.6440122824715
 30
0.0
 10
14.86780262540378
 20
480.5461974969385
 30
0.0
 10
14.86780262540378
 20
480.5461974969385
 30
0.0
 10
15.11623099576354
 20
480.5261788303706
 30
0.0
 10
15.25964341035797
 20
480.5734546854083
 30
0.0
 10
15.29803986918432
 20
480.689609911532
 30
0.0
  0
SPLINE
  5
C1
330
4F
100
AcDbEntity
  8
Premier plan
 62
   250
420
  1709851
370
     9
100
AcDbSpline
210
0.0
220
0.0
230
1.0
 70
     8
 71
     3
 72
     8
 73
     4
 74
     0
 42
0.0000000001
 43
0.0000000001
 12
1.0
 22
0.0
 32
0.0
 13
1.0
 23
0.0
 33
0.0
 40
0.0
 40
0.0
 40
0.0
 40
0.0
 40
1.0
 40
1.0
 40
1.0
 40
1.0
 10
14.64989451718884
 20
481.4883875250789
 30
0.0
 10
14.23163565586401
 20
481.5005486933278
 30
0.0
 10
13.81665854315543
 20
481.5333661803325
 30
0.0
 10
13.41678300266267
 20
481.5861836338863
 30
0.0
  0
POLYLINE
  5
C2
330
4F
100
AcDbEntity
  8
Premier plan
 62
   250
420
  1709851
370
     9
100
AcDb2dPolyline
 66
     1
 10
0.0
 20
0.0
 30
0.0
  0
VERTEX
  5
C3
330
C2
100
AcDbEntity
  8
Premier plan
 62
   250
420
  1709851
370
     9
100
AcDbVertex
100
AcDb2dVertex
 10
13.40643996594281
 20
481.5709235028153
 30
0.0
  0
VERTEX
  5
C4
330
C2
100
AcDbEntity
  8
Premier plan
 62
   250
420
  1709851
370
     9
100
AcDbVertex
100
AcDb2dVertex
 10
12.49066801417484
 20
480.6440122824715
 30
0.0
  0
SEQEND
  5
C5
330
C2
100
AcDbEntity
  8
Premier plan
 62
   250
420
  1709851
370
     9
  0
SPLINE
  5
C6
330
4F
100
AcDbEntity
  8
Premier plan
 62
   250
420
  1709851
370
     9
100
AcDbSpline
210
0.0
220
0.0
230
1.0
 70
     8
 71
     3
 72
     8
 73
     4
 74
     0
 42
0.0000000001
 43
0.0000000001
 12
1.0
 22
0.0
 32
0.0
 13
1.0
 23
0.0
 33
0.0
 40
0.0
 40
0.0
 40
0.0
 40
0.0
 40
1.0
 40
1.0
 40
1.0
 40
1.0
 10
14.6210151293526
 20
480.8738800964147
 30
0.0
 10
14.73078962061481
 20
480.6303743489825
 30
0.0
 10
14.95592314324495
 20
480.5686774749702
 30
0.0
 10
15.29803986918432
 20
480.689609911532
 30
0.0
  0
POLYLINE
  5
C7
330
4F
100
AcDbEntity
  8
Premier plan
 62
   250
420
  1709851
370
     9
100
AcDb2dPolyline
 66
     1
 10
0.0
 20
0.0
 30
0.0
  0
VERTEX
  5
C8
330
C7
100
AcDbEntity
  8
Premier plan
 62
   250
420
  1709851
370
     9
100
AcDbVertex
100
AcDb2dVertex
 10
11.13579809735893
 20
483.0475462933473
 30
0.0
  0
VERTEX
  5
C9
330
C7
100
AcDbEntity
  8
Premier plan
 62
   250
420
  1709851
370
     9
100
AcDbVertex
100
AcDb2dVertex
 10
11.13579809735893
 20
471.0118973253739
 30
0.0
  0
SEQEND
  5
CA
330
C7
100
AcDbEntity
  8
Premier plan
 62
   250
420
  1709851
370
     9
  0
SPLINE
  5
CB
330
4F
100
AcDbEntity
  8
Premier plan
 62
   250
420
  1709851
370
     9
100
AcDbSpline
210
0.0
220
0.0
230
1.0
 70
     8
 71
     3
 72
    17
 73
    13
 74
     0
 42
0.0000000001
 43
0.0000000001
 12
1.0
 22
0.0
 32
0.0
 13
1.0
 23
0.0
 33
0.0
 40
0.0
 40
0.0
 40
0.0
 40
0.0
 40
1.0
 40
1.0
 40
1.0
 40
2.0
 40
2.0
 40
2.0
 40
3.0
 40
3.0
 40
3.0
 40
4.0
 40
4.0
 40
4.0
 40
4.0
 10
9.299495658326123
 20
484.3656606256454
 30
0.0
 10
9.299495658326123
 20
484.3656606256454
 30
0.0
 10
9.299495658326123
 20
480.689609911532
 30
0.0
 10
9.299495658326123
 20
480.689609911532
 30
0.0
 10
9.299495658326123
 20
480.3538870279417
 30
0.0
 10
8.850716534856474
 20
479.7338006266273
 30
0.0
 10
8.245069827460611
 20
479.9717274014101
 30
0.0
 10
7.67059973193318
 20
480.1976944591897
 30
0.0
 10
7.454332498025906
 20
480.8916015389514
 30
0.0
 10
7.454332498025906
 20
481.2432409033372
 30
0.0
 10
7.454332498025906
 20
481.2432409033372
 30
0.0
 10
7.454332498025906
 20
485.5963163572815
 30
0.0
 10
7.454332498025906
 20
485.5963163572815
 30
0.0
  0
SPLINE
  5
CC
330
4F
100
AcDbEntity
  8
Premier plan
 62
   250
420
  1709851
370
     9
100
AcDbSpline
210
0.0
220
0.0
230
1.0
 70
     8
 71
     3
 72
    17
 73
    13
 74
     0
 42
0.0000000001
 43
0.0000000001
 12
1.0
 22
0.0
 32
0.0
 13
1.0
 23
0.0
 33
0.0
 40
0.0
 40
0.0
 40
0.0
 40
0.0
 40
1.0
 40
1.0
 40
1.0
 40
2.0
 40
2.0
 40
2.0
 40
3.0
 40
3.0
 40
3.0
 40
4.0
 40
4.0
 40
4.0
 40
4.0
 10
6.579418316548981
 20
483.8752032947305
 30
0.0
 10
6.579418316548981
 20
483.8752032947305
 30
0.0
 10
6.994400795587353
 20
483.4585853077133
 30
0.0
 10
6.994400795587353
 20
483.4585853077133
 30
0.0
 10
6.994400795587353
 20
483.4585853077133
 30
0.0
 10
7.034432762391589
 20
481.3602352415583
 30
0.0
 10
7.034432762391589
 20
481.3602352415583
 30
0.0
 10
7.086448477982231
 20
480.0030681007092
 30
0.0
 10
7.918213054806074
 20
479.1312715804179
 30
0.0
 10
8.798700819265832
 20
479.1312715804179
 30
0.0
 10
8.798700819265832
 20
479.1312715804179
 30
0.0
 10
10.03411508639783
 20
479.2587675142167
 30
0.0
 10
10.03411508639783
 20
479.2587675142167
 30
0.0
  0
SPLINE
  5
CD
330
4F
100
AcDbEntity
  8
Premier plan
 62
   250
420
  1709851
370
     9
100
AcDbSpline
210
0.0
220
0.0
230
1.0
 70
     8
 71
     3
 72
    14
 73
    10
 74
     0
 42
0.0000000001
 43
0.0000000001
 12
1.0
 22
0.0
 32
0.0
 13
1.0
 23
0.0
 33
0.0
 40
0.0
 40
0.0
 40
0.0
 40
0.0
 40
1.0
 40
1.0
 40
1.0
 40
2.0
 40
2.0
 40
2.0
 40
3.0
 40
3.0
 40
3.0
 40
3.0
 10
8.829056993979066
 20
479.1304511432645
 30
0.0
 10
9.07584449003025
 20
479.1304511432645
 30
0.0
 10
9.347573275575996
 20
479.2449841700218
 30
0.0
 10
9.63915664025808
 20
479.398077743037
 30
0.0
 10
9.889882234650031
 20
479.5511899651701
 30
0.0
 10
10.00769701002537
 20
479.5047345731118
 30
0.0
 10
10.03411508639783
 20
479.2587675142167
 30
0.0
 10
10.03411508639783
 20
479.2587675142167
 30
0.0
 10
10.13109075805096
 20
472.5702356564871
 30
0.0
 10
10.13109075805096
 20
472.5702356564871
 30
0.0
  0
POLYLINE
  5
CE
330
4F
100
AcDbEntity
  8
Premier plan
 62
   250
420
  1709851
370
     9
100
AcDb2dPolyline
 66
     1
 10
0.0
 20
0.0
 30
0.0
  0
VERTEX
  5
CF
330
CE
100
AcDbEntity
  8
Premier plan
 62
   250
420
  1709851
370
     9
100
AcDbVertex
100
AcDb2dVertex
 10
9.249777166768581
 20
474.0877162173101
 30
0.0
  0
VERTEX
  5
D0
330
CE
100
AcDbEntity
  8
Premier plan
 62
   250
420
  1709851
370
     9
100
AcDbVertex
100
AcDb2dVertex
 10
9.037448031202985
 20
479.1320920175722
 30
0.0
  0
SEQEND
  5
D1
330
CE
100
AcDbEntity
  8
Premier plan
 62
   250
420
  1709851
370
     9
  0
POLYLINE
  5
D2
330
4F
100
AcDbEntity
  8
Premier plan
 62
   250
420
  1709851
370
     9
100
AcDb2dPolyline
 66
     1
 10
0.0
 20
0.0
 30
0.0
  0
VERTEX
  5
D3
330
D2
100
AcDbEntity
  8
Premier plan
 62
   250
420
  1709851
370
     9
100
AcDbVertex
100
AcDb2dVertex
 10
11.96739319708286
 20
489.8586514619465
 30
0.0
  0
VERTEX
  5
D4
330
D2
100
AcDbEntity
  8
Premier plan
 62
   250
420
  1709851
370
     9
100
AcDbVertex
100
AcDb2dVertex
 10
12.63801852711003
 20
489.4252965569794
 30
0.0
  0
SEQEND
  5
D5
330
D2
100
AcDbEntity
  8
Premier plan
 62
   250
420
  1709851
370
     9
  0
SPLINE
  5
D6
330
4F
100
AcDbEntity
  8
Premier plan
 62
   250
420
  1709851
370
     9
100
AcDbSpline
210
0.0
220
0.0
230
1.0
 70
     8
 71
     3
 72
    14
 73
    10
 74
     0
 42
0.0000000001
 43
0.0000000001
 12
1.0
 22
0.0
 32
0.0
 13
1.0
 23
0.0
 33
0.0
 40
0.0
 40
0.0
 40
0.0
 40
0.0
 40
1.0
 40
1.0
 40
1.0
 40
2.0
 40
2.0
 40
2.0
 40
3.0
 40
3.0
 40
3.0
 40
3.0
 10
17.27545749877845
 20
495.1970719383553
 30
0.0
 10
17.65680232383966
 20
496.1281040211961
 30
0.0
 10
18.58864920814904
 20
496.4326502929171
 30
0.0
 10
19.33770833013841
 20
496.1730639772577
 30
0.0
 10
20.21262251161716
 20
495.8701585798444
 30
0.0
 10
20.49239158127511
 20
495.1370159386506
 30
0.0
 10
20.46515306774927
 20
494.2629221943271
 30
0.0
 10
20.46515306774927
 20
493.1981588553153
 30
0.0
 10
19.16065799221451
 20
492.4577963671636
 30
0.0
 10
17.18898342270131
 20
492.0170575278062
 30
0.0
  0
ENDBLK
  5
52
330
4F
100
AcDbEntity
  8
0
100
AcDbBlockEnd
  0
BLOCK
  5
DA
330
D8
100
AcDbEntity
  8
0
100
AcDbBlockBegin
  2
block 6
 70
     0
 10
0.0
 20
0.0
 30
0.0
  3
block 6
  1

  0
SPLINE
  5
DC
330
D8
100
AcDbEntity
  8
Premier plan
 62
   250
420
  1709851
370
    20
100
AcDbSpline
210
0.0
220
0.0
230
1.0
 70
    11
 71
     3
 72
   122
 73
   118
 74
     0
 42
0.0000000001
 43
0.0000000001
 12
1.0
 22
0.0
 32
0.0
 13
1.0
 23
0.0
 33
0.0
 40
0.0
 40
0.0
 40
0.0
 40
0.0
 40
1.0
 40
1.0
 40
1.0
 40
2.0
 40
2.0
 40
2.0
 40
3.0
 40
3.0
 40
3.0
 40
4.0
 40
4.0
 40
4.0
 40
5.0
 40
5.0
 40
5.0
 40
6.0
 40
6.0
 40
6.0
 40
7.0
 40
7.0
 40
7.0
 40
8.0
 40
8.0
 40
8.0
 40
9.0
 40
9.0
 40
9.0
 40
10.0
 40
10.0
 40
10.0
 40
11.0
 40
11.0
 40
11.0
 40
12.0
 40
12.0
 40
12.0
 40
13.0
 40
13.0
 40
13.0
 40
14.0
 40
14.0
 40
14.0
 40
15.0
 40
15.0
 40
15.0
 40
16.0
 40
16.0
 40
16.0
 40
17.0
 40
17.0
 40
17.0
 40
18.0
 40
18.0
 40
18.0
 40
19.0
 40
19.0
 40
19.0
 40
20.0
 40
20.0
 40
20.0
 40
21.0
 40
21.0
 40
21.0
 40
22.0
 40
22.0
 40
22.0
 40
23.0
 40
23.0
 40
23.0
 40
24.0
 40
24.0
 40
24.0
 40
25.0
 40
25.0
 40
25.0
 40
26.0
 40
26.0
 40
26.0
 40
27.0
 40
27.0
 40
27.0
 40
28.0
 40
28.0
 40
28.0
 40
29.0
 40
29.0
 40
29.0
 40
30.0
 40
30.0
 40
30.0
 40
31.0
 40
31.0
 40
31.0
 40
32.0
 40
32.0
 40
32.0
 40
33.0
 40
33.0
 40
33.0
 40
34.0
 40
34.0
 40
34.0
 40
35.0
 40
35.0
 40
35.0
 40
36.0
 40
36.0
 40
36.0
 40
37.0
 40
37.0
 40
37.0
 40
38.0
 40
38.0
 40
38.0
 40
39.0
 40
39.0
 40
39.0
 40
39.0
 10
271.0068054497888
 20
486.677816614244
 30
0.0
 10
271.0068054497888
 20
486.677816614244
 30
0.0
 10
270.0751170172243
 20
486.6899590841294
 30
0.0
 10
270.0751170172243
 20
486.6899590841294
 30
0.0
 10
270.0751170172243
 20
486.6899590841294
 30
0.0
 10
269.7690939586237
 20
486.3501340147668
 30
0.0
 10
269.7690939586237
 20
486.3501340147668
 30
0.0
 10
269.7690939586237
 20
486.3501340147668
 30
0.0
 10
269.7690939586237
 20
485.4312444018115
 30
0.0
 10
269.7690939586237
 20
485.4312444018115
 30
0.0
 10
269.6801585710837
 20
485.2284323372378
 30
0.0
 10
269.6335577407126
 20
485.0377627425496
 30
0.0
 10
269.6335577407126
 20
484.8214955086432
 30
0.0
 10
269.6335577407126
 20
484.8214955086432
 30
0.0
 10
269.6335577407126
 20
484.6108072473871
 30
0.0
 10
269.6335577407126
 20
484.6108072473871
 30
0.0
 10
269.6335577407126
 20
484.6108072473871
 30
0.0
 10
269.035951317429
 20
484.6211447555324
 30
0.0
 10
269.035951317429
 20
484.6211447555324
 30
0.0
 10
269.035951317429
 20
484.6211447555324
 30
0.0
 10
268.8059007393294
 20
484.1725297194944
 30
0.0
 10
268.8059007393294
 20
484.1725297194944
 30
0.0
 10
268.8059007393294
 20
484.1725297194944
 30
0.0
 10
268.8059007393294
 20
482.826520523945
 30
0.0
 10
268.8059007393294
 20
482.826520523945
 30
0.0
 10
268.8059007393294
 20
482.826520523945
 30
0.0
 10
269.6335577407126
 20
482.8273409611002
 30
0.0
 10
269.6335577407126
 20
482.8273409611002
 30
0.0
 10
269.6335577407126
 20
482.8273409611002
 30
0.0
 10
269.6335577407126
 20
482.6630894427835
 30
0.0
 10
269.6335577407126
 20
482.6630894427835
 30
0.0
 10
269.6335577407126
 20
481.8482312610104
 30
0.0
 10
271.1078953456099
 20
480.9652767954185
 30
0.0
 10
272.6462029717568
 20
480.9035799214062
 30
0.0
 10
272.6462029717568
 20
480.9035799214062
 30
0.0
 10
272.7446554302878
 20
477.9847927008259
 30
0.0
 10
272.7446554302878
 20
477.9847927008259
 30
0.0
 10
272.7446554302878
 20
477.9847927008259
 30
0.0
 10
271.1229793508528
 20
477.9847927008259
 30
0.0
 10
271.1229793508528
 20
477.9847927008259
 30
0.0
 10
271.1229793508528
 20
477.9847927008259
 30
0.0
 10
271.1229793508528
 20
477.0962592625838
 30
0.0
 10
271.1229793508528
 20
477.0962592625838
 30
0.0
 10
271.1229793508528
 20
477.0962592625838
 30
0.0
 10
271.662334736171
 20
476.234143900715
 30
0.0
 10
271.662334736171
 20
476.234143900715
 30
0.0
 10
271.662334736171
 20
476.234143900715
 30
0.0
 10
272.8119312769522
 20
475.1644579387776
 30
0.0
 10
272.8119312769522
 20
475.1644579387776
 30
0.0
 10
272.8119312769522
 20
475.1644579387776
 30
0.0
 10
272.9546873418221
 20
467.4064042065411
 30
0.0
 10
272.9546873418221
 20
467.4064042065411
 30
0.0
 10
272.9546873418221
 20
467.4064042065411
 30
0.0
 10
273.2454502693481
 20
467.2718525132159
 30
0.0
 10
273.2454502693481
 20
467.2718525132159
 30
0.0
 10
273.2454502693481
 20
467.2718525132159
 30
0.0
 10
273.2454502693481
 20
466.167708190791
 30
0.0
 10
273.2454502693481
 20
466.167708190791
 30
0.0
 10
273.2454502693481
 20
466.167708190791
 30
0.0
 10
274.0803271176919
 20
465.5484422266309
 30
0.0
 10
274.0803271176919
 20
465.5484422266309
 30
0.0
 10
274.0803271176919
 20
465.5484422266309
 30
0.0
 10
275.1467313310113
 20
465.4073270360705
 30
0.0
 10
275.1467313310113
 20
465.4073270360705
 30
0.0
 10
275.1467313310113
 20
465.4073270360705
 30
0.0
 10
275.1267126644434
 20
462.0279463969964
 30
0.0
 10
275.1267126644434
 20
462.0279463969964
 30
0.0
 10
275.1267126644434
 20
462.0279463969964
 30
0.0
 10
277.1185699879552
 20
460.849306380951
 30
0.0
 10
277.1185699879552
 20
460.849306380951
 30
0.0
 10
277.3796330904925
 20
460.7459312994933
 30
0.0
 10
277.6392194061527
 20
460.73231204273
 30
0.0
 10
277.898805721813
 20
460.8068077363523
 30
0.0
 10
277.898805721813
 20
460.8068077363523
 30
0.0
 10
278.7633823951455
 20
461.1425306199426
 30
0.0
 10
278.7633823951455
 20
461.1425306199426
 30
0.0
 10
278.7633823951455
 20
461.1425306199426
 30
0.0
 10
278.7633823951455
 20
462.1761173470868
 30
0.0
 10
278.7633823951455
 20
462.1761173470868
 30
0.0
 10
280.2296676775322
 20
462.2289534998317
 30
0.0
 10
281.4531035622103
 20
462.7208876176237
 30
0.0
 10
282.4312287377143
 20
463.6519197004645
 30
0.0
 10
282.4312287377143
 20
463.6519197004645
 30
0.0
 10
284.7284527701022
 20
463.5254082912525
 30
0.0
 10
284.7284527701022
 20
463.5254082912525
 30
0.0
 10
284.7284527701022
 20
463.5254082912525
 30
0.0
 10
285.0865039358214
 20
463.9467848137638
 30
0.0
 10
285.0865039358214
 20
463.9467848137638
 30
0.0
 10
285.0865039358214
 20
463.9467848137638
 30
0.0
 10
285.3813566575927
 20
477.2277118851443
 30
0.0
 10
285.3813566575927
 20
477.2277118851443
 30
0.0
 10
285.3813566575927
 20
477.8541791058415
 30
0.0
 10
285.0497359597739
 20
478.2860758410889
 30
0.0
 10
284.5592786288607
 20
478.5343215068597
 30
0.0
 10
284.5592786288607
 20
478.5343215068597
 30
0.0
 10
282.6837592938464
 20
478.1065455745429
 30
0.0
 10
282.6837592938464
 20
478.1065455745429
 30
0.0
 10
282.6837592938464
 20
478.1065455745429
 30
0.0
 10
282.6629325204276
 20
479.6729241897701
 30
0.0
 10
282.6629325204276
 20
479.6729241897701
 30
0.0
 10
282.6629325204276
 20
479.6729241897701
 30
0.0
 10
281.1869537493149
 20
480.5798354202698
 30
0.0
 10
281.1869537493149
 20
480.5798354202698
 30
0.0
 10
280.2296676775322
 20
480.7321085561307
 30
0.0
 10
279.5582219103517
 20
480.5550582182068
 30
0.0
 10
279.1719600980477
 20
480.0495048436496
 30
0.0
 10
278.5830503086027
 20
480.1464805153028
 30
0.0
 10
277.9662456559054
 20
480.1824156626672
 30
0.0
 10
277.3629083689566
 20
480.1609202092213
 30
0.0
 10
277.3629083689566
 20
480.1609202092213
 30
0.0
 10
277.1786259876581
 20
485.6603104553269
 30
0.0
 10
277.1786259876581
 20
485.6603104553269
 30
0.0
 10
277.1786259876581
 20
486.9943412684206
 30
0.0
 10
276.3837864724519
 20
487.8339766522586
 30
0.0
 10
275.1995674837563
 20
487.8339766522586
 30
0.0
 10
273.6381235937733
 20
487.8339766522586
 30
0.0
 10
272.0131536634035
 20
487.383720741911
 30
0.0
 10
271.0068054497888
 20
486.677816614244
 30
0.0
  0
POLYLINE
  5
DD
330
D8
100
AcDbEntity
  8
Premier plan
 62
   250
420
  1709851
370
    20
100
AcDb2dPolyline
 66
     1
 10
0.0
 20
0.0
 30
0.0
  0
VERTEX
  5
DE
330
DD
100
AcDbEntity
  8
Premier plan
 62
   250
420
  1709851
370
    20
100
AcDbVertex
100
AcDb2dVertex
 10
269.6335577407126
 20
484.6108072473871
 30
0.0
  0
VERTEX
  5
DF
330
DD
100
AcDbEntity
  8
Premier plan
 62
   250
420
  1709851
370
    20
100
AcDbVertex
100
AcDb2dVertex
 10
269.6335577407126
 20
482.8273409611002
 30
0.0
  0
SEQEND
  5
E0
330
DD
100
AcDbEntity
  8
Premier plan
 62
   250
420
  1709851
370
    20
  0
SPLINE
  5
E1
330
D8
100
AcDbEntity
  8
Premier plan
 62
   250
420
  1709851
370
    20
100
AcDbSpline
210
0.0
220
0.0
230
1.0
 70
     8
 71
     3
 72
     8
 73
     4
 74
     0
 42
0.0000000001
 43
0.0000000001
 12
1.0
 22
0.0
 32
0.0
 13
1.0
 23
0.0
 33
0.0
 40
0.0
 40
0.0
 40
0.0
 40
0.0
 40
1.0
 40
1.0
 40
1.0
 40
1.0
 10
271.0068054497888
 20
486.677816614244
 30
0.0
 10
270.4628556164034
 20
486.3253568127029
 30
0.0
 10
269.9709214986124
 20
485.9079371982352
 30
0.0
 10
269.7705827501168
 20
485.4512630683803
 30
0.0
  0
POLYLINE
  5
E2
330
D8
100
AcDbEntity
  8
Premier plan
 62
   250
420
  1709851
370
     9
100
AcDb2dPolyline
 66
     1
 10
0.0
 20
0.0
 30
0.0
  0
VERTEX
  5
E3
330
E2
100
AcDbEntity
  8
Premier plan
 62
   250
420
  1709851
370
     9
100
AcDbVertex
100
AcDb2dVertex
 10
282.6837592938464
 20
478.1065455745429
 30
0.0
  0
VERTEX
  5
E4
330
E2
100
AcDbEntity
  8
Premier plan
 62
   250
420
  1709851
370
     9
100
AcDbVertex
100
AcDb2dVertex
 10
281.9706353192196
 20
477.9439349305358
 30
0.0
  0
SEQEND
  5
E5
330
E2
100
AcDbEntity
  8
Premier plan
 62
   250
420
  1709851
370
     9
  0
SPLINE
  5
E6
330
D8
100
AcDbEntity
  8
Premier plan
 62
   250
420
  1709851
370
     9
100
AcDbSpline
210
0.0
220
0.0
230
1.0
 70
     8
 71
     3
 72
    20
 73
    16
 74
     0
 42
0.0000000001
 43
0.0000000001
 12
1.0
 22
0.0
 32
0.0
 13
1.0
 23
0.0
 33
0.0
 40
0.0
 40
0.0
 40
0.0
 40
0.0
 40
1.0
 40
1.0
 40
1.0
 40
2.0
 40
2.0
 40
2.0
 40
3.0
 40
3.0
 40
3.0
 40
4.0
 40
4.0
 40
4.0
 40
5.0
 40
5.0
 40
5.0
 40
5.0
 10
274.6572585246822
 20
478.8292052510387
 30
0.0
 10
274.8599065018243
 20
479.1128937881595
 30
0.0
 10
275.2796421500298
 20
479.3669011311695
 30
0.0
 10
275.8966108901568
 20
479.5423105947848
 30
0.0
 10
277.381273964801
 20
479.9661484287608
 30
0.0
 10
279.4484596681905
 20
479.7785964952591
 30
0.0
 10
280.5140311952564
 20
479.1240517334591
 30
0.0
 10
281.5787945342672
 20
478.4695069716599
 30
0.0
 10
281.2383131151819
 20
477.5954132273364
 30
0.0
 10
279.7536622973457
 20
477.1715753933604
 30
0.0
 10
278.2689869658898
 20
476.7477375593844
 30
0.0
 10
276.2019775990339
 20
476.9351254054563
 30
0.0
 10
275.136241875598
 20
477.5898342546861
 30
0.0
 10
274.9368635069095
 20
477.7124075655574
 30
0.0
 10
274.7870516825124
 20
477.843039766507
 30
0.0
 10
274.686794262243
 20
477.9767524167128
 30
0.0
  0
SPLINE
  5
E7
330
D8
100
AcDbEntity
  8
Premier plan
 62
   250
420
  1709851
370
     9
100
AcDbSpline
210
0.0
220
0.0
230
1.0
 70
     8
 71
     3
 72
    14
 73
    10
 74
     0
 42
0.0000000001
 43
0.0000000001
 12
1.0
 22
0.0
 32
0.0
 13
1.0
 23
0.0
 33
0.0
 40
0.0
 40
0.0
 40
0.0
 40
0.0
 40
1.0
 40
1.0
 40
1.0
 40
2.0
 40
2.0
 40
2.0
 40
3.0
 40
3.0
 40
3.0
 40
3.0
 10
274.9071636819208
 20
477.7828010734065
 30
0.0
 10
275.1386910468982
 20
477.9623127227942
 30
0.0
 10
275.4704758321477
 20
478.1209852684606
 30
0.0
 10
275.8966108901568
 20
478.2427381421767
 30
0.0
 10
277.381273964801
 20
478.6665759761527
 30
0.0
 10
279.4484596681905
 20
478.4791881300816
 30
0.0
 10
280.5140311952564
 20
477.8244792808518
 30
0.0
 10
280.5140311952564
 20
477.8244792808518
 30
0.0
 10
280.7399795875835
 20
477.6651503854619
 30
0.0
 10
280.7399795875835
 20
477.6651503854619
 30
0.0
  0
SPLINE
  5
E8
330
D8
100
AcDbEntity
  8
Premier plan
 62
   250
420
  1709851
370
     9
100
AcDbSpline
210
0.0
220
0.0
230
1.0
 70
     8
 71
     3
 72
    14
 73
    10
 74
     0
 42
0.0000000001
 43
0.0000000001
 12
1.0
 22
0.0
 32
0.0
 13
1.0
 23
0.0
 33
0.0
 40
0.0
 40
0.0
 40
0.0
 40
0.0
 40
1.0
 40
1.0
 40
1.0
 40
2.0
 40
2.0
 40
2.0
 40
3.0
 40
3.0
 40
3.0
 40
3.0
 10
275.6386654488051
 20
477.3622635818701
 30
0.0
 10
275.7723967049751
 20
477.5648929651916
 30
0.0
 10
276.0649767578689
 20
477.7460454888887
 30
0.0
 10
276.5024216849833
 20
477.8709346304631
 30
0.0
 10
277.5207482810547
 20
478.1610226015964
 30
0.0
 10
278.9387918587618
 20
478.0328703180749
 30
0.0
 10
279.6694731884918
 20
477.5834348448816
 30
0.0
 10
279.830607045621
 20
477.4848182989199
 30
0.0
 10
279.9451400723774
 20
477.3783255562757
 30
0.0
 10
280.0893729241252
 20
477.2692074147371
 30
0.0
  0
SPLINE
  5
E9
330
D8
100
AcDbEntity
  8
Premier plan
 62
   250
420
  1709851
370
     9
100
AcDbSpline
210
0.0
220
0.0
230
1.0
 70
     8
 71
     3
 72
    11
 73
     7
 74
     0
 42
0.0000000001
 43
0.0000000001
 12
1.0
 22
0.0
 32
0.0
 13
1.0
 23
0.0
 33
0.0
 40
0.0
 40
0.0
 40
0.0
 40
0.0
 40
1.0
 40
1.0
 40
1.0
 40
2.0
 40
2.0
 40
2.0
 40
2.0
 10
281.9730966306843
 20
478.2740788414758
 30
0.0
 10
281.9745734175622
 20
477.7083053797851
 30
0.0
 10
281.3736852456623
 20
477.162714672093
 30
0.0
 10
280.2424664971413
 20
476.8317503239978
 30
0.0
 10
278.4854182872259
 20
476.3166798784505
 30
0.0
 10
276.0785838510083
 20
476.5025909376427
 30
0.0
 10
274.6908964480126
 20
477.2340927045279
 30
0.0
  0
SPLINE
  5
EA
330
D8
100
AcDbEntity
  8
Premier plan
 62
   250
420
  1709851
370
     9
100
AcDbSpline
210
0.0
220
0.0
230
1.0
 70
     8
 71
     3
 72
    11
 73
     7
 74
     0
 42
0.0000000001
 43
0.0000000001
 12
1.0
 22
0.0
 32
0.0
 13
1.0
 23
0.0
 33
0.0
 40
0.0
 40
0.0
 40
0.0
 40
0.0
 40
1.0
 40
1.0
 40
1.0
 40
2.0
 40
2.0
 40
2.0
 40
2.0
 10
272.7415377691013
 20
480.8947192001378
 30
0.0
 10
273.1717750128819
 20
480.83942173593
 30
0.0
 10
273.4016615035507
 20
480.6175755293734
 30
0.0
 10
273.4313734256366
 20
480.2296728427618
 30
0.0
 10
273.4313734256366
 20
480.2296728427618
 30
0.0
 10
273.4313734256366
 20
477.1707549562061
 30
0.0
 10
273.4313734256366
 20
477.1707549562061
 30
0.0
  0
POLYLINE
  5
EB
330
D8
100
AcDbEntity
  8
Premier plan
 62
   250
420
  1709851
370
     9
100
AcDb2dPolyline
 66
     1
 10
0.0
 20
0.0
 30
0.0
  0
VERTEX
  5
EC
330
EB
100
AcDbEntity
  8
Premier plan
 62
   250
420
  1709851
370
     9
100
AcDbVertex
100
AcDb2dVertex
 10
276.1811384953098
 20
465.3055928289223
 30
0.0
  0
VERTEX
  5
ED
330
EB
100
AcDbEntity
  8
Premier plan
 62
   250
420
  1709851
370
     9
100
AcDbVertex
100
AcDb2dVertex
 10
275.149192642476
 20
465.4250484786071
 30
0.0
  0
SEQEND
  5
EE
330
EB
100
AcDbEntity
  8
Premier plan
 62
   250
420
  1709851
370
     9
  0
POLYLINE
  5
EF
330
D8
100
AcDbEntity
  8
Premier plan
 62
   250
420
  1709851
370
     9
100
AcDb2dPolyline
 66
     1
 10
0.0
 20
0.0
 30
0.0
  0
VERTEX
  5
F0
330
EF
100
AcDbEntity
  8
Premier plan
 62
   250
420
  1709851
370
     9
100
AcDbVertex
100
AcDb2dVertex
 10
271.662334736171
 20
476.234143900715
 30
0.0
  0
VERTEX
  5
F1
330
EF
100
AcDbEntity
  8
Premier plan
 62
   250
420
  1709851
370
     9
100
AcDbVertex
100
AcDb2dVertex
 10
271.6414956324497
 20
477.1234977761114
 30
0.0
  0
VERTEX
  5
F2
330
EF
100
AcDbEntity
  8
Premier plan
 62
   250
420
  1709851
370
     9
100
AcDbVertex
100
AcDb2dVertex
 10
273.4313734256366
 20
477.1707549562061
 30
0.0
  0
SEQEND
  5
F3
330
EF
100
AcDbEntity
  8
Premier plan
 62
   250
420
  1709851
370
     9
  0
POLYLINE
  5
F4
330
D8
100
AcDbEntity
  8
Premier plan
 62
   250
420
  1709851
370
     9
100
AcDb2dPolyline
 66
     1
 10
0.0
 20
0.0
 30
0.0
  0
VERTEX
  5
F5
330
F4
100
AcDbEntity
  8
Premier plan
 62
   250
420
  1709851
370
     9
100
AcDbVertex
100
AcDb2dVertex
 10
271.1229793508528
 20
477.9847927008259
 30
0.0
  0
VERTEX
  5
F6
330
F4
100
AcDbEntity
  8
Premier plan
 62
   250
420
  1709851
370
     9
100
AcDbVertex
100
AcDb2dVertex
 10
271.6414956324497
 20
477.1234977761114
 30
0.0
  0
SEQEND
  5
F7
330
F4
100
AcDbEntity
  8
Premier plan
 62
   250
420
  1709851
370
     9
  0
POLYLINE
  5
F8
330
D8
100
AcDbEntity
  8
Premier plan
 62
   250
420
  1709851
370
     9
100
AcDb2dPolyline
 66
     1
 10
0.0
 20
0.0
 30
0.0
  0
VERTEX
  5
F9
330
F8
100
AcDbEntity
  8
Premier plan
 62
   250
420
  1709851
370
     9
100
AcDbVertex
100
AcDb2dVertex
 10
272.7446554302878
 20
477.9847927008259
 30
0.0
  0
VERTEX
  5
FA
330
F8
100
AcDbEntity
  8
Premier plan
 62
   250
420
  1709851
370
     9
100
AcDbVertex
100
AcDb2dVertex
 10
273.4313734256366
 20
477.1707549562061
 30
0.0
  0
SEQEND
  5
FB
330
F8
100
AcDbEntity
  8
Premier plan
 62
   250
420
  1709851
370
     9
  0
SPLINE
  5
FC
330
D8
100
AcDbEntity
  8
Premier plan
 62
   250
420
  1709851
370
     9
100
AcDbSpline
210
0.0
220
0.0
230
1.0
 70
     8
 71
     3
 72
     8
 73
     4
 74
     0
 42
0.0000000001
 43
0.0000000001
 12
1.0
 22
0.0
 32
0.0
 13
1.0
 23
0.0
 33
0.0
 40
0.0
 40
0.0
 40
0.0
 40
0.0
 40
1.0
 40
1.0
 40
1.0
 40
1.0
 10
277.3629083689566
 20
480.1609202092213
 30
0.0
 10
276.3293094453993
 20
480.1248209744263
 30
0.0
 10
275.3429920437375
 20
479.9188912486652
 30
0.0
 10
274.6355989838057
 20
479.5567502887025
 30
0.0
  0
SPLINE
  5
FD
330
D8
100
AcDbEntity
  8
Premier plan
 62
   250
420
  1709851
370
     9
100
AcDbSpline
210
0.0
220
0.0
230
1.0
 70
     8
 71
     3
 72
     8
 73
     4
 74
     0
 42
0.0000000001
 43
0.0000000001
 12
1.0
 22
0.0
 32
0.0
 13
1.0
 23
0.0
 33
0.0
 40
0.0
 40
0.0
 40
0.0
 40
0.0
 40
1.0
 40
1.0
 40
1.0
 40
1.0
 10
276.6377938154619
 20
475.2389721725813
 30
0.0
 10
277.267561375199
 20
475.1436188350544
 30
0.0
 10
277.9381867052252
 20
475.1132626603403
 30
0.0
 10
278.5902823829829
 20
475.1524795563219
 30
0.0
  0
SPLINE
  5
FE
330
D8
100
AcDbEntity
  8
Premier plan
 62
   250
420
  1709851
370
     9
100
AcDbSpline
210
0.0
220
0.0
230
1.0
 70
     8
 71
     3
 72
     8
 73
     4
 74
     0
 42
0.0000000001
 43
0.0000000001
 12
1.0
 22
0.0
 32
0.0
 13
1.0
 23
0.0
 33
0.0
 40
0.0
 40
0.0
 40
0.0
 40
0.0
 40
1.0
 40
1.0
 40
1.0
 40
1.0
 10
285.3813566575927
 20
477.2277118851443
 30
0.0
 10
285.3813566575927
 20
476.3550763372778
 30
0.0
 10
284.3477699304485
 20
475.559580472348
 30
0.0
 10
282.8319425785085
 20
475.0226863984917
 30
0.0
  0
POLYLINE
  5
FF
330
D8
100
AcDbEntity
  8
Premier plan
 62
   250
420
  1709851
370
     9
100
AcDb2dPolyline
 66
     1
 10
0.0
 20
0.0
 30
0.0
  0
VERTEX
  5
100
330
FF
100
AcDbEntity
  8
Premier plan
 62
   250
420
  1709851
370
     9
100
AcDbVertex
100
AcDb2dVertex
 10
282.7910724736439
 20
475.0171074258424
 30
0.0
  0
VERTEX
  5
101
330
FF
100
AcDbEntity
  8
Premier plan
 62
   250
420
  1709851
370
     9
100
AcDbVertex
100
AcDb2dVertex
 10
281.1454396293011
 20
475.8119469410485
 30
0.0
  0
SEQEND
  5
102
330
FF
100
AcDbEntity
  8
Premier plan
 62
   250
420
  1709851
370
     9
  0
SPLINE
  5
103
330
D8
100
AcDbEntity
  8
Premier plan
 62
   250
420
  1709851
370
     9
100
AcDbSpline
210
0.0
220
0.0
230
1.0
 70
     8
 71
     3
 72
     8
 73
     4
 74
     0
 42
0.0000000001
 43
0.0000000001
 12
1.0
 22
0.0
 32
0.0
 13
1.0
 23
0.0
 33
0.0
 40
0.0
 40
0.0
 40
0.0
 40
0.0
 40
1.0
 40
1.0
 40
1.0
 40
1.0
 10
273.7743161648496
 20
482.476357946437
 30
0.0
 10
273.9769520362343
 20
482.7439845462104
 30
0.0
 10
274.2965943515983
 20
482.8713163925768
 30
0.0
 10
274.7740887754726
 20
482.859338010122
 30
0.0
  0
POLYLINE
  5
104
330
D8
100
AcDbEntity
  8
Premier plan
 62
   250
420
  1709851
370
     9
100
AcDb2dPolyline
 66
     1
 10
0.0
 20
0.0
 30
0.0
  0
VERTEX
  5
105
330
104
100
AcDbEntity
  8
Premier plan
 62
   250
420
  1709851
370
     9
100
AcDbVertex
100
AcDb2dVertex
 10
274.7740887754726
 20
482.4491194329094
 30
0.0
  0
VERTEX
  5
106
330
104
100
AcDbEntity
  8
Premier plan
 62
   250
420
  1709851
370
     9
100
AcDbVertex
100
AcDb2dVertex
 10
274.7740887754726
 20
485.6819699962034
 30
0.0
  0
SEQEND
  5
107
330
104
100
AcDbEntity
  8
Premier plan
 62
   250
420
  1709851
370
     9
  0
SPLINE
  5
108
330
D8
100
AcDbEntity
  8
Premier plan
 62
   250
420
  1709851
370
     9
100
AcDbSpline
210
0.0
220
0.0
230
1.0
 70
     8
 71
     3
 72
     8
 73
     4
 74
     0
 42
0.0000000001
 43
0.0000000001
 12
1.0
 22
0.0
 32
0.0
 13
1.0
 23
0.0
 33
0.0
 40
0.0
 40
0.0
 40
0.0
 40
0.0
 40
1.0
 40
1.0
 40
1.0
 40
1.0
 10
274.7740887754726
 20
485.6819699962034
 30
0.0
 10
273.2214935044403
 20
485.5241178876931
 30
0.0
 10
272.1245690289743
 20
484.8751520985425
 30
0.0
 10
271.4844639610928
 20
483.7367135030636
 30
0.0
  0
SPLINE
  5
109
330
D8
100
AcDbEntity
  8
Premier plan
 62
   250
420
  1709851
370
     9
100
AcDbSpline
210
0.0
220
0.0
230
1.0
 70
     8
 71
     3
 72
     8
 73
     4
 74
     0
 42
0.0000000001
 43
0.0000000001
 12
1.0
 22
0.0
 32
0.0
 13
1.0
 23
0.0
 33
0.0
 40
0.0
 40
0.0
 40
0.0
 40
0.0
 40
1.0
 40
1.0
 40
1.0
 40
1.0
 10
274.7740887754726
 20
482.4491194329094
 30
0.0
 10
274.5297625908861
 20
482.2712486578312
 30
0.0
 10
274.3791303293319
 20
482.0764955902823
 30
0.0
 10
274.3223681978516
 20
481.8657886161145
 30
0.0
  0
SPLINE
  5
10A
330
D8
100
AcDbEntity
  8
Premier plan
 62
   250
420
  1709851
370
     9
100
AcDbSpline
210
0.0
220
0.0
230
1.0
 70
     8
 71
     3
 72
    17
 73
    13
 74
     0
 42
0.0000000001
 43
0.0000000001
 12
1.0
 22
0.0
 32
0.0
 13
1.0
 23
0.0
 33
0.0
 40
0.0
 40
0.0
 40
0.0
 40
0.0
 40
1.0
 40
1.0
 40
1.0
 40
2.0
 40
2.0
 40
2.0
 40
3.0
 40
3.0
 40
3.0
 40
4.0
 40
4.0
 40
4.0
 40
4.0
 10
276.1811384953098
 20
474.3753614836523
 30
0.0
 10
276.1811384953098
 20
474.3753614836523
 30
0.0
 10
277.1185699879552
 20
473.7503524594122
 30
0.0
 10
277.1185699879552
 20
473.7503524594122
 30
0.0
 10
277.3796330904925
 20
473.6477978151079
 30
0.0
 10
277.6392194061527
 20
473.6333581211911
 30
0.0
 10
277.898805721813
 20
473.7078538148116
 30
0.0
 10
277.898805721813
 20
473.7078538148116
 30
0.0
 10
280.0037192852033
 20
474.1677908835827
 30
0.0
 10
280.0037192852033
 20
474.1677908835827
 30
0.0
 10
280.0037192852033
 20
474.1677908835827
 30
0.0
 10
278.5494123852714
 20
475.1852970424989
 30
0.0
 10
278.5494123852714
 20
475.1852970424989
 30
0.0
  0
POLYLINE
  5
10B
330
D8
100
AcDbEntity
  8
Premier plan
 62
   250
420
  1709851
370
     9
100
AcDb2dPolyline
 66
     1
 10
0.0
 20
0.0
 30
0.0
  0
VERTEX
  5
10C
330
10B
100
AcDbEntity
  8
Premier plan
 62
   250
420
  1709851
370
     9
100
AcDbVertex
100
AcDb2dVertex
 10
276.1811384953098
 20
474.3753614836523
 30
0.0
  0
VERTEX
  5
10D
330
10B
100
AcDbEntity
  8
Premier plan
 62
   250
420
  1709851
370
     9
100
AcDbVertex
100
AcDb2dVertex
 10
276.1811384953098
 20
465.3055928289223
 30
0.0
  0
SEQEND
  5
10E
330
10B
100
AcDbEntity
  8
Premier plan
 62
   250
420
  1709851
370
     9
  0
POLYLINE
  5
10F
330
D8
100
AcDbEntity
  8
Premier plan
 62
   250
420
  1709851
370
     9
100
AcDb2dPolyline
 66
     1
 10
0.0
 20
0.0
 30
0.0
  0
VERTEX
  5
110
330
10F
100
AcDbEntity
  8
Premier plan
 62
   250
420
  1709851
370
     9
100
AcDbVertex
100
AcDb2dVertex
 10
276.1811384953098
 20
474.3753614836523
 30
0.0
  0
VERTEX
  5
111
330
10F
100
AcDbEntity
  8
Premier plan
 62
   250
420
  1709851
370
     9
100
AcDbVertex
100
AcDb2dVertex
 10
276.6473108864548
 20
475.2422539212821
 30
0.0
  0
SEQEND
  5
112
330
10F
100
AcDbEntity
  8
Premier plan
 62
   250
420
  1709851
370
     9
  0
SPLINE
  5
113
330
D8
100
AcDbEntity
  8
Premier plan
 62
   250
420
  1709851
370
     9
100
AcDbSpline
210
0.0
220
0.0
230
1.0
 70
     8
 71
     3
 72
    14
 73
    10
 74
     0
 42
0.0000000001
 43
0.0000000001
 12
1.0
 22
0.0
 32
0.0
 13
1.0
 23
0.0
 33
0.0
 40
0.0
 40
0.0
 40
0.0
 40
0.0
 40
1.0
 40
1.0
 40
1.0
 40
2.0
 40
2.0
 40
2.0
 40
3.0
 40
3.0
 40
3.0
 40
3.0
 10
272.8119312769522
 20
475.1644579387776
 30
0.0
 10
272.8119312769522
 20
475.1644579387776
 30
0.0
 10
273.3183050886637
 20
474.61246782128
 30
0.0
 10
273.3183050886637
 20
474.61246782128
 30
0.0
 10
273.5170149674641
 20
474.3984978114058
 30
0.0
 10
273.6332009707257
 20
474.0708152119296
 30
0.0
 10
273.6668267918612
 20
473.6285995856942
 30
0.0
 10
273.6668267918612
 20
473.6285995856942
 30
0.0
 10
273.6668267918612
 20
471.4549333887635
 30
0.0
 10
273.6668267918612
 20
471.4549333887635
 30
0.0
  0
POLYLINE
  5
114
330
D8
100
AcDbEntity
  8
Premier plan
 62
   250
420
  1709851
370
     9
100
AcDb2dPolyline
 66
     1
 10
0.0
 20
0.0
 30
0.0
  0
VERTEX
  5
115
330
114
100
AcDbEntity
  8
Premier plan
 62
   250
420
  1709851
370
     9
100
AcDbVertex
100
AcDb2dVertex
 10
276.1794976210012
 20
471.1417089198803
 30
0.0
  0
VERTEX
  5
116
330
114
100
AcDbEntity
  8
Premier plan
 62
   250
420
  1709851
370
     9
100
AcDbVertex
100
AcDb2dVertex
 10
274.0594880139679
 20
471.1408700460488
 30
0.0
  0
VERTEX
  5
117
330
114
100
AcDbEntity
  8
Premier plan
 62
   250
420
  1709851
370
     9
100
AcDbVertex
100
AcDb2dVertex
 10
273.6668267918612
 20
471.4549333887635
 30
0.0
  0
SEQEND
  5
118
330
114
100
AcDbEntity
  8
Premier plan
 62
   250
420
  1709851
370
     9
  0
POLYLINE
  5
119
330
D8
100
AcDbEntity
  8
Premier plan
 62
   250
420
  1709851
370
     9
100
AcDb2dPolyline
 66
     1
 10
0.0
 20
0.0
 30
0.0
  0
VERTEX
  5
11A
330
119
100
AcDbEntity
  8
Premier plan
 62
   250
420
  1709851
370
     9
100
AcDbVertex
100
AcDb2dVertex
 10
274.0594880139679
 20
471.1408700460488
 30
0.0
  0
VERTEX
  5
11B
330
119
100
AcDbEntity
  8
Premier plan
 62
   250
420
  1709851
370
     9
100
AcDbVertex
100
AcDb2dVertex
 10
274.0594880139679
 20
465.5484422266309
 30
0.0
  0
SEQEND
  5
11C
330
119
100
AcDbEntity
  8
Premier plan
 62
   250
420
  1709851
370
     9
  0
SPLINE
  5
11D
330
D8
100
AcDbEntity
  8
Premier plan
 62
   250
420
  1709851
370
     9
100
AcDbSpline
210
0.0
220
0.0
230
1.0
 70
     8
 71
     3
 72
    29
 73
    25
 74
     0
 42
0.0000000001
 43
0.0000000001
 12
1.0
 22
0.0
 32
0.0
 13
1.0
 23
0.0
 33
0.0
 40
0.0
 40
0.0
 40
0.0
 40
0.0
 40
1.0
 40
1.0
 40
1.0
 40
2.0
 40
2.0
 40
2.0
 40
3.0
 40
3.0
 40
3.0
 40
4.0
 40
4.0
 40
4.0
 40
5.0
 40
5.0
 40
5.0
 40
6.0
 40
6.0
 40
6.0
 40
7.0
 40
7.0
 40
7.0
 40
8.0
 40
8.0
 40
8.0
 40
8.0
 10
284.7284527701022
 20
463.5254082912525
 30
0.0
 10
284.7284527701022
 20
463.5254082912525
 30
0.0
 10
284.877444157346
 20
473.7967892023516
 30
0.0
 10
284.877444157346
 20
473.7967892023516
 30
0.0
 10
284.877444157346
 20
474.1613914737782
 30
0.0
 10
284.494464093661
 20
474.1213541406423
 30
0.0
 10
284.103443745862
 20
473.7720305034118
 30
0.0
 10
283.7685412994251
 20
473.4732087886468
 30
0.0
 10
283.4928744155395
 20
472.9668349769363
 30
0.0
 10
283.4689176506317
 20
472.5758331020425
 30
0.0
 10
283.4689176506317
 20
472.5758331020425
 30
0.0
 10
283.4689176506317
 20
471.7200986770731
 30
0.0
 10
283.4689176506317
 20
471.7200986770731
 30
0.0
 10
283.4689176506317
 20
470.4293869457333
 30
0.0
 10
282.6668582884649
 20
469.1273531816623
 30
0.0
 10
281.6020949494541
 20
468.851048326861
 30
0.0
 10
280.69830138014
 20
468.6154003973006
 30
0.0
 10
280.134168792757
 20
468.736496921294
 30
0.0
 10
279.8530870236509
 20
469.1875732687959
 30
0.0
 10
279.5518347522584
 20
469.7531826430559
 30
0.0
 10
278.7778220890632
 20
469.3021062955531
 30
0.0
 10
278.7778220890632
 20
468.3326777538859
 30
0.0
 10
278.7778220890632
 20
468.3326777538859
 30
0.0
 10
278.7633823951455
 20
462.1761173470868
 30
0.0
 10
278.7633823951455
 20
462.1761173470868
 30
0.0
  0
POLYLINE
  5
11E
330
D8
100
AcDbEntity
  8
Premier plan
 62
   250
420
  1709851
370
     9
100
AcDb2dPolyline
 66
     1
 10
0.0
 20
0.0
 30
0.0
  0
VERTEX
  5
11F
330
11E
100
AcDbEntity
  8
Premier plan
 62
   250
420
  1709851
370
     9
100
AcDbVertex
100
AcDb2dVertex
 10
277.5071290242913
 20
473.3081368331768
 30
0.0
  0
VERTEX
  5
120
330
11E
100
AcDbEntity
  8
Premier plan
 62
   250
420
  1709851
370
     9
100
AcDbVertex
100
AcDb2dVertex
 10
277.5071290242913
 20
461.2467261385536
 30
0.0
  0
SEQEND
  5
121
330
11E
100
AcDbEntity
  8
Premier plan
 62
   250
420
  1709851
370
     9
  0
SPLINE
  5
122
330
D8
100
AcDbEntity
  8
Premier plan
 62
   250
420
  1709851
370
     9
100
AcDbSpline
210
0.0
220
0.0
230
1.0
 70
     8
 71
     3
 72
    17
 73
    13
 74
     0
 42
0.0000000001
 43
0.0000000001
 12
1.0
 22
0.0
 32
0.0
 13
1.0
 23
0.0
 33
0.0
 40
0.0
 40
0.0
 40
0.0
 40
0.0
 40
1.0
 40
1.0
 40
1.0
 40
2.0
 40
2.0
 40
2.0
 40
3.0
 40
3.0
 40
3.0
 40
4.0
 40
4.0
 40
4.0
 40
4.0
 10
282.8319425785085
 20
475.0226863984917
 30
0.0
 10
282.8319425785085
 20
475.0226863984917
 30
0.0
 10
282.8319425785085
 20
471.2498241001576
 30
0.0
 10
282.8319425785085
 20
471.2498241001576
 30
0.0
 10
282.8319425785085
 20
470.5119229234679
 30
0.0
 10
282.2374414818387
 20
469.6506279987525
 30
0.0
 10
281.5195589717177
 20
469.4863764804377
 30
0.0
 10
280.813667127637
 20
469.325261014098
 30
0.0
 10
280.0037192852033
 20
469.4863764804377
 30
0.0
 10
280.0037192852033
 20
470.3685105088744
 30
0.0
 10
280.0037192852033
 20
470.3685105088744
 30
0.0
 10
280.0037192852033
 20
474.1677908835827
 30
0.0
 10
280.0037192852033
 20
474.1677908835827
 30
0.0
  0
SPLINE
  5
123
330
D8
100
AcDbEntity
  8
Premier plan
 62
   250
420
  1709851
370
     9
100
AcDbSpline
210
0.0
220
0.0
230
1.0
 70
     8
 71
     3
 72
    11
 73
     7
 74
     0
 42
0.0000000001
 43
0.0000000001
 12
1.0
 22
0.0
 32
0.0
 13
1.0
 23
0.0
 33
0.0
 40
0.0
 40
0.0
 40
0.0
 40
0.0
 40
1.0
 40
1.0
 40
1.0
 40
2.0
 40
2.0
 40
2.0
 40
2.0
 10
281.1510186019495
 20
475.7975072471299
 30
0.0
 10
281.1510186019495
 20
475.7975072471299
 30
0.0
 10
281.1510186019495
 20
472.0253012985195
 30
0.0
 10
281.1510186019495
 20
472.0253012985195
 30
0.0
 10
281.1510186019495
 20
471.3459793346556
 30
0.0
 10
280.646942014273
 20
470.562297764749
 30
0.0
 10
280.0076573835458
 20
470.3140334818199
 30
0.0
  0
POLYLINE
  5
124
330
D8
100
AcDbEntity
  8
Premier plan
 62
   250
420
  1709851
370
     9
100
AcDb2dPolyline
 66
     1
 10
0.0
 20
0.0
 30
0.0
  0
VERTEX
  5
125
330
124
100
AcDbEntity
  8
Premier plan
 62
   250
420
  1709851
370
     9
100
AcDbVertex
100
AcDb2dVertex
 10
282.4312287377143
 20
463.6519197004645
 30
0.0
  0
VERTEX
  5
126
330
124
100
AcDbEntity
  8
Premier plan
 62
   250
420
  1709851
370
     9
100
AcDbVertex
100
AcDb2dVertex
 10
282.4312287377143
 20
469.331642033113
 30
0.0
  0
SEQEND
  5
127
330
124
100
AcDbEntity
  8
Premier plan
 62
   250
420
  1709851
370
     9
  0
POLYLINE
  5
128
330
D8
100
AcDbEntity
  8
Premier plan
 62
   250
420
  1709851
370
     9
100
AcDb2dPolyline
 66
     1
 10
0.0
 20
0.0
 30
0.0
  0
VERTEX
  5
129
330
128
100
AcDbEntity
  8
Premier plan
 62
   250
420
  1709851
370
     9
100
AcDbVertex
100
AcDb2dVertex
 10
282.6629325204276
 20
479.6729241897701
 30
0.0
  0
VERTEX
  5
12A
330
128
100
AcDbEntity
  8
Premier plan
 62
   250
420
  1709851
370
     9
100
AcDbVertex
100
AcDb2dVertex
 10
281.3561278905572
 20
479.2515476672561
 30
0.0
  0
SEQEND
  5
12B
330
128
100
AcDbEntity
  8
Premier plan
 62
   250
420
  1709851
370
     9
  0
SPLINE
  5
12C
330
D8
100
AcDbEntity
  8
Premier plan
 62
   250
420
  1709851
370
     9
100
AcDbSpline
210
0.0
220
0.0
230
1.0
 70
     8
 71
     3
 72
     8
 73
     4
 74
     0
 42
0.0000000001
 43
0.0000000001
 12
1.0
 22
0.0
 32
0.0
 13
1.0
 23
0.0
 33
0.0
 40
0.0
 40
0.0
 40
0.0
 40
0.0
 40
1.0
 40
1.0
 40
1.0
 40
1.0
 10
276.1890146919923
 20
471.86433152882
 30
0.0
 10
275.7379383444904
 20
471.958025451856
 30
0.0
 10
275.3173822591334
 20
472.0869981725309
 30
0.0
 10
274.9513032008272
 20
472.2489524668144
 30
0.0
  0
SPLINE
  5
12D
330
D8
100
AcDbEntity
  8
Premier plan
 62
   250
420
  1709851
370
     9
100
AcDbSpline
210
0.0
220
0.0
230
1.0
 70
     8
 71
     3
 72
    29
 73
    25
 74
     0
 42
0.0000000001
 43
0.0000000001
 12
1.0
 22
0.0
 32
0.0
 13
1.0
 23
0.0
 33
0.0
 40
0.0
 40
0.0
 40
0.0
 40
0.0
 40
1.0
 40
1.0
 40
1.0
 40
2.0
 40
2.0
 40
2.0
 40
3.0
 40
3.0
 40
3.0
 40
4.0
 40
4.0
 40
4.0
 40
5.0
 40
5.0
 40
5.0
 40
6.0
 40
6.0
 40
6.0
 40
7.0
 40
7.0
 40
7.0
 40
8.0
 40
8.0
 40
8.0
 40
8.0
 10
276.9479190598349
 20
480.1479573021807
 30
0.0
 10
276.9479190598349
 20
480.1479573021807
 30
0.0
 10
276.7275496401562
 20
485.5625143465186
 30
0.0
 10
276.7275496401562
 20
485.5625143465186
 30
0.0
 10
276.6642118918344
 20
486.9118052906852
 30
0.0
 10
275.7612387596764
 20
487.3028256384841
 30
0.0
 10
274.6306763608791
 20
487.2836274090705
 30
0.0
 10
272.6829585562764
 20
487.2836274090705
 30
0.0
 10
270.9812078105697
 20
486.0329530108665
 30
0.0
 10
270.9812078105697
 20
484.7614395089404
 30
0.0
 10
270.9812078105697
 20
483.9418227916694
 30
0.0
 10
271.90108194811
 20
483.1917791450942
 30
0.0
 10
273.0723380297668
 20
482.8960935946398
 30
0.0
 10
274.0923055001449
 20
482.4963766130049
 30
0.0
 10
274.6050787216609
 20
481.7512555893572
 30
0.0
 10
274.6106576943112
 20
480.6607305236957
 30
0.0
 10
274.6106576943112
 20
480.6607305236957
 30
0.0
 10
274.96082027182
 20
471.8587710109623
 30
0.0
 10
274.96082027182
 20
471.8587710109623
 30
0.0
 10
274.9969195066133
 20
471.5463300877664
 30
0.0
 10
274.8398878352564
 20
471.3963541759367
 30
0.0
 10
274.4905456949045
 20
471.4099734327001
 30
0.0
 10
274.4905456949045
 20
471.4099734327001
 30
0.0
 10
273.6668267918612
 20
471.4549333887635
 30
0.0
 10
273.6668267918612
 20
471.4549333887635
 30
0.0
  0
SPLINE
  5
12E
330
D8
100
AcDbEntity
  8
Premier plan
 62
   250
420
  1709851
370
     9
100
AcDbSpline
210
0.0
220
0.0
230
1.0
 70
     8
 71
     3
 72
    17
 73
    13
 74
     0
 42
0.0000000001
 43
0.0000000001
 12
1.0
 22
0.0
 32
0.0
 13
1.0
 23
0.0
 33
0.0
 40
0.0
 40
0.0
 40
0.0
 40
0.0
 40
1.0
 40
1.0
 40
1.0
 40
2.0
 40
2.0
 40
2.0
 40
3.0
 40
3.0
 40
3.0
 40
4.0
 40
4.0
 40
4.0
 40
4.0
 10
281.1510186019495
 20
475.7975072471299
 30
0.0
 10
281.6926712113027
 20
476.1035303057306
 30
0.0
 10
281.9745734175622
 20
476.4817518339205
 30
0.0
 10
281.9730966306843
 20
476.8694904331023
 30
0.0
 10
281.9730966306843
 20
476.8694904331023
 30
0.0
 10
281.9730966306843
 20
478.2652181202075
 30
0.0
 10
281.9730966306843
 20
478.2652181202075
 30
0.0
 10
281.9914744229445
 20
478.8308461253882
 30
0.0
 10
281.4073231689936
 20
479.4005390545008
 30
0.0
 10
280.2864419286198
 20
479.7771197083812
 30
0.0
 10
279.9387406625729
 20
479.8947703963258
 30
0.0
 10
279.5638008830019
 20
479.9845262210192
 30
0.0
 10
279.1752418466658
 20
480.0486844064953
 30
0.0
  0
SPLINE
  5
12F
330
D8
100
AcDbEntity
  8
Premier plan
 62
   250
420
  1709851
370
     9
100
AcDbSpline
210
0.0
220
0.0
230
1.0
 70
    11
 71
     3
 72
    20
 73
    16
 74
     0
 42
0.0000000001
 43
0.0000000001
 12
1.0
 22
0.0
 32
0.0
 13
1.0
 23
0.0
 33
0.0
 40
0.0
 40
0.0
 40
0.0
 40
0.0
 40
1.0
 40
1.0
 40
1.0
 40
2.0
 40
2.0
 40
2.0
 40
3.0
 40
3.0
 40
3.0
 40
4.0
 40
4.0
 40
4.0
 40
5.0
 40
5.0
 40
5.0
 40
5.0
 10
273.7743161648496
 20
482.476357946437
 30
0.0
 10
273.9769520362343
 20
482.7439845462104
 30
0.0
 10
274.2965943515983
 20
482.8713163925768
 30
0.0
 10
274.7740887754726
 20
482.859338010122
 30
0.0
 10
274.7740887754726
 20
482.859338010122
 30
0.0
 10
274.7740887754726
 20
485.6819699962034
 30
0.0
 10
274.7740887754726
 20
485.6819699962034
 30
0.0
 10
273.2214935044403
 20
485.5241178876931
 30
0.0
 10
272.1142315208299
 20
484.8759725356977
 30
0.0
 10
271.4739623655159
 20
483.7367135030636
 30
0.0
 10
271.8544931749966
 20
483.3609532863375
 30
0.0
 10
272.4250131149238
 20
483.0588683260785
 30
0.0
 10
273.0723380297668
 20
482.8960935946398
 30
0.0
 10
273.3480049136524
 20
482.787959977687
 30
0.0
 10
273.5723124316728
 20
482.6350304921034
 30
0.0
 10
273.7743161648496
 20
482.476357946437
 30
0.0
  0
POLYLINE
  5
130
330
D8
100
AcDbEntity
  8
Premier plan
 62
   250
420
  1709851
370
     9
100
AcDb2dPolyline
 66
     1
 10
0.0
 20
0.0
 30
0.0
  0
VERTEX
  5
131
330
130
100
AcDbEntity
  8
Premier plan
 62
   250
420
  1709851
370
     9
100
AcDbVertex
100
AcDb2dVertex
 10
269.7690939586237
 20
486.3501340147668
 30
0.0
  0
VERTEX
  5
132
330
130
100
AcDbEntity
  8
Premier plan
 62
   250
420
  1709851
370
     9
100
AcDbVertex
100
AcDb2dVertex
 10
270.5414534957972
 20
486.3501340147668
 30
0.0
  0
SEQEND
  5
133
330
130
100
AcDbEntity
  8
Premier plan
 62
   250
420
  1709851
370
     9
  0
POLYLINE
  5
134
330
D8
100
AcDbEntity
  8
Premier plan
 62
   250
420
  1709851
370
     9
100
AcDb2dPolyline
 66
     1
 10
0.0
 20
0.0
 30
0.0
  0
VERTEX
  5
135
330
134
100
AcDbEntity
  8
Premier plan
 62
   250
420
  1709851
370
     9
100
AcDbVertex
100
AcDb2dVertex
 10
268.8059007393294
 20
484.1725297194944
 30
0.0
  0
VERTEX
  5
136
330
134
100
AcDbEntity
  8
Premier plan
 62
   250
420
  1709851
370
     9
100
AcDbVertex
100
AcDb2dVertex
 10
269.6263378937538
 20
484.1725297194944
 30
0.0
  0
SEQEND
  5
137
330
134
100
AcDbEntity
  8
Premier plan
 62
   250
420
  1709851
370
     9
  0
ENDBLK
  5
DB
330
D8
100
AcDbEntity
  8
0
100
AcDbBlockEnd
  0
BLOCK
  5
13A
330
138
100
AcDbEntity
  8
0
100
AcDbBlockBegin
  2
block 7
 70
     0
 10
0.0
 20
0.0
 30
0.0
  3
block 7
  1

  0
SPLINE
  5
13C
330
138
100
AcDbEntity
  8
Premier plan
 62
   250
420
  1709851
370
    20
100
AcDbSpline
210
0.0
220
0.0
230
1.0
 70
    11
 71
     3
 72
    77
 73
    73
 74
     0
 42
0.0000000001
 43
0.0000000001
 12
1.0
 22
0.0
 32
0.0
 13
1.0
 23
0.0
 33
0.0
 40
0.0
 40
0.0
 40
0.0
 40
0.0
 40
1.0
 40
1.0
 40
1.0
 40
2.0
 40
2.0
 40
2.0
 40
3.0
 40
3.0
 40
3.0
 40
4.0
 40
4.0
 40
4.0
 40
5.0
 40
5.0
 40
5.0
 40
6.0
 40
6.0
 40
6.0
 40
7.0
 40
7.0
 40
7.0
 40
8.0
 40
8.0
 40
8.0
 40
9.0
 40
9.0
 40
9.0
 40
10.0
 40
10.0
 40
10.0
 40
11.0
 40
11.0
 40
11.0
 40
12.0
 40
12.0
 40
12.0
 40
13.0
 40
13.0
 40
13.0
 40
14.0
 40
14.0
 40
14.0
 40
15.0
 40
15.0
 40
15.0
 40
16.0
 40
16.0
 40
16.0
 40
17.0
 40
17.0
 40
17.0
 40
18.0
 40
18.0
 40
18.0
 40
19.0
 40
19.0
 40
19.0
 40
20.0
 40
20.0
 40
20.0
 40
21.0
 40
21.0
 40
21.0
 40
22.0
 40
22.0
 40
22.0
 40
23.0
 40
23.0
 40
23.0
 40
24.0
 40
24.0
 40
24.0
 40
24.0
 10
210.2768986672854
 20
533.1102932814556
 30
0.0
 10
210.2768986672854
 20
533.3337803623199
 30
0.0
 10
210.0557088104524
 20
533.4691524928012
 30
0.0
 10
209.7465680906662
 20
533.486873935336
 30
0.0
 10
209.7465680906662
 20
533.486873935336
 30
0.0
 10
208.2394354881972
 20
533.5566110934624
 30
0.0
 10
208.2394354881972
 20
533.5566110934624
 30
0.0
 10
208.0495758804536
 20
533.0782962324329
 30
0.0
 10
206.3678438013158
 20
532.9291407577584
 30
0.0
 10
203.5051744820985
 20
532.9291407577584
 30
0.0
 10
200.5030308466294
 20
532.9332429435299
 30
0.0
 10
197.6026214183084
 20
533.4676757059224
 30
0.0
 10
197.5328842601821
 20
534.4266026520136
 30
0.0
 10
197.5328842601821
 20
534.4266026520136
 30
0.0
 10
196.137156573076
 20
534.4827405901824
 30
0.0
 10
196.137156573076
 20
534.4827405901824
 30
0.0
 10
195.9433693172004
 20
534.4740239195398
 30
0.0
 10
195.8439323340854
 20
534.3442307617097
 30
0.0
 10
195.8439323340854
 20
534.1061398994952
 30
0.0
 10
195.8439323340854
 20
534.1061398994952
 30
0.0
 10
195.8239136675165
 20
529.497580315664
 30
0.0
 10
195.8239136675165
 20
529.497580315664
 30
0.0
 10
195.8239136675165
 20
529.497580315664
 30
0.0
 10
195.3711964457052
 20
529.3013317483255
 30
0.0
 10
195.3711964457052
 20
529.3013317483255
 30
0.0
 10
195.0323559009275
 20
529.1178820005953
 30
0.0
 10
194.9778889890667
 20
528.7829795541593
 30
0.0
 10
194.954578458688
 20
528.5161733915402
 30
0.0
 10
194.954578458688
 20
528.5161733915402
 30
0.0
 10
195.1757683155211
 20
516.2256966434034
 30
0.0
 10
195.1757683155211
 20
516.2256966434034
 30
0.0
 10
195.1910284465939
 20
516.0959034855732
 30
0.0
 10
195.2750412112073
 20
515.970868863239
 30
0.0
 10
195.4273143470682
 20
515.8514132135542
 30
0.0
 10
195.4273143470682
 20
515.8514132135542
 30
0.0
 10
196.9383954980867
 20
514.9172634695278
 30
0.0
 10
196.9383954980867
 20
514.9172634695278
 30
0.0
 10
197.3719246661558
 20
514.6688350991681
 30
0.0
 10
197.9839707988185
 20
514.6568567167142
 30
0.0
 10
198.2812870324478
 20
515.003737545604
 30
0.0
 10
199.4750230921354
 20
516.1679378677327
 30
0.0
 10
200.7056788237724
 20
516.7793472247904
 30
0.0
 10
203.5580209667887
 20
516.5533792428805
 30
0.0
 10
206.6321886524711
 20
516.3097094080167
 30
0.0
 10
208.4181162502227
 20
515.8041560334605
 30
0.0
 10
208.4181162502227
 20
514.3788926087936
 30
0.0
 10
208.4181162502227
 20
513.8661193872795
 30
0.0
 10
209.2280518090693
 20
513.6305093465635
 30
0.0
 10
209.8330421667415
 20
513.9278162612918
 30
0.0
 10
209.8330421667415
 20
513.9278162612918
 30
0.0
 10
212.0067083636741
 20
514.5022863568192
 30
0.0
 10
212.0067083636741
 20
514.5022863568192
 30
0.0
 10
212.2342976303116
 20
514.5559624801317
 30
0.0
 10
212.3808277060916
 20
514.716912716417
 30
0.0
 10
212.3752487334414
 20
514.9733813708899
 30
0.0
 10
212.3752487334414
 20
514.9733813708899
 30
0.0
 10
212.5956181531201
 20
527.5218035603793
 30
0.0
 10
212.5956181531201
 20
527.5218035603793
 30
0.0
 10
212.5956181531201
 20
527.7421729800571
 30
0.0
 10
212.5011037929298
 20
527.8888671432687
 30
0.0
 10
212.4065894327405
 20
527.9520606759861
 30
0.0
 10
212.4065894327405
 20
527.9520606759861
 30
0.0
 10
211.2888258535522
 20
528.6082264402667
 30
0.0
 10
211.2888258535522
 20
528.6082264402667
 30
0.0
 10
211.2888258535522
 20
528.6082264402667
 30
0.0
 10
210.7560339654701
 20
528.6490842105577
 30
0.0
 10
210.7560339654701
 20
528.6490842105577
 30
0.0
 10
210.7560339654701
 20
528.6490842105577
 30
0.0
 10
210.2737810060989
 20
528.5056717959642
 30
0.0
 10
210.2737810060989
 20
528.5056717959642
 30
0.0
 10
210.2737810060989
 20
528.5056717959642
 30
0.0
 10
210.2768986672854
 20
533.1102932814556
 30
0.0
 10
210.2768986672854
 20
533.1102932814556
 30
0.0
  0
SPLINE
  5
13D
330
138
100
AcDbEntity
  8
Premier plan
 62
   250
420
  1709851
370
     9
100
AcDbSpline
210
0.0
220
0.0
230
1.0
 70
     8
 71
     3
 72
    11
 73
     7
 74
     0
 42
0.0000000001
 43
0.0000000001
 12
1.0
 22
0.0
 32
0.0
 13
1.0
 23
0.0
 33
0.0
 40
0.0
 40
0.0
 40
0.0
 40
0.0
 40
1.0
 40
1.0
 40
1.0
 40
2.0
 40
2.0
 40
2.0
 40
2.0
 10
199.880483133853
 20
527.1357058355061
 30
0.0
 10
199.6345160749561
 20
527.2230003487375
 30
0.0
 10
199.4077472454728
 20
527.3216168946992
 30
0.0
 10
199.2065760552077
 20
527.4305709488062
 30
0.0
 10
198.613728167421
 20
527.7510337013255
 30
0.0
 10
198.3269135380315
 20
528.1139950984425
 30
0.0
 10
198.3252726636802
 20
528.4680957742921
 30
0.0
  0
SPLINE
  5
13E
330
138
100
AcDbEntity
  8
Premier plan
 62
   250
420
  1709851
370
     9
100
AcDbSpline
210
0.0
220
0.0
230
1.0
 70
     8
 71
     3
 72
    11
 73
     7
 74
     0
 42
0.0000000001
 43
0.0000000001
 12
1.0
 22
0.0
 32
0.0
 13
1.0
 23
0.0
 33
0.0
 40
0.0
 40
0.0
 40
0.0
 40
0.0
 40
1.0
 40
1.0
 40
1.0
 40
2.0
 40
2.0
 40
2.0
 40
2.0
 10
207.5824189647255
 20
527.8703252635787
 30
0.0
 10
207.3180741135702
 20
527.4873451998928
 30
0.0
 10
206.7027462477517
 20
527.1421052453106
 30
0.0
 10
205.7677760665701
 20
526.9072961317142
 30
0.0
 10
205.7677760665701
 20
526.9072961317142
 30
0.0
 10
205.3903749755345
 20
526.8232833671027
 30
0.0
 10
205.3903749755345
 20
526.8232833671027
 30
0.0
  0
SPLINE
  5
13F
330
138
100
AcDbEntity
  8
Premier plan
 62
   250
420
  1709851
370
     9
100
AcDbSpline
210
0.0
220
0.0
230
1.0
 70
    11
 71
     3
 72
    17
 73
    13
 74
     0
 42
0.0000000001
 43
0.0000000001
 12
1.0
 22
0.0
 32
0.0
 13
1.0
 23
0.0
 33
0.0
 40
0.0
 40
0.0
 40
0.0
 40
0.0
 40
1.0
 40
1.0
 40
1.0
 40
2.0
 40
2.0
 40
2.0
 40
3.0
 40
3.0
 40
3.0
 40
4.0
 40
4.0
 40
4.0
 40
4.0
 10
200.2626427603827
 20
527.7735136793553
 30
0.0
 10
199.1000833125636
 20
528.4016602479678
 30
0.0
 10
199.4717413435183
 20
529.2404553114666
 30
0.0
 10
201.0917868182869
 20
529.6467357903375
 30
0.0
 10
202.7119758412009
 20
530.053672618933
 30
0.0
 10
204.9673575787137
 20
529.8733405323892
 30
0.0
 10
206.1290965893786
 20
529.2452138469616
 30
0.0
 10
207.2916560371978
 20
528.617087161535
 30
0.0
 10
206.9206543559667
 20
527.7782722148522
 30
0.0
 10
205.3006295268078
 20
527.3719917359813
 30
0.0
 10
203.6797635085595
 20
526.9658951914544
 30
0.0
 10
201.4243817710485
 20
527.145222906498
 30
0.0
 10
200.2626427603827
 20
527.7735136793553
 30
0.0
  0
SPLINE
  5
140
330
138
100
AcDbEntity
  8
Premier plan
 62
   250
420
  1709851
370
     9
100
AcDbSpline
210
0.0
220
0.0
230
1.0
 70
     8
 71
     3
 72
    14
 73
    10
 74
     0
 42
0.0000000001
 43
0.0000000001
 12
1.0
 22
0.0
 32
0.0
 13
1.0
 23
0.0
 33
0.0
 40
0.0
 40
0.0
 40
0.0
 40
0.0
 40
1.0
 40
1.0
 40
1.0
 40
2.0
 40
2.0
 40
2.0
 40
3.0
 40
3.0
 40
3.0
 40
3.0
 10
200.0125735157144
 20
527.9584402139635
 30
0.0
 10
200.2649399844149
 20
528.1307320163924
 30
0.0
 10
200.6270809443777
 20
528.2830051522542
 30
0.0
 10
201.0917868182869
 20
528.4000193736183
 30
0.0
 10
202.7119758412009
 20
528.8062799693453
 30
0.0
 10
204.9673575787137
 20
528.6267683199567
 30
0.0
 10
206.1290965893786
 20
527.9986416345309
 30
0.0
 10
206.1290965893786
 20
527.9986416345309
 30
0.0
 10
206.3767045225841
 20
527.8455480615139
 30
0.0
 10
206.3767045225841
 20
527.8455480615139
 30
0.0
  0
SPLINE
  5
141
330
138
100
AcDbEntity
  8
Premier plan
 62
   250
420
  1709851
370
     9
100
AcDbSpline
210
0.0
220
0.0
230
1.0
 70
     8
 71
     3
 72
    14
 73
    10
 74
     0
 42
0.0000000001
 43
0.0000000001
 12
1.0
 22
0.0
 32
0.0
 13
1.0
 23
0.0
 33
0.0
 40
0.0
 40
0.0
 40
0.0
 40
0.0
 40
1.0
 40
1.0
 40
1.0
 40
2.0
 40
2.0
 40
2.0
 40
3.0
 40
3.0
 40
3.0
 40
3.0
 10
200.8106947795377
 20
527.5554414837097
 30
0.0
 10
200.9564044181643
 20
527.749392827016
 30
0.0
 10
201.2762108209581
 20
527.9233255037534
 30
0.0
 10
201.7528848076781
 20
528.0426170660076
 30
0.0
 10
202.8640848896321
 20
528.3214016110796
 30
0.0
 10
204.4112756289451
 20
528.198007863055
 30
0.0
 10
205.208402014684
 20
527.7671142695517
 30
0.0
 10
205.38397556573
 20
527.6724358219308
 30
0.0
 10
205.5088461006335
 20
527.5707016147826
 30
0.0
 10
205.6666982091447
 20
527.465849746447
 30
0.0
  0
SPLINE
  5
142
330
138
100
AcDbEntity
  8
Premier plan
 62
   250
420
  1709851
370
     9
100
AcDbSpline
210
0.0
220
0.0
230
1.0
 70
     8
 71
     3
 72
    14
 73
    10
 74
     0
 42
0.0000000001
 43
0.0000000001
 12
1.0
 22
0.0
 32
0.0
 13
1.0
 23
0.0
 33
0.0
 40
0.0
 40
0.0
 40
0.0
 40
0.0
 40
1.0
 40
1.0
 40
1.0
 40
2.0
 40
2.0
 40
2.0
 40
3.0
 40
3.0
 40
3.0
 40
3.0
 10
207.7291235652528
 20
528.6284091942662
 30
0.0
 10
207.7314103519684
 20
529.1779380003
 30
0.0
 10
207.0496270766416
 20
529.7076122271956
 30
0.0
 10
205.7677760665701
 20
530.0297158540234
 30
0.0
 10
203.6572835305287
 20
530.558405556334
 30
0.0
 10
200.7201185176891
 20
530.3244168798929
 30
0.0
 10
199.2065760552077
 20
529.5064410369314
 30
0.0
 10
198.613728167421
 20
529.1859981874113
 30
0.0
 10
198.3269135380315
 20
528.823016887296
 30
0.0
 10
198.3252726636802
 20
528.4680957742921
 30
0.0
  0
SPLINE
  5
143
330
138
100
AcDbEntity
  8
Premier plan
 62
   250
420
  1709851
370
     9
100
AcDbSpline
210
0.0
220
0.0
230
1.0
 70
     8
 71
     3
 72
    11
 73
     7
 74
     0
 42
0.0000000001
 43
0.0000000001
 12
1.0
 22
0.0
 32
0.0
 13
1.0
 23
0.0
 33
0.0
 40
0.0
 40
0.0
 40
0.0
 40
0.0
 40
1.0
 40
1.0
 40
1.0
 40
2.0
 40
2.0
 40
2.0
 40
2.0
 10
199.5014411685079
 20
523.1080157570068
 30
0.0
 10
199.5014411685079
 20
523.1080157570068
 30
0.0
 10
199.2065760552077
 20
523.2530690459089
 30
0.0
 10
199.2065760552077
 20
523.2530690459089
 30
0.0
 10
198.613728167421
 20
523.5735317984272
 30
0.0
 10
198.3269135380315
 20
523.9364931955442
 30
0.0
 10
198.3252726636802
 20
524.2905938713948
 30
0.0
  0
SPLINE
  5
144
330
138
100
AcDbEntity
  8
Premier plan
 62
   250
420
  1709851
370
     9
100
AcDbSpline
210
0.0
220
0.0
230
1.0
 70
     8
 71
     3
 72
     8
 73
     4
 74
     0
 42
0.0000000001
 43
0.0000000001
 12
1.0
 22
0.0
 32
0.0
 13
1.0
 23
0.0
 33
0.0
 40
0.0
 40
0.0
 40
0.0
 40
0.0
 40
1.0
 40
1.0
 40
1.0
 40
1.0
 10
207.7291235652528
 20
524.1302804514198
 30
0.0
 10
207.7314103519684
 20
523.5807714067842
 30
0.0
 10
207.0496270766416
 20
523.0510774184904
 30
0.0
 10
205.7677760665701
 20
522.7297942288169
 30
0.0
  0
SPLINE
  5
145
330
138
100
AcDbEntity
  8
Premier plan
 62
   250
420
  1709851
370
     9
100
AcDbSpline
210
0.0
220
0.0
230
1.0
 70
     8
 71
     3
 72
    17
 73
    13
 74
     0
 42
0.0000000001
 43
0.0000000001
 12
1.0
 22
0.0
 32
0.0
 13
1.0
 23
0.0
 33
0.0
 40
0.0
 40
0.0
 40
0.0
 40
0.0
 40
1.0
 40
1.0
 40
1.0
 40
2.0
 40
2.0
 40
2.0
 40
3.0
 40
3.0
 40
3.0
 40
4.0
 40
4.0
 40
4.0
 40
4.0
 10
199.5943146543887
 20
517.0676292512735
 30
0.0
 10
199.5943146543887
 20
517.0676292512735
 30
0.0
 10
199.5943146543887
 20
521.0713625648641
 30
0.0
 10
199.5943146543887
 20
521.0713625648641
 30
0.0
 10
198.4486562119509
 20
521.1922950014268
 30
0.0
 10
197.4736588758742
 20
521.4151257325684
 30
0.0
 10
196.669948461159
 20
521.7395265834275
 30
0.0
 10
196.669948461159
 20
521.7395265834275
 30
0.0
 10
196.6491093574368
 20
518.1926126774206
 30
0.0
 10
196.6491093574368
 20
518.1926126774206
 30
0.0
 10
196.6491093574368
 20
518.1926126774206
 30
0.0
 10
195.152467900336
 20
518.807940543239
 30
0.0
 10
195.152467900336
 20
518.807940543239
 30
0.0
  0
POLYLINE
  5
146
330
138
100
AcDbEntity
  8
Premier plan
 62
   250
420
  1709851
370
     9
100
AcDb2dPolyline
 66
     1
 10
0.0
 20
0.0
 30
0.0
  0
VERTEX
  5
147
330
146
100
AcDbEntity
  8
Premier plan
 62
   250
420
  1709851
370
     9
100
AcDbVertex
100
AcDb2dVertex
 10
205.7933737057883
 20
516.7296091436501
 30
0.0
  0
VERTEX
  5
148
330
146
100
AcDbEntity
  8
Premier plan
 62
   250
420
  1709851
370
     9
100
AcDbVertex
100
AcDb2dVertex
 10
199.5742959878207
 20
517.0700905627373
 30
0.0
  0
SEQEND
  5
149
330
146
100
AcDbEntity
  8
Premier plan
 62
   250
420
  1709851
370
     9
  0
POLYLINE
  5
14A
330
138
100
AcDbEntity
  8
Premier plan
 62
   250
420
  1709851
370
     9
100
AcDb2dPolyline
 66
     1
 10
0.0
 20
0.0
 30
0.0
  0
VERTEX
  5
14B
330
14A
100
AcDbEntity
  8
Premier plan
 62
   250
420
  1709851
370
     9
100
AcDbVertex
100
AcDb2dVertex
 10
205.7677760665701
 20
522.7297942288169
 30
0.0
  0
VERTEX
  5
14C
330
14A
100
AcDbEntity
  8
Premier plan
 62
   250
420
  1709851
370
     9
100
AcDbVertex
100
AcDb2dVertex
 10
205.4079323306396
 20
526.8167198698666
 30
0.0
  0
SEQEND
  5
14D
330
14A
100
AcDbEntity
  8
Premier plan
 62
   250
420
  1709851
370
     9
  0
POLYLINE
  5
14E
330
138
100
AcDbEntity
  8
Premier plan
 62
   250
420
  1709851
370
     9
100
AcDb2dPolyline
 66
     1
 10
0.0
 20
0.0
 30
0.0
  0
VERTEX
  5
14F
330
14E
100
AcDbEntity
  8
Premier plan
 62
   250
420
  1709851
370
     9
100
AcDbVertex
100
AcDb2dVertex
 10
199.5222802722301
 20
523.1080157570068
 30
0.0
  0
VERTEX
  5
150
330
14E
100
AcDbEntity
  8
Premier plan
 62
   250
420
  1709851
370
     9
100
AcDbVertex
100
AcDb2dVertex
 10
199.8596440301299
 20
527.130947300011
 30
0.0
  0
SEQEND
  5
151
330
14E
100
AcDbEntity
  8
Premier plan
 62
   250
420
  1709851
370
     9
  0
POLYLINE
  5
152
330
138
100
AcDbEntity
  8
Premier plan
 62
   250
420
  1709851
370
     9
100
AcDb2dPolyline
 66
     1
 10
0.0
 20
0.0
 30
0.0
  0
VERTEX
  5
153
330
152
100
AcDbEntity
  8
Premier plan
 62
   250
420
  1709851
370
     9
100
AcDbVertex
100
AcDb2dVertex
 10
199.880483133853
 20
527.1357058355061
 30
0.0
  0
VERTEX
  5
154
330
152
100
AcDbEntity
  8
Premier plan
 62
   250
420
  1709851
370
     9
100
AcDbVertex
100
AcDb2dVertex
 10
205.3903749755345
 20
526.8232833671027
 30
0.0
  0
SEQEND
  5
155
330
152
100
AcDbEntity
  8
Premier plan
 62
   250
420
  1709851
370
     9
  0
POLYLINE
  5
156
330
138
100
AcDbEntity
  8
Premier plan
 62
   250
420
  1709851
370
     9
100
AcDb2dPolyline
 66
     1
 10
0.0
 20
0.0
 30
0.0
  0
VERTEX
  5
157
330
156
100
AcDbEntity
  8
Premier plan
 62
   250
420
  1709851
370
     9
100
AcDbVertex
100
AcDb2dVertex
 10
210.37223346463
 20
527.2174213760882
 30
0.0
  0
VERTEX
  5
158
330
156
100
AcDbEntity
  8
Premier plan
 62
   250
420
  1709851
370
     9
100
AcDbVertex
100
AcDb2dVertex
 10
211.3160748950113
 20
527.2174213760882
 30
0.0
  0
VERTEX
  5
159
330
156
100
AcDbEntity
  8
Premier plan
 62
   250
420
  1709851
370
     9
100
AcDbVertex
100
AcDb2dVertex
 10
212.3936265256998
 20
527.7285537232929
 30
0.0
  0
SEQEND
  5
15A
330
156
100
AcDbEntity
  8
Premier plan
 62
   250
420
  1709851
370
     9
  0
SPLINE
  5
15B
330
138
100
AcDbEntity
  8
Premier plan
 62
   250
420
  1709851
370
     9
100
AcDbSpline
210
0.0
220
0.0
230
1.0
 70
     8
 71
     3
 72
     8
 73
     4
 74
     0
 42
0.0000000001
 43
0.0000000001
 12
1.0
 22
0.0
 32
0.0
 13
1.0
 23
0.0
 33
0.0
 40
0.0
 40
0.0
 40
0.0
 40
0.0
 40
1.0
 40
1.0
 40
1.0
 40
1.0
 10
199.5222802722301
 20
523.1080157570068
 30
0.0
 10
198.8260573029866
 20
523.1816910134748
 30
0.0
 10
198.1851317979499
 20
523.2922859418904
 30
0.0
 10
197.609020828113
 20
523.4412970870108
 30
0.0
  0
POLYLINE
  5
15C
330
138
100
AcDbEntity
  8
Premier plan
 62
   250
420
  1709851
370
     9
100
AcDb2dPolyline
 66
     1
 10
0.0
 20
0.0
 30
0.0
  0
VERTEX
  5
15D
330
15C
100
AcDbEntity
  8
Premier plan
 62
   250
420
  1709851
370
     9
100
AcDbVertex
100
AcDb2dVertex
 10
198.3252726636802
 20
524.2905938713948
 30
0.0
  0
VERTEX
  5
15E
330
15C
100
AcDbEntity
  8
Premier plan
 62
   250
420
  1709851
370
     9
100
AcDbVertex
100
AcDb2dVertex
 10
198.3252726636802
 20
528.4680957742921
 30
0.0
  0
SEQEND
  5
15F
330
15C
100
AcDbEntity
  8
Premier plan
 62
   250
420
  1709851
370
     9
  0
POLYLINE
  5
160
330
138
100
AcDbEntity
  8
Premier plan
 62
   250
420
  1709851
370
     9
100
AcDb2dPolyline
 66
     1
 10
0.0
 20
0.0
 30
0.0
  0
VERTEX
  5
161
330
160
100
AcDbEntity
  8
Premier plan
 62
   250
420
  1709851
370
     9
100
AcDbVertex
100
AcDb2dVertex
 10
209.0582317889966
 20
517.3071969003659
 30
0.0
  0
VERTEX
  5
162
330
160
100
AcDbEntity
  8
Premier plan
 62
   250
420
  1709851
370
     9
100
AcDbVertex
100
AcDb2dVertex
 10
209.0582317889966
 20
520.7364601184281
 30
0.0
  0
SEQEND
  5
163
330
160
100
AcDbEntity
  8
Premier plan
 62
   250
420
  1709851
370
     9
  0
SPLINE
  5
164
330
138
100
AcDbEntity
  8
Premier plan
 62
   250
420
  1709851
370
     9
100
AcDbSpline
210
0.0
220
0.0
230
1.0
 70
     8
 71
     3
 72
    11
 73
     7
 74
     0
 42
0.0000000001
 43
0.0000000001
 12
1.0
 22
0.0
 32
0.0
 13
1.0
 23
0.0
 33
0.0
 40
0.0
 40
0.0
 40
0.0
 40
0.0
 40
1.0
 40
1.0
 40
1.0
 40
2.0
 40
2.0
 40
2.0
 40
2.0
 10
205.7677760665701
 20
516.7232097338456
 30
0.0
 10
205.7677760665701
 20
516.7232097338456
 30
0.0
 10
205.7677760665701
 20
520.6859211897154
 30
0.0
 10
205.7677760665701
 20
520.6859211897154
 30
0.0
 10
207.0752247158607
 20
520.6019084251029
 30
0.0
 10
208.1721596398338
 20
520.6178249058976
 30
0.0
 10
209.0582317889966
 20
520.7364601184281
 30
0.0
  0
SPLINE
  5
165
330
138
100
AcDbEntity
  8
Premier plan
 62
   250
420
  1709851
370
     9
100
AcDbSpline
210
0.0
220
0.0
230
1.0
 70
     8
 71
     3
 72
     8
 73
     4
 74
     0
 42
0.0000000001
 43
0.0000000001
 12
1.0
 22
0.0
 32
0.0
 13
1.0
 23
0.0
 33
0.0
 40
0.0
 40
0.0
 40
0.0
 40
0.0
 40
1.0
 40
1.0
 40
1.0
 40
1.0
 10
205.7677760665701
 20
522.7297942288169
 30
0.0
 10
206.4912375493413
 20
522.6825370487231
 30
0.0
 10
207.3973283426876
 20
522.7402958243938
 30
0.0
 10
207.9862381321327
 20
522.7555559554658
 30
0.0
  0
POLYLINE
  5
166
330
138
100
AcDbEntity
  8
Premier plan
 62
   250
420
  1709851
370
     9
100
AcDb2dPolyline
 66
     1
 10
0.0
 20
0.0
 30
0.0
  0
VERTEX
  5
167
330
166
100
AcDbEntity
  8
Premier plan
 62
   250
420
  1709851
370
     9
100
AcDbVertex
100
AcDb2dVertex
 10
209.7657663200798
 20
514.3083350135148
 30
0.0
  0
VERTEX
  5
168
330
166
100
AcDbEntity
  8
Premier plan
 62
   250
420
  1709851
370
     9
100
AcDbVertex
100
AcDb2dVertex
 10
209.7657663200798
 20
517.0147930985286
 30
0.0
  0
SEQEND
  5
169
330
166
100
AcDbEntity
  8
Premier plan
 62
   250
420
  1709851
370
     9
  0
POLYLINE
  5
16A
330
138
100
AcDbEntity
  8
Premier plan
 62
   250
420
  1709851
370
     9
100
AcDb2dPolyline
 66
     1
 10
0.0
 20
0.0
 30
0.0
  0
VERTEX
  5
16B
330
16A
100
AcDbEntity
  8
Premier plan
 62
   250
420
  1709851
370
     9
100
AcDbVertex
100
AcDb2dVertex
 10
197.0184701643584
 20
515.1376328892065
 30
0.0
  0
VERTEX
  5
16C
330
16A
100
AcDbEntity
  8
Premier plan
 62
   250
420
  1709851
370
     9
100
AcDbVertex
100
AcDb2dVertex
 10
197.0184701643584
 20
517.6598207893367
 30
0.0
  0
SEQEND
  5
16D
330
16A
100
AcDbEntity
  8
Premier plan
 62
   250
420
  1709851
370
     9
  0
SPLINE
  5
16E
330
138
100
AcDbEntity
  8
Premier plan
 62
   250
420
  1709851
370
     9
100
AcDbSpline
210
0.0
220
0.0
230
1.0
 70
     8
 71
     3
 72
    23
 73
    19
 74
     0
 42
0.0000000001
 43
0.0000000001
 12
1.0
 22
0.0
 32
0.0
 13
1.0
 23
0.0
 33
0.0
 40
0.0
 40
0.0
 40
0.0
 40
0.0
 40
1.0
 40
1.0
 40
1.0
 40
2.0
 40
2.0
 40
2.0
 40
3.0
 40
3.0
 40
3.0
 40
4.0
 40
4.0
 40
4.0
 40
5.0
 40
5.0
 40
5.0
 40
6.0
 40
6.0
 40
6.0
 40
6.0
 10
211.2607669028712
 20
523.9757100915267
 30
0.0
 10
211.2607669028712
 20
523.9757100915267
 30
0.0
 10
211.3360830336478
 20
518.2831889392692
 30
0.0
 10
211.3360830336478
 20
518.2831889392692
 30
0.0
 10
211.3360830336478
 20
518.2831889392692
 30
0.0
 10
210.5597853981317
 20
517.3825130311416
 30
0.0
 10
210.5597853981317
 20
517.3825130311416
 30
0.0
 10
210.5597853981317
 20
517.3825130311416
 30
0.0
 10
209.0582317889966
 20
517.3071969003659
 30
0.0
 10
209.0582317889966
 20
517.3071969003659
 30
0.0
 10
209.0582317889966
 20
517.3071969003659
 30
0.0
 10
208.3811965782725
 20
518.1717735736975
 30
0.0
 10
208.3811965782725
 20
518.1717735736975
 30
0.0
 10
208.099294372013
 20
518.4618801515026
 30
0.0
 10
207.8036088215586
 20
518.4352979876985
 30
0.0
 10
207.7291235652528
 20
518.1236959564485
 30
0.0
 10
207.6024376312935
 20
517.5933653798293
 30
0.0
 10
207.0584877979099
 20
517.0525332076322
 30
0.0
 10
205.7933737057883
 20
516.7296091436501
 30
0.0
  0
POLYLINE
  5
16F
330
138
100
AcDbEntity
  8
Premier plan
 62
   250
420
  1709851
370
     9
100
AcDb2dPolyline
 66
     1
 10
0.0
 20
0.0
 30
0.0
  0
VERTEX
  5
170
330
16F
100
AcDbEntity
  8
Premier plan
 62
   250
420
  1709851
370
     9
100
AcDbVertex
100
AcDb2dVertex
 10
208.0078976730101
 20
518.6645281286455
 30
0.0
  0
VERTEX
  5
171
330
16F
100
AcDbEntity
  8
Premier plan
 62
   250
420
  1709851
370
     9
100
AcDbVertex
100
AcDb2dVertex
 10
208.0078976730101
 20
520.3638175628885
 30
0.0
  0
SEQEND
  5
172
330
16F
100
AcDbEntity
  8
Premier plan
 62
   250
420
  1709851
370
     9
  0
SPLINE
  5
173
330
138
100
AcDbEntity
  8
Premier plan
 62
   250
420
  1709851
370
     9
100
AcDbSpline
210
0.0
220
0.0
230
1.0
 70
     8
 71
     3
 72
    32
 73
    28
 74
     0
 42
0.0000000001
 43
0.0000000001
 12
1.0
 22
0.0
 32
0.0
 13
1.0
 23
0.0
 33
0.0
 40
0.0
 40
0.0
 40
0.0
 40
0.0
 40
1.0
 40
1.0
 40
1.0
 40
2.0
 40
2.0
 40
2.0
 40
3.0
 40
3.0
 40
3.0
 40
4.0
 40
4.0
 40
4.0
 40
5.0
 40
5.0
 40
5.0
 40
6.0
 40
6.0
 40
6.0
 40
7.0
 40
7.0
 40
7.0
 40
8.0
 40
8.0
 40
8.0
 40
9.0
 40
9.0
 40
9.0
 40
9.0
 10
196.0170445736685
 20
534.1094216481124
 30
0.0
 10
196.9712129842637
 20
533.4035175204472
 30
0.0
 10
197.8517061383918
 20
532.963599118244
 30
0.0
 10
198.6585240360528
 20
532.7906509660925
 30
0.0
 10
198.6585240360528
 20
532.7906509660925
 30
0.0
 10
198.5920686265445
 20
532.4372066399665
 30
0.0
 10
198.5920686265445
 20
532.4372066399665
 30
0.0
 10
198.5920686265445
 20
532.4372066399665
 30
0.0
 10
199.5047229171259
 20
532.3451535912382
 30
0.0
 10
199.5047229171259
 20
532.3451535912382
 30
0.0
 10
199.5047229171259
 20
532.3451535912382
 30
0.0
 10
199.5864384577062
 20
532.7240314691526
 30
0.0
 10
199.5864384577062
 20
532.7240314691526
 30
0.0
 10
201.0286028877536
 20
532.397989743984
 30
0.0
 10
203.3985176520237
 20
532.3001936351757
 30
0.0
 10
204.2558744783964
 20
532.3812528260341
 30
0.0
 10
204.2558744783964
 20
532.3812528260341
 30
0.0
 10
204.1692363148886
 20
531.9452725221736
 30
0.0
 10
204.1692363148886
 20
531.9452725221736
 30
0.0
 10
204.1692363148886
 20
531.9452725221736
 30
0.0
 10
205.0810701683167
 20
531.8532194734471
 30
0.0
 10
205.0810701683167
 20
531.8532194734471
 30
0.0
 10
205.0810701683167
 20
531.8532194734471
 30
0.0
 10
205.1636061460513
 20
532.2320973513597
 30
0.0
 10
205.1636061460513
 20
532.2320973513597
 30
0.0
 10
207.3620495450468
 20
532.3635313834984
 30
0.0
 10
208.8371955487009
 20
532.558303163958
 30
0.0
 10
209.8330421667415
 20
533.0782962324329
 30
0.0
  0
SPLINE
  5
174
330
138
100
AcDbEntity
  8
Premier plan
 62
   250
420
  1709851
370
     9
100
AcDbSpline
210
0.0
220
0.0
230
1.0
 70
     8
 71
     3
 72
     8
 73
     4
 74
     0
 42
0.0000000001
 43
0.0000000001
 12
1.0
 22
0.0
 32
0.0
 13
1.0
 23
0.0
 33
0.0
 40
0.0
 40
0.0
 40
0.0
 40
0.0
 40
1.0
 40
1.0
 40
1.0
 40
1.0
 10
195.855090279385
 20
532.7506136329557
 30
0.0
 10
196.7805433895755
 20
532.0655486090118
 30
0.0
 10
197.8005108599546
 20
531.4733770317307
 30
0.0
 10
198.5864896538942
 20
531.2899073232184
 30
0.0
  0
SPLINE
  5
175
330
138
100
AcDbEntity
  8
Premier plan
 62
   250
420
  1709851
370
     9
100
AcDbSpline
210
0.0
220
0.0
230
1.0
 70
     8
 71
     3
 72
    14
 73
    10
 74
     0
 42
0.0000000001
 43
0.0000000001
 12
1.0
 22
0.0
 32
0.0
 13
1.0
 23
0.0
 33
0.0
 40
0.0
 40
0.0
 40
0.0
 40
0.0
 40
1.0
 40
1.0
 40
1.0
 40
2.0
 40
2.0
 40
2.0
 40
3.0
 40
3.0
 40
3.0
 40
3.0
 10
198.6329263968346
 20
530.9197260791416
 30
0.0
 10
198.6329263968346
 20
530.9197260791416
 30
0.0
 10
199.5047229171259
 20
530.8276730304151
 30
0.0
 10
199.5047229171259
 20
530.8276730304151
 30
0.0
 10
199.5047229171259
 20
530.8276730304151
 30
0.0
 10
199.5864384577062
 20
531.2073713454838
 30
0.0
 10
199.5864384577062
 20
531.2073713454838
 30
0.0
 10
200.9844633688454
 20
530.8901903415835
 30
0.0
 10
203.2551052374301
 20
530.7891324276552
 30
0.0
 10
204.1733488481532
 20
530.8565524182522
 30
0.0
  0
SPLINE
  5
176
330
138
100
AcDbEntity
  8
Premier plan
 62
   250
420
  1709851
370
     9
100
AcDbSpline
210
0.0
220
0.0
230
1.0
 70
     8
 71
     3
 72
    17
 73
    13
 74
     0
 42
0.0000000001
 43
0.0000000001
 12
1.0
 22
0.0
 32
0.0
 13
1.0
 23
0.0
 33
0.0
 40
0.0
 40
0.0
 40
0.0
 40
0.0
 40
1.0
 40
1.0
 40
1.0
 40
2.0
 40
2.0
 40
2.0
 40
3.0
 40
3.0
 40
3.0
 40
4.0
 40
4.0
 40
4.0
 40
4.0
 10
204.1892549814584
 20
530.4277919613505
 30
0.0
 10
204.1892549814584
 20
530.4277919613505
 30
0.0
 10
205.0810701683167
 20
530.3357389126231
 30
0.0
 10
205.0810701683167
 20
530.3357389126231
 30
0.0
 10
205.0810701683167
 20
530.3357389126231
 30
0.0
 10
205.1636061460513
 20
530.7146167905366
 30
0.0
 10
205.1636061460513
 20
530.7146167905366
 30
0.0
 10
207.3620495450468
 20
530.8460508226754
 30
0.0
 10
208.8371955487009
 20
531.040822603135
 30
0.0
 10
209.8330421667415
 20
531.5608156716098
 30
0.0
 10
210.0189532259337
 20
531.6600885672951
 30
0.0
 10
210.1640065148367
 20
531.7907021622786
 30
0.0
 10
210.2688583831723
 20
531.9541532163676
 30
0.0
  0
POLYLINE
  5
177
330
138
100
AcDbEntity
  8
Premier plan
 62
   250
420
  1709851
370
     9
100
AcDb2dPolyline
 66
     1
 10
0.0
 20
0.0
 30
0.0
  0
VERTEX
  5
178
330
177
100
AcDbEntity
  8
Premier plan
 62
   250
420
  1709851
370
     9
100
AcDbVertex
100
AcDb2dVertex
 10
199.5047229171259
 20
532.3451535912382
 30
0.0
  0
VERTEX
  5
179
330
177
100
AcDbEntity
  8
Premier plan
 62
   250
420
  1709851
370
     9
100
AcDbVertex
100
AcDb2dVertex
 10
199.5047229171259
 20
530.8276730304151
 30
0.0
  0
SEQEND
  5
17A
330
177
100
AcDbEntity
  8
Premier plan
 62
   250
420
  1709851
370
     9
  0
POLYLINE
  5
17B
330
138
100
AcDbEntity
  8
Premier plan
 62
   250
420
  1709851
370
     9
100
AcDb2dPolyline
 66
     1
 10
0.0
 20
0.0
 30
0.0
  0
VERTEX
  5
17C
330
17B
100
AcDbEntity
  8
Premier plan
 62
   250
420
  1709851
370
     9
100
AcDbVertex
100
AcDb2dVertex
 10
198.5920686265445
 20
532.4372066399665
 30
0.0
  0
VERTEX
  5
17D
330
17B
100
AcDbEntity
  8
Premier plan
 62
   250
420
  1709851
370
     9
100
AcDbVertex
100
AcDb2dVertex
 10
198.5920686265445
 20
530.9197260791416
 30
0.0
  0
SEQEND
  5
17E
330
17B
100
AcDbEntity
  8
Premier plan
 62
   250
420
  1709851
370
     9
  0
POLYLINE
  5
17F
330
138
100
AcDbEntity
  8
Premier plan
 62
   250
420
  1709851
370
     9
100
AcDb2dPolyline
 66
     1
 10
0.0
 20
0.0
 30
0.0
  0
VERTEX
  5
180
330
17F
100
AcDbEntity
  8
Premier plan
 62
   250
420
  1709851
370
     9
100
AcDbVertex
100
AcDb2dVertex
 10
199.5864384577062
 20
532.7240314691526
 30
0.0
  0
VERTEX
  5
181
330
17F
100
AcDbEntity
  8
Premier plan
 62
   250
420
  1709851
370
     9
100
AcDbVertex
100
AcDb2dVertex
 10
199.5864384577062
 20
531.2073713454838
 30
0.0
  0
SEQEND
  5
182
330
17F
100
AcDbEntity
  8
Premier plan
 62
   250
420
  1709851
370
     9
  0
POLYLINE
  5
183
330
138
100
AcDbEntity
  8
Premier plan
 62
   250
420
  1709851
370
     9
100
AcDb2dPolyline
 66
     1
 10
0.0
 20
0.0
 30
0.0
  0
VERTEX
  5
184
330
183
100
AcDbEntity
  8
Premier plan
 62
   250
420
  1709851
370
     9
100
AcDbVertex
100
AcDb2dVertex
 10
204.1692363148886
 20
531.9452725221736
 30
0.0
  0
VERTEX
  5
185
330
183
100
AcDbEntity
  8
Premier plan
 62
   250
420
  1709851
370
     9
100
AcDbVertex
100
AcDb2dVertex
 10
204.1692363148886
 20
530.4277919613505
 30
0.0
  0
SEQEND
  5
186
330
183
100
AcDbEntity
  8
Premier plan
 62
   250
420
  1709851
370
     9
  0
POLYLINE
  5
187
330
138
100
AcDbEntity
  8
Premier plan
 62
   250
420
  1709851
370
     9
100
AcDb2dPolyline
 66
     1
 10
0.0
 20
0.0
 30
0.0
  0
VERTEX
  5
188
330
187
100
AcDbEntity
  8
Premier plan
 62
   250
420
  1709851
370
     9
100
AcDbVertex
100
AcDb2dVertex
 10
205.0810701683167
 20
531.8532194734471
 30
0.0
  0
VERTEX
  5
189
330
187
100
AcDbEntity
  8
Premier plan
 62
   250
420
  1709851
370
     9
100
AcDbVertex
100
AcDb2dVertex
 10
205.0810701683167
 20
530.3357389126231
 30
0.0
  0
SEQEND
  5
18A
330
187
100
AcDbEntity
  8
Premier plan
 62
   250
420
  1709851
370
     9
  0
POLYLINE
  5
18B
330
138
100
AcDbEntity
  8
Premier plan
 62
   250
420
  1709851
370
     9
100
AcDb2dPolyline
 66
     1
 10
0.0
 20
0.0
 30
0.0
  0
VERTEX
  5
18C
330
18B
100
AcDbEntity
  8
Premier plan
 62
   250
420
  1709851
370
     9
100
AcDbVertex
100
AcDb2dVertex
 10
205.1636061460513
 20
532.2320973513597
 30
0.0
  0
VERTEX
  5
18D
330
18B
100
AcDbEntity
  8
Premier plan
 62
   250
420
  1709851
370
     9
100
AcDbVertex
100
AcDb2dVertex
 10
205.1636061460513
 20
530.7146167905366
 30
0.0
  0
SEQEND
  5
18E
330
18B
100
AcDbEntity
  8
Premier plan
 62
   250
420
  1709851
370
     9
  0
POLYLINE
  5
18F
330
138
100
AcDbEntity
  8
Premier plan
 62
   250
420
  1709851
370
     9
100
AcDb2dPolyline
 66
     1
 10
0.0
 20
0.0
 30
0.0
  0
VERTEX
  5
190
330
18F
100
AcDbEntity
  8
Premier plan
 62
   250
420
  1709851
370
     9
100
AcDbVertex
100
AcDb2dVertex
 10
197.7821432537312
 20
531.583131562209
 30
0.0
  0
VERTEX
  5
191
330
18F
100
AcDbEntity
  8
Premier plan
 62
   250
420
  1709851
370
     9
100
AcDbVertex
100
AcDb2dVertex
 10
197.8782883021959
 20
524.2272759008038
 30
0.0
  0
VERTEX
  5
192
330
18F
100
AcDbEntity
  8
Premier plan
 62
   250
420
  1709851
370
     9
100
AcDbVertex
100
AcDb2dVertex
 10
198.3308414365747
 20
524.2513769754132
 30
0.0
  0
SEQEND
  5
193
330
18F
100
AcDbEntity
  8
Premier plan
 62
   250
420
  1709851
370
     9
  0
SPLINE
  5
194
330
138
100
AcDbEntity
  8
Premier plan
 62
   250
420
  1709851
370
     9
100
AcDbSpline
210
0.0
220
0.0
230
1.0
 70
     8
 71
     3
 72
    17
 73
    13
 74
     0
 42
0.0000000001
 43
0.0000000001
 12
1.0
 22
0.0
 32
0.0
 13
1.0
 23
0.0
 33
0.0
 40
0.0
 40
0.0
 40
0.0
 40
0.0
 40
1.0
 40
1.0
 40
1.0
 40
2.0
 40
2.0
 40
2.0
 40
3.0
 40
3.0
 40
3.0
 40
4.0
 40
4.0
 40
4.0
 40
4.0
 10
197.5048354885303
 20
531.7153860315029
 30
0.0
 10
197.5048354885303
 20
531.7153860315029
 30
0.0
 10
197.5417449814504
 20
528.9575685806212
 30
0.0
 10
197.5417449814504
 20
528.9575685806212
 30
0.0
 10
197.3422146654948
 20
528.5258545499637
 30
0.0
 10
197.2532792779539
 20
528.2357479721586
 30
0.0
 10
197.2532792779539
 20
527.8222476463288
 30
0.0
 10
197.2532792779539
 20
527.3119357362775
 30
0.0
 10
197.3622333320618
 20
526.9987126784608
 30
0.0
 10
197.6723585764339
 20
526.68380905085
 30
0.0
 10
197.6723585764339
 20
526.68380905085
 30
0.0
 10
197.609020828113
 20
523.4412970870108
 30
0.0
 10
197.609020828113
 20
523.4412970870108
 30
0.0
  0
POLYLINE
  5
195
330
138
100
AcDbEntity
  8
Premier plan
 62
   250
420
  1709851
370
     9
100
AcDb2dPolyline
 66
     1
 10
0.0
 20
0.0
 30
0.0
  0
VERTEX
  5
196
330
195
100
AcDbEntity
  8
Premier plan
 62
   250
420
  1709851
370
     9
100
AcDbVertex
100
AcDb2dVertex
 10
210.2737810060989
 20
528.5056717959642
 30
0.0
  0
VERTEX
  5
197
330
195
100
AcDbEntity
  8
Premier plan
 62
   250
420
  1709851
370
     9
100
AcDbVertex
100
AcDb2dVertex
 10
210.2737810060989
 20
523.0543591671076
 30
0.0
  0
SEQEND
  5
198
330
195
100
AcDbEntity
  8
Premier plan
 62
   250
420
  1709851
370
     9
  0
SPLINE
  5
199
330
138
100
AcDbEntity
  8
Premier plan
 62
   250
420
  1709851
370
     9
100
AcDbSpline
210
0.0
220
0.0
230
1.0
 70
     8
 71
     3
 72
    17
 73
    13
 74
     0
 42
0.0000000001
 43
0.0000000001
 12
1.0
 22
0.0
 32
0.0
 13
1.0
 23
0.0
 33
0.0
 40
0.0
 40
0.0
 40
0.0
 40
0.0
 40
1.0
 40
1.0
 40
1.0
 40
2.0
 40
2.0
 40
2.0
 40
3.0
 40
3.0
 40
3.0
 40
4.0
 40
4.0
 40
4.0
 40
4.0
 10
210.1615452033739
 20
531.8235196484557
 30
0.0
 10
210.1615452033739
 20
531.8235196484557
 30
0.0
 10
210.1615452033739
 20
528.6259478828024
 30
0.0
 10
210.1615452033739
 20
528.6259478828024
 30
0.0
 10
209.8433796748877
 20
528.3222220482357
 30
0.0
 10
209.7816828008745
 20
527.9064244983729
 30
0.0
 10
209.7816828008745
 20
527.3263754301952
 30
0.0
 10
209.7816828008745
 20
526.8247799973306
 30
0.0
 10
209.9172190187855
 20
526.5284182538016
 30
0.0
 10
210.2216117033595
 20
526.1493762884584
 30
0.0
 10
210.2216117033595
 20
526.1493762884584
 30
0.0
 10
210.2216117033595
 20
523.0021793640863
 30
0.0
 10
210.2216117033595
 20
523.0021793640863
 30
0.0
  0
SPLINE
  5
19A
330
138
100
AcDbEntity
  8
Premier plan
 62
   250
420
  1709851
370
     9
100
AcDbSpline
210
0.0
220
0.0
230
1.0
 70
     8
 71
     3
 72
    17
 73
    13
 74
     0
 42
0.0000000001
 43
0.0000000001
 12
1.0
 22
0.0
 32
0.0
 13
1.0
 23
0.0
 33
0.0
 40
0.0
 40
0.0
 40
0.0
 40
0.0
 40
1.0
 40
1.0
 40
1.0
 40
2.0
 40
2.0
 40
2.0
 40
3.0
 40
3.0
 40
3.0
 40
4.0
 40
4.0
 40
4.0
 40
4.0
 10
207.9261821324299
 20
530.9894632372689
 30
0.0
 10
207.9261821324299
 20
530.9894632372689
 30
0.0
 10
207.9261821324299
 20
528.6259478828024
 30
0.0
 10
207.9261821324299
 20
528.6259478828024
 30
0.0
 10
207.608837041098
 20
528.3222220482357
 30
0.0
 10
207.5463197299314
 20
527.9064244983729
 30
0.0
 10
207.5463197299314
 20
527.3263754301952
 30
0.0
 10
207.5463197299314
 20
526.8247799973306
 30
0.0
 10
207.6825122975661
 20
526.5284182538016
 30
0.0
 10
207.9862381321327
 20
526.1493762884584
 30
0.0
 10
207.9862381321327
 20
526.1493762884584
 30
0.0
 10
207.9862381321327
 20
522.7555559554658
 30
0.0
 10
207.9862381321327
 20
522.7555559554658
 30
0.0
  0
POLYLINE
  5
19B
330
138
100
AcDbEntity
  8
Premier plan
 62
   250
420
  1709851
370
     9
100
AcDb2dPolyline
 66
     1
 10
0.0
 20
0.0
 30
0.0
  0
VERTEX
  5
19C
330
19B
100
AcDbEntity
  8
Premier plan
 62
   250
420
  1709851
370
     9
100
AcDbVertex
100
AcDb2dVertex
 10
207.7291235652528
 20
524.1302804514198
 30
0.0
  0
VERTEX
  5
19D
330
19B
100
AcDbEntity
  8
Premier plan
 62
   250
420
  1709851
370
     9
100
AcDbVertex
100
AcDb2dVertex
 10
207.7291235652528
 20
526.5371148876384
 30
0.0
  0
SEQEND
  5
19E
330
19B
100
AcDbEntity
  8
Premier plan
 62
   250
420
  1709851
370
     9
  0
POLYLINE
  5
19F
330
138
100
AcDbEntity
  8
Premier plan
 62
   250
420
  1709851
370
     9
100
AcDb2dPolyline
 66
     1
 10
0.0
 20
0.0
 30
0.0
  0
VERTEX
  5
1A0
330
19F
100
AcDbEntity
  8
Premier plan
 62
   250
420
  1709851
370
     9
100
AcDbVertex
100
AcDb2dVertex
 10
207.7291235652528
 20
528.6284091942662
 30
0.0
  0
VERTEX
  5
1A1
330
19F
100
AcDbEntity
  8
Premier plan
 62
   250
420
  1709851
370
     9
100
AcDbVertex
100
AcDb2dVertex
 10
207.7291235652528
 20
528.3319032066574
 30
0.0
  0
SEQEND
  5
1A2
330
19F
100
AcDbEntity
  8
Premier plan
 62
   250
420
  1709851
370
     9
  0
POLYLINE
  5
1A3
330
138
100
AcDbEntity
  8
Premier plan
 62
   250
420
  1709851
370
     9
100
AcDb2dPolyline
 66
     1
 10
0.0
 20
0.0
 30
0.0
  0
VERTEX
  5
1A4
330
1A3
100
AcDbEntity
  8
Premier plan
 62
   250
420
  1709851
370
     9
100
AcDbVertex
100
AcDb2dVertex
 10
211.3160748950113
 20
527.2174213760882
 30
0.0
  0
VERTEX
  5
1A5
330
1A3
100
AcDbEntity
  8
Premier plan
 62
   250
420
  1709851
370
     9
100
AcDbVertex
100
AcDb2dVertex
 10
211.3160748950113
 20
524.0462676868074
 30
0.0
  0
SEQEND
  5
1A6
330
1A3
100
AcDbEntity
  8
Premier plan
 62
   250
420
  1709851
370
     9
  0
POLYLINE
  5
1A7
330
138
100
AcDbEntity
  8
Premier plan
 62
   250
420
  1709851
370
     9
100
AcDb2dPolyline
 66
     1
 10
0.0
 20
0.0
 30
0.0
  0
VERTEX
  5
1A8
330
1A7
100
AcDbEntity
  8
Premier plan
 62
   250
420
  1709851
370
     9
100
AcDbVertex
100
AcDb2dVertex
 10
211.3160748950113
 20
524.0462676868074
 30
0.0
  0
VERTEX
  5
1A9
330
1A7
100
AcDbEntity
  8
Premier plan
 62
   250
420
  1709851
370
     9
100
AcDbVertex
100
AcDb2dVertex
 10
210.2216117033595
 20
523.0021793640863
 30
0.0
  0
SEQEND
  5
1AA
330
1A7
100
AcDbEntity
  8
Premier plan
 62
   250
420
  1709851
370
     9
  0
POLYLINE
  5
1AB
330
138
100
AcDbEntity
  8
Premier plan
 62
   250
420
  1709851
370
     9
100
AcDb2dPolyline
 66
     1
 10
0.0
 20
0.0
 30
0.0
  0
VERTEX
  5
1AC
330
1AB
100
AcDbEntity
  8
Premier plan
 62
   250
420
  1709851
370
     9
100
AcDbVertex
100
AcDb2dVertex
 10
211.3160748950113
 20
524.0462676868074
 30
0.0
  0
VERTEX
  5
1AD
330
1AB
100
AcDbEntity
  8
Premier plan
 62
   250
420
  1709851
370
     9
100
AcDbVertex
100
AcDb2dVertex
 10
210.263279410522
 20
524.0462676868074
 30
0.0
  0
SEQEND
  5
1AE
330
1AB
100
AcDbEntity
  8
Premier plan
 62
   250
420
  1709851
370
     9
  0
POLYLINE
  5
1AF
330
138
100
AcDbEntity
  8
Premier plan
 62
   250
420
  1709851
370
     9
100
AcDb2dPolyline
 66
     1
 10
0.0
 20
0.0
 30
0.0
  0
VERTEX
  5
1B0
330
1AF
100
AcDbEntity
  8
Premier plan
 62
   250
420
  1709851
370
     9
100
AcDbVertex
100
AcDb2dVertex
 10
208.4653734303165
 20
515.2674260470358
 30
0.0
  0
VERTEX
  5
1B1
330
1AF
100
AcDbEntity
  8
Premier plan
 62
   250
420
  1709851
370
     9
100
AcDbVertex
100
AcDb2dVertex
 10
208.4653734303165
 20
517.729557947464
 30
0.0
  0
SEQEND
  5
1B2
330
1AF
100
AcDbEntity
  8
Premier plan
 62
   250
420
  1709851
370
     9
  0
POLYLINE
  5
1B3
330
138
100
AcDbEntity
  8
Premier plan
 62
   250
420
  1709851
370
     9
100
AcDb2dPolyline
 66
     1
 10
0.0
 20
0.0
 30
0.0
  0
VERTEX
  5
1B4
330
1B3
100
AcDbEntity
  8
Premier plan
 62
   250
420
  1709851
370
     9
100
AcDbVertex
100
AcDb2dVertex
 10
198.1843113607947
 20
519.1845211971186
 30
0.0
  0
VERTEX
  5
1B5
330
1B3
100
AcDbEntity
  8
Premier plan
 62
   250
420
  1709851
370
     9
100
AcDbVertex
100
AcDb2dVertex
 10
198.1843113607947
 20
521.0104861280051
 30
0.0
  0
SEQEND
  5
1B6
330
1B3
100
AcDbEntity
  8
Premier plan
 62
   250
420
  1709851
370
     9
  0
SPLINE
  5
1B7
330
138
100
AcDbEntity
  8
Premier plan
 62
   250
420
  1709851
370
     9
100
AcDbSpline
210
0.0
220
0.0
230
1.0
 70
     8
 71
     3
 72
    17
 73
    13
 74
     0
 42
0.0000000001
 43
0.0000000001
 12
1.0
 22
0.0
 32
0.0
 13
1.0
 23
0.0
 33
0.0
 40
0.0
 40
0.0
 40
0.0
 40
0.0
 40
1.0
 40
1.0
 40
1.0
 40
2.0
 40
2.0
 40
2.0
 40
3.0
 40
3.0
 40
3.0
 40
4.0
 40
4.0
 40
4.0
 40
4.0
 10
199.5742959878207
 20
517.0700905627373
 30
0.0
 10
199.5742959878207
 20
517.0700905627373
 30
0.0
 10
199.2065760552077
 20
517.2463204635078
 30
0.0
 10
199.2065760552077
 20
517.2463204635078
 30
0.0
 10
198.613728167421
 20
517.5667832160252
 30
0.0
 10
198.3269135380315
 20
517.9297446131432
 30
0.0
 10
198.3252726636802
 20
518.2840290040158
 30
0.0
 10
198.3252726636802
 20
518.6445094620767
 30
0.0
 10
197.9687004766129
 20
518.6284288938514
 30
0.0
 10
197.6890954943847
 20
518.5283355610109
 30
0.0
 10
197.6890954943847
 20
518.5283355610109
 30
0.0
 10
196.6491093574368
 20
518.1926126774206
 30
0.0
 10
196.6491093574368
 20
518.1926126774206
 30
0.0
  0
POLYLINE
  5
1B8
330
138
100
AcDbEntity
  8
Premier plan
 62
   250
420
  1709851
370
     9
100
AcDb2dPolyline
 66
     1
 10
0.0
 20
0.0
 30
0.0
  0
VERTEX
  5
1B9
330
1B8
100
AcDbEntity
  8
Premier plan
 62
   250
420
  1709851
370
     9
100
AcDbVertex
100
AcDb2dVertex
 10
210.5597853981317
 20
517.3825130311416
 30
0.0
  0
VERTEX
  5
1BA
330
1B8
100
AcDbEntity
  8
Premier plan
 62
   250
420
  1709851
370
     9
100
AcDbVertex
100
AcDb2dVertex
 10
210.5597853981317
 20
523.2161493739595
 30
0.0
  0
SEQEND
  5
1BB
330
1B8
100
AcDbEntity
  8
Premier plan
 62
   250
420
  1709851
370
     9
  0
POLYLINE
  5
1BC
330
138
100
AcDbEntity
  8
Premier plan
 62
   250
420
  1709851
370
     9
100
AcDb2dPolyline
 66
     1
 10
0.0
 20
0.0
 30
0.0
  0
VERTEX
  5
1BD
330
1BC
100
AcDbEntity
  8
Premier plan
 62
   250
420
  1709851
370
     9
100
AcDbVertex
100
AcDb2dVertex
 10
198.4670340042094
 20
515.5903501110179
 30
0.0
  0
VERTEX
  5
1BE
330
1BC
100
AcDbEntity
  8
Premier plan
 62
   250
420
  1709851
370
     9
100
AcDbVertex
100
AcDb2dVertex
 10
198.4670340042094
 20
517.6004211393574
 30
0.0
  0
SEQEND
  5
1BF
330
1BC
100
AcDbEntity
  8
Premier plan
 62
   250
420
  1709851
370
     9
  0
SPLINE
  5
1C0
330
138
100
AcDbEntity
  8
Premier plan
 62
   250
420
  1709851
370
     9
100
AcDbSpline
210
0.0
220
0.0
230
1.0
 70
     8
 71
     3
 72
     8
 73
     4
 74
     0
 42
0.0000000001
 43
0.0000000001
 12
1.0
 22
0.0
 32
0.0
 13
1.0
 23
0.0
 33
0.0
 40
0.0
 40
0.0
 40
0.0
 40
0.0
 40
1.0
 40
1.0
 40
1.0
 40
1.0
 10
197.8141301167198
 20
529.5377817362296
 30
0.0
 10
198.0431961702343
 20
529.346291704388
 30
0.0
 10
198.3180426169656
 20
529.2076378252896
 30
0.0
 10
198.6376849323306
 20
529.1209996617827
 30
0.0
  0
POLYLINE
  5
1C1
330
138
100
AcDbEntity
  8
Premier plan
 62
   250
420
  1709851
370
     9
100
AcDb2dPolyline
 66
     1
 10
0.0
 20
0.0
 30
0.0
  0
VERTEX
  5
1C2
330
1C1
100
AcDbEntity
  8
Premier plan
 62
   250
420
  1709851
370
     9
100
AcDbVertex
100
AcDb2dVertex
 10
198.3244420267702
 20
528.2318098738169
 30
0.0
  0
VERTEX
  5
1C3
330
1C1
100
AcDbEntity
  8
Premier plan
 62
   250
420
  1709851
370
     9
100
AcDbVertex
100
AcDb2dVertex
 10
197.8188886522148
 20
528.3583212830299
 30
0.0
  0
SEQEND
  5
1C4
330
1C1
100
AcDbEntity
  8
Premier plan
 62
   250
420
  1709851
370
     9
  0
POLYLINE
  5
1C5
330
138
100
AcDbEntity
  8
Premier plan
 62
   250
420
  1709851
370
     9
100
AcDb2dPolyline
 66
     1
 10
0.0
 20
0.0
 30
0.0
  0
VERTEX
  5
1C6
330
1C5
100
AcDbEntity
  8
Premier plan
 62
   250
420
  1709851
370
     9
100
AcDbVertex
100
AcDb2dVertex
 10
200.2377014708882
 20
529.8999226961932
 30
0.0
  0
VERTEX
  5
1C7
330
1C5
100
AcDbEntity
  8
Premier plan
 62
   250
420
  1709851
370
     9
100
AcDbVertex
100
AcDb2dVertex
 10
200.2377014708882
 20
530.5152505620117
 30
0.0
  0
SEQEND
  5
1C8
330
1C5
100
AcDbEntity
  8
Premier plan
 62
   250
420
  1709851
370
     9
  0
POLYLINE
  5
1C9
330
138
100
AcDbEntity
  8
Premier plan
 62
   250
420
  1709851
370
     9
100
AcDb2dPolyline
 66
     1
 10
0.0
 20
0.0
 30
0.0
  0
VERTEX
  5
1CA
330
1C9
100
AcDbEntity
  8
Premier plan
 62
   250
420
  1709851
370
     9
100
AcDbVertex
100
AcDb2dVertex
 10
200.2377014708882
 20
530.5152505620117
 30
0.0
  0
VERTEX
  5
1CB
330
1C9
100
AcDbEntity
  8
Premier plan
 62
   250
420
  1709851
370
     9
100
AcDbVertex
100
AcDb2dVertex
 10
200.8730480032746
 20
530.064174214509
 30
0.0
  0
SEQEND
  5
1CC
330
1C9
100
AcDbEntity
  8
Premier plan
 62
   250
420
  1709851
370
     9
  0
SPLINE
  5
1CD
330
138
100
AcDbEntity
  8
Premier plan
 62
   250
420
  1709851
370
     9
100
AcDbSpline
210
0.0
220
0.0
230
1.0
 70
     8
 71
     3
 72
     8
 73
     4
 74
     0
 42
0.0000000001
 43
0.0000000001
 12
1.0
 22
0.0
 32
0.0
 13
1.0
 23
0.0
 33
0.0
 40
0.0
 40
0.0
 40
0.0
 40
0.0
 40
1.0
 40
1.0
 40
1.0
 40
1.0
 10
205.7060791925569
 20
530.7498955881765
 30
0.0
 10
206.4518565659291
 20
530.6378238728821
 30
0.0
 10
207.1849992071229
 20
530.4638911961447
 30
0.0
 10
207.9053430287067
 20
530.2284257328247
 30
0.0
  0
SPLINE
  5
1CE
330
138
100
AcDbEntity
  8
Premier plan
 62
   250
420
  1709851
370
     9
100
AcDbSpline
210
0.0
220
0.0
230
1.0
 70
     8
 71
     3
 72
     8
 73
     4
 74
     0
 42
0.0000000001
 43
0.0000000001
 12
1.0
 22
0.0
 32
0.0
 13
1.0
 23
0.0
 33
0.0
 40
0.0
 40
0.0
 40
0.0
 40
0.0
 40
1.0
 40
1.0
 40
1.0
 40
1.0
 10
200.2377014708882
 20
530.5152505620117
 30
0.0
 10
201.0077637840313
 20
530.6865578398556
 30
0.0
 10
201.7665040644433
 20
530.8012549540426
 30
0.0
 10
202.5139223121232
 20
530.8588496422844
 30
0.0
  0
SPLINE
  5
1CF
330
138
100
AcDbEntity
  8
Premier plan
 62
   250
420
  1709851
370
     9
100
AcDbSpline
210
0.0
220
0.0
230
1.0
 70
     8
 71
     3
 72
     8
 73
     4
 74
     0
 42
0.0000000001
 43
0.0000000001
 12
1.0
 22
0.0
 32
0.0
 13
1.0
 23
0.0
 33
0.0
 40
0.0
 40
0.0
 40
0.0
 40
0.0
 40
1.0
 40
1.0
 40
1.0
 40
1.0
 10
200.8730480032746
 20
530.064174214509
 30
0.0
 10
202.9266022007987
 20
530.5961456654368
 30
0.0
 10
205.1683646815472
 20
530.4382935569265
 30
0.0
 10
207.5984995329518
 20
529.592258763284
 30
0.0
  0
POLYLINE
  5
1D0
330
138
100
AcDbEntity
  8
Premier plan
 62
   250
420
  1709851
370
     9
100
AcDb2dPolyline
 66
     1
 10
0.0
 20
0.0
 30
0.0
  0
VERTEX
  5
1D1
330
1D0
100
AcDbEntity
  8
Premier plan
 62
   250
420
  1709851
370
     9
100
AcDbVertex
100
AcDb2dVertex
 10
207.5984995329518
 20
529.592258763284
 30
0.0
  0
VERTEX
  5
1D2
330
1D0
100
AcDbEntity
  8
Premier plan
 62
   250
420
  1709851
370
     9
100
AcDbVertex
100
AcDb2dVertex
 10
207.9237208209661
 20
529.798044320074
 30
0.0
  0
SEQEND
  5
1D3
330
1D0
100
AcDbEntity
  8
Premier plan
 62
   250
420
  1709851
370
     9
  0
POLYLINE
  5
1D4
330
138
100
AcDbEntity
  8
Premier plan
 62
   250
420
  1709851
370
     9
100
AcDb2dPolyline
 66
     1
 10
0.0
 20
0.0
 30
0.0
  0
VERTEX
  5
1D5
330
1D4
100
AcDbEntity
  8
Premier plan
 62
   250
420
  1709851
370
     9
100
AcDbVertex
100
AcDb2dVertex
 10
207.5984995329518
 20
529.592258763284
 30
0.0
  0
VERTEX
  5
1D6
330
1D4
100
AcDbEntity
  8
Premier plan
 62
   250
420
  1709851
370
     9
100
AcDbVertex
100
AcDb2dVertex
 10
207.5984995329518
 20
529.0392841212015
 30
0.0
  0
SEQEND
  5
1D7
330
1D4
100
AcDbEntity
  8
Premier plan
 62
   250
420
  1709851
370
     9
  0
SPLINE
  5
1D8
330
138
100
AcDbEntity
  8
Premier plan
 62
   250
420
  1709851
370
     9
100
AcDbSpline
210
0.0
220
0.0
230
1.0
 70
     8
 71
     3
 72
     8
 73
     4
 74
     0
 42
0.0000000001
 43
0.0000000001
 12
1.0
 22
0.0
 32
0.0
 13
1.0
 23
0.0
 33
0.0
 40
0.0
 40
0.0
 40
0.0
 40
0.0
 40
1.0
 40
1.0
 40
1.0
 40
1.0
 10
207.9261821324299
 20
528.6259478828024
 30
0.0
 10
208.6568634621599
 20
528.5353716209538
 30
0.0
 10
209.4011745282096
 20
528.5353716209538
 30
0.0
 10
210.1615452033739
 20
528.6259478828024
 30
0.0
  0
SPLINE
  5
1D9
330
138
100
AcDbEntity
  8
Premier plan
 62
   250
420
  1709851
370
     9
100
AcDbSpline
210
0.0
220
0.0
230
1.0
 70
     8
 71
     3
 72
     8
 73
     4
 74
     0
 42
0.0000000001
 43
0.0000000001
 12
1.0
 22
0.0
 32
0.0
 13
1.0
 23
0.0
 33
0.0
 40
0.0
 40
0.0
 40
0.0
 40
0.0
 40
1.0
 40
1.0
 40
1.0
 40
1.0
 10
207.9862381321327
 20
526.1493762884584
 30
0.0
 10
208.716929924135
 20
526.0596204637641
 30
0.0
 10
209.4612200483571
 20
526.0596204637641
 30
0.0
 10
210.2216117033595
 20
526.1493762884584
 30
0.0
  0
SPLINE
  5
1DA
330
138
100
AcDbEntity
  8
Premier plan
 62
   250
420
  1709851
370
     9
100
AcDbSpline
210
0.0
220
0.0
230
1.0
 70
     8
 71
     3
 72
     8
 73
     4
 74
     0
 42
0.0000000001
 43
0.0000000001
 12
1.0
 22
0.0
 32
0.0
 13
1.0
 23
0.0
 33
0.0
 40
0.0
 40
0.0
 40
0.0
 40
0.0
 40
1.0
 40
1.0
 40
1.0
 40
1.0
 10
195.8239136675165
 20
529.497580315664
 30
0.0
 10
196.2621911954102
 20
529.2629352894983
 30
0.0
 10
196.835020416629
 20
529.0834236401106
 30
0.0
 10
197.5417449814504
 20
528.9575685806212
 30
0.0
  0
SPLINE
  5
1DB
330
138
100
AcDbEntity
  8
Premier plan
 62
   250
420
  1709851
370
     9
100
AcDbSpline
210
0.0
220
0.0
230
1.0
 70
     8
 71
     3
 72
    11
 73
     7
 74
     0
 42
0.0000000001
 43
0.0000000001
 12
1.0
 22
0.0
 32
0.0
 13
1.0
 23
0.0
 33
0.0
 40
0.0
 40
0.0
 40
0.0
 40
0.0
 40
1.0
 40
1.0
 40
1.0
 40
2.0
 40
2.0
 40
2.0
 40
2.0
 10
194.954578458688
 20
528.5161733915402
 30
0.0
 10
195.0001947644741
 20
527.858346881123
 30
0.0
 10
195.3336204240331
 20
527.4272892001891
 30
0.0
 10
195.9545272625019
 20
527.2238207858927
 30
0.0
 10
196.3928047903937
 20
526.9890116722954
 30
0.0
 10
196.9656340116135
 20
526.8088436731841
 30
0.0
 10
197.6723585764339
 20
526.68380905085
 30
0.0
  0
SPLINE
  5
1DC
330
138
100
AcDbEntity
  8
Premier plan
 62
   250
420
  1709851
370
     9
100
AcDbSpline
210
0.0
220
0.0
230
1.0
 70
    11
 71
     3
 72
    38
 73
    34
 74
     0
 42
0.0000000001
 43
0.0000000001
 12
1.0
 22
0.0
 32
0.0
 13
1.0
 23
0.0
 33
0.0
 40
0.0
 40
0.0
 40
0.0
 40
0.0
 40
1.0
 40
1.0
 40
1.0
 40
2.0
 40
2.0
 40
2.0
 40
3.0
 40
3.0
 40
3.0
 40
4.0
 40
4.0
 40
4.0
 40
5.0
 40
5.0
 40
5.0
 40
6.0
 40
6.0
 40
6.0
 40
7.0
 40
7.0
 40
7.0
 40
8.0
 40
8.0
 40
8.0
 40
9.0
 40
9.0
 40
9.0
 40
10.0
 40
10.0
 40
10.0
 40
11.0
 40
11.0
 40
11.0
 40
11.0
 10
200.2506643779279
 20
529.9286379965979
 30
0.0
 10
199.8588235929756
 20
529.8141049698406
 30
0.0
 10
199.5047229171259
 20
529.6754510907422
 30
0.0
 10
199.2065760552077
 20
529.5136608838902
 30
0.0
 10
198.9742282530751
 20
529.3886262615551
 30
0.0
 10
198.7883171938829
 20
529.2565557844755
 30
0.0
 10
198.6490069650608
 20
529.1209996617827
 30
0.0
 10
198.3285544123819
 20
529.2068173881362
 30
0.0
 10
198.04237573308
 20
529.3541679010705
 30
0.0
 10
197.8141301167198
 20
529.545657932912
 30
0.0
 10
197.8141301167198
 20
529.545657932912
 30
0.0
 10
197.7821432537312
 20
531.583131562209
 30
0.0
 10
197.7821432537312
 20
531.583131562209
 30
0.0
 10
198.0664965854194
 20
531.454158841535
 30
0.0
 10
198.3436402561847
 20
531.3635825796864
 30
0.0
 10
198.5912481893893
 20
531.3060078480003
 30
0.0
 10
198.5912481893893
 20
531.3060078480003
 30
0.0
 10
198.5912481893893
 20
530.9277663632556
 30
0.0
 10
198.5912481893893
 20
530.9277663632556
 30
0.0
 10
198.5912481893893
 20
530.9277663632556
 30
0.0
 10
199.5039024799717
 20
530.8357133145291
 30
0.0
 10
199.5039024799717
 20
530.8357133145291
 30
0.0
 10
199.5039024799717
 20
530.8357133145291
 30
0.0
 10
199.5856180205519
 20
531.2145911924426
 30
0.0
 10
199.5856180205519
 20
531.2145911924426
 30
0.0
 10
200.4108239629113
 20
531.0280237835259
 30
0.0
 10
201.5405556721134
 20
530.9157879808017
 30
0.0
 10
202.5163836235861
 20
530.8693512378604
 30
0.0
 10
201.7688012884746
 20
530.8115924621889
 30
0.0
 10
201.0069433468761
 20
530.6937776868135
 30
0.0
 10
200.2370451211646
 20
530.5231267586942
 30
0.0
 10
200.2370451211646
 20
530.5231267586942
 30
0.0
 10
200.2506643779279
 20
529.9286379965979
 30
0.0
 10
200.2506643779279
 20
529.9286379965979
 30
0.0
  0
SPLINE
  5
1DD
330
138
100
AcDbEntity
  8
Premier plan
 62
   250
420
  1709851
370
     9
100
AcDbSpline
210
0.0
220
0.0
230
1.0
 70
    11
 71
     3
 72
    14
 73
    10
 74
     0
 42
0.0000000001
 43
0.0000000001
 12
1.0
 22
0.0
 32
0.0
 13
1.0
 23
0.0
 33
0.0
 40
0.0
 40
0.0
 40
0.0
 40
0.0
 40
1.0
 40
1.0
 40
1.0
 40
2.0
 40
2.0
 40
2.0
 40
3.0
 40
3.0
 40
3.0
 40
3.0
 10
207.9334019793887
 20
530.9902836744222
 30
0.0
 10
207.9334019793887
 20
530.9902836744222
 30
0.0
 10
207.9334019793887
 20
530.2179241372478
 30
0.0
 10
207.9334019793887
 20
530.2179241372478
 30
0.0
 10
207.2122481449087
 20
530.4542100377221
 30
0.0
 10
206.4518565659291
 20
530.6378238728821
 30
0.0
 10
205.7060791925569
 20
530.7498955881765
 30
0.0
 10
206.5649128058076
 20
530.8092952381567
 30
0.0
 10
207.2972350098471
 20
530.883790931779
 30
0.0
 10
207.9334019793887
 20
530.9902836744222
 30
0.0
  0
ENDBLK
  5
13B
330
138
100
AcDbEntity
  8
0
100
AcDbBlockEnd
  0
BLOCK
  5
201
330
1FF
100
AcDbEntity
  8
0
100
AcDbBlockBegin
  2
block 8
 70
     0
 10
0.0
 20
0.0
 30
0.0
  3
block 8
  1

  0
SPLINE
  5
203
330
1FF
100
AcDbEntity
  8
Premier plan
 62
   250
420
  1709851
370
     9
100
AcDbSpline
210
0.0
220
0.0
230
1.0
 70
    11
 71
     3
 72
    17
 73
    13
 74
     0
 42
0.0000000001
 43
0.0000000001
 12
1.0
 22
0.0
 32
0.0
 13
1.0
 23
0.0
 33
0.0
 40
0.0
 40
0.0
 40
0.0
 40
0.0
 40
1.0
 40
1.0
 40
1.0
 40
2.0
 40
2.0
 40
2.0
 40
3.0
 40
3.0
 40
3.0
 40
4.0
 40
4.0
 40
4.0
 40
4.0
 10
123.1518960533613
 20
402.6087700124035
 30
0.0
 10
123.1518960533613
 20
403.3634081070431
 30
0.0
 10
123.6766393566159
 20
404.1165694148049
 30
0.0
 10
124.3241283588877
 20
404.289681654388
 30
0.0
 10
124.9722737108823
 20
404.4634502436948
 30
0.0
 10
125.4970253148522
 20
403.9915347924707
 30
0.0
 10
125.4970253148522
 20
403.2368966978311
 30
0.0
 10
125.4970253148522
 20
402.4812740786065
 30
0.0
 10
124.9722737108823
 20
401.7289332079999
 30
0.0
 10
124.324948796042
 20
401.5551646186923
 30
0.0
 10
123.6774597937701
 20
401.3820523791082
 30
0.0
 10
123.1518960533613
 20
401.8531473931789
 30
0.0
 10
123.1518960533613
 20
402.6087700124035
 30
0.0
  0
ENDBLK
  5
202
330
1FF
100
AcDbEntity
  8
0
100
AcDbBlockEnd
  0
BLOCK
  5
206
330
204
100
AcDbEntity
  8
0
100
AcDbBlockBegin
  2
block 9
 70
     0
 10
0.0
 20
0.0
 30
0.0
  3
block 9
  1

  0
SPLINE
  5
208
330
204
100
AcDbEntity
  8
Premier plan
 62
   250
420
  1709851
370
     9
100
AcDbSpline
210
0.0
220
0.0
230
1.0
 70
    11
 71
     3
 72
    17
 73
    13
 74
     0
 42
0.0000000001
 43
0.0000000001
 12
1.0
 22
0.0
 32
0.0
 13
1.0
 23
0.0
 33
0.0
 40
0.0
 40
0.0
 40
0.0
 40
0.0
 40
1.0
 40
1.0
 40
1.0
 40
2.0
 40
2.0
 40
2.0
 40
3.0
 40
3.0
 40
3.0
 40
4.0
 40
4.0
 40
4.0
 40
4.0
 10
246.8833277108188
 20
435.7618149855352
 30
0.0
 10
246.8833277108188
 20
436.5174376047598
 30
0.0
 10
247.4080793147905
 20
437.2697784753664
 30
0.0
 10
248.0554042296299
 20
437.4437111521038
 30
0.0
 10
248.7037136690569
 20
437.6166593042562
 30
0.0
 10
249.2284767587043
 20
437.1455642901874
 30
0.0
 10
249.2284767587043
 20
436.3901057583926
 30
0.0
 10
249.2284767587043
 20
435.6353035763223
 30
0.0
 10
248.7037136690569
 20
434.8821422685614
 30
0.0
 10
248.0554042296299
 20
434.7083736792538
 30
0.0
 10
247.4088997519439
 20
434.5352614396706
 30
0.0
 10
246.8833277108188
 20
435.0063739775624
 30
0.0
 10
246.8833277108188
 20
435.7618149855352
 30
0.0
  0
ENDBLK
  5
207
330
204
100
AcDbEntity
  8
0
100
AcDbBlockEnd
  0
BLOCK
  5
20B
330
209
100
AcDbEntity
  8
0
100
AcDbBlockBegin
  2
block 10
 70
     0
 10
0.0
 20
0.0
 30
0.0
  3
block 10
  1

  0
SPLINE
  5
20D
330
209
100
AcDbEntity
  8
Premier plan
 62
   250
420
  1709851
370
     9
100
AcDbSpline
210
0.0
220
0.0
230
1.0
 70
    11
 71
     3
 72
    17
 73
    13
 74
     0
 42
0.0000000001
 43
0.0000000001
 12
1.0
 22
0.0
 32
0.0
 13
1.0
 23
0.0
 33
0.0
 40
0.0
 40
0.0
 40
0.0
 40
0.0
 40
1.0
 40
1.0
 40
1.0
 40
2.0
 40
2.0
 40
2.0
 40
3.0
 40
3.0
 40
3.0
 40
4.0
 40
4.0
 40
4.0
 40
4.0
 10
41.33182347851471
 20
442.6323198041146
 30
0.0
 10
40.82462922964896
 20
442.9255440431052
 30
0.0
 10
40.41276977812777
 20
443.8316348364515
 30
0.0
 10
40.41276977812777
 20
444.6568305263727
 30
0.0
 10
40.41276977812777
 20
445.4821903037218
 30
0.0
 10
40.82380879249376
 20
445.9140684218119
 30
0.0
 10
41.33182347851471
 20
445.6208441828203
 30
0.0
 10
41.83885363994796
 20
445.3274736409521
 30
0.0
 10
42.24989265431395
 20
444.4213650630527
 30
0.0
 10
42.24989265431395
 20
443.5961693731315
 30
0.0
 10
42.24989265431395
 20
442.7708095957805
 30
0.0
 10
41.83885363994796
 20
442.3397519148466
 30
0.0
 10
41.33182347851471
 20
442.6323198041146
 30
0.0
  0
ENDBLK
  5
20C
330
209
100
AcDbEntity
  8
0
100
AcDbBlockEnd
  0
BLOCK
  5
210
330
20E
100
AcDbEntity
  8
0
100
AcDbBlockBegin
  2
block 11
 70
     0
 10
0.0
 20
0.0
 30
0.0
  3
block 11
  1

  0
SPLINE
  5
212
330
20E
100
AcDbEntity
  8
Premier plan
 62
   250
420
  1709851
370
     9
100
AcDbSpline
210
0.0
220
0.0
230
1.0
 70
    11
 71
     3
 72
    17
 73
    13
 74
     0
 42
0.0000000001
 43
0.0000000001
 12
1.0
 22
0.0
 32
0.0
 13
1.0
 23
0.0
 33
0.0
 40
0.0
 40
0.0
 40
0.0
 40
0.0
 40
1.0
 40
1.0
 40
1.0
 40
2.0
 40
2.0
 40
2.0
 40
3.0
 40
3.0
 40
3.0
 40
4.0
 40
4.0
 40
4.0
 40
4.0
 10
110.6594193770898
 20
402.6087700124035
 30
0.0
 10
110.1523892156547
 20
402.9019942513951
 30
0.0
 10
109.7413502012887
 20
403.8080850447404
 30
0.0
 10
109.7413502012887
 20
404.6332807346616
 30
0.0
 10
109.7413502012887
 20
405.4586405120117
 30
0.0
 10
110.1523892156547
 20
405.8905186301008
 30
0.0
 10
110.6594193770898
 20
405.5971303036795
 30
0.0
 10
111.1666136259537
 20
405.3039060646879
 30
0.0
 10
111.5784730774749
 20
404.3978152713407
 30
0.0
 10
111.5784730774749
 20
403.5726195814213
 30
0.0
 10
111.5784730774749
 20
402.7472598040704
 30
0.0
 10
111.1674340631089
 20
402.3162021231365
 30
0.0
 10
110.6594193770898
 20
402.6087700124035
 30
0.0
  0
ENDBLK
  5
211
330
20E
100
AcDbEntity
  8
0
100
AcDbBlockEnd
  0
BLOCK
  5
264
330
262
100
AcDbEntity
  8
0
100
AcDbBlockBegin
  2
block 12
 70
     0
 10
0.0
 20
0.0
 30
0.0
  3
block 12
  1

  0
INSERT
  5
267
330
262
100
AcDbEntity
  8
Premier plan
100
AcDbBlockReference
  2
block 13
 10
0.0
 20
0.0
 30
0.0
  0
INSERT
  5
273
330
262
100
AcDbEntity
  8
Premier plan
100
AcDbBlockReference
  2
block 14
 10
0.0
 20
0.0
 30
0.0
  0
ENDBLK
  5
265
330
262
100
AcDbEntity
  8
0
100
AcDbBlockEnd
  0
BLOCK
  5
268
330
266
100
AcDbEntity
  8
0
100
AcDbBlockBegin
  2
block 13
 70
     0
 10
0.0
 20
0.0
 30
0.0
  3
block 13
  1

  0
SPLINE
  5
26A
330
266
100
AcDbEntity
  8
Premier plan
 62
   250
420
  1709851
370
    20
100
AcDbSpline
210
0.0
220
0.0
230
1.0
 70
    11
 71
     3
 72
    65
 73
    61
 74
     0
 42
0.0000000001
 43
0.0000000001
 12
1.0
 22
0.0
 32
0.0
 13
1.0
 23
0.0
 33
0.0
 40
0.0
 40
0.0
 40
0.0
 40
0.0
 40
1.0
 40
1.0
 40
1.0
 40
2.0
 40
2.0
 40
2.0
 40
3.0
 40
3.0
 40
3.0
 40
4.0
 40
4.0
 40
4.0
 40
5.0
 40
5.0
 40
5.0
 40
6.0
 40
6.0
 40
6.0
 40
7.0
 40
7.0
 40
7.0
 40
8.0
 40
8.0
 40
8.0
 40
9.0
 40
9.0
 40
9.0
 40
10.0
 40
10.0
 40
10.0
 40
11.0
 40
11.0
 40
11.0
 40
12.0
 40
12.0
 40
12.0
 40
13.0
 40
13.0
 40
13.0
 40
14.0
 40
14.0
 40
14.0
 40
15.0
 40
15.0
 40
15.0
 40
16.0
 40
16.0
 40
16.0
 40
17.0
 40
17.0
 40
17.0
 40
18.0
 40
18.0
 40
18.0
 40
19.0
 40
19.0
 40
19.0
 40
20.0
 40
20.0
 40
20.0
 40
20.0
 10
108.0651970947993
 20
534.5099590669024
 30
0.0
 10
108.0363177069639
 20
536.15807330184
 30
0.0
 10
111.3133077891653
 20
540.0864704055248
 30
0.0
 10
114.1031222890706
 20
541.6359480153706
 30
0.0
 10
114.8065651052739
 20
542.0903061114914
 30
0.0
 10
115.5469275934256
 20
542.4380073775365
 30
0.0
 10
116.2598874806208
 20
542.6726524037003
 30
0.0
 10
117.6484034824543
 20
543.2047879420606
 30
0.0
 10
121.9612693541458
 20
543.5139286618478
 30
0.0
 10
124.1414990483127
 20
542.8305045122124
 30
0.0
 10
124.8945046133813
 20
542.6198364933225
 30
0.0
 10
125.6845772483539
 20
542.2881955531384
 30
0.0
 10
126.4377385561147
 20
541.8346578941719
 30
0.0
 10
129.2715284874967
 20
540.3788742073612
 30
0.0
 10
132.6991508312503
 20
536.5643337015808
 30
0.0
 10
132.7319683174273
 20
534.9193572069607
 30
0.0
 10
132.7319683174273
 20
534.9193572069607
 30
0.0
 10
132.3297900243288
 20
500.7919610692352
 30
0.0
 10
132.3297900243288
 20
500.7919610692352
 30
0.0
 10
132.3000901993382
 20
500.2872281318332
 30
0.0
 10
132.2680931503164
 20
498.6310936919135
 30
0.0
 10
132.0518259164091
 20
498.2994729940947
 30
0.0
 10
132.0518259164091
 20
498.2994729940947
 30
0.0
 10
128.3254003610145
 20
488.6552342438381
 30
0.0
 10
128.3254003610145
 20
488.6552342438381
 30
0.0
 10
128.1826442961446
 20
488.3861308571859
 30
0.0
 10
128.1595079683902
 20
485.9103796999962
 30
0.0
 10
128.2548427657339
 20
485.7965030229607
 30
0.0
 10
128.2548427657339
 20
485.7965030229607
 30
0.0
 10
130.0191108226081
 20
475.2374768455202
 30
0.0
 10
130.0191108226081
 20
475.2374768455202
 30
0.0
 10
130.0191108226081
 20
475.102779601506
 30
0.0
 10
129.7467256873388
 20
474.9946274478116
 30
0.0
 10
129.087258302613
 20
474.8912523663539
 30
0.0
 10
129.087258302613
 20
474.8912523663539
 30
0.0
 10
122.0334678237341
 20
473.7872721313606
 30
0.0
 10
122.0334678237341
 20
473.7872721313606
 30
0.0
 10
120.8284179733355
 20
473.5980978222806
 30
0.0
 10
118.8934907463226
 20
473.6077604819729
 30
0.0
 10
117.7125535062441
 20
473.8081297391182
 30
0.0
 10
117.7125535062441
 20
473.8081297391182
 30
0.0
 10
111.584052050126
 20
474.8480973720307
 30
0.0
 10
111.584052050126
 20
474.8480973720307
 30
0.0
 10
110.9455878565523
 20
474.9562309889843
 30
0.0
 10
110.7347355078655
 20
475.1044204758564
 30
0.0
 10
110.7347355078655
 20
475.2374768455202
 30
0.0
 10
110.7347355078655
 20
475.2374768455202
 30
0.0
 10
112.6224053474843
 20
485.6539110455224
 30
0.0
 10
112.6224053474843
 20
485.6539110455224
 30
0.0
 10
112.717732110109
 20
485.7676236351253
 30
0.0
 10
112.6946038188971
 20
488.2433747923169
 30
0.0
 10
112.5520038049144
 20
488.5126422663989
 30
0.0
 10
112.5520038049144
 20
488.5126422663989
 30
0.0
 10
108.8239373752112
 20
498.1567169292248
 30
0.0
 10
108.8239373752112
 20
498.1567169292248
 30
0.0
 10
108.6083264910285
 20
498.4885208419901
 30
0.0
 10
108.5755090048515
 20
500.144636154394
 30
0.0
 10
108.5466296170162
 20
500.6493690917978
 30
0.0
 10
108.5466296170162
 20
500.6493690917978
 30
0.0
 10
108.0651970947993
 20
534.5099590669024
 30
0.0
 10
108.0651970947993
 20
534.5099590669024
 30
0.0
  0
SPLINE
  5
26B
330
266
100
AcDbEntity
  8
Premier plan
 62
   250
420
  1709851
370
     9
100
AcDbSpline
210
0.0
220
0.0
230
1.0
 70
     8
 71
     3
 72
    11
 73
     7
 74
     0
 42
0.0000000001
 43
0.0000000001
 12
1.0
 22
0.0
 32
0.0
 13
1.0
 23
0.0
 33
0.0
 40
0.0
 40
0.0
 40
0.0
 40
0.0
 40
1.0
 40
1.0
 40
1.0
 40
2.0
 40
2.0
 40
2.0
 40
2.0
 10
108.0202371387368
 20
534.7792265409853
 30
0.0
 10
107.9865992154064
 20
535.3520557622041
 30
0.0
 10
111.340546302692
 20
539.2988507372775
 30
0.0
 10
114.1792588570006
 20
538.7027211008726
 30
0.0
 10
117.0130487883816
 20
538.1947064148535
 30
0.0
 10
120.4406711321353
 20
532.9284844080348
 30
0.0
 10
120.4734886183123
 20
532.3546706622301
 30
0.0
  0
SPLINE
  5
26C
330
266
100
AcDbEntity
  8
Premier plan
 62
   250
420
  1709851
370
     9
100
AcDbSpline
210
0.0
220
0.0
230
1.0
 70
     8
 71
     3
 72
    11
 73
     7
 74
     0
 42
0.0000000001
 43
0.0000000001
 12
1.0
 22
0.0
 32
0.0
 13
1.0
 23
0.0
 33
0.0
 40
0.0
 40
0.0
 40
0.0
 40
0.0
 40
1.0
 40
1.0
 40
1.0
 40
2.0
 40
2.0
 40
2.0
 40
2.0
 10
120.4695505199716
 20
532.3571319736939
 30
0.0
 10
120.4414915692896
 20
532.9316020692222
 30
0.0
 10
123.7424384164005
 20
538.2355641851445
 30
0.0
 10
126.5330733534593
 20
538.7755759201855
 30
0.0
 10
129.3187856675922
 20
539.4037227667332
 30
0.0
 10
132.6830702630232
 20
535.4938273024891
 30
0.0
 10
132.7119496508594
 20
534.9193572069607
 30
0.0
  0
POLYLINE
  5
26D
330
266
100
AcDbEntity
  8
Premier plan
 62
   250
420
  1709851
370
     9
100
AcDb2dPolyline
 66
     1
 10
0.0
 20
0.0
 30
0.0
  0
VERTEX
  5
26E
330
26D
100
AcDbEntity
  8
Premier plan
 62
   250
420
  1709851
370
     9
100
AcDbVertex
100
AcDb2dVertex
 10
120.4734886183123
 20
532.3546706622301
 30
0.0
  0
VERTEX
  5
26F
330
26D
100
AcDbEntity
  8
Premier plan
 62
   250
420
  1709851
370
     9
100
AcDbVertex
100
AcDb2dVertex
 10
120.2939769689247
 20
480.3474876181372
 30
0.0
  0
SEQEND
  5
270
330
26D
100
AcDbEntity
  8
Premier plan
 62
   250
420
  1709851
370
     9
  0
SPLINE
  5
271
330
266
100
AcDbEntity
  8
Premier plan
 62
   250
420
  1709851
370
    20
100
AcDbSpline
210
0.0
220
0.0
230
1.0
 70
     8
 71
     3
 72
    20
 73
    16
 74
     0
 42
0.0000000001
 43
0.0000000001
 12
1.0
 22
0.0
 32
0.0
 13
1.0
 23
0.0
 33
0.0
 40
0.0
 40
0.0
 40
0.0
 40
0.0
 40
1.0
 40
1.0
 40
1.0
 40
2.0
 40
2.0
 40
2.0
 40
3.0
 40
3.0
 40
3.0
 40
4.0
 40
4.0
 40
4.0
 40
5.0
 40
5.0
 40
5.0
 40
5.0
 10
110.7347355078655
 20
475.2374768455202
 30
0.0
 10
110.7347355078655
 20
475.3712081016911
 30
0.0
 10
110.9455878565523
 20
475.5187227020579
 30
0.0
 10
111.584052050126
 20
475.6268563190106
 30
0.0
 10
111.584052050126
 20
475.6268563190106
 30
0.0
 10
117.7125535062441
 20
476.6660220188041
 30
0.0
 10
117.7125535062441
 20
476.6660220188041
 30
0.0
 10
118.8934907463226
 20
476.8662086844834
 30
0.0
 10
120.8284179733355
 20
476.8758898429069
 30
0.0
 10
122.0334678237341
 20
476.6876815596806
 30
0.0
 10
122.0334678237341
 20
476.6876815596806
 30
0.0
 10
129.087258302613
 20
475.5835557861446
 30
0.0
 10
129.087258302613
 20
475.5835557861446
 30
0.0
 10
129.7467256873388
 20
475.4801807020749
 30
0.0
 10
130.0191108226081
 20
475.3736694131549
 30
0.0
 10
130.0191108226081
 20
475.2374768455202
 30
0.0
  0
ENDBLK
  5
269
330
266
100
AcDbEntity
  8
0
100
AcDbBlockEnd
  0
BLOCK
  5
274
330
272
100
AcDbEntity
  8
0
100
AcDbBlockBegin
  2
block 14
 70
     0
 10
0.0
 20
0.0
 30
0.0
  3
block 14
  1

  0
INSERT
  5
277
330
272
100
AcDbEntity
  8
Premier plan
100
AcDbBlockReference
  2
block 15
 10
0.0
 20
0.0
 30
0.0
  0
ENDBLK
  5
275
330
272
100
AcDbEntity
  8
0
100
AcDbBlockEnd
  0
BLOCK
  5
278
330
276
100
AcDbEntity
  8
0
100
AcDbBlockBegin
  2
block 15
 70
     0
 10
0.0
 20
0.0
 30
0.0
  3
block 15
  1

  0
SPLINE
  5
27A
330
276
100
AcDbEntity
  8
Premier plan
 62
   250
420
  1709851
370
    20
100
AcDbSpline
210
0.0
220
0.0
230
1.0
 70
    11
 71
     3
 72
    29
 73
    25
 74
     0
 42
0.0000000001
 43
0.0000000001
 12
1.0
 22
0.0
 32
0.0
 13
1.0
 23
0.0
 33
0.0
 40
0.0
 40
0.0
 40
0.0
 40
0.0
 40
1.0
 40
1.0
 40
1.0
 40
2.0
 40
2.0
 40
2.0
 40
3.0
 40
3.0
 40
3.0
 40
4.0
 40
4.0
 40
4.0
 40
5.0
 40
5.0
 40
5.0
 40
6.0
 40
6.0
 40
6.0
 40
7.0
 40
7.0
 40
7.0
 40
8.0
 40
8.0
 40
8.0
 40
8.0
 10
117.5916210696814
 20
474.8592553173312
 30
0.0
 10
117.5891597582186
 20
475.4698246476537
 30
0.0
 10
118.6483441245809
 20
475.9576751380127
 30
0.0
 10
119.9534955498384
 20
475.9528980441783
 30
0.0
 10
121.2586469750959
 20
475.9489599458375
 30
0.0
 10
122.3155341174261
 20
475.4545645165817
 30
0.0
 10
122.3186517786125
 20
474.8439951862583
 30
0.0
 10
122.3186517786125
 20
474.8439951862583
 30
0.0
 10
122.368370270171
 20
423.0891786108659
 30
0.0
 10
122.368370270171
 20
423.0891786108659
 30
0.0
 10
122.368370270171
 20
423.0891786108659
 30
0.0
 10
121.8628168956147
 20
418.4445197922396
 30
0.0
 10
121.8628168956147
 20
418.4445197922396
 30
0.0
 10
121.8628168956147
 20
418.4445197922396
 30
0.0
 10
121.6488551484863
 20
417.8027738500496
 30
0.0
 10
121.6488551484863
 20
417.8027738500496
 30
0.0
 10
121.6488551484863
 20
417.8027738500496
 30
0.0
 10
118.2725839078539
 20
418.0968185261945
 30
0.0
 10
118.2725839078539
 20
418.0968185261945
 30
0.0
 10
118.2725839078539
 20
418.0968185261945
 30
0.0
 10
117.8239770379369
 20
422.5619829048837
 30
0.0
 10
117.8239770379369
 20
422.5619829048837
 30
0.0
 10
117.8239770379369
 20
422.5619829048837
 30
0.0
 10
117.5916210696814
 20
474.8592553173312
 30
0.0
 10
117.5916210696814
 20
474.8592553173312
 30
0.0
  0
POLYLINE
  5
27B
330
276
100
AcDbEntity
  8
Premier plan
 62
   250
420
  1709851
370
     9
100
AcDb2dPolyline
 66
     1
 10
0.0
 20
0.0
 30
0.0
  0
VERTEX
  5
27C
330
27B
100
AcDbEntity
  8
Premier plan
 62
   250
420
  1709851
370
     9
100
AcDbVertex
100
AcDb2dVertex
 10
121.6488551484863
 20
417.8027738500496
 30
0.0
  0
VERTEX
  5
27D
330
27B
100
AcDbEntity
  8
Premier plan
 62
   250
420
  1709851
370
     9
100
AcDbVertex
100
AcDb2dVertex
 10
121.9661919770724
 20
422.2278836861515
 30
0.0
  0
SEQEND
  5
27E
330
27B
100
AcDbEntity
  8
Premier plan
 62
   250
420
  1709851
370
     9
  0
SPLINE
  5
27F
330
276
100
AcDbEntity
  8
Premier plan
 62
   250
420
  1709851
370
     9
100
AcDbSpline
210
0.0
220
0.0
230
1.0
 70
     8
 71
     3
 72
     8
 73
     4
 74
     0
 42
0.0000000001
 43
0.0000000001
 12
1.0
 22
0.0
 32
0.0
 13
1.0
 23
0.0
 33
0.0
 40
0.0
 40
0.0
 40
0.0
 40
0.0
 40
1.0
 40
1.0
 40
1.0
 40
1.0
 10
121.9661919770724
 20
422.2278836861515
 30
0.0
 10
121.8900636779799
 20
423.2990464349687
 30
0.0
 10
122.2697537242093
 20
423.8503802027408
 30
0.0
 10
122.368370270171
 20
423.0891786108659
 30
0.0
  0
SPLINE
  5
280
330
276
100
AcDbEntity
  8
Premier plan
 62
   250
420
  1709851
370
     9
100
AcDbSpline
210
0.0
220
0.0
230
1.0
 70
     8
 71
     3
 72
    14
 73
    10
 74
     0
 42
0.0000000001
 43
0.0000000001
 12
1.0
 22
0.0
 32
0.0
 13
1.0
 23
0.0
 33
0.0
 40
0.0
 40
0.0
 40
0.0
 40
0.0
 40
1.0
 40
1.0
 40
1.0
 40
2.0
 40
2.0
 40
2.0
 40
3.0
 40
3.0
 40
3.0
 40
3.0
 10
121.9661919770724
 20
422.2278836861515
 30
0.0
 10
121.9661919770724
 20
422.2278836861515
 30
0.0
 10
120.5944210548741
 20
424.9584626235064
 30
0.0
 10
120.5944210548741
 20
424.9584626235064
 30
0.0
 10
120.1594252755995
 20
425.9662876240018
 30
0.0
 10
119.4871590712637
 20
425.8284541820585
 30
0.0
 10
119.1305970839503
 20
425.1619310378037
 30
0.0
 10
119.1305970839503
 20
425.1619310378037
 30
0.0
 10
117.8239770379369
 20
422.5619829048837
 30
0.0
 10
117.8239770379369
 20
422.5619829048837
 30
0.0
  0
ENDBLK
  5
279
330
276
100
AcDbEntity
  8
0
100
AcDbBlockEnd
  0
BLOCK
  5
283
330
281
100
AcDbEntity
  8
0
100
AcDbBlockBegin
  2
block 16
 70
     0
 10
0.0
 20
0.0
 30
0.0
  3
block 16
  1

  0
SPLINE
  5
285
330
281
100
AcDbEntity
  8
Premier plan
 62
   250
420
  1709851
370
    20
100
AcDbSpline
210
0.0
220
0.0
230
1.0
 70
    11
 71
     3
 72
    53
 73
    49
 74
     0
 42
0.0000000001
 43
0.0000000001
 12
1.0
 22
0.0
 32
0.0
 13
1.0
 23
0.0
 33
0.0
 40
0.0
 40
0.0
 40
0.0
 40
0.0
 40
1.0
 40
1.0
 40
1.0
 40
2.0
 40
2.0
 40
2.0
 40
3.0
 40
3.0
 40
3.0
 40
4.0
 40
4.0
 40
4.0
 40
5.0
 40
5.0
 40
5.0
 40
6.0
 40
6.0
 40
6.0
 40
7.0
 40
7.0
 40
7.0
 40
8.0
 40
8.0
 40
8.0
 40
9.0
 40
9.0
 40
9.0
 40
10.0
 40
10.0
 40
10.0
 40
11.0
 40
11.0
 40
11.0
 40
12.0
 40
12.0
 40
12.0
 40
13.0
 40
13.0
 40
13.0
 40
14.0
 40
14.0
 40
14.0
 40
15.0
 40
15.0
 40
15.0
 40
16.0
 40
16.0
 40
16.0
 40
16.0
 10
114.3282502442444
 20
417.5688022569175
 30
0.0
 10
114.3282502442444
 20
417.5688022569175
 30
0.0
 10
114.3282502442444
 20
418.0264250183454
 30
0.0
 10
114.3282502442444
 20
418.0264250183454
 30
0.0
 10
118.295884323039
 20
418.5111392891786
 30
0.0
 10
121.3595607450907
 20
418.3933245138032
 30
0.0
 10
123.5276562795807
 20
417.669863031032
 30
0.0
 10
123.5276562795807
 20
417.669863031032
 30
0.0
 10
126.3583202395666
 20
418.4750400543835
 30
0.0
 10
126.3583202395666
 20
418.4750400543835
 30
0.0
 10
126.2846449830995
 20
418.773022828871
 30
0.0
 10
126.1637125465377
 20
418.9750315751253
 30
0.0
 10
125.9641822305821
 20
419.1392659746052
 30
0.0
 10
125.4817651837802
 20
419.5253636994785
 30
0.0
 10
124.542856904257
 20
419.8635478945316
 30
0.0
 10
123.5245303081847
 20
420.0077807462794
 30
0.0
 10
123.5245303081847
 20
420.0077807462794
 30
0.0
 10
123.5245303081847
 20
420.58454806584
 30
0.0
 10
123.5245303081847
 20
420.58454806584
 30
0.0
 10
123.5245303081847
 20
420.58454806584
 30
0.0
 10
122.7272294815157
 20
420.58454806584
 30
0.0
 10
122.7272294815157
 20
420.58454806584
 30
0.0
 10
122.7272294815157
 20
420.58454806584
 30
0.0
 10
122.5621575260457
 20
420.1086945162733
 30
0.0
 10
122.5621575260457
 20
420.1086945162733
 30
0.0
 10
120.7939596119795
 20
420.3202032146846
 30
0.0
 10
119.1514443873284
 20
420.4396588643685
 30
0.0
 10
118.0177561276896
 20
420.4668973778953
 30
0.0
 10
118.0177561276896
 20
420.4668973778953
 30
0.0
 10
118.0154589036574
 20
420.9452122389248
 30
0.0
 10
118.0154589036574
 20
420.9452122389248
 30
0.0
 10
118.0154589036574
 20
420.9452122389248
 30
0.0
 10
117.1500617931706
 20
420.9452122389248
 30
0.0
 10
117.1500617931706
 20
420.9452122389248
 30
0.0
 10
117.1500617931706
 20
420.9452122389248
 30
0.0
 10
116.8671750623253
 20
420.5742105576937
 30
0.0
 10
116.8671750623253
 20
420.5742105576937
 30
0.0
 10
114.0406049779021
 20
420.5141717157067
 30
0.0
 10
112.4942450292438
 20
419.9405048996159
 30
0.0
 10
112.2963555875967
 20
418.8435804241508
 30
0.0
 10
112.2963555875967
 20
418.8435804241508
 30
0.0
 10
112.197739041635
 20
418.3549280549769
 30
0.0
 10
112.197739041635
 20
418.3549280549769
 30
0.0
 10
112.197739041635
 20
418.3549280549769
 30
0.0
 10
112.6665368316726
 20
418.0800816082447
 30
0.0
 10
112.6665368316726
 20
418.0800816082447
 30
0.0
 10
112.9878200213452
 20
417.8749723196379
 30
0.0
 10
113.5742684993274
 20
417.7074390527041
 30
0.0
 10
114.3282502442444
 20
417.5688022569175
 30
0.0
  0
SPLINE
  5
286
330
281
100
AcDbEntity
  8
Premier plan
 62
   250
420
  1709851
370
    20
100
AcDbSpline
210
0.0
220
0.0
230
1.0
 70
     8
 71
     3
 72
    38
 73
    34
 74
     0
 42
0.0000000001
 43
0.0000000001
 12
1.0
 22
0.0
 32
0.0
 13
1.0
 23
0.0
 33
0.0
 40
0.0
 40
0.0
 40
0.0
 40
0.0
 40
1.0
 40
1.0
 40
1.0
 40
2.0
 40
2.0
 40
2.0
 40
3.0
 40
3.0
 40
3.0
 40
4.0
 40
4.0
 40
4.0
 40
5.0
 40
5.0
 40
5.0
 40
6.0
 40
6.0
 40
6.0
 40
7.0
 40
7.0
 40
7.0
 40
8.0
 40
8.0
 40
8.0
 40
9.0
 40
9.0
 40
9.0
 40
10.0
 40
10.0
 40
10.0
 40
11.0
 40
11.0
 40
11.0
 40
11.0
 10
112.197739041635
 20
418.3549280549769
 30
0.0
 10
112.197739041635
 20
418.3549280549769
 30
0.0
 10
112.2963555875967
 20
418.8452212984603
 30
0.0
 10
112.2963555875967
 20
418.8452212984603
 30
0.0
 10
112.4942450292438
 20
419.9411612493395
 30
0.0
 10
114.0406049779021
 20
420.5156313448688
 30
0.0
 10
116.8665187126007
 20
420.5758514320032
 30
0.0
 10
116.8665187126007
 20
420.5758514320032
 30
0.0
 10
117.1492413560163
 20
420.9466890258027
 30
0.0
 10
117.1492413560163
 20
420.9466890258027
 30
0.0
 10
117.1492413560163
 20
420.9466890258027
 30
0.0
 10
118.0146384665031
 20
420.9466890258027
 30
0.0
 10
118.0146384665031
 20
420.9466890258027
 30
0.0
 10
118.0146384665031
 20
420.9466890258027
 30
0.0
 10
118.0169356905344
 20
420.4683741647732
 30
0.0
 10
118.0169356905344
 20
420.4683741647732
 30
0.0
 10
119.1506157505191
 20
420.4411356512464
 30
0.0
 10
120.7931309336764
 20
420.3218440889941
 30
0.0
 10
122.561501176323
 20
420.1095149534276
 30
0.0
 10
122.561501176323
 20
420.1095149534276
 30
0.0
 10
122.7264090443614
 20
420.5861889401494
 30
0.0
 10
122.7264090443614
 20
420.5861889401494
 30
0.0
 10
122.7264090443614
 20
420.5861889401494
 30
0.0
 10
123.5245303081847
 20
420.5861889401494
 30
0.0
 10
123.5245303081847
 20
420.5861889401494
 30
0.0
 10
123.5245303081847
 20
420.5861889401494
 30
0.0
 10
123.5245303081847
 20
420.0094216205889
 30
0.0
 10
123.5245303081847
 20
420.0094216205889
 30
0.0
 10
124.542856904257
 20
419.8651887688402
 30
0.0
 10
125.4811088340557
 20
419.5270045737871
 30
0.0
 10
125.9633617934269
 20
419.1409068489147
 30
0.0
 10
126.1637125465377
 20
418.9758348934447
 30
0.0
 10
126.2871062945633
 20
418.773022828871
 30
0.0
 10
126.3599611138761
 20
418.4750400543835
 30
0.0
  0
POLYLINE
  5
287
330
281
100
AcDbEntity
  8
Premier plan
 62
   250
420
  1709851
370
     9
100
AcDb2dPolyline
 66
     1
 10
0.0
 20
0.0
 30
0.0
  0
VERTEX
  5
288
330
287
100
AcDbEntity
  8
Premier plan
 62
   250
420
  1709851
370
     9
100
AcDbVertex
100
AcDb2dVertex
 10
114.3282502442444
 20
418.0270813680681
 30
0.0
  0
VERTEX
  5
289
330
287
100
AcDbEntity
  8
Premier plan
 62
   250
420
  1709851
370
     9
100
AcDbVertex
100
AcDb2dVertex
 10
114.3282502442444
 20
417.5704431312679
 30
0.0
  0
SEQEND
  5
28A
330
287
100
AcDbEntity
  8
Premier plan
 62
   250
420
  1709851
370
     9
  0
POLYLINE
  5
28B
330
281
100
AcDbEntity
  8
Premier plan
 62
   250
420
  1709851
370
     9
100
AcDb2dPolyline
 66
     1
 10
0.0
 20
0.0
 30
0.0
  0
VERTEX
  5
28C
330
28B
100
AcDbEntity
  8
Premier plan
 62
   250
420
  1709851
370
     9
100
AcDbVertex
100
AcDb2dVertex
 10
114.3282502442444
 20
419.5045245957554
 30
0.0
  0
VERTEX
  5
28D
330
28B
100
AcDbEntity
  8
Premier plan
 62
   250
420
  1709851
370
     9
100
AcDbVertex
100
AcDb2dVertex
 10
114.3282502442444
 20
418.0270813680681
 30
0.0
  0
SEQEND
  5
28E
330
28B
100
AcDbEntity
  8
Premier plan
 62
   250
420
  1709851
370
     9
  0
SPLINE
  5
28F
330
281
100
AcDbEntity
  8
Premier plan
 62
   250
420
  1709851
370
     9
100
AcDbSpline
210
0.0
220
0.0
230
1.0
 70
     8
 71
     3
 72
     8
 73
     4
 74
     0
 42
0.0000000001
 43
0.0000000001
 12
1.0
 22
0.0
 32
0.0
 13
1.0
 23
0.0
 33
0.0
 40
0.0
 40
0.0
 40
0.0
 40
0.0
 40
1.0
 40
1.0
 40
1.0
 40
1.0
 10
124.7847217773815
 20
418.6072945236774
 30
0.0
 10
124.7094056466049
 20
418.4222039016386
 30
0.0
 10
124.6637893408188
 20
418.2162741758784
 30
0.0
 10
124.636550827292
 20
417.9998428545414
 30
0.0
  0
SPLINE
  5
290
330
281
100
AcDbEntity
  8
Premier plan
 62
   250
420
  1709851
370
     9
100
AcDbSpline
210
0.0
220
0.0
230
1.0
 70
     8
 71
     3
 72
     8
 73
     4
 74
     0
 42
0.0000000001
 43
0.0000000001
 12
1.0
 22
0.0
 32
0.0
 13
1.0
 23
0.0
 33
0.0
 40
0.0
 40
0.0
 40
0.0
 40
0.0
 40
1.0
 40
1.0
 40
1.0
 40
1.0
 10
114.3282502442444
 20
419.5045245957554
 30
0.0
 10
118.6475236874257
 20
419.975619609826
 30
0.0
 10
122.2970005168563
 20
419.7705103212202
 30
0.0
 10
124.7847217773815
 20
418.6072945236774
 30
0.0
  0
SPLINE
  5
291
330
281
100
AcDbEntity
  8
Premier plan
 62
   250
420
  1709851
370
     9
100
AcDbSpline
210
0.0
220
0.0
230
1.0
 70
     8
 71
     3
 72
     8
 73
     4
 74
     0
 42
0.0000000001
 43
0.0000000001
 12
1.0
 22
0.0
 32
0.0
 13
1.0
 23
0.0
 33
0.0
 40
0.0
 40
0.0
 40
0.0
 40
0.0
 40
1.0
 40
1.0
 40
1.0
 40
1.0
 10
114.3282502442444
 20
418.0328244281491
 30
0.0
 10
118.2950638858847
 20
418.5175386989831
 30
0.0
 10
121.3628424937078
 20
418.3980830492983
 30
0.0
 10
123.5317501551453
 20
417.6746215665271
 30
0.0
  0
SPLINE
  5
292
330
281
100
AcDbEntity
  8
Premier plan
 62
   250
420
  1709851
370
     9
100
AcDbSpline
210
0.0
220
0.0
230
1.0
 70
     8
 71
     3
 72
     8
 73
     4
 74
     0
 42
0.0000000001
 43
0.0000000001
 12
1.0
 22
0.0
 32
0.0
 13
1.0
 23
0.0
 33
0.0
 40
0.0
 40
0.0
 40
0.0
 40
0.0
 40
1.0
 40
1.0
 40
1.0
 40
1.0
 10
114.121500081329
 20
419.2779198537037
 30
0.0
 10
113.9677501585893
 20
418.7113259548587
 30
0.0
 10
113.6912628375485
 20
418.2243144599915
 30
0.0
 10
113.2930226427916
 20
417.8155726696586
 30
0.0
  0
SPLINE
  5
293
330
281
100
AcDbEntity
  8
Premier plan
 62
   250
420
  1709851
370
     9
100
AcDbSpline
210
0.0
220
0.0
230
1.0
 70
     8
 71
     3
 72
     8
 73
     4
 74
     0
 42
0.0000000001
 43
0.0000000001
 12
1.0
 22
0.0
 32
0.0
 13
1.0
 23
0.0
 33
0.0
 40
0.0
 40
0.0
 40
0.0
 40
0.0
 40
1.0
 40
1.0
 40
1.0
 40
1.0
 10
124.6862693188505
 20
418.2843704596962
 30
0.0
 10
124.6774085975821
 20
418.1826362525462
 30
0.0
 10
124.6806903461993
 20
418.0873185516139
 30
0.0
 10
124.6910361939445
 20
417.9975456305092
 30
0.0
  0
POLYLINE
  5
294
330
281
100
AcDbEntity
  8
Premier plan
 62
   250
420
  1709851
370
     9
100
AcDb2dPolyline
 66
     1
 10
0.0
 20
0.0
 30
0.0
  0
VERTEX
  5
295
330
294
100
AcDbEntity
  8
Premier plan
 62
   250
420
  1709851
370
     9
100
AcDbVertex
100
AcDb2dVertex
 10
123.2752815006716
 20
420.0405982324564
 30
0.0
  0
VERTEX
  5
296
330
294
100
AcDbEntity
  8
Premier plan
 62
   250
420
  1709851
370
     9
100
AcDbVertex
100
AcDb2dVertex
 10
123.5245303081847
 20
420.5861889401494
 30
0.0
  0
SEQEND
  5
297
330
294
100
AcDbEntity
  8
Premier plan
 62
   250
420
  1709851
370
     9
  0
POLYLINE
  5
298
330
281
100
AcDbEntity
  8
Premier plan
 62
   250
420
  1709851
370
     9
100
AcDb2dPolyline
 66
     1
 10
0.0
 20
0.0
 30
0.0
  0
VERTEX
  5
299
330
298
100
AcDbEntity
  8
Premier plan
 62
   250
420
  1709851
370
     9
100
AcDbVertex
100
AcDb2dVertex
 10
117.8254456586928
 20
420.4788757603501
 30
0.0
  0
VERTEX
  5
29A
330
298
100
AcDbEntity
  8
Premier plan
 62
   250
420
  1709851
370
     9
100
AcDbVertex
100
AcDb2dVertex
 10
118.0146384665031
 20
420.9466890258027
 30
0.0
  0
SEQEND
  5
29B
330
298
100
AcDbEntity
  8
Premier plan
 62
   250
420
  1709851
370
     9
  0
POLYLINE
  5
29C
330
281
100
AcDbEntity
  8
Premier plan
 62
   250
420
  1709851
370
     9
100
AcDb2dPolyline
 66
     1
 10
0.0
 20
0.0
 30
0.0
  0
VERTEX
  5
29D
330
29C
100
AcDbEntity
  8
Premier plan
 62
   250
420
  1709851
370
     9
100
AcDbVertex
100
AcDb2dVertex
 10
123.5268275322178
 20
420.0094216205889
 30
0.0
  0
VERTEX
  5
29E
330
29C
100
AcDbEntity
  8
Premier plan
 62
   250
420
  1709851
370
     9
100
AcDbVertex
100
AcDb2dVertex
 10
123.2752815006716
 20
420.0405982324564
 30
0.0
  0
SEQEND
  5
29F
330
29C
100
AcDbEntity
  8
Premier plan
 62
   250
420
  1709851
370
     9
  0
POLYLINE
  5
2A0
330
281
100
AcDbEntity
  8
Premier plan
 62
   250
420
  1709851
370
     9
100
AcDb2dPolyline
 66
     1
 10
0.0
 20
0.0
 30
0.0
  0
VERTEX
  5
2A1
330
2A0
100
AcDbEntity
  8
Premier plan
 62
   250
420
  1709851
370
     9
100
AcDbVertex
100
AcDb2dVertex
 10
117.8254456586928
 20
420.4788757603501
 30
0.0
  0
VERTEX
  5
2A2
330
2A0
100
AcDbEntity
  8
Premier plan
 62
   250
420
  1709851
370
     9
100
AcDbVertex
100
AcDb2dVertex
 10
118.0154589036574
 20
420.4747907313003
 30
0.0
  0
SEQEND
  5
2A3
330
2A0
100
AcDbEntity
  8
Premier plan
 62
   250
420
  1709851
370
     9
  0
ENDBLK
  5
284
330
281
100
AcDbEntity
  8
0
100
AcDbBlockEnd
  0
BLOCK
  5
2A6
330
2A4
100
AcDbEntity
  8
0
100
AcDbBlockBegin
  2
block 17
 70
     0
 10
0.0
 20
0.0
 30
0.0
  3
block 17
  1

  0
SPLINE
  5
2A8
330
2A4
100
AcDbEntity
  8
Premier plan
 62
    18
420
        0
370
    40
100
AcDbSpline
210
0.0
220
0.0
230
1.0
 70
    11
 71
     3
 72
    26
 73
    22
 74
     0
 42
0.0000000001
 43
0.0000000001
 12
1.0
 22
0.0
 32
0.0
 13
1.0
 23
0.0
 33
0.0
 40
0.0
 40
0.0
 40
0.0
 40
0.0
 40
1.0
 40
1.0
 40
1.0
 40
2.0
 40
2.0
 40
2.0
 40
3.0
 40
3.0
 40
3.0
 40
4.0
 40
4.0
 40
4.0
 40
5.0
 40
5.0
 40
5.0
 40
6.0
 40
6.0
 40
6.0
 40
7.0
 40
7.0
 40
7.0
 40
7.0
 10
243.7513909175195
 20
455.3811107852443
 30
0.0
 10
244.9372507805247
 20
461.2106269037595
 30
0.0
 10
249.789316111789
 20
467.3855651028189
 30
0.0
 10
256.8887228964531
 20
471.4838127765997
 30
0.0
 10
256.8887228964531
 20
471.4838127765997
 30
0.0
 10
253.5997660279036
 20
473.3898523737571
 30
0.0
 10
253.5997660279036
 20
473.3898523737571
 30
0.0
 10
253.5997660279036
 20
473.3898523737571
 30
0.0
 10
267.3325596974128
 20
474.2944663802255
 30
0.0
 10
267.3325596974128
 20
474.2944663802255
 30
0.0
 10
267.3325596974128
 20
474.2944663802255
 30
0.0
 10
265.7661810821874
 20
466.3664180695932
 30
0.0
 10
265.7661810821874
 20
466.3664180695932
 30
0.0
 10
265.7661810821874
 20
466.3664180695932
 30
0.0
 10
262.2520964770401
 20
468.1915625633246
 30
0.0
 10
262.2520964770401
 20
468.1915625633246
 30
0.0
 10
255.1510370033839
 20
464.0934789769763
 30
0.0
 10
250.4038235404551
 20
457.9321600346802
 30
0.0
 10
249.2187841146042
 20
452.1032822273573
 30
0.0
 10
249.2187841146042
 20
452.1032822273573
 30
0.0
 10
243.7513909175195
 20
455.3811107852443
 30
0.0
 10
243.7513909175195
 20
455.3811107852443
 30
0.0
  0
SPLINE
  5
2A9
330
2A4
100
AcDbEntity
  8
Premier plan
370
     0
100
AcDbSpline
210
0.0
220
0.0
230
1.0
 70
    11
 71
     3
 72
    26
 73
    22
 74
     0
 42
0.0000000001
 43
0.0000000001
 12
1.0
 22
0.0
 32
0.0
 13
1.0
 23
0.0
 33
0.0
 40
0.0
 40
0.0
 40
0.0
 40
0.0
 40
1.0
 40
1.0
 40
1.0
 40
2.0
 40
2.0
 40
2.0
 40
3.0
 40
3.0
 40
3.0
 40
4.0
 40
4.0
 40
4.0
 40
5.0
 40
5.0
 40
5.0
 40
6.0
 40
6.0
 40
6.0
 40
7.0
 40
7.0
 40
7.0
 40
7.0
 10
243.7513909175195
 20
455.3811107852443
 30
0.0
 10
244.9372507805247
 20
461.2106269037595
 30
0.0
 10
249.789316111789
 20
467.3855651028189
 30
0.0
 10
256.8887228964531
 20
471.4838127765997
 30
0.0
 10
256.8887228964531
 20
471.4838127765997
 30
0.0
 10
253.5997660279036
 20
473.3898523737571
 30
0.0
 10
253.5997660279036
 20
473.3898523737571
 30
0.0
 10
253.5997660279036
 20
473.3898523737571
 30
0.0
 10
267.3325596974128
 20
474.2944663802255
 30
0.0
 10
267.3325596974128
 20
474.2944663802255
 30
0.0
 10
267.3325596974128
 20
474.2944663802255
 30
0.0
 10
265.7661810821874
 20
466.3664180695932
 30
0.0
 10
265.7661810821874
 20
466.3664180695932
 30
0.0
 10
265.7661810821874
 20
466.3664180695932
 30
0.0
 10
262.2520964770401
 20
468.1915625633246
 30
0.0
 10
262.2520964770401
 20
468.1915625633246
 30
0.0
 10
255.1510370033839
 20
464.0934789769763
 30
0.0
 10
250.4038235404551
 20
457.9321600346802
 30
0.0
 10
249.2187841146042
 20
452.1032822273573
 30
0.0
 10
249.2187841146042
 20
452.1032822273573
 30
0.0
 10
243.7513909175195
 20
455.3811107852443
 30
0.0
 10
243.7513909175195
 20
455.3811107852443
 30
0.0
  0
HATCH
  5
2AA
330
2A4
100
AcDbEntity
  8
Premier plan
 62
   250
420
  1709851
100
AcDbHatch
 10
0.0
 20
0.0
 30
0.0
210
0.0
220
0.0
230
1.0
  2
SOLID
 70
     1
 71
     0
 91
        1
 92
        1
 93
        1
 72
     4
 94
        3
 73
     0
 74
     1
 95
       26
 96
       22
 40
0.0
 40
0.0
 40
0.0
 40
0.0
 40
1.0
 40
1.0
 40
1.0
 40
2.0
 40
2.0
 40
2.0
 40
3.0
 40
3.0
 40
3.0
 40
4.0
 40
4.0
 40
4.0
 40
5.0
 40
5.0
 40
5.0
 40
6.0
 40
6.0
 40
6.0
 40
7.0
 40
7.0
 40
7.0
 40
7.0
 10
243.7513909175195
 20
455.3811107852443
 10
244.9372507805247
 20
461.2106269037595
 10
249.789316111789
 20
467.3855651028189
 10
256.8887228964531
 20
471.4838127765997
 10
256.8887228964531
 20
471.4838127765997
 10
253.5997660279036
 20
473.3898523737571
 10
253.5997660279036
 20
473.3898523737571
 10
253.5997660279036
 20
473.3898523737571
 10
267.3325596974128
 20
474.2944663802255
 10
267.3325596974128
 20
474.2944663802255
 10
267.3325596974128
 20
474.2944663802255
 10
265.7661810821874
 20
466.3664180695932
 10
265.7661810821874
 20
466.3664180695932
 10
265.7661810821874
 20
466.3664180695932
 10
262.2520964770401
 20
468.1915625633246
 10
262.2520964770401
 20
468.1915625633246
 10
255.1510370033839
 20
464.0934789769763
 10
250.4038235404551
 20
457.9321600346802
 10
249.2187841146042
 20
452.1032822273573
 10
249.2187841146042
 20
452.1032822273573
 10
243.7513909175195
 20
455.3811107852443
 10
243.7513909175195
 20
455.3811107852443
 97
        0
 97
        0
 75
     0
 76
     1
 98
        0
  0
ENDBLK
  5
2A7
330
2A4
100
AcDbEntity
  8
0
100
AcDbBlockEnd
  0
BLOCK
  5
2AD
330
2AB
100
AcDbEntity
  8
0
100
AcDbBlockBegin
  2
block 18
 70
     0
 10
0.0
 20
0.0
 30
0.0
  3
block 18
  1

  0
SPLINE
  5
2AF
330
2AB
100
AcDbEntity
  8
Premier plan
 62
    18
420
        0
370
    40
100
AcDbSpline
210
0.0
220
0.0
230
1.0
 70
    11
 71
     3
 72
    26
 73
    22
 74
     0
 42
0.0000000001
 43
0.0000000001
 12
1.0
 22
0.0
 32
0.0
 13
1.0
 23
0.0
 33
0.0
 40
0.0
 40
0.0
 40
0.0
 40
0.0
 40
1.0
 40
1.0
 40
1.0
 40
2.0
 40
2.0
 40
2.0
 40
3.0
 40
3.0
 40
3.0
 40
4.0
 40
4.0
 40
4.0
 40
5.0
 40
5.0
 40
5.0
 40
6.0
 40
6.0
 40
6.0
 40
7.0
 40
7.0
 40
7.0
 40
7.0
 10
47.7382890425506
 20
463.0807313535552
 30
0.0
 10
46.55242917954638
 20
468.9102655106008
 30
0.0
 10
41.70118428543537
 20
475.0852037096602
 30
0.0
 10
34.60079297618631
 20
479.1841077331628
 30
0.0
 10
34.60079297618631
 20
479.1841077331628
 30
0.0
 10
37.88976144084154
 20
481.0894909805984
 30
0.0
 10
37.88976144084154
 20
481.0894909805984
 30
0.0
 10
37.88976144084154
 20
481.0894909805984
 30
0.0
 10
24.15712026265737
 20
481.9939408996352
 30
0.0
 10
24.15712026265737
 20
481.9939408996352
 30
0.0
 10
24.15712026265737
 20
481.9939408996352
 30
0.0
 10
25.72334062991649
 20
474.0660566764327
 30
0.0
 10
25.72334062991649
 20
474.0660566764327
 30
0.0
 10
25.72334062991649
 20
474.0660566764327
 30
0.0
 10
29.23743121028292
 20
475.8912011701659
 30
0.0
 10
29.23743121028292
 20
475.8912011701659
 30
0.0
 10
36.33864295668809
 20
471.792953496386
 30
0.0
 10
41.08651276934143
 20
465.6317986415206
 30
0.0
 10
42.27073175803707
 20
459.8029208341986
 30
0.0
 10
42.27073175803707
 20
459.8029208341986
 30
0.0
 10
47.7382890425506
 20
463.0807313535552
 30
0.0
 10
47.7382890425506
 20
463.0807313535552
 30
0.0
  0
SPLINE
  5
2B0
330
2AB
100
AcDbEntity
  8
Premier plan
370
     0
100
AcDbSpline
210
0.0
220
0.0
230
1.0
 70
    11
 71
     3
 72
    26
 73
    22
 74
     0
 42
0.0000000001
 43
0.0000000001
 12
1.0
 22
0.0
 32
0.0
 13
1.0
 23
0.0
 33
0.0
 40
0.0
 40
0.0
 40
0.0
 40
0.0
 40
1.0
 40
1.0
 40
1.0
 40
2.0
 40
2.0
 40
2.0
 40
3.0
 40
3.0
 40
3.0
 40
4.0
 40
4.0
 40
4.0
 40
5.0
 40
5.0
 40
5.0
 40
6.0
 40
6.0
 40
6.0
 40
7.0
 40
7.0
 40
7.0
 40
7.0
 10
47.7382890425506
 20
463.0807313535552
 30
0.0
 10
46.55242917954638
 20
468.9102655106008
 30
0.0
 10
41.70118428543537
 20
475.0852037096602
 30
0.0
 10
34.60079297618631
 20
479.1841077331628
 30
0.0
 10
34.60079297618631
 20
479.1841077331628
 30
0.0
 10
37.88976144084154
 20
481.0894909805984
 30
0.0
 10
37.88976144084154
 20
481.0894909805984
 30
0.0
 10
37.88976144084154
 20
481.0894909805984
 30
0.0
 10
24.15712026265737
 20
481.9939408996352
 30
0.0
 10
24.15712026265737
 20
481.9939408996352
 30
0.0
 10
24.15712026265737
 20
481.9939408996352
 30
0.0
 10
25.72334062991649
 20
474.0660566764327
 30
0.0
 10
25.72334062991649
 20
474.0660566764327
 30
0.0
 10
25.72334062991649
 20
474.0660566764327
 30
0.0
 10
29.23743121028292
 20
475.8912011701659
 30
0.0
 10
29.23743121028292
 20
475.8912011701659
 30
0.0
 10
36.33864295668809
 20
471.792953496386
 30
0.0
 10
41.08651276934143
 20
465.6317986415206
 30
0.0
 10
42.27073175803707
 20
459.8029208341986
 30
0.0
 10
42.27073175803707
 20
459.8029208341986
 30
0.0
 10
47.7382890425506
 20
463.0807313535552
 30
0.0
 10
47.7382890425506
 20
463.0807313535552
 30
0.0
  0
HATCH
  5
2B1
330
2AB
100
AcDbEntity
  8
Premier plan
 62
   250
420
  1709851
100
AcDbHatch
 10
0.0
 20
0.0
 30
0.0
210
0.0
220
0.0
230
1.0
  2
SOLID
 70
     1
 71
     0
 91
        1
 92
        1
 93
        1
 72
     4
 94
        3
 73
     0
 74
     1
 95
       26
 96
       22
 40
0.0
 40
0.0
 40
0.0
 40
0.0
 40
1.0
 40
1.0
 40
1.0
 40
2.0
 40
2.0
 40
2.0
 40
3.0
 40
3.0
 40
3.0
 40
4.0
 40
4.0
 40
4.0
 40
5.0
 40
5.0
 40
5.0
 40
6.0
 40
6.0
 40
6.0
 40
7.0
 40
7.0
 40
7.0
 40
7.0
 10
47.7382890425506
 20
463.0807313535552
 10
46.55242917954638
 20
468.9102655106008
 10
41.70118428543537
 20
475.0852037096602
 10
34.60079297618631
 20
479.1841077331628
 10
34.60079297618631
 20
479.1841077331628
 10
37.88976144084154
 20
481.0894909805984
 10
37.88976144084154
 20
481.0894909805984
 10
37.88976144084154
 20
481.0894909805984
 10
24.15712026265737
 20
481.9939408996352
 10
24.15712026265737
 20
481.9939408996352
 10
24.15712026265737
 20
481.9939408996352
 10
25.72334062991649
 20
474.0660566764327
 10
25.72334062991649
 20
474.0660566764327
 10
25.72334062991649
 20
474.0660566764327
 10
29.23743121028292
 20
475.8912011701659
 10
29.23743121028292
 20
475.8912011701659
 10
36.33864295668809
 20
471.792953496386
 10
41.08651276934143
 20
465.6317986415206
 10
42.27073175803707
 20
459.8029208341986
 10
42.27073175803707
 20
459.8029208341986
 10
47.7382890425506
 20
463.0807313535552
 10
47.7382890425506
 20
463.0807313535552
 97
        0
 97
        0
 75
     0
 76
     1
 98
        0
  0
ENDBLK
  5
2AE
330
2AB
100
AcDbEntity
  8
0
100
AcDbBlockEnd
  0
BLOCK
  5
2E1
330
2DF
100
AcDbEntity
  8
0
100
AcDbBlockBegin
  2
block 19
 70
     0
 10
0.0
 20
0.0
 30
0.0
  3
block 19
  1

  0
SPLINE
  5
2E3
330
2DF
100
AcDbEntity
  8
Premier plan
 62
   250
420
  1709851
370
    20
100
AcDbSpline
210
0.0
220
0.0
230
1.0
 70
    11
 71
     3
 72
    53
 73
    49
 74
     0
 42
0.0000000001
 43
0.0000000001
 12
1.0
 22
0.0
 32
0.0
 13
1.0
 23
0.0
 33
0.0
 40
0.0
 40
0.0
 40
0.0
 40
0.0
 40
1.0
 40
1.0
 40
1.0
 40
2.0
 40
2.0
 40
2.0
 40
3.0
 40
3.0
 40
3.0
 40
4.0
 40
4.0
 40
4.0
 40
5.0
 40
5.0
 40
5.0
 40
6.0
 40
6.0
 40
6.0
 40
7.0
 40
7.0
 40
7.0
 40
8.0
 40
8.0
 40
8.0
 40
9.0
 40
9.0
 40
9.0
 40
10.0
 40
10.0
 40
10.0
 40
11.0
 40
11.0
 40
11.0
 40
12.0
 40
12.0
 40
12.0
 40
13.0
 40
13.0
 40
13.0
 40
14.0
 40
14.0
 40
14.0
 40
15.0
 40
15.0
 40
15.0
 40
16.0
 40
16.0
 40
16.0
 40
16.0
 10
413.1972609453533
 20
398.7203901627254
 30
0.0
 10
413.1972609453533
 20
398.7203901627254
 30
0.0
 10
413.1972609453533
 20
401.3259344777462
 30
0.0
 10
413.1972609453533
 20
401.3259344777462
 30
0.0
 10
435.8121188447658
 20
404.0893309012781
 30
0.0
 10
453.2752877641178
 20
403.4170646969424
 30
0.0
 10
465.6348453206574
 20
399.2933834713749
 30
0.0
 10
465.6348453206574
 20
399.2933834713749
 30
0.0
 10
481.766280650947
 20
403.8842216126723
 30
0.0
 10
481.766280650947
 20
403.8842216126723
 30
0.0
 10
481.3513035382384
 20
405.5835110469143
 30
0.0
 10
480.6606768737947
 20
406.7341089218844
 30
0.0
 10
479.5212364215804
 20
407.6723440420792
 30
0.0
 10
476.7716233422434
 20
409.87160787823
 30
0.0
 10
471.4210603959491
 20
411.7993070162647
 30
0.0
 10
465.6187817045884
 20
412.6238463564605
 30
0.0
 10
465.6187817045884
 20
412.6238463564605
 30
0.0
 10
465.6187817045884
 20
415.9103535096529
 30
0.0
 10
465.6187817045884
 20
415.9103535096529
 30
0.0
 10
465.6187817045884
 20
415.9103535096529
 30
0.0
 10
461.0710816054561
 20
415.9103535096529
 30
0.0
 10
461.0710816054561
 20
415.9103535096529
 30
0.0
 10
461.0710816054561
 20
415.9103535096529
 30
0.0
 10
460.1305324516252
 20
413.1950347033708
 30
0.0
 10
460.1305324516252
 20
413.1950347033708
 30
0.0
 10
450.0496570477808
 20
414.4040308941312
 30
0.0
 10
440.6883050283705
 20
415.0826965082706
 30
0.0
 10
434.227362437281
 20
415.2380873053189
 30
0.0
 10
434.227362437281
 20
415.2380873053189
 30
0.0
 10
434.2129227433616
 20
417.9662049312101
 30
0.0
 10
434.2129227433616
 20
417.9662049312101
 30
0.0
 10
434.2129227433616
 20
417.9662049312101
 30
0.0
 10
429.2824236201322
 20
417.9662049312101
 30
0.0
 10
429.2824236201322
 20
417.9662049312101
 30
0.0
 10
429.2824236201322
 20
417.9662049312101
 30
0.0
 10
427.6671469505018
 20
415.8494770727957
 30
0.0
 10
427.6671469505018
 20
415.8494770727957
 30
0.0
 10
411.5611451719997
 20
415.5073547794009
 30
0.0
 10
402.7463683848655
 20
412.2352873201253
 30
0.0
 10
401.6182672975319
 20
405.9881506514776
 30
0.0
 10
401.6182672975319
 20
405.9881506514776
 30
0.0
 10
401.0541347101498
 20
403.1999770258808
 30
0.0
 10
401.0541347101498
 20
403.1999770258808
 30
0.0
 10
401.0541347101498
 20
403.1999770258808
 30
0.0
 10
403.7269548718341
 20
401.6319575363468
 30
0.0
 10
403.7269548718341
 20
401.6319575363468
 30
0.0
 10
405.5570219884921
 20
400.4629986787222
 30
0.0
 10
408.9012879173551
 20
399.5121120167441
 30
0.0
 10
413.1972609453533
 20
398.7203901627254
 30
0.0
  0
SPLINE
  5
2E4
330
2DF
100
AcDbEntity
  8
Premier plan
 62
   250
420
  1709851
370
    20
100
AcDbSpline
210
0.0
220
0.0
230
1.0
 70
     8
 71
     3
 72
    38
 73
    34
 74
     0
 42
0.0000000001
 43
0.0000000001
 12
1.0
 22
0.0
 32
0.0
 13
1.0
 23
0.0
 33
0.0
 40
0.0
 40
0.0
 40
0.0
 40
0.0
 40
1.0
 40
1.0
 40
1.0
 40
2.0
 40
2.0
 40
2.0
 40
3.0
 40
3.0
 40
3.0
 40
4.0
 40
4.0
 40
4.0
 40
5.0
 40
5.0
 40
5.0
 40
6.0
 40
6.0
 40
6.0
 40
7.0
 40
7.0
 40
7.0
 40
8.0
 40
8.0
 40
8.0
 40
9.0
 40
9.0
 40
9.0
 40
10.0
 40
10.0
 40
10.0
 40
11.0
 40
11.0
 40
11.0
 40
11.0
 10
401.0541347101498
 20
403.1999770258808
 30
0.0
 10
401.0541347101498
 20
403.1999770258808
 30
0.0
 10
401.614985548913
 20
405.9961909355898
 30
0.0
 10
401.614985548913
 20
405.9961909355898
 30
0.0
 10
402.7430866362465
 20
412.2431635168077
 30
0.0
 10
411.5580275108114
 20
415.515395063514
 30
0.0
 10
427.665506076195
 20
415.8575173569079
 30
0.0
 10
427.665506076195
 20
415.8575173569079
 30
0.0
 10
429.2791418715169
 20
417.9742452153232
 30
0.0
 10
429.2791418715169
 20
417.9742452153232
 30
0.0
 10
429.2791418715169
 20
417.9742452153232
 30
0.0
 10
434.2114459564837
 20
417.9742452153232
 30
0.0
 10
434.2114459564837
 20
417.9742452153232
 30
0.0
 10
434.2114459564837
 20
417.9742452153232
 30
0.0
 10
434.2257215629706
 20
415.2461275894311
 30
0.0
 10
434.2257215629706
 20
415.2461275894311
 30
0.0
 10
440.6866641540601
 20
415.0899163552285
 30
0.0
 10
450.048016173474
 20
414.4120711782434
 30
0.0
 10
460.1288915773148
 20
413.2030749874848
 30
0.0
 10
460.1288915773148
 20
413.2030749874848
 30
0.0
 10
461.0694407311476
 20
415.9175733566135
 30
0.0
 10
461.0694407311476
 20
415.9175733566135
 30
0.0
 10
461.0694407311476
 20
415.9175733566135
 30
0.0
 10
465.6154999558876
 20
415.9175733566135
 30
0.0
 10
465.6154999558876
 20
415.9175733566135
 30
0.0
 10
465.6154999558876
 20
415.9175733566135
 30
0.0
 10
465.6154999558876
 20
412.6310662034193
 30
0.0
 10
465.6154999558876
 20
412.6310662034193
 30
0.0
 10
471.4194195216405
 20
411.8073473003778
 30
0.0
 10
476.7683415936262
 20
409.8796650514096
 30
0.0
 10
479.5181187603939
 20
407.679563889038
 30
0.0
 10
480.6573951250921
 20
406.7413119592384
 30
0.0
 10
481.3608206092304
 20
405.5828546971925
 30
0.0
 10
481.7774385962475
 20
403.8834011755171
 30
0.0
  0
POLYLINE
  5
2E5
330
2DF
100
AcDbEntity
  8
Premier plan
 62
   250
420
  1709851
370
     9
100
AcDb2dPolyline
 66
     1
 10
0.0
 20
0.0
 30
0.0
  0
VERTEX
  5
2E6
330
2E5
100
AcDbEntity
  8
Premier plan
 62
   250
420
  1709851
370
     9
100
AcDbVertex
100
AcDb2dVertex
 10
413.1956200710447
 20
401.3339914350454
 30
0.0
  0
VERTEX
  5
2E7
330
2E5
100
AcDbEntity
  8
Premier plan
 62
   250
420
  1709851
370
     9
100
AcDbVertex
100
AcDb2dVertex
 10
413.1956200710447
 20
398.7284304468385
 30
0.0
  0
SEQEND
  5
2E8
330
2E5
100
AcDbEntity
  8
Premier plan
 62
   250
420
  1709851
370
     9
  0
POLYLINE
  5
2E9
330
2DF
100
AcDbEntity
  8
Premier plan
 62
   250
420
  1709851
370
     9
100
AcDb2dPolyline
 66
     1
 10
0.0
 20
0.0
 30
0.0
  0
VERTEX
  5
2EA
330
2E9
100
AcDbEntity
  8
Premier plan
 62
   250
420
  1709851
370
     9
100
AcDbVertex
100
AcDb2dVertex
 10
413.1956200710447
 20
409.7506754416672
 30
0.0
  0
VERTEX
  5
2EB
330
2E9
100
AcDbEntity
  8
Premier plan
 62
   250
420
  1709851
370
     9
100
AcDbVertex
100
AcDb2dVertex
 10
413.1956200710447
 20
401.3339914350454
 30
0.0
  0
SEQEND
  5
2EC
330
2E9
100
AcDbEntity
  8
Premier plan
 62
   250
420
  1709851
370
     9
  0
SPLINE
  5
2ED
330
2DF
100
AcDbEntity
  8
Premier plan
 62
   250
420
  1709851
370
     9
100
AcDbSpline
210
0.0
220
0.0
230
1.0
 70
     8
 71
     3
 72
     8
 73
     4
 74
     0
 42
0.0000000001
 43
0.0000000001
 12
1.0
 22
0.0
 32
0.0
 13
1.0
 23
0.0
 33
0.0
 40
0.0
 40
0.0
 40
0.0
 40
0.0
 40
1.0
 40
1.0
 40
1.0
 40
1.0
 10
472.7976069871547
 20
404.6382033575874
 30
0.0
 10
472.3696498338941
 20
403.5821366524124
 30
0.0
 10
472.1100806343766
 20
402.4115369204801
 30
0.0
 10
471.9546727211855
 20
401.1761226533481
 30
0.0
  0
SPLINE
  5
2EE
330
2DF
100
AcDbEntity
  8
Premier plan
 62
   250
420
  1709851
370
     9
100
AcDbSpline
210
0.0
220
0.0
230
1.0
 70
     8
 71
     3
 72
     8
 73
     4
 74
     0
 42
0.0000000001
 43
0.0000000001
 12
1.0
 22
0.0
 32
0.0
 13
1.0
 23
0.0
 33
0.0
 40
0.0
 40
0.0
 40
0.0
 40
0.0
 40
1.0
 40
1.0
 40
1.0
 40
1.0
 10
413.1956200710447
 20
409.7506754416672
 30
0.0
 10
437.8184158621934
 20
412.4410699122282
 30
0.0
 10
458.6209280874846
 20
411.272094100832
 30
0.0
 10
472.7976069871547
 20
404.6382033575874
 30
0.0
  0
SPLINE
  5
2EF
330
2DF
100
AcDbEntity
  8
Premier plan
 62
   250
420
  1709851
370
     9
100
AcDbSpline
210
0.0
220
0.0
230
1.0
 70
     8
 71
     3
 72
     8
 73
     4
 74
     0
 42
0.0000000001
 43
0.0000000001
 12
1.0
 22
0.0
 32
0.0
 13
1.0
 23
0.0
 33
0.0
 40
0.0
 40
0.0
 40
0.0
 40
0.0
 40
1.0
 40
1.0
 40
1.0
 40
1.0
 10
413.1956200710447
 20
401.3636745868498
 30
0.0
 10
435.810658257029
 20
404.1270710103818
 30
0.0
 10
453.2961268678391
 20
403.446764521932
 30
0.0
 10
465.655520336948
 20
399.3229192089348
 30
0.0
  0
SPLINE
  5
2F0
330
2DF
100
AcDbEntity
  8
Premier plan
 62
   250
420
  1709851
370
     9
100
AcDbSpline
210
0.0
220
0.0
230
1.0
 70
     8
 71
     3
 72
     8
 73
     4
 74
     0
 42
0.0000000001
 43
0.0000000001
 12
1.0
 22
0.0
 32
0.0
 13
1.0
 23
0.0
 33
0.0
 40
0.0
 40
0.0
 40
0.0
 40
0.0
 40
1.0
 40
1.0
 40
1.0
 40
1.0
 10
412.0179801776685
 20
408.4591432731722
 30
0.0
 10
411.141409523796
 20
405.2318716825293
 30
0.0
 10
409.5678110616118
 20
402.4540355650788
 30
0.0
 10
407.295543797507
 20
400.1249785710997
 30
0.0
  0
SPLINE
  5
2F1
330
2DF
100
AcDbEntity
  8
Premier plan
 62
   250
420
  1709851
370
     9
100
AcDbSpline
210
0.0
220
0.0
230
1.0
 70
     8
 71
     3
 72
     8
 73
     4
 74
     0
 42
0.0000000001
 43
0.0000000001
 12
1.0
 22
0.0
 32
0.0
 13
1.0
 23
0.0
 33
0.0
 40
0.0
 40
0.0
 40
0.0
 40
0.0
 40
1.0
 40
1.0
 40
1.0
 40
1.0
 10
472.2367390148793
 20
402.7994396070926
 30
0.0
 10
472.1886613976276
 20
402.2161087902959
 30
0.0
 10
472.2047419658556
 20
401.672815306636
 30
0.0
 10
472.2670951895907
 20
401.1641442708933
 30
0.0
  0
POLYLINE
  5
2F2
330
2DF
100
AcDbEntity
  8
Premier plan
 62
   250
420
  1709851
370
     9
100
AcDb2dPolyline
 66
     1
 10
0.0
 20
0.0
 30
0.0
  0
VERTEX
  5
2F3
330
2F2
100
AcDbEntity
  8
Premier plan
 62
   250
420
  1709851
370
     9
100
AcDbVertex
100
AcDb2dVertex
 10
464.1974394261051
 20
412.8097574156527
 30
0.0
  0
VERTEX
  5
2F4
330
2F2
100
AcDbEntity
  8
Premier plan
 62
   250
420
  1709851
370
     9
100
AcDbVertex
100
AcDb2dVertex
 10
465.6154999558876
 20
415.9175733566135
 30
0.0
  0
SEQEND
  5
2F5
330
2F2
100
AcDbEntity
  8
Premier plan
 62
   250
420
  1709851
370
     9
  0
POLYLINE
  5
2F6
330
2DF
100
AcDbEntity
  8
Premier plan
 62
   250
420
  1709851
370
     9
100
AcDb2dPolyline
 66
     1
 10
0.0
 20
0.0
 30
0.0
  0
VERTEX
  5
2F7
330
2F6
100
AcDbEntity
  8
Premier plan
 62
   250
420
  1709851
370
     9
100
AcDbVertex
100
AcDb2dVertex
 10
433.1314224863982
 20
415.3061835891358
 30
0.0
  0
VERTEX
  5
2F8
330
2F6
100
AcDbEntity
  8
Premier plan
 62
   250
420
  1709851
370
     9
100
AcDbVertex
100
AcDb2dVertex
 10
434.2114459564837
 20
417.9742452153232
 30
0.0
  0
SEQEND
  5
2F9
330
2F6
100
AcDbEntity
  8
Premier plan
 62
   250
420
  1709851
370
     9
  0
POLYLINE
  5
2FA
330
2DF
100
AcDbEntity
  8
Premier plan
 62
   250
420
  1709851
370
     9
100
AcDb2dPolyline
 66
     1
 10
0.0
 20
0.0
 30
0.0
  0
VERTEX
  5
2FB
330
2FA
100
AcDbEntity
  8
Premier plan
 62
   250
420
  1709851
370
     9
100
AcDbVertex
100
AcDb2dVertex
 10
465.6268050365434
 20
412.630245766265
 30
0.0
  0
VERTEX
  5
2FC
330
2FA
100
AcDbEntity
  8
Premier plan
 62
   250
420
  1709851
370
     9
100
AcDbVertex
100
AcDb2dVertex
 10
464.1974394261051
 20
412.8097574156527
 30
0.0
  0
SEQEND
  5
2FD
330
2FA
100
AcDbEntity
  8
Premier plan
 62
   250
420
  1709851
370
     9
  0
POLYLINE
  5
2FE
330
2DF
100
AcDbEntity
  8
Premier plan
 62
   250
420
  1709851
370
     9
100
AcDb2dPolyline
 66
     1
 10
0.0
 20
0.0
 30
0.0
  0
VERTEX
  5
2FF
330
2FE
100
AcDbEntity
  8
Premier plan
 62
   250
420
  1709851
370
     9
100
AcDbVertex
100
AcDb2dVertex
 10
433.1314224863982
 20
415.3061835891358
 30
0.0
  0
VERTEX
  5
300
330
2FE
100
AcDbEntity
  8
Premier plan
 62
   250
420
  1709851
370
     9
100
AcDbVertex
100
AcDb2dVertex
 10
434.214563617672
 20
415.2853444854127
 30
0.0
  0
SEQEND
  5
301
330
2FE
100
AcDbEntity
  8
Premier plan
 62
   250
420
  1709851
370
     9
  0
ENDBLK
  5
2E2
330
2DF
100
AcDbEntity
  8
0
100
AcDbBlockEnd
  0
BLOCK
  5
304
330
302
100
AcDbEntity
  8
0
100
AcDbBlockBegin
  2
block 20
 70
     0
 10
0.0
 20
0.0
 30
0.0
  3
block 20
  1

  0
POLYLINE
  5
306
330
302
100
AcDbEntity
  8
Premier plan
  6
AI-Linetype-1
 62
   250
420
  1709851
370
     9
100
AcDb2dPolyline
 66
     1
 10
0.0
 20
0.0
 30
0.0
  0
VERTEX
  5
307
330
306
100
AcDbEntity
  8
Premier plan
  6
AI-Linetype-1
 62
   250
420
  1709851
370
     9
100
AcDbVertex
100
AcDb2dVertex
 10
413.4968845941476
 20
401.3508757672407
 30
0.0
  0
VERTEX
  5
308
330
306
100
AcDbEntity
  8
Premier plan
  6
AI-Linetype-1
 62
   250
420
  1709851
370
     9
100
AcDbVertex
100
AcDb2dVertex
 10
413.4968845941476
 20
385.0798020332677
 30
0.0
  0
VERTEX
  5
309
330
306
100
AcDbEntity
  8
Premier plan
  6
AI-Linetype-1
 62
   250
420
  1709851
370
     9
100
AcDbVertex
100
AcDb2dVertex
 10
415.6521729988217
 20
385.0638855524703
 30
0.0
  0
VERTEX
  5
30A
330
306
100
AcDbEntity
  8
Premier plan
  6
AI-Linetype-1
 62
   250
420
  1709851
370
     9
100
AcDbVertex
100
AcDb2dVertex
 10
415.6521729988217
 20
377.2232958424993
 30
0.0
  0
VERTEX
  5
30B
330
306
100
AcDbEntity
  8
Premier plan
  6
AI-Linetype-1
 62
   250
420
  1709851
370
     9
100
AcDbVertex
100
AcDb2dVertex
 10
414.3781981854299
 20
375.3612316768194
 30
0.0
  0
VERTEX
  5
30C
330
306
100
AcDbEntity
  8
Premier plan
  6
AI-Linetype-1
 62
   250
420
  1709851
370
     9
100
AcDbVertex
100
AcDb2dVertex
 10
414.3781981854299
 20
368.8922646552528
 30
0.0
  0
SEQEND
  5
30E
330
306
100
AcDbEntity
  8
Premier plan
  6
AI-Linetype-1
 62
   250
420
  1709851
370
     9
  0
SPLINE
  5
30F
330
302
100
AcDbEntity
  8
Premier plan
  6
AI-Linetype-2
 62
   250
420
  1709851
370
     9
100
AcDbSpline
210
0.0
220
0.0
230
1.0
 70
     8
 71
     3
 72
    11
 73
     7
 74
     0
 42
0.0000000001
 43
0.0000000001
 12
1.0
 22
0.0
 32
0.0
 13
1.0
 23
0.0
 33
0.0
 40
0.0
 40
0.0
 40
0.0
 40
0.0
 40
1.0
 40
1.0
 40
1.0
 40
2.0
 40
2.0
 40
2.0
 40
2.0
 10
472.2398566760639
 20
403.5596566743816
 30
0.0
 10
472.0411639116628
 20
401.9132200807016
 30
0.0
 10
472.020471780972
 20
400.155334745813
 30
0.0
 10
472.020471780972
 20
398.404685945703
 30
0.0
 10
472.020471780972
 20
398.404685945703
 30
0.0
 10
472.020471780972
 20
354.5042424244748
 30
0.0
 10
472.020471780972
 20
354.5042424244748
 30
0.0
  0
SPLINE
  5
311
330
302
100
AcDbEntity
  8
Premier plan
  6
AI-Linetype-3
 62
   250
420
  1709851
370
     9
100
AcDbSpline
210
0.0
220
0.0
230
1.0
 70
     8
 71
     3
 72
    14
 73
    10
 74
     0
 42
0.0000000001
 43
0.0000000001
 12
1.0
 22
0.0
 32
0.0
 13
1.0
 23
0.0
 33
0.0
 40
0.0
 40
0.0
 40
0.0
 40
0.0
 40
1.0
 40
1.0
 40
1.0
 40
2.0
 40
2.0
 40
2.0
 40
3.0
 40
3.0
 40
3.0
 40
3.0
 10
407.5680775414185
 20
402.6079495752492
 30
0.0
 10
407.5680775414185
 20
402.6079495752492
 30
0.0
 10
407.0087034895314
 20
402.0598975560933
 30
0.0
 10
407.0087034895314
 20
402.0598975560933
 30
0.0
 10
406.322982115862
 20
400.8876736117636
 30
0.0
 10
405.9655996913934
 20
399.4999695468596
 30
0.0
 10
405.9655996913934
 20
398.0778237833802
 30
0.0
 10
405.9655996913934
 20
398.0778237833802
 30
0.0
 10
405.9655996913934
 20
361.091696424779
 30
0.0
 10
405.9655996913934
 20
361.091696424779
 30
0.0
  0
SPLINE
  5
313
330
302
100
AcDbEntity
  8
Premier plan
  6
AI-Linetype-4
 62
   250
420
  1709851
370
     9
100
AcDbSpline
210
0.0
220
0.0
230
1.0
 70
     8
 71
     3
 72
    14
 73
    10
 74
     0
 42
0.0000000001
 43
0.0000000001
 12
1.0
 22
0.0
 32
0.0
 13
1.0
 23
0.0
 33
0.0
 40
0.0
 40
0.0
 40
0.0
 40
0.0
 40
1.0
 40
1.0
 40
1.0
 40
2.0
 40
2.0
 40
2.0
 40
3.0
 40
3.0
 40
3.0
 40
3.0
 10
472.5668829258193
 20
403.6896139196424
 30
0.0
 10
472.7655928046206
 20
401.9990211192362
 30
0.0
 10
473.4465556427913
 20
400.6938696939778
 30
0.0
 10
473.8520156845098
 20
399.6153230107711
 30
0.0
 10
474.7878063028438
 20
397.3071051205143
 30
0.0
 10
476.1018184493696
 20
393.2754769436724
 30
0.0
 10
476.1018184493696
 20
390.6458117763123
 30
0.0
 10
476.1018184493696
 20
390.6458117763123
 30
0.0
 10
476.1018184493696
 20
355.7010961453507
 30
0.0
 10
476.1018184493696
 20
355.7010961453507
 30
0.0
  0
POLYLINE
  5
315
330
302
100
AcDbEntity
  8
Premier plan
  6
AI-Linetype-5
 62
   250
420
  1709851
370
     9
100
AcDb2dPolyline
 66
     1
 10
0.0
 20
0.0
 30
0.0
  0
VERTEX
  5
316
330
315
100
AcDbEntity
  8
Premier plan
  6
AI-Linetype-5
 62
   250
420
  1709851
370
     9
100
AcDbVertex
100
AcDb2dVertex
 10
415.6521729988217
 20
385.0638855524703
 30
0.0
  0
VERTEX
  5
317
330
315
100
AcDbEntity
  8
Premier plan
  6
AI-Linetype-5
 62
   250
420
  1709851
370
     9
100
AcDbVertex
100
AcDb2dVertex
 10
413.4968845941476
 20
382.5047779803899
 30
0.0
  0
SEQEND
  5
319
330
315
100
AcDbEntity
  8
Premier plan
  6
AI-Linetype-5
 62
   250
420
  1709851
370
     9
  0
POLYLINE
  5
31A
330
302
100
AcDbEntity
  8
Premier plan
  6
AI-Linetype-6
 62
   250
420
  1709851
370
     9
100
AcDb2dPolyline
 66
     1
 10
0.0
 20
0.0
 30
0.0
  0
VERTEX
  5
31B
330
31A
100
AcDbEntity
  8
Premier plan
  6
AI-Linetype-6
 62
   250
420
  1709851
370
     9
100
AcDbVertex
100
AcDb2dVertex
 10
413.4968845941476
 20
385.0798020332677
 30
0.0
  0
VERTEX
  5
31C
330
31A
100
AcDbEntity
  8
Premier plan
  6
AI-Linetype-6
 62
   250
420
  1709851
370
     9
100
AcDbVertex
100
AcDb2dVertex
 10
413.4968845941476
 20
382.5047779803899
 30
0.0
  0
SEQEND
  5
31E
330
31A
100
AcDbEntity
  8
Premier plan
  6
AI-Linetype-6
 62
   250
420
  1709851
370
     9
  0
POLYLINE
  5
31F
330
302
100
AcDbEntity
  8
Premier plan
  6
AI-Linetype-7
 62
   250
420
  1709851
370
     9
100
AcDb2dPolyline
 66
     1
 10
0.0
 20
0.0
 30
0.0
  0
VERTEX
  5
320
330
31F
100
AcDbEntity
  8
Premier plan
  6
AI-Linetype-7
 62
   250
420
  1709851
370
     9
100
AcDbVertex
100
AcDb2dVertex
 10
484.5176986920251
 20
378.5212274207988
 30
0.0
  0
VERTEX
  5
321
330
31F
100
AcDbEntity
  8
Premier plan
  6
AI-Linetype-7
 62
   250
420
  1709851
370
     9
100
AcDbVertex
100
AcDb2dVertex
 10
482.5289590296998
 20
375.963760723027
 30
0.0
  0
SEQEND
  5
323
330
31F
100
AcDbEntity
  8
Premier plan
  6
AI-Linetype-7
 62
   250
420
  1709851
370
     9
  0
POLYLINE
  5
324
330
302
100
AcDbEntity
  8
Premier plan
  6
AI-Linetype-8
 62
   250
420
  1709851
370
     9
100
AcDb2dPolyline
 66
     1
 10
0.0
 20
0.0
 30
0.0
  0
VERTEX
  5
325
330
324
100
AcDbEntity
  8
Premier plan
  6
AI-Linetype-8
 62
   250
420
  1709851
370
     9
100
AcDbVertex
100
AcDb2dVertex
 10
482.5289590296998
 20
378.554865344131
 30
0.0
  0
VERTEX
  5
326
330
324
100
AcDbEntity
  8
Premier plan
  6
AI-Linetype-8
 62
   250
420
  1709851
370
     9
100
AcDbVertex
100
AcDb2dVertex
 10
482.5289590296998
 20
375.963760723027
 30
0.0
  0
SEQEND
  5
328
330
324
100
AcDbEntity
  8
Premier plan
  6
AI-Linetype-8
 62
   250
420
  1709851
370
     9
  0
POLYLINE
  5
329
330
302
100
AcDbEntity
  8
Premier plan
  6
AI-Linetype-9
 62
   250
420
  1709851
370
     9
100
AcDb2dPolyline
 66
     1
 10
0.0
 20
0.0
 30
0.0
  0
VERTEX
  5
32A
330
329
100
AcDbEntity
  8
Premier plan
  6
AI-Linetype-9
 62
   250
420
  1709851
370
     9
100
AcDbVertex
100
AcDb2dVertex
 10
412.1797547864353
 20
364.7803818710709
 30
0.0
  0
VERTEX
  5
32B
330
329
100
AcDbEntity
  8
Premier plan
  6
AI-Linetype-9
 62
   250
420
  1709851
370
     9
100
AcDbVertex
100
AcDb2dVertex
 10
412.1764730378181
 20
347.6042018683347
 30
0.0
  0
SEQEND
  5
32D
330
329
100
AcDbEntity
  8
Premier plan
  6
AI-Linetype-9
 62
   250
420
  1709851
370
     9
  0
POLYLINE
  5
32E
330
302
100
AcDbEntity
  8
Premier plan
  6
AI-Linetype-10
 62
   250
420
  1709851
370
     9
100
AcDb2dPolyline
 66
     1
 10
0.0
 20
0.0
 30
0.0
  0
VERTEX
  5
32F
330
32E
100
AcDbEntity
  8
Premier plan
  6
AI-Linetype-10
 62
   250
420
  1709851
370
     9
100
AcDbVertex
100
AcDb2dVertex
 10
483.1989280100024
 20
353.9561904053207
 30
0.0
  0
VERTEX
  5
330
330
32E
100
AcDbEntity
  8
Premier plan
  6
AI-Linetype-10
 62
   250
420
  1709851
370
     9
100
AcDbVertex
100
AcDb2dVertex
 10
465.6635606210621
 20
354.7669464013234
 30
0.0
  0
SEQEND
  5
332
330
32E
100
AcDbEntity
  8
Premier plan
  6
AI-Linetype-10
 62
   250
420
  1709851
370
     9
  0
SPLINE
  5
333
330
302
100
AcDbEntity
  8
Premier plan
  6
AI-Linetype-11
 62
   250
420
  1709851
370
     9
100
AcDbSpline
210
0.0
220
0.0
230
1.0
 70
     8
 71
     3
 72
    14
 73
    10
 74
     0
 42
0.0000000001
 43
0.0000000001
 12
1.0
 22
0.0
 32
0.0
 13
1.0
 23
0.0
 33
0.0
 40
0.0
 40
0.0
 40
0.0
 40
0.0
 40
1.0
 40
1.0
 40
1.0
 40
2.0
 40
2.0
 40
2.0
 40
3.0
 40
3.0
 40
3.0
 40
3.0
 10
465.6635606210621
 20
363.8687121050734
 30
0.0
 10
465.6763594406711
 20
360.7359548746208
 30
0.0
 10
461.7906218453372
 20
357.7170743212009
 30
0.0
 10
454.4836276051519
 20
355.885530417665
 30
0.0
 10
442.4574957081713
 20
352.8664857768144
 30
0.0
 10
425.7136860858191
 20
354.2013370270633
 30
0.0
 10
417.0862971447532
 20
358.8660145122576
 30
0.0
 10
413.7069165056801
 20
360.6926357928678
 30
0.0
 10
412.0739183935148
 20
362.7598092471544
 30
0.0
 10
412.0627604482142
 20
364.7803818710709
 30
0.0
  0
INSERT
  5
336
330
302
100
AcDbEntity
  8
Premier plan
100
AcDbBlockReference
  2
block 21
 10
0.0
 20
0.0
 30
0.0
  0
SPLINE
  5
33B
330
302
100
AcDbEntity
  8
Premier plan
  6
AI-Linetype-13
 62
   250
420
  1709851
370
     9
100
AcDbSpline
210
0.0
220
0.0
230
1.0
 70
     8
 71
     3
 72
    14
 73
    10
 74
     0
 42
0.0000000001
 43
0.0000000001
 12
1.0
 22
0.0
 32
0.0
 13
1.0
 23
0.0
 33
0.0
 40
0.0
 40
0.0
 40
0.0
 40
0.0
 40
1.0
 40
1.0
 40
1.0
 40
2.0
 40
2.0
 40
2.0
 40
3.0
 40
3.0
 40
3.0
 40
3.0
 10
420.7159111159272
 20
361.1862107849684
 30
0.0
 10
422.1547937973573
 20
362.1700790205541
 30
0.0
 10
424.218685503025
 20
363.0385937922274
 30
0.0
 10
426.8691897741101
 20
363.7052810239129
 30
0.0
 10
436.1038662968786
 20
366.0207345422277
 30
0.0
 10
448.9599524192763
 20
364.9968289476401
 30
0.0
 10
455.5844901789606
 20
361.4154409259154
 30
0.0
 10
455.5844901789606
 20
361.4154409259154
 30
0.0
 10
456.992852598245
 20
360.5452852799335
 30
0.0
 10
456.992852598245
 20
360.5452852799335
 30
0.0
  0
SPLINE
  5
33D
330
302
100
AcDbEntity
  8
Premier plan
  6
AI-Linetype-14
 62
   250
420
  1709851
370
     9
100
AcDbSpline
210
0.0
220
0.0
230
1.0
 70
     8
 71
     3
 72
    14
 73
    10
 74
     0
 42
0.0000000001
 43
0.0000000001
 12
1.0
 22
0.0
 32
0.0
 13
1.0
 23
0.0
 33
0.0
 40
0.0
 40
0.0
 40
0.0
 40
0.0
 40
1.0
 40
1.0
 40
1.0
 40
2.0
 40
2.0
 40
2.0
 40
3.0
 40
3.0
 40
3.0
 40
3.0
 10
425.2667119240887
 20
358.8883304028568
 30
0.0
 10
426.0983229775975
 20
359.9941155995893
 30
0.0
 10
427.9170521077394
 20
360.9858600318585
 30
0.0
 10
430.6348322254871
 20
361.6686278317702
 30
0.0
 10
436.9707564226901
 20
363.2581427747518
 30
0.0
 10
445.7888151812058
 20
362.5546999585495
 30
0.0
 10
450.3333642157813
 20
360.0981470307706
 30
0.0
 10
451.3347898064731
 20
359.5566585088509
 30
0.0
 10
452.0462729067895
 20
358.9764609563881
 30
0.0
 10
452.9453079406067
 20
358.3804798042693
 30
0.0
  0
POLYLINE
  5
33F
330
302
100
AcDbEntity
  8
Premier plan
  6
AI-Linetype-15
 62
   250
420
  1709851
370
     9
100
AcDb2dPolyline
 66
     1
 10
0.0
 20
0.0
 30
0.0
  0
VERTEX
  5
340
330
33F
100
AcDbEntity
  8
Premier plan
  6
AI-Linetype-15
 62
   250
420
  1709851
370
     9
100
AcDbVertex
100
AcDb2dVertex
 10
465.6635606210621
 20
363.8687121050734
 30
0.0
  0
VERTEX
  5
341
330
33F
100
AcDbEntity
  8
Premier plan
  6
AI-Linetype-15
 62
   250
420
  1709851
370
     9
100
AcDbVertex
100
AcDb2dVertex
 10
465.6635606210621
 20
354.7669464013234
 30
0.0
  0
SEQEND
  5
343
330
33F
100
AcDbEntity
  8
Premier plan
  6
AI-Linetype-15
 62
   250
420
  1709851
370
     9
  0
SPLINE
  5
344
330
302
100
AcDbEntity
  8
Premier plan
  6
AI-Linetype-16
 62
   250
420
  1709851
370
     9
100
AcDbSpline
210
0.0
220
0.0
230
1.0
 70
     8
 71
     3
 72
    32
 73
    28
 74
     0
 42
0.0000000001
 43
0.0000000001
 12
1.0
 22
0.0
 32
0.0
 13
1.0
 23
0.0
 33
0.0
 40
0.0
 40
0.0
 40
0.0
 40
0.0
 40
1.0
 40
1.0
 40
1.0
 40
2.0
 40
2.0
 40
2.0
 40
3.0
 40
3.0
 40
3.0
 40
4.0
 40
4.0
 40
4.0
 40
5.0
 40
5.0
 40
5.0
 40
6.0
 40
6.0
 40
6.0
 40
7.0
 40
7.0
 40
7.0
 40
8.0
 40
8.0
 40
8.0
 40
9.0
 40
9.0
 40
9.0
 40
9.0
 10
392.772970248252
 20
281.2577464140777
 30
0.0
 10
392.772970248252
 20
281.2577464140777
 30
0.0
 10
392.772970248252
 20
323.7378491335639
 30
0.0
 10
392.772970248252
 20
323.7378491335639
 30
0.0
 10
392.772970248252
 20
325.5180336712365
 30
0.0
 10
394.9088963360791
 20
325.9843701498085
 30
0.0
 10
395.4617068907319
 20
324.6255621346536
 30
0.0
 10
397.4135268811078
 20
318.4050076298063
 30
0.0
 10
400.5190455980337
 20
315.3620207253953
 30
0.0
 10
404.8102600905349
 20
315.3620207253953
 30
0.0
 10
408.0406493423652
 20
315.410083841296
 30
0.0
 10
411.473030221614
 20
317.4403376236351
 30
0.0
 10
411.473030221614
 20
321.3101902452363
 30
0.0
 10
411.473030221614
 20
321.3101902452363
 30
0.0
 10
411.473030221614
 20
327.7711181847153
 30
0.0
 10
411.473030221614
 20
327.7711181847153
 30
0.0
 10
411.473030221614
 20
330.2947828717242
 30
0.0
 10
412.9954334053637
 20
331.5111629968724
 30
0.0
 10
415.4454228359064
 20
331.5111629968724
 30
0.0
 10
415.4454228359064
 20
331.5111629968724
 30
0.0
 10
421.991362716195
 20
330.926191305769
 30
0.0
 10
421.991362716195
 20
330.926191305769
 30
0.0
 10
424.4558077529473
 20
330.8749960273326
 30
0.0
 10
425.5294159009354
 20
330.1346335391809
 30
0.0
 10
425.5294159009354
 20
326.6669738622913
 30
0.0
 10
425.5294159009354
 20
326.6669738622913
 30
0.0
 10
427.2505289634864
 20
267.7013351366641
 30
0.0
 10
427.2505289634864
 20
267.7013351366641
 30
0.0
  0
POLYLINE
  5
346
330
302
100
AcDbEntity
  8
Premier plan
  6
AI-Linetype-17
 62
   250
420
  1709851
370
     9
100
AcDb2dPolyline
 66
     1
 10
0.0
 20
0.0
 30
0.0
  0
VERTEX
  5
347
330
346
100
AcDbEntity
  8
Premier plan
  6
AI-Linetype-17
 62
   250
420
  1709851
370
     9
100
AcDbVertex
100
AcDb2dVertex
 10
406.3516974162685
 20
313.7226087020772
 30
0.0
  0
VERTEX
  5
348
330
346
100
AcDbEntity
  8
Premier plan
  6
AI-Linetype-17
 62
   250
420
  1709851
370
     9
100
AcDbVertex
100
AcDb2dVertex
 10
406.3516974162685
 20
285.7829495830192
 30
0.0
  0
SEQEND
  5
34A
330
346
100
AcDbEntity
  8
Premier plan
  6
AI-Linetype-17
 62
   250
420
  1709851
370
     9
  0
SPLINE
  5
34B
330
302
100
AcDbEntity
  8
Premier plan
  6
AI-Linetype-18
 62
   250
420
  1709851
370
     9
100
AcDbSpline
210
0.0
220
0.0
230
1.0
 70
     8
 71
     3
 72
    47
 73
    43
 74
     0
 42
0.0000000001
 43
0.0000000001
 12
1.0
 22
0.0
 32
0.0
 13
1.0
 23
0.0
 33
0.0
 40
0.0
 40
0.0
 40
0.0
 40
0.0
 40
1.0
 40
1.0
 40
1.0
 40
2.0
 40
2.0
 40
2.0
 40
3.0
 40
3.0
 40
3.0
 40
4.0
 40
4.0
 40
4.0
 40
5.0
 40
5.0
 40
5.0
 40
6.0
 40
6.0
 40
6.0
 40
7.0
 40
7.0
 40
7.0
 40
8.0
 40
8.0
 40
8.0
 40
9.0
 40
9.0
 40
9.0
 40
10.0
 40
10.0
 40
10.0
 40
11.0
 40
11.0
 40
11.0
 40
12.0
 40
12.0
 40
12.0
 40
13.0
 40
13.0
 40
13.0
 40
14.0
 40
14.0
 40
14.0
 40
14.0
 10
412.0675189837093
 20
356.7026858234713
 30
0.0
 10
412.0675189837093
 20
356.7026858234713
 30
0.0
 10
396.2726269741652
 20
352.3793101945175
 30
0.0
 10
396.2726269741652
 20
352.3793101945175
 30
0.0
 10
396.2726269741652
 20
352.3793101945175
 30
0.0
 10
397.0817420958574
 20
327.8736876464391
 30
0.0
 10
397.0817420958574
 20
327.8736876464391
 30
0.0
 10
397.3268887176
 20
323.5166592767309
 30
0.0
 10
400.2962148668921
 20
319.0475740091515
 30
0.0
 10
402.9370379795528
 20
319.0475740091515
 30
0.0
 10
405.5184768761301
 20
319.0475740091515
 30
0.0
 10
406.6626430977922
 20
320.1899507029721
 30
0.0
 10
406.6626430977922
 20
322.9188887660184
 30
0.0
 10
406.6626430977922
 20
322.9188887660184
 30
0.0
 10
406.6626430977922
 20
345.6235024901252
 30
0.0
 10
406.6626430977922
 20
345.6235024901252
 30
0.0
 10
406.6626430977922
 20
345.6235024901252
 30
0.0
 10
421.433793626049
 20
350.1280306427761
 30
0.0
 10
421.433793626049
 20
350.1280306427761
 30
0.0
 10
429.2502624836798
 20
347.97439843762
 30
0.0
 10
437.8970137415872
 20
347.2548597279838
 30
0.0
 10
447.3735551374812
 20
347.9663428282984
 30
0.0
 10
447.3735551374812
 20
347.9663428282984
 30
0.0
 10
457.3694332521245
 20
341.9315352952162
 30
0.0
 10
457.3694332521245
 20
341.9315352952162
 30
0.0
 10
457.3694332521245
 20
341.9315352952162
 30
0.0
 10
457.3694332521245
 20
319.9400601627385
 30
0.0
 10
457.3694332521245
 20
319.9400601627385
 30
0.0
 10
457.3694332521245
 20
315.1488566513272
 30
0.0
 10
461.1431159876156
 20
313.1617578633122
 30
0.0
 10
465.9344689694535
 20
314.214542819871
 30
0.0
 10
470.5911061705337
 20
315.2353307274025
 30
0.0
 10
472.3968883474208
 20
320.4561005158666
 30
0.0
 10
472.5668829258193
 20
325.1992117930258
 30
0.0
 10
472.5668829258193
 20
325.1992117930258
 30
0.0
 10
473.3471186596762
 20
346.25491092417
 30
0.0
 10
473.3471186596762
 20
346.25491092417
 30
0.0
 10
473.3471186596762
 20
346.25491092417
 30
0.0
 10
462.083829228879
 20
352.5155027621513
 30
0.0
 10
462.083829228879
 20
352.5155027621513
 30
0.0
 10
462.083829228879
 20
352.5155027621513
 30
0.0
 10
465.6635606210621
 20
354.7669464013234
 30
0.0
 10
465.6635606210621
 20
354.7669464013234
 30
0.0
  0
SPLINE
  5
34D
330
302
100
AcDbEntity
  8
Premier plan
  6
AI-Linetype-19
 62
   250
420
  1709851
370
     9
100
AcDbSpline
210
0.0
220
0.0
230
1.0
 70
     8
 71
     3
 72
    14
 73
    10
 74
     0
 42
0.0000000001
 43
0.0000000001
 12
1.0
 22
0.0
 32
0.0
 13
1.0
 23
0.0
 33
0.0
 40
0.0
 40
0.0
 40
0.0
 40
0.0
 40
1.0
 40
1.0
 40
1.0
 40
2.0
 40
2.0
 40
2.0
 40
3.0
 40
3.0
 40
3.0
 40
3.0
 10
405.0473664281635
 20
315.3620207253953
 30
0.0
 10
405.0473664281635
 20
315.3620207253953
 30
0.0
 10
415.9759174999563
 20
316.3170095972728
 30
0.0
 10
415.9759174999563
 20
316.3170095972728
 30
0.0
 10
419.2240281943232
 20
316.6871763158724
 30
0.0
 10
422.3855007251805
 20
319.170967757178
 30
0.0
 10
422.3855007251805
 20
326.4457840054583
 30
0.0
 10
422.3855007251805
 20
326.4457840054583
 30
0.0
 10
422.3855007251805
 20
330.7130417330482
 30
0.0
 10
422.3855007251805
 20
330.7130417330482
 30
0.0
  0
SPLINE
  5
34F
330
302
100
AcDbEntity
  8
Premier plan
  6
AI-Linetype-20
 62
   250
420
  1709851
370
     9
100
AcDbSpline
210
0.0
220
0.0
230
1.0
 70
     8
 71
     3
 72
     8
 73
     4
 74
     0
 42
0.0000000001
 43
0.0000000001
 12
1.0
 22
0.0
 32
0.0
 13
1.0
 23
0.0
 33
0.0
 40
0.0
 40
0.0
 40
0.0
 40
0.0
 40
1.0
 40
1.0
 40
1.0
 40
1.0
 10
396.2726269741652
 20
352.3793101945175
 30
0.0
 10
392.6704307132768
 20
353.7991587339638
 30
0.0
 10
390.0103942618753
 20
355.5809841459431
 30
0.0
 10
388.2892961979742
 20
357.7265913921929
 30
0.0
  0
SPLINE
  5
351
330
302
100
AcDbEntity
  8
Premier plan
  6
AI-Linetype-21
 62
   250
420
  1709851
370
     9
100
AcDbSpline
210
0.0
220
0.0
230
1.0
 70
     8
 71
     3
 72
     8
 73
     4
 74
     0
 42
0.0000000001
 43
0.0000000001
 12
1.0
 22
0.0
 32
0.0
 13
1.0
 23
0.0
 33
0.0
 40
0.0
 40
0.0
 40
0.0
 40
0.0
 40
1.0
 40
1.0
 40
1.0
 40
1.0
 10
406.6626430977922
 20
345.6235024901252
 30
0.0
 10
420.7318275967227
 20
340.1994283747954
 30
0.0
 10
437.6341456773116
 20
338.9671317688499
 30
0.0
 10
457.3694332521245
 20
341.9315352952162
 30
0.0
  0
SPLINE
  5
353
330
302
100
AcDbEntity
  8
Premier plan
  6
AI-Linetype-22
 62
   250
420
  1709851
370
     9
100
AcDbSpline
210
0.0
220
0.0
230
1.0
 70
     8
 71
     3
 72
     8
 73
     4
 74
     0
 42
0.0000000001
 43
0.0000000001
 12
1.0
 22
0.0
 32
0.0
 13
1.0
 23
0.0
 33
0.0
 40
0.0
 40
0.0
 40
0.0
 40
0.0
 40
1.0
 40
1.0
 40
1.0
 40
1.0
 10
473.3471186596762
 20
346.25491092417
 30
0.0
 10
478.3772188534513
 20
347.1234256958451
 30
0.0
 10
482.722910373006
 20
348.5111130988371
 30
0.0
 10
486.3876390543883
 20
350.4179731331496
 30
0.0
  0
SPLINE
  5
355
330
302
100
AcDbEntity
  8
Premier plan
  6
AI-Linetype-23
 62
   250
420
  1709851
370
     9
100
AcDbSpline
210
0.0
220
0.0
230
1.0
 70
     8
 71
     3
 72
    11
 73
     7
 74
     0
 42
0.0000000001
 43
0.0000000001
 12
1.0
 22
0.0
 32
0.0
 13
1.0
 23
0.0
 33
0.0
 40
0.0
 40
0.0
 40
0.0
 40
0.0
 40
1.0
 40
1.0
 40
1.0
 40
2.0
 40
2.0
 40
2.0
 40
2.0
 10
457.4096346726928
 20
320.64184748763
 30
0.0
 10
460.3707564504384
 20
322.1545695129571
 30
0.0
 10
462.2569414684604
 20
326.3529105195776
 30
0.0
 10
462.3914931617874
 20
330.1585903040886
 30
0.0
 10
462.3914931617874
 20
330.1585903040886
 30
0.0
 10
462.083829228879
 20
352.5155027621513
 30
0.0
 10
462.083829228879
 20
352.5155027621513
 30
0.0
  0
SPLINE
  5
357
330
302
100
AcDbEntity
  8
Premier plan
  6
AI-Linetype-24
 62
   250
420
  1709851
370
     9
100
AcDbSpline
210
0.0
220
0.0
230
1.0
 70
     8
 71
     3
 72
    32
 73
    28
 74
     0
 42
0.0000000001
 43
0.0000000001
 12
1.0
 22
0.0
 32
0.0
 13
1.0
 23
0.0
 33
0.0
 40
0.0
 40
0.0
 40
0.0
 40
0.0
 40
1.0
 40
1.0
 40
1.0
 40
2.0
 40
2.0
 40
2.0
 40
3.0
 40
3.0
 40
3.0
 40
4.0
 40
4.0
 40
4.0
 40
5.0
 40
5.0
 40
5.0
 40
6.0
 40
6.0
 40
6.0
 40
7.0
 40
7.0
 40
7.0
 40
8.0
 40
8.0
 40
8.0
 40
9.0
 40
9.0
 40
9.0
 40
9.0
 10
433.5608392930244
 20
266.9993691073378
 30
0.0
 10
433.5608392930244
 20
266.9993691073378
 30
0.0
 10
435.7993200251567
 20
325.9202119643323
 30
0.0
 10
435.7993200251567
 20
325.9202119643323
 30
0.0
 10
435.7978432382788
 20
328.1683738548891
 30
0.0
 10
437.066895428743
 20
329.2917164067239
 30
0.0
 10
439.6082815582868
 20
329.2900755324172
 30
0.0
 10
439.6082815582868
 20
329.2900755324172
 30
0.0
 10
448.1700355269968
 20
329.1138456316457
 30
0.0
 10
448.1700355269968
 20
329.1138456316457
 30
0.0
 10
450.7130791064574
 20
329.0994207861149
 30
0.0
 10
452.05743085209
 20
327.8720467720923
 30
0.0
 10
452.2016637038378
 20
325.4332004694679
 30
0.0
 10
452.2016637038378
 20
325.4332004694679
 30
0.0
 10
452.1424281412874
 20
319.1229047362867
 30
0.0
 10
452.1424281412874
 20
319.1229047362867
 30
0.0
 10
452.1424281412874
 20
313.8043242426593
 30
0.0
 10
458.1033963304726
 20
310.2406734187007
 30
0.0
 10
462.2520188455346
 20
310.2406734187007
 30
0.0
 10
466.6940296870198
 20
310.2406734187007
 30
0.0
 10
473.2670439934045
 20
312.3398439220109
 30
0.0
 10
475.343734518683
 20
319.3471976579476
 30
0.0
 10
476.2796892244514
 20
322.327681752542
 30
0.0
 10
479.2329348055155
 20
321.7412332745589
 30
0.0
 10
479.2329348055155
 20
318.9369790807359
 30
0.0
 10
479.2329348055155
 20
318.9369790807359
 30
0.0
 10
479.2568915704251
 20
274.011645466202
 30
0.0
 10
479.2568915704251
 20
274.011645466202
 30
0.0
  0
SPLINE
  5
359
330
302
100
AcDbEntity
  8
Premier plan
  6
AI-Linetype-25
 62
   250
420
  1709851
370
     9
100
AcDbSpline
210
0.0
220
0.0
230
1.0
 70
     8
 71
     3
 72
    11
 73
     7
 74
     0
 42
0.0000000001
 43
0.0000000001
 12
1.0
 22
0.0
 32
0.0
 13
1.0
 23
0.0
 33
0.0
 40
0.0
 40
0.0
 40
0.0
 40
0.0
 40
1.0
 40
1.0
 40
1.0
 40
2.0
 40
2.0
 40
2.0
 40
2.0
 10
444.7809737294992
 20
329.0562509434058
 30
0.0
 10
444.7809737294992
 20
329.0562509434058
 30
0.0
 10
444.7007349757987
 20
321.8580635253475
 30
0.0
 10
444.7007349757987
 20
321.8580635253475
 30
0.0
 10
444.7007349757987
 20
318.1774183631696
 30
0.0
 10
447.5578253223648
 20
315.3362444973991
 30
0.0
 10
450.6905825528193
 20
313.9357582747962
 30
0.0
  0
POLYLINE
  5
35B
330
302
100
AcDbEntity
  8
Premier plan
  6
AI-Linetype-26
 62
   250
420
  1709851
370
     9
100
AcDb2dPolyline
 66
     1
 10
0.0
 20
0.0
 30
0.0
  0
VERTEX
  5
35C
330
35B
100
AcDbEntity
  8
Premier plan
  6
AI-Linetype-26
 62
   250
420
  1709851
370
     9
100
AcDbVertex
100
AcDb2dVertex
 10
458.9510719984228
 20
310.8832397980441
 30
0.0
  0
VERTEX
  5
35D
330
35B
100
AcDbEntity
  8
Premier plan
  6
AI-Linetype-26
 62
   250
420
  1709851
370
     9
100
AcDbVertex
100
AcDb2dVertex
 10
450.5657120179167
 20
313.9807182308596
 30
0.0
  0
SEQEND
  5
35F
330
35B
100
AcDbEntity
  8
Premier plan
  6
AI-Linetype-26
 62
   250
420
  1709851
370
     9
  0
POLYLINE
  5
360
330
302
100
AcDbEntity
  8
Premier plan
  6
AI-Linetype-27
 62
   250
420
  1709851
370
     9
100
AcDb2dPolyline
 66
     1
 10
0.0
 20
0.0
 30
0.0
  0
VERTEX
  5
361
330
360
100
AcDbEntity
  8
Premier plan
  6
AI-Linetype-27
 62
   250
420
  1709851
370
     9
100
AcDbVertex
100
AcDb2dVertex
 10
436.5989180758588
 20
271.7907220891757
 30
0.0
  0
VERTEX
  5
362
330
360
100
AcDbEntity
  8
Premier plan
  6
AI-Linetype-27
 62
   250
420
  1709851
370
     9
100
AcDbVertex
100
AcDb2dVertex
 10
439.6082815582868
 20
329.2900755324172
 30
0.0
  0
SEQEND
  5
364
330
360
100
AcDbEntity
  8
Premier plan
  6
AI-Linetype-27
 62
   250
420
  1709851
370
     9
  0
POLYLINE
  5
365
330
302
100
AcDbEntity
  8
Premier plan
  6
AI-Linetype-28
 62
   250
420
  1709851
370
     9
100
AcDb2dPolyline
 66
     1
 10
0.0
 20
0.0
 30
0.0
  0
VERTEX
  5
366
330
365
100
AcDbEntity
  8
Premier plan
  6
AI-Linetype-28
 62
   250
420
  1709851
370
     9
100
AcDbVertex
100
AcDb2dVertex
 10
469.1761972960394
 20
309.6333858369944
 30
0.0
  0
VERTEX
  5
367
330
365
100
AcDbEntity
  8
Premier plan
  6
AI-Linetype-28
 62
   250
420
  1709851
370
     9
100
AcDbVertex
100
AcDb2dVertex
 10
469.1761972960394
 20
280.8987367460359
 30
0.0
  0
SEQEND
  5
369
330
365
100
AcDbEntity
  8
Premier plan
  6
AI-Linetype-28
 62
   250
420
  1709851
370
     9
  0
SPLINE
  5
36A
330
302
100
AcDbEntity
  8
Premier plan
  6
AI-Linetype-29
 62
   250
420
  1709851
370
     9
100
AcDbSpline
210
0.0
220
0.0
230
1.0
 70
     8
 71
     3
 72
    23
 73
    19
 74
     0
 42
0.0000000001
 43
0.0000000001
 12
1.0
 22
0.0
 32
0.0
 13
1.0
 23
0.0
 33
0.0
 40
0.0
 40
0.0
 40
0.0
 40
0.0
 40
1.0
 40
1.0
 40
1.0
 40
2.0
 40
2.0
 40
2.0
 40
3.0
 40
3.0
 40
3.0
 40
4.0
 40
4.0
 40
4.0
 40
5.0
 40
5.0
 40
5.0
 40
6.0
 40
6.0
 40
6.0
 40
6.0
 10
412.0627604482142
 20
364.7803818710709
 30
0.0
 10
412.0452030931101
 20
367.9164208501425
 30
0.0
 10
415.9294807570168
 20
370.9385831521795
 30
0.0
 10
423.2444984258636
 20
372.7732447169037
 30
0.0
 10
426.3147383451487
 20
373.5425025640034
 30
0.0
 10
429.692642197344
 20
374.0296621751877
 30
0.0
 10
433.1634195354218
 20
374.2492111577121
 30
0.0
 10
433.1634195354218
 20
374.2492111577121
 30
0.0
 10
455.2382656997925
 20
371.8968537485471
 30
0.0
 10
455.2382656997925
 20
371.8968537485471
 30
0.0
 10
455.2382656997925
 20
371.8968537485471
 30
0.0
 10
455.5636510752356
 20
371.8871725901245
 30
0.0
 10
455.5636510752356
 20
371.8871725901245
 30
0.0
 10
457.4511487927048
 20
371.2894020794101
 30
0.0
 10
459.1642215711436
 20
370.5892410118249
 30
0.0
 10
460.6400239245231
 20
369.7912838354332
 30
0.0
 10
464.0259680608306
 20
367.9612167187734
 30
0.0
 10
465.6635606210621
 20
365.8684456252686
 30
0.0
 10
465.6635606210621
 20
363.8687121050734
 30
0.0
  0
POLYLINE
  5
36C
330
302
100
AcDbEntity
  8
Premier plan
  6
AI-Linetype-30
 62
   250
420
  1709851
370
     9
100
AcDb2dPolyline
 66
     1
 10
0.0
 20
0.0
 30
0.0
  0
VERTEX
  5
36D
330
36C
100
AcDbEntity
  8
Premier plan
  6
AI-Linetype-30
 62
   250
420
  1709851
370
     9
100
AcDbVertex
100
AcDb2dVertex
 10
399.8315192626251
 20
360.320977761914
 30
0.0
  0
VERTEX
  5
36E
330
36C
100
AcDbEntity
  8
Premier plan
  6
AI-Linetype-30
 62
   250
420
  1709851
370
     9
100
AcDbVertex
100
AcDb2dVertex
 10
412.1797547864353
 20
359.6656281835112
 30
0.0
  0
SEQEND
  5
370
330
36C
100
AcDbEntity
  8
Premier plan
  6
AI-Linetype-30
 62
   250
420
  1709851
370
     9
  0
SPLINE
  5
371
330
302
100
AcDbEntity
  8
Premier plan
  6
AI-Linetype-31
 62
   250
420
  1709851
370
     9
100
AcDbSpline
210
0.0
220
0.0
230
1.0
 70
     8
 71
     3
 72
    83
 73
    79
 74
     0
 42
0.0000000001
 43
0.0000000001
 12
1.0
 22
0.0
 32
0.0
 13
1.0
 23
0.0
 33
0.0
 40
0.0
 40
0.0
 40
0.0
 40
0.0
 40
1.0
 40
1.0
 40
1.0
 40
2.0
 40
2.0
 40
2.0
 40
3.0
 40
3.0
 40
3.0
 40
4.0
 40
4.0
 40
4.0
 40
5.0
 40
5.0
 40
5.0
 40
6.0
 40
6.0
 40
6.0
 40
7.0
 40
7.0
 40
7.0
 40
8.0
 40
8.0
 40
8.0
 40
9.0
 40
9.0
 40
9.0
 40
10.0
 40
10.0
 40
10.0
 40
11.0
 40
11.0
 40
11.0
 40
12.0
 40
12.0
 40
12.0
 40
13.0
 40
13.0
 40
13.0
 40
14.0
 40
14.0
 40
14.0
 40
15.0
 40
15.0
 40
15.0
 40
16.0
 40
16.0
 40
16.0
 40
17.0
 40
17.0
 40
17.0
 40
18.0
 40
18.0
 40
18.0
 40
19.0
 40
19.0
 40
19.0
 40
20.0
 40
20.0
 40
20.0
 40
21.0
 40
21.0
 40
21.0
 40
22.0
 40
22.0
 40
22.0
 40
23.0
 40
23.0
 40
23.0
 40
24.0
 40
24.0
 40
24.0
 40
25.0
 40
25.0
 40
25.0
 40
26.0
 40
26.0
 40
26.0
 40
26.0
 10
481.766280650947
 20
403.8842216126723
 30
0.0
 10
481.8816341148595
 20
402.6719436732938
 30
0.0
 10
481.9265940709229
 20
401.2547205327419
 30
0.0
 10
481.9265940709229
 20
399.5761061147905
 30
0.0
 10
481.9265940709229
 20
399.5761061147905
 30
0.0
 10
482.5289590296998
 20
378.554865344131
 30
0.0
 10
482.5289590296998
 20
378.554865344131
 30
0.0
 10
482.5289590296998
 20
378.554865344131
 30
0.0
 10
484.5176986920251
 20
378.5212274207988
 30
0.0
 10
484.5176986920251
 20
378.5212274207988
 30
0.0
 10
484.5176986920251
 20
378.5212274207988
 30
0.0
 10
484.5176986920251
 20
371.6595833234878
 30
0.0
 10
484.5176986920251
 20
371.6595833234878
 30
0.0
 10
484.5176986920251
 20
371.6595833234878
 30
0.0
 10
483.0834104586593
 20
369.4914960992064
 30
0.0
 10
483.0834104586593
 20
369.4914960992064
 30
0.0
 10
483.0834104586593
 20
369.4914960992064
 30
0.0
 10
483.0819336717814
 20
353.9561904053207
 30
0.0
 10
483.0819336717814
 20
353.9561904053207
 30
0.0
 10
483.0819336717814
 20
353.9561904053207
 30
0.0
 10
486.1969869317054
 20
352.1950400096321
 30
0.0
 10
486.1969869317054
 20
352.1950400096321
 30
0.0
 10
486.6921853261119
 20
352.0060267163099
 30
0.0
 10
487.3217887984156
 20
350.8731516664266
 30
0.0
 10
487.3217887984156
 20
349.8892988044227
 30
0.0
 10
487.3217887984156
 20
349.8892988044227
 30
0.0
 10
486.1521735910683
 20
276.6989053218022
 30
0.0
 10
486.1521735910683
 20
276.6989053218022
 30
0.0
 10
486.1521735910683
 20
276.6989053218022
 30
0.0
 10
479.3738859086461
 20
274.011645466202
 30
0.0
 10
479.3738859086461
 20
274.011645466202
 30
0.0
 10
479.3738859086461
 20
274.011645466202
 30
0.0
 10
471.3104654675317
 20
279.270647626061
 30
0.0
 10
471.3104654675317
 20
279.270647626061
 30
0.0
 10
470.5236662364405
 20
279.7947428803072
 30
0.0
 10
469.5878756181046
 20
279.677748542088
 30
0.0
 10
468.506375361143
 20
278.9198422795744
 30
0.0
 10
461.4301049042315
 20
274.5596974853579
 30
0.0
 10
450.7931371971226
 20
272.1832192238526
 30
0.0
 10
436.5989180758588
 20
271.7907220891757
 30
0.0
 10
436.5989180758588
 20
271.7907220891757
 30
0.0
 10
433.5608392930244
 20
266.9993691073378
 30
0.0
 10
433.5608392930244
 20
266.9993691073378
 30
0.0
 10
433.5608392930244
 20
266.9993691073378
 30
0.0
 10
427.2505289634864
 20
267.7013351366641
 30
0.0
 10
427.2505289634864
 20
267.7013351366641
 30
0.0
 10
427.2505289634864
 20
267.7013351366641
 30
0.0
 10
426.8995459488233
 20
273.0420528371033
 30
0.0
 10
426.8995459488233
 20
273.0420528371033
 30
0.0
 10
417.3924842907854
 20
274.0741627773677
 30
0.0
 10
410.8465444104968
 20
277.6314141915227
 30
0.0
 10
407.2651721440034
 20
283.7110175932357
 30
0.0
 10
406.7476403869932
 20
284.5042162341342
 30
0.0
 10
405.8502462274828
 20
284.6596207569237
 30
0.0
 10
404.5762714140928
 20
284.1789949461199
 30
0.0
 10
404.5762714140928
 20
284.1789949461199
 30
0.0
 10
392.772970248252
 20
281.2577464140777
 30
0.0
 10
392.772970248252
 20
281.2577464140777
 30
0.0
 10
392.772970248252
 20
281.2577464140777
 30
0.0
 10
388.4495946192965
 20
283.9450062696778
 30
0.0
 10
388.4495946192965
 20
283.9450062696778
 30
0.0
 10
388.4495946192965
 20
283.9450062696778
 30
0.0
 10
387.2781744502117
 20
356.2444051631355
 30
0.0
 10
387.2781744502117
 20
356.2444051631355
 30
0.0
 10
387.2781744502117
 20
357.2154590449863
 30
0.0
 10
387.5938786672341
 20
358.135169095096
 30
0.0
 10
388.6177842359557
 20
358.7729925369495
 30
0.0
 10
388.6177842359557
 20
358.7729925369495
 30
0.0
 10
395.086767111161
 20
360.5708829191499
 30
0.0
 10
395.086767111161
 20
360.5708829191499
 30
0.0
 10
395.086767111161
 20
360.5708829191499
 30
0.0
 10
399.8315192626251
 20
360.320977761914
 30
0.0
 10
399.8315192626251
 20
360.320977761914
 30
0.0
 10
399.8315192626251
 20
360.320977761914
 30
0.0
 10
400.623077029215
 20
398.8743207839443
 30
0.0
 10
400.623077029215
 20
398.8743207839443
 30
0.0
 10
400.6631296735886
 20
401.5735590901886
 30
0.0
 10
400.9996576830963
 20
403.8369644325767
 30
0.0
 10
401.3537583589459
 20
405.7069215785959
 30
0.0
  0
ENDBLK
  5
305
330
302
100
AcDbEntity
  8
0
100
AcDbBlockEnd
  0
BLOCK
  5
337
330
335
100
AcDbEntity
  8
0
100
AcDbBlockBegin
  2
block 21
 70
     0
 10
0.0
 20
0.0
 30
0.0
  3
block 21
  1

  0
SPLINE
  5
339
330
335
100
AcDbEntity
  8
Premier plan
  6
AI-Linetype-12
 62
   250
420
  1709851
370
     9
100
AcDbSpline
210
0.0
220
0.0
230
1.0
 70
    11
 71
     3
 72
    17
 73
    13
 74
     0
 42
0.0000000001
 43
0.0000000001
 12
1.0
 22
0.0
 32
0.0
 13
1.0
 23
0.0
 33
0.0
 40
0.0
 40
0.0
 40
0.0
 40
0.0
 40
1.0
 40
1.0
 40
1.0
 40
2.0
 40
2.0
 40
2.0
 40
3.0
 40
3.0
 40
3.0
 40
4.0
 40
4.0
 40
4.0
 40
4.0
 10
422.1419949777483
 20
360.1334258284114
 30
0.0
 10
415.5192621798051
 20
363.7133213080269
 30
0.0
 10
417.6343491639091
 20
368.4948290440116
 30
0.0
 10
426.8691897741101
 20
370.8119076555358
 30
0.0
 10
436.1038662968786
 20
373.1290022277299
 30
0.0
 10
448.9599524192763
 20
372.1034557587918
 30
0.0
 10
455.5844901789606
 20
368.5237084318469
 30
0.0
 10
462.2088638512123
 20
364.9423361653535
 30
0.0
 10
460.0919719053672
 20
360.1606643419382
 30
0.0
 10
450.8572953825969
 20
357.8452266047225
 30
0.0
 10
441.6226352057911
 20
355.5281479931982
 30
0.0
 10
428.7663846711876
 20
356.552053561918
 30
0.0
 10
422.1419949777483
 20
360.1334258284114
 30
0.0
  0
ENDBLK
  5
338
330
335
100
AcDbEntity
  8
0
100
AcDbBlockEnd
  0
BLOCK
  5
375
330
373
100
AcDbEntity
  8
0
100
AcDbBlockBegin
  2
block 22
 70
     0
 10
0.0
 20
0.0
 30
0.0
  3
block 22
  1

  0
SPLINE
  5
377
330
373
100
AcDbEntity
  8
Premier plan
 62
    18
420
        0
370
    40
100
AcDbSpline
210
0.0
220
0.0
230
1.0
 70
    11
 71
     3
 72
    38
 73
    34
 74
     0
 42
0.0000000001
 43
0.0000000001
 12
1.0
 22
0.0
 32
0.0
 13
1.0
 23
0.0
 33
0.0
 40
0.0
 40
0.0
 40
0.0
 40
0.0
 40
1.0
 40
1.0
 40
1.0
 40
2.0
 40
2.0
 40
2.0
 40
3.0
 40
3.0
 40
3.0
 40
4.0
 40
4.0
 40
4.0
 40
5.0
 40
5.0
 40
5.0
 40
6.0
 40
6.0
 40
6.0
 40
7.0
 40
7.0
 40
7.0
 40
8.0
 40
8.0
 40
8.0
 40
9.0
 40
9.0
 40
9.0
 40
10.0
 40
10.0
 40
10.0
 40
11.0
 40
11.0
 40
11.0
 40
11.0
 10
367.4162113787534
 20
433.3566214236243
 30
0.0
 10
367.4162113787534
 20
433.3566214236243
 30
0.0
 10
351.2078190433785
 20
435.9926860007899
 30
0.0
 10
351.2078190433785
 20
435.9926860007899
 30
0.0
 10
351.2078190433785
 20
435.9926860007899
 30
0.0
 10
373.321240374531
 20
470.4942014809321
 30
0.0
 10
373.321240374531
 20
470.4942014809321
 30
0.0
 10
373.321240374531
 20
470.4942014809321
 30
0.0
 10
416.5590842293204
 20
425.3662371695464
 30
0.0
 10
416.5590842293204
 20
425.3662371695464
 30
0.0
 10
416.5590842293204
 20
425.3662371695464
 30
0.0
 10
397.0289059431125
 20
428.544610786078
 30
0.0
 10
397.0289059431125
 20
428.544610786078
 30
0.0
 10
400.3779304074724
 20
418.6785084686817
 30
0.0
 10
403.6260411018393
 20
407.6195078893343
 30
0.0
 10
408.2587370411311
 20
399.5672453935222
 30
0.0
 10
408.2587370411311
 20
399.5672453935222
 30
0.0
 10
422.9735900774722
 20
409.4663119239431
 30
0.0
 10
422.9735900774722
 20
409.4663119239431
 30
0.0
 10
422.9735900774722
 20
409.4663119239431
 30
0.0
 10
452.7193595482804
 20
404.62934263632
 30
0.0
 10
452.7193595482804
 20
404.62934263632
 30
0.0
 10
452.7193595482804
 20
404.62934263632
 30
0.0
 10
436.659794512716
 20
393.7505100560847
 30
0.0
 10
436.659794512716
 20
393.7505100560847
 30
0.0
 10
430.2694255760616
 20
389.4176173561391
 30
0.0
 10
425.1577578699817
 20
388.0507690568684
 30
0.0
 10
420.8263419569139
 20
388.83920916227
 30
0.0
 10
420.8263419569139
 20
388.83920916227
 30
0.0
 10
391.4733977956439
 20
393.6312184938324
 30
0.0
 10
391.4733977956439
 20
393.6312184938324
 30
0.0
 10
378.3703600897661
 20
395.5108400146173
 30
0.0
 10
373.1881508475599
 20
416.3558508845053
 30
0.0
 10
367.4162113787534
 20
433.3566214236243
 30
0.0
  0
INSERT
  5
379
330
373
100
AcDbEntity
  8
Premier plan
100
AcDbBlockReference
  2
block 23
 10
0.0
 20
0.0
 30
0.0
  0
ENDBLK
  5
376
330
373
100
AcDbEntity
  8
0
100
AcDbBlockEnd
  0
BLOCK
  5
37A
330
378
100
AcDbEntity
  8
0
100
AcDbBlockBegin
  2
block 23
 70
     0
 10
0.0
 20
0.0
 30
0.0
  3
block 23
  1

  0
SPLINE
  5
37C
330
378
100
AcDbEntity
  8
Premier plan
370
     0
100
AcDbSpline
210
0.0
220
0.0
230
1.0
 70
    11
 71
     3
 72
    38
 73
    34
 74
     0
 42
0.0000000001
 43
0.0000000001
 12
1.0
 22
0.0
 32
0.0
 13
1.0
 23
0.0
 33
0.0
 40
0.0
 40
0.0
 40
0.0
 40
0.0
 40
1.0
 40
1.0
 40
1.0
 40
2.0
 40
2.0
 40
2.0
 40
3.0
 40
3.0
 40
3.0
 40
4.0
 40
4.0
 40
4.0
 40
5.0
 40
5.0
 40
5.0
 40
6.0
 40
6.0
 40
6.0
 40
7.0
 40
7.0
 40
7.0
 40
8.0
 40
8.0
 40
8.0
 40
9.0
 40
9.0
 40
9.0
 40
10.0
 40
10.0
 40
10.0
 40
11.0
 40
11.0
 40
11.0
 40
11.0
 10
367.4162113787534
 20
433.3566214236243
 30
0.0
 10
367.4162113787534
 20
433.3566214236243
 30
0.0
 10
351.2078190433785
 20
435.9926860007899
 30
0.0
 10
351.2078190433785
 20
435.9926860007899
 30
0.0
 10
351.2078190433785
 20
435.9926860007899
 30
0.0
 10
373.321240374531
 20
470.4942014809321
 30
0.0
 10
373.321240374531
 20
470.4942014809321
 30
0.0
 10
373.321240374531
 20
470.4942014809321
 30
0.0
 10
416.5590842293204
 20
425.3662371695464
 30
0.0
 10
416.5590842293204
 20
425.3662371695464
 30
0.0
 10
416.5590842293204
 20
425.3662371695464
 30
0.0
 10
397.0289059431125
 20
428.544610786078
 30
0.0
 10
397.0289059431125
 20
428.544610786078
 30
0.0
 10
400.3779304074724
 20
418.6785084686817
 30
0.0
 10
403.6260411018393
 20
407.6195078893343
 30
0.0
 10
408.2587370411311
 20
399.5672453935222
 30
0.0
 10
408.2587370411311
 20
399.5672453935222
 30
0.0
 10
422.9735900774722
 20
409.4663119239431
 30
0.0
 10
422.9735900774722
 20
409.4663119239431
 30
0.0
 10
422.9735900774722
 20
409.4663119239431
 30
0.0
 10
452.7193595482804
 20
404.62934263632
 30
0.0
 10
452.7193595482804
 20
404.62934263632
 30
0.0
 10
452.7193595482804
 20
404.62934263632
 30
0.0
 10
436.659794512716
 20
393.7505100560847
 30
0.0
 10
436.659794512716
 20
393.7505100560847
 30
0.0
 10
430.2694255760616
 20
389.4176173561391
 30
0.0
 10
425.1577578699817
 20
388.0507690568684
 30
0.0
 10
420.8263419569139
 20
388.83920916227
 30
0.0
 10
420.8263419569139
 20
388.83920916227
 30
0.0
 10
391.4733977956439
 20
393.6312184938324
 30
0.0
 10
391.4733977956439
 20
393.6312184938324
 30
0.0
 10
378.3703600897661
 20
395.5108400146173
 30
0.0
 10
373.1881508475599
 20
416.3558508845053
 30
0.0
 10
367.4162113787534
 20
433.3566214236243
 30
0.0
  0
HATCH
  5
37D
330
378
100
AcDbEntity
  8
Premier plan
 62
   250
420
  1709851
100
AcDbHatch
 10
0.0
 20
0.0
 30
0.0
210
0.0
220
0.0
230
1.0
  2
SOLID
 70
     1
 71
     0
 91
        1
 92
        1
 93
        1
 72
     4
 94
        3
 73
     0
 74
     1
 95
       38
 96
       34
 40
0.0
 40
0.0
 40
0.0
 40
0.0
 40
1.0
 40
1.0
 40
1.0
 40
2.0
 40
2.0
 40
2.0
 40
3.0
 40
3.0
 40
3.0
 40
4.0
 40
4.0
 40
4.0
 40
5.0
 40
5.0
 40
5.0
 40
6.0
 40
6.0
 40
6.0
 40
7.0
 40
7.0
 40
7.0
 40
8.0
 40
8.0
 40
8.0
 40
9.0
 40
9.0
 40
9.0
 40
10.0
 40
10.0
 40
10.0
 40
11.0
 40
11.0
 40
11.0
 40
11.0
 10
367.4162113787534
 20
433.3566214236243
 10
367.4162113787534
 20
433.3566214236243
 10
351.2078190433785
 20
435.9926860007899
 10
351.2078190433785
 20
435.9926860007899
 10
351.2078190433785
 20
435.9926860007899
 10
373.321240374531
 20
470.4942014809321
 10
373.321240374531
 20
470.4942014809321
 10
373.321240374531
 20
470.4942014809321
 10
416.5590842293204
 20
425.3662371695464
 10
416.5590842293204
 20
425.3662371695464
 10
416.5590842293204
 20
425.3662371695464
 10
397.0289059431125
 20
428.544610786078
 10
397.0289059431125
 20
428.544610786078
 10
400.3779304074724
 20
418.6785084686817
 10
403.6260411018393
 20
407.6195078893343
 10
408.2587370411311
 20
399.5672453935222
 10
408.2587370411311
 20
399.5672453935222
 10
422.9735900774722
 20
409.4663119239431
 10
422.9735900774722
 20
409.4663119239431
 10
422.9735900774722
 20
409.4663119239431
 10
452.7193595482804
 20
404.62934263632
 10
452.7193595482804
 20
404.62934263632
 10
452.7193595482804
 20
404.62934263632
 10
436.659794512716
 20
393.7505100560847
 10
436.659794512716
 20
393.7505100560847
 10
430.2694255760616
 20
389.4176173561391
 10
425.1577578699817
 20
388.0507690568684
 10
420.8263419569139
 20
388.83920916227
 10
420.8263419569139
 20
388.83920916227
 10
391.4733977956439
 20
393.6312184938324
 10
391.4733977956439
 20
393.6312184938324
 10
378.3703600897661
 20
395.5108400146173
 10
373.1881508475599
 20
416.3558508845053
 10
367.4162113787534
 20
433.3566214236243
 97
        0
 97
        0
 75
     0
 76
     1
 98
        0
  0
SPLINE
  5
37E
330
378
100
AcDbEntity
  8
Premier plan
 62
    18
420
        0
370
    20
100
AcDbSpline
210
0.0
220
0.0
230
1.0
 70
     8
 71
     3
 72
     8
 73
     4
 74
     0
 42
0.0000000001
 43
0.0000000001
 12
1.0
 22
0.0
 32
0.0
 13
1.0
 23
0.0
 33
0.0
 40
0.0
 40
0.0
 40
0.0
 40
0.0
 40
1.0
 40
1.0
 40
1.0
 40
1.0
 10
420.7365861322196
 20
388.8728470856004
 30
0.0
 10
415.4790607592367
 20
389.8311176819698
 30
0.0
 10
411.5083090192529
 20
393.9172393716854
 30
0.0
 10
408.2587370411311
 20
399.5672453935222
 30
0.0
  0
ENDBLK
  5
37B
330
378
100
AcDbEntity
  8
0
100
AcDbBlockEnd
  0
ENDSEC
  0
SECTION
  2
ENTITIES
  0
INSERT
  5
44
330
1F
100
AcDbEntity
  8
Premier plan
100
AcDbBlockReference
  2
block 2
 10
0.0
 20
0.0
 30
0.0
  0
ENDSEC
  0
SECTION
  2
OBJECTS
  0
DICTIONARY
  5
C
330
0
100
AcDbDictionary
281
     1
  3
ACAD_GROUP
350
D
  3
ACAD_LAYOUT
350
1A
  3
ACAD_MATERIAL
350
3B
  3
ACAD_MLEADERSTYLE
350
382
  3
ACAD_MLINESTYLE
350
17
  3
ACAD_PLOTSETTINGS
350
19
  3
ACAD_PLOTSTYLENAME
350
E
  3
ACAD_TABLESTYLE
350
381
  3
ACAD_VISUALSTYLE
350
2A
  0
SUN
  5
3F
330
29
100
AcDbSun
 90
        1
290
     0
 63
     7
421
 16777215
 40
1.0
291
     1
 91
  2455826
 92
 54000000
292
     0
 70
     2
 71
   256
280
     1
  0
DICTIONARY
  5
D
102
{ACAD_REACTORS
330
C
102
}
330
C
100
AcDbDictionary
281
     1
  0
DICTIONARY
  5
1A
102
{ACAD_REACTORS
330
C
102
}
330
C
100
AcDbDictionary
281
     1
  3
Layout1
350
1E
  3
Layout2
350
26
  3
Model
350
22
  0
DICTIONARY
  5
3B
102
{ACAD_REACTORS
330
C
102
}
330
C
100
AcDbDictionary
281
     1
  3
ByBlock
350
3D
  3
ByLayer
350
3C
  3
Global
350
3E
  0
DICTIONARY
  5
382
102
{ACAD_REACTORS
330
C
102
}
330
C
100
AcDbDictionary
281
     1
  0
DICTIONARY
  5
17
102
{ACAD_REACTORS
330
C
102
}
330
C
100
AcDbDictionary
281
     1
  3
Standard
350
18
  0
DICTIONARY
  5
19
102
{ACAD_REACTORS
330
C
102
}
330
C
100
AcDbDictionary
281
     1
  0
ACDBDICTIONARYWDFLT
  5
E
102
{ACAD_REACTORS
330
C
102
}
330
C
100
AcDbDictionary
281
     1
  3
Normal
350
F
100
AcDbDictionaryWithDefault
340
F
  0
DICTIONARY
  5
381
102
{ACAD_REACTORS
330
C
102
}
330
C
100
AcDbDictionary
281
     1
  0
DICTIONARY
  5
2A
102
{ACAD_REACTORS
330
C
102
}
330
C
100
AcDbDictionary
281
     1
  3
2dWireframe
350
2F
  3
3D Hidden
350
31
  3
3dWireframe
350
30
  3
Basic
350
32
  3
Brighten
350
36
  3
ColorChange
350
3A
  3
Conceptual
350
34
  3
Dim
350
35
  3
Facepattern
350
39
  3
Flat
350
2B
  3
FlatWithEdges
350
2C
  3
Gouraud
350
2D
  3
GouraudWithEdges
350
2E
  3
Linepattern
350
38
  3
Realistic
350
33
  3
Thicken
350
37
  0
LAYOUT
  5
1E
102
{ACAD_REACTORS
330
1A
102
}
330
1A
100
AcDbPlotSettings
  1

  2
none_device
  4

  6

 40
0.0
 41
0.0
 42
0.0
 43
0.0
 44
0.0
 45
0.0
 46
0.0
 47
0.0
 48
0.0
 49
0.0
140
0.0
141
0.0
142
1.0
143
1.0
 70
   688
 72
     0
 73
     0
 74
     5
  7

 75
    16
 76
     0
 77
     2
 78
   300
147
1.0
148
0.0
149
0.0
100
AcDbLayout
  1
Layout1
 70
     1
 71
     1
 10
0.0
 20
0.0
 11
12.0
 21
9.0
 12
0.0
 22
0.0
 32
0.0
 14
1.000000000000000E+20
 24
1.000000000000000E+20
 34
1.000000000000000E+20
 15
-1.000000000000000E+20
 25
-1.000000000000000E+20
 35
-1.000000000000000E+20
146
0.0
 13
0.0
 23
0.0
 33
0.0
 16
1.0
 26
0.0
 36
0.0
 17
0.0
 27
1.0
 37
0.0
 76
     0
330
1B
  0
LAYOUT
  5
26
102
{ACAD_REACTORS
330
1A
102
}
330
1A
100
AcDbPlotSettings
  1

  2
none_device
  4

  6

 40
0.0
 41
0.0
 42
0.0
 43
0.0
 44
0.0
 45
0.0
 46
0.0
 47
0.0
 48
0.0
 49
0.0
140
0.0
141
0.0
142
1.0
143
1.0
 70
   688
 72
     0
 73
     0
 74
     5
  7

 75
    16
 76
     0
 77
     2
 78
   300
147
1.0
148
0.0
149
0.0
100
AcDbLayout
  1
Layout2
 70
     1
 71
     2
 10
0.0
 20
0.0
 11
0.0
 21
0.0
 12
0.0
 22
0.0
 32
0.0
 14
0.0
 24
0.0
 34
0.0
 15
0.0
 25
0.0
 35
0.0
146
0.0
 13
0.0
 23
0.0
 33
0.0
 16
1.0
 26
0.0
 36
0.0
 17
0.0
 27
1.0
 37
0.0
 76
     0
330
23
  0
LAYOUT
  5
22
102
{ACAD_REACTORS
330
1A
102
}
330
1A
100
AcDbPlotSettings
  1

  2
none_device
  4

  6

 40
0.0
 41
0.0
 42
0.0
 43
0.0
 44
0.0
 45
0.0
 46
0.0
 47
0.0
 48
0.0
 49
0.0
140
0.0
141
0.0
142
1.0
143
1.0
 70
  1712
 72
     0
 73
     0
 74
     0
  7

 75
     0
 76
     0
 77
     2
 78
   300
147
1.0
148
0.0
149
0.0
100
AcDbLayout
  1
Model
 70
     1
 71
     0
 10
0.0
 20
0.0
 11
12.0
 21
9.0
 12
0.0
 22
0.0
 32
0.0
 14
1.000000000000000E+20
 24
1.000000000000000E+20
 34
1.000000000000000E+20
 15
-1.000000000000000E+20
 25
-1.000000000000000E+20
 35
-1.000000000000000E+20
146
0.0
 13
0.0
 23
0.0
 33
0.0
 16
1.0
 26
0.0
 36
0.0
 17
0.0
 27
1.0
 37
0.0
 76
     0
330
1F
331
29
  0
MATERIAL
  5
3D
102
{ACAD_REACTORS
330
3B
102
}
330
3B
100
AcDbMaterial
  1
ByBlock
 72
     1
 94
      127
  0
MATERIAL
  5
3C
102
{ACAD_REACTORS
330
3B
102
}
330
3B
100
AcDbMaterial
  1
ByLayer
 72
     1
 94
      127
  0
MATERIAL
  5
3E
102
{ACAD_REACTORS
330
3B
102
}
330
3B
100
AcDbMaterial
  1
Global
 72
     1
 94
      127
  0
MLINESTYLE
  5
18
102
{ACAD_REACTORS
330
17
102
}
330
17
100
AcDbMlineStyle
  2
Standard
 70
     0
  3

 62
   256
 51
90.0
 52
90.0
 71
     2
 49
0.5
 62
   256
  6
BYLAYER
 49
-0.5
 62
   256
  6
BYLAYER
  0
ACDBPLACEHOLDER
  5
F
102
{ACAD_REACTORS
330
E
102
}
330
E
  0
VISUALSTYLE
  5
2F
102
{ACAD_REACTORS
330
2A
102
}
330
2A
100
AcDbVisualStyle
  2
2dWireframe
 70
     4
177
     2
291
     0
 71
     0
176
     1
 72
     2
176
     1
 73
     0
176
     1
 90
        0
176
     1
 40
-0.6
176
     1
 41
-30.0
176
     1
 62
     5
 63
     7
421
 16777215
176
     1
 74
     1
176
     1
 91
        4
176
     1
 64
     7
176
     1
 65
   257
176
     1
 75
     1
176
     1
175
     1
176
     1
 42
1.0
176
     1
 92
        0
176
     1
 66
   257
176
     1
 43
1.0
176
     1
 76
     1
176
     1
 77
     6
176
     1
 78
     2
176
     1
 67
     7
176
     1
 79
     5
176
     1
170
     0
176
     1
171
     0
176
     1
290
     0
176
     1
 93
        1
176
     1
 44
0.0
176
     1
173
     0
176
     1
  0
VISUALSTYLE
  5
31
102
{ACAD_REACTORS
330
2A
102
}
330
2A
100
AcDbVisualStyle
  2
3D Hidden
 70
     6
177
     2
291
     0
 71
     1
176
     1
 72
     2
176
     1
 73
     2
176
     1
 90
        0
176
     1
 40
-0.6
176
     1
 41
-30.0
176
     1
 62
     5
 63
     7
421
 16777215
176
     1
 74
     2
176
     1
 91
        2
176
     1
 64
     7
176
     1
 65
   257
176
     1
 75
     2
176
     1
175
     1
176
     1
 42
40.0
176
     1
 92
        0
176
     1
 66
   257
176
     1
 43
1.0
176
     1
 76
     1
176
     1
 77
     6
176
     1
 78
     2
176
     1
 67
     7
176
     1
 79
     3
176
     1
170
     0
176
     1
171
     0
176
     1
290
     0
176
     1
 93
        1
176
     1
 44
0.0
176
     1
173
     0
176
     1
  0
VISUALSTYLE
  5
30
102
{ACAD_REACTORS
330
2A
102
}
330
2A
100
AcDbVisualStyle
  2
3dWireframe
 70
     5
177
     2
291
     0
 71
     0
176
     1
 72
     2
176
     1
 73
     0
176
     1
 90
        0
176
     1
 40
-0.6
176
     1
 41
-30.0
176
     1
 62
     5
 63
     7
421
 16777215
176
     1
 74
     1
176
     1
 91
        4
176
     1
 64
     7
176
     1
 65
   257
176
     1
 75
     1
176
     1
175
     1
176
     1
 42
1.0
176
     1
 92
        0
176
     1
 66
   257
176
     1
 43
1.0
176
     1
 76
     1
176
     1
 77
     6
176
     1
 78
     2
176
     1
 67
     7
176
     1
 79
     5
176
     1
170
     0
176
     1
171
     0
176
     1
290
     0
176
     1
 93
        1
176
     1
 44
0.0
176
     1
173
     0
176
     1
  0
VISUALSTYLE
  5
32
102
{ACAD_REACTORS
330
2A
102
}
330
2A
100
AcDbVisualStyle
  2
Basic
 70
     7
177
     2
291
     1
 71
     1
176
     1
 72
     0
176
     1
 73
     1
176
     1
 90
        0
176
     1
 40
-0.6
176
     1
 41
-30.0
176
     1
 62
     5
 63
     7
421
 16777215
176
     1
 74
     0
176
     1
 91
        4
176
     1
 64
     7
176
     1
 65
   257
176
     1
 75
     1
176
     1
175
     1
176
     1
 42
1.0
176
     1
 92
        8
176
     1
 66
     7
176
     1
 43
1.0
176
     1
 76
     1
176
     1
 77
     6
176
     1
 78
     2
176
     1
 67
     7
176
     1
 79
     5
176
     1
170
     0
176
     1
171
     0
176
     1
290
     0
176
     1
 93
        1
176
     1
 44
0.0
176
     1
173
     0
176
     1
  0
VISUALSTYLE
  5
36
102
{ACAD_REACTORS
330
2A
102
}
330
2A
100
AcDbVisualStyle
  2
Brighten
 70
    12
177
     2
291
     1
 71
     2
176
     1
 72
     2
176
     1
 73
     0
176
     1
 90
        0
176
     1
 40
-0.6
176
     1
 41
-30.0
176
     1
 62
     5
 63
     7
421
 16777215
176
     1
 74
     1
176
     1
 91
        4
176
     1
 64
     7
176
     1
 65
   257
176
     1
 75
     1
176
     1
175
     1
176
     1
 42
1.0
176
     1
 92
        8
176
     1
 66
     7
176
     1
 43
1.0
176
     1
 76
     1
176
     1
 77
     6
176
     1
 78
     2
176
     1
 67
     7
176
     1
 79
     5
176
     1
170
     0
176
     1
171
     0
176
     1
290
     0
176
     1
 93
        1
176
     1
 44
50.0
176
     1
173
     0
176
     1
  0
VISUALSTYLE
  5
3A
102
{ACAD_REACTORS
330
2A
102
}
330
2A
100
AcDbVisualStyle
  2
ColorChange
 70
    16
177
     2
291
     1
 71
     2
176
     1
 72
     2
176
     1
 73
     3
176
     1
 90
        0
176
     1
 40
-0.6
176
     1
 41
-30.0
176
     1
 62
     5
 63
     8
421
  8421504
176
     1
 74
     1
176
     1
 91
        4
176
     1
 64
     7
176
     1
 65
   257
176
     1
 75
     1
176
     1
175
     1
176
     1
 42
1.0
176
     1
 92
        8
176
     1
 66
     8
424
  8421504
176
     1
 43
1.0
176
     1
 76
     1
176
     1
 77
     6
176
     1
 78
     2
176
     1
 67
     7
176
     1
 79
     5
176
     1
170
     0
176
     1
171
     0
176
     1
290
     0
176
     1
 93
        1
176
     1
 44
0.0
176
     1
173
     0
176
     1
  0
VISUALSTYLE
  5
34
102
{ACAD_REACTORS
330
2A
102
}
330
2A
100
AcDbVisualStyle
  2
Conceptual
 70
     9
177
     2
291
     0
 71
     3
176
     1
 72
     2
176
     1
 73
     0
176
     1
 90
        0
176
     1
 40
-0.6
176
     1
 41
-30.0
176
     1
 62
     5
 63
     7
421
 16777215
176
     1
 74
     2
176
     1
 91
        2
176
     1
 64
     7
176
     1
 65
   257
176
     1
 75
     1
176
     1
175
     1
176
     1
 42
40.0
176
     1
 92
        8
176
     1
 66
     7
176
     1
 43
1.0
176
     1
 76
     1
176
     1
 77
     6
176
     1
 78
     2
176
     1
 67
     7
176
     1
 79
     3
176
     1
170
     0
176
     1
171
     0
176
     1
290
     0
176
     1
 93
        1
176
     1
 44
0.0
176
     1
173
     0
176
     1
  0
VISUALSTYLE
  5
35
102
{ACAD_REACTORS
330
2A
102
}
330
2A
100
AcDbVisualStyle
  2
Dim
 70
    11
177
     2
291
     1
 71
     2
176
     1
 72
     2
176
     1
 73
     0
176
     1
 90
        0
176
     1
 40
-0.6
176
     1
 41
-30.0
176
     1
 62
     5
 63
     7
421
 16777215
176
     1
 74
     1
176
     1
 91
        4
176
     1
 64
     7
176
     1
 65
   257
176
     1
 75
     1
176
     1
175
     1
176
     1
 42
1.0
176
     1
 92
        8
176
     1
 66
     7
176
     1
 43
1.0
176
     1
 76
     1
176
     1
 77
     6
176
     1
 78
     2
176
     1
 67
     7
176
     1
 79
     5
176
     1
170
     0
176
     1
171
     0
176
     1
290
     0
176
     1
 93
        1
176
     1
 44
-50.0
176
     1
173
     0
176
     1
  0
VISUALSTYLE
  5
39
102
{ACAD_REACTORS
330
2A
102
}
330
2A
100
AcDbVisualStyle
  2
Facepattern
 70
    15
177
     2
291
     1
 71
     2
176
     1
 72
     2
176
     1
 73
     0
176
     1
 90
        0
176
     1
 40
-0.6
176
     1
 41
-30.0
176
     1
 62
     5
 63
     7
421
 16777215
176
     1
 74
     1
176
     1
 91
        4
176
     1
 64
     7
176
     1
 65
   257
176
     1
 75
     1
176
     1
175
     1
176
     1
 42
1.0
176
     1
 92
        8
176
     1
 66
     7
176
     1
 43
1.0
176
     1
 76
     1
176
     1
 77
     6
176
     1
 78
     2
176
     1
 67
     7
176
     1
 79
     5
176
     1
170
     0
176
     1
171
     0
176
     1
290
     0
176
     1
 93
        1
176
     1
 44
0.0
176
     1
173
     0
176
     1
  0
VISUALSTYLE
  5
2B
102
{ACAD_REACTORS
330
2A
102
}
330
2A
100
AcDbVisualStyle
  2
Flat
 70
     0
177
     2
291
     1
 71
     2
176
     1
 72
     1
176
     1
 73
     1
176
     1
 90
        2
176
     1
 40
-0.6
176
     1
 41
30.0
176
     1
 62
     5
 63
     7
421
 16777215
176
     1
 74
     0
176
     1
 91
        4
176
     1
 64
     7
176
     1
 65
   257
176
     1
 75
     1
176
     1
175
     1
176
     1
 42
1.0
176
     1
 92
        8
176
     1
 66
     7
176
     1
 43
1.0
176
     1
 76
     1
176
     1
 77
     6
176
     1
 78
     2
176
     1
 67
     7
176
     1
 79
     5
176
     1
170
     0
176
     1
171
     0
176
     1
290
     0
176
     1
 93
       13
176
     1
 44
0.0
176
     1
173
     0
176
     1
  0
VISUALSTYLE
  5
2C
102
{ACAD_REACTORS
330
2A
102
}
330
2A
100
AcDbVisualStyle
  2
FlatWithEdges
 70
     1
177
     2
291
     1
 71
     2
176
     1
 72
     1
176
     1
 73
     1
176
     1
 90
        2
176
     1
 40
-0.6
176
     1
 41
30.0
176
     1
 62
     5
 63
     7
421
 16777215
176
     1
 74
     1
176
     1
 91
        4
176
     1
 64
     7
176
     1
 65
   257
176
     1
 75
     1
176
     1
175
     1
176
     1
 42
1.0
176
     1
 92
        0
176
     1
 66
   257
176
     1
 43
1.0
176
     1
 76
     1
176
     1
 77
     6
176
     1
 78
     2
176
     1
 67
     7
176
     1
 79
     5
176
     1
170
     0
176
     1
171
     0
176
     1
290
     0
176
     1
 93
       13
176
     1
 44
0.0
176
     1
173
     0
176
     1
  0
VISUALSTYLE
  5
2D
102
{ACAD_REACTORS
330
2A
102
}
330
2A
100
AcDbVisualStyle
  2
Gouraud
 70
     2
177
     2
291
     1
 71
     2
176
     1
 72
     2
176
     1
 73
     1
176
     1
 90
        2
176
     1
 40
-0.6
176
     1
 41
30.0
176
     1
 62
     5
 63
     7
421
 16777215
176
     1
 74
     0
176
     1
 91
        4
176
     1
 64
     7
176
     1
 65
   257
176
     1
 75
     1
176
     1
175
     1
176
     1
 42
1.0
176
     1
 92
        0
176
     1
 66
     7
176
     1
 43
1.0
176
     1
 76
     1
176
     1
 77
     6
176
     1
 78
     2
176
     1
 67
     7
176
     1
 79
     5
176
     1
170
     0
176
     1
171
     0
176
     1
290
     0
176
     1
 93
       13
176
     1
 44
0.0
176
     1
173
     0
176
     1
  0
VISUALSTYLE
  5
2E
102
{ACAD_REACTORS
330
2A
102
}
330
2A
100
AcDbVisualStyle
  2
GouraudWithEdges
 70
     3
177
     2
291
     1
 71
     2
176
     1
 72
     2
176
     1
 73
     1
176
     1
 90
        2
176
     1
 40
-0.6
176
     1
 41
30.0
176
     1
 62
     5
 63
     7
421
 16777215
176
     1
 74
     1
176
     1
 91
        4
176
     1
 64
     7
176
     1
 65
   257
176
     1
 75
     1
176
     1
175
     1
176
     1
 42
1.0
176
     1
 92
        0
176
     1
 66
   257
176
     1
 43
1.0
176
     1
 76
     1
176
     1
 77
     6
176
     1
 78
     2
176
     1
 67
     7
176
     1
 79
     5
176
     1
170
     0
176
     1
171
     0
176
     1
290
     0
176
     1
 93
       13
176
     1
 44
0.0
176
     1
173
     0
176
     1
  0
VISUALSTYLE
  5
38
102
{ACAD_REACTORS
330
2A
102
}
330
2A
100
AcDbVisualStyle
  2
Linepattern
 70
    14
177
     2
291
     1
 71
     2
176
     1
 72
     2
176
     1
 73
     0
176
     1
 90
        0
176
     1
 40
-0.6
176
     1
 41
-30.0
176
     1
 62
     5
 63
     7
421
 16777215
176
     1
 74
     1
176
     1
 91
        4
176
     1
 64
     7
176
     1
 65
   257
176
     1
 75
     7
176
     1
175
     7
176
     1
 42
1.0
176
     1
 92
        8
176
     1
 66
     7
176
     1
 43
1.0
176
     1
 76
     1
176
     1
 77
     6
176
     1
 78
     2
176
     1
 67
     7
176
     1
 79
     5
176
     1
170
     0
176
     1
171
     0
176
     1
290
     0
176
     1
 93
        1
176
     1
 44
0.0
176
     1
173
     0
176
     1
  0
VISUALSTYLE
  5
33
102
{ACAD_REACTORS
330
2A
102
}
330
2A
100
AcDbVisualStyle
  2
Realistic
 70
     8
177
     2
291
     0
 71
     2
176
     1
 72
     2
176
     1
 73
     0
176
     1
 90
        0
176
     1
 40
-0.6
176
     1
 41
-30.0
176
     1
 62
     5
 63
     7
421
 16777215
176
     1
 74
     1
176
     1
 91
        0
176
     1
 64
     7
176
     1
 65
   257
176
     1
 75
     1
176
     1
175
     1
176
     1
 42
1.0
176
     1
 92
        8
176
     1
 66
     8
424
  7895160
176
     1
 43
1.0
176
     1
 76
     1
176
     1
 77
     6
176
     1
 78
     2
176
     1
 67
     7
176
     1
 79
     5
176
     1
170
     0
176
     1
171
     0
176
     1
290
     0
176
     1
 93
       13
176
     1
 44
0.0
176
     1
173
     0
176
     1
  0
VISUALSTYLE
  5
37
102
{ACAD_REACTORS
330
2A
102
}
330
2A
100
AcDbVisualStyle
  2
Thicken
 70
    13
177
     2
291
     1
 71
     2
176
     1
 72
     2
176
     1
 73
     0
176
     1
 90
        0
176
     1
 40
-0.6
176
     1
 41
-30.0
176
     1
 62
     5
 63
     7
421
 16777215
176
     1
 74
     1
176
     1
 91
        4
176
     1
 64
     7
176
     1
 65
   257
176
     1
 75
     1
176
     1
175
     1
176
     1
 42
1.0
176
     1
 92
       12
176
     1
 66
     7
176
     1
 43
1.0
176
     1
 76
     1
176
     1
 77
     6
176
     1
 78
     2
176
     1
 67
     7
176
     1
 79
     5
176
     1
170
     0
176
     1
171
     0
176
     1
290
     0
176
     1
 93
        1
176
     1
 44
0.0
176
     1
173
     0
176
     1
  0
ENDSEC
  0
EOF
