999
DXF file: C:\Users\sesa63760\Dev\_Creo\CAD\MCADID0003874_3D-CAD\drw0001_1.dxf
999
Pro/ENGINEER 2019471 by Parametric Technology Corporation
  0
SECTION
  2
HEADER
  9
$ACADVER
  1
AC1024
  9
$DWGCODEPAGE
  3
ANSI_1252
  9
$EXTMAX
 10
78.4852866821
 20
111.0006197361
 30
0.0
  9
$EXTMIN
 10
0.0
 20
0.0
 30
0.0
  9
$LIMMIN
 10
0.0
 20
0.0
  9
$LIMMAX
 10
78.4852866821
 20
111.0006197361
  9
$VIEWCTR
 10
39.242643341
 20
55.500309868
  9
$VIEWSIZE
 40
111.0006197361
  9
$CLAYER
  8
0
  9
$LTSCALE
 40
7.2355959532
  9
$CELTYPE
  6
BYLAYER
  9
$DIMSCALE
 40
1.0
  9
$DIMASZ
 40
0.934348651
  9
$DIMEXO
 40
1.0
  9
$DIMDLI
 40
4.9991390222
  9
$DIMEXE
 40
1.0
  9
$DIMCEN
 40
1.1840066105
  9
$DIMLFAC
 40
1.0
  9
$DIMBLK
  1
_FILLED
  9
$DIMALT
 70
0
  9
$DIMALTF
 40
0.0393700787
  9
$DIMTXT
 40
1.3080881114
  9
$DIMTOL
 70
1
  9
$DIMLIM
 70
0
  9
$DIMTFAC
 40
1.0
  9
$DIMTP
 40
0.01
  9
$DIMTM
 40
0.01
  9
$DIMGAP
 40
0.625
  9
$DIMDSEP
 70
46
  9
$AUNITS
 70
0
  9
$PDMODE
 70
3
  9
$PDSIZE
 40
0.3125
  9
$HANDSEED
  5
410
  9
$TILEMODE
 70
1
  9
$MEASUREMENT
 70
1
  9
$INSUNITS
 70
4
  0
ENDSEC
  0
SECTION
  2
CLASSES
  0
CLASS
  1
ACDBDICTIONARYWDFLT
  2
AcDbDictionaryWithDefault
  3
AutoCAD 2000
 90
0
 91
1
280
0
281
0
  0
CLASS
  1
ACDBPLACEHOLDER
  2
AcDbPlaceHolder
  3
AutoCAD 2000
 90
0
 91
1
280
0
281
0
  0
CLASS
  1
LAYOUT
  2
AcDbLayout
  3
AutoCAD 2000
 90
0
 91
0
280
0
281
0
  0
ENDSEC
  0
SECTION
  2
TABLES
  0
TABLE
  2
VPORT
  5
8
100
AcDbSymbolTable
 70
2
  0
VPORT
  5
1F4
100
AcDbSymbolTableRecord
100
AcDbViewportTableRecord
  2
*ACTIVE
 70
0
 10
0.0
 20
0.0
 11
1.0
 21
1.0
 12
39.242643341
 22
55.500309868
 13
0.0
 23
0.0
 14
1.0
 24
1.0
 15
0.0
 25
0.0
 16
0.0
 26
0.0
 36
1.0
 17
0.0
 27
0.0
 37
0.0
 40
111.0006197361
 41
0.7070707071
 42
50.0
 43
0.0
 44
0.0
 50
0.0
 51
0.0
 71
0
 72
100
 73
1
 74
1
 75
0
 76
0
 77
0
 78
0
  0
ENDTAB
  0
TABLE
  2
LTYPE
  5
5
100
AcDbSymbolTable
 70
6
  0
LTYPE
  5
14
100
AcDbSymbolTableRecord
100
AcDbLinetypeTableRecord
  2
BYBLOCK
 70
0
  3

 72
65
 73
0
 40
0.0
  0
LTYPE
  5
15
100
AcDbSymbolTableRecord
100
AcDbLinetypeTableRecord
  2
BYLAYER
 70
0
  3

 72
65
 73
0
 40
0.0
  0
LTYPE
  5
16
100
AcDbSymbolTableRecord
100
AcDbLinetypeTableRecord
  2
CONTINUOUS
 70
64
  3
Solid line
 72
65
 73
0
 40
0.0
  0
LTYPE
  5
1F5
100
AcDbSymbolTableRecord
100
AcDbLinetypeTableRecord
  2
CENTER
 70
64
  3
____ _ ____ _ ____ _ ____ _ ____ _ ____ _ ____
 72
65
 73
4
 40
0.6
 49
0.375
 74
0
 49
-0.075
 74
0
 49
0.075
 74
0
 49
-0.075
 74
0
  0
LTYPE
  5
1F6
100
AcDbSymbolTableRecord
100
AcDbLinetypeTableRecord
  2
HIDDEN
 70
64
  3
- - - - - - - - - - - - - - - - - - - -
 72
65
 73
2
 40
0.2
 49
0.1
 74
0
 49
-0.1
 74
0
  0
LTYPE
  5
1F7
100
AcDbSymbolTableRecord
100
AcDbLinetypeTableRecord
  2
PHANTOM
 70
64
  3
_____ _ _ _____ _ _ _____ _ _ _____
 72
65
 73
6
 40
0.8
 49
0.45
 74
0
 49
-0.05
 74
0
 49
0.1
 74
0
 49
-0.05
 74
0
 49
0.1
 74
0
 49
-0.05
 74
0
  0
LTYPE
  5
1F8
100
AcDbSymbolTableRecord
100
AcDbLinetypeTableRecord
  2
DOT
 70
64
  3
. . . . . . . . . . . . . . . . . . . .
 72
65
 73
2
 40
0.2
 49
0.1
 74
0
 49
-0.1
 74
0
  0
LTYPE
  5
1F9
100
AcDbSymbolTableRecord
100
AcDbLinetypeTableRecord
  2
DASHED
 70
64
  3
- - - - - - - - - - - - - - - - - - - -
 72
65
 73
2
 40
0.2
 49
0.1
 74
0
 49
-0.1
 74
0
  0
ENDTAB
  0
TABLE
  2
LAYER
  5
2
100
AcDbSymbolTable
 70
36
  0
LAYER
  5
10
100
AcDbSymbolTableRecord
100
AcDbLayerTableRecord
  2
0
 70
0
 62
7
  6
CONTINUOUS
370
-3
390
F
  0
LAYER
  5
1FA
100
AcDbSymbolTableRecord
100
AcDbLayerTableRecord
  2
DEFAULT_1
 70
0
 62
7
  6
CENTER
370
-3
390
F
  0
LAYER
  5
1FB
100
AcDbSymbolTableRecord
100
AcDbLayerTableRecord
  2
DEFAULT_2
 70
0
 62
7
  6
HIDDEN
370
-3
390
F
  0
LAYER
  5
1FC
100
AcDbSymbolTableRecord
100
AcDbLayerTableRecord
  2
DEFAULT_3
 70
0
 62
7
  6
PHANTOM
370
-3
390
F
  0
LAYER
  5
1FD
100
AcDbSymbolTableRecord
100
AcDbLayerTableRecord
  2
00_COMPONENTS
 70
0
 62
7
  6
CONTINUOUS
370
-3
390
F
  0
LAYER
  5
1FE
100
AcDbSymbolTableRecord
100
AcDbLayerTableRecord
  2
01_1_DEFAULT_DATUMS
 70
0
 62
7
  6
CONTINUOUS
370
-3
390
F
  0
LAYER
  5
1FF
100
AcDbSymbolTableRecord
100
AcDbLayerTableRecord
  2
01_PLANES
 70
0
 62
7
  6
CONTINUOUS
370
-3
390
F
  0
LAYER
  5
200
100
AcDbSymbolTableRecord
100
AcDbLayerTableRecord
  2
02_COORD_SYS
 70
0
 62
7
  6
CONTINUOUS
370
-3
390
F
  0
LAYER
  5
201
100
AcDbSymbolTableRecord
100
AcDbLayerTableRecord
  2
03_AXES
 70
0
 62
7
  6
CONTINUOUS
370
-3
390
F
  0
LAYER
  5
202
100
AcDbSymbolTableRecord
100
AcDbLayerTableRecord
  2
04_POINTS
 70
0
 62
7
  6
CONTINUOUS
370
-3
390
F
  0
LAYER
  5
203
100
AcDbSymbolTableRecord
100
AcDbLayerTableRecord
  2
05_CURVES
 70
0
 62
7
  6
CONTINUOUS
370
-3
390
F
  0
LAYER
  5
204
100
AcDbSymbolTableRecord
100
AcDbLayerTableRecord
  2
06_SURFS
 70
0
 62
7
  6
CONTINUOUS
370
-3
390
F
  0
LAYER
  5
205
100
AcDbSymbolTableRecord
100
AcDbLayerTableRecord
  2
07_COSMETICS
 70
0
 62
7
  6
CONTINUOUS
370
-3
390
F
  0
LAYER
  5
206
100
AcDbSymbolTableRecord
100
AcDbLayerTableRecord
  2
10_NOTES
 70
0
 62
7
  6
CONTINUOUS
370
-3
390
F
  0
LAYER
  5
207
100
AcDbSymbolTableRecord
100
AcDbLayerTableRecord
  2
11_NOTES_PUB
 70
0
 62
7
  6
CONTINUOUS
370
-3
390
F
  0
LAYER
  5
208
100
AcDbSymbolTableRecord
100
AcDbLayerTableRecord
  2
13_REF_GTOL
 70
0
 62
7
  6
CONTINUOUS
370
-3
390
F
  0
LAYER
  5
209
100
AcDbSymbolTableRecord
100
AcDbLayerTableRecord
  2
16_MISC
 70
0
 62
7
  6
CONTINUOUS
370
-3
390
F
  0
LAYER
  5
20A
100
AcDbSymbolTableRecord
100
AcDbLayerTableRecord
  2
17_NO_PRINT
 70
0
 62
7
  6
CONTINUOUS
370
-3
390
F
  0
LAYER
  5
20B
100
AcDbSymbolTableRecord
100
AcDbLayerTableRecord
  2
18_DATUM_CAMS_JOINTS
 70
0
 62
7
  6
CONTINUOUS
370
-3
390
F
  0
LAYER
  5
20C
100
AcDbSymbolTableRecord
100
AcDbLayerTableRecord
  2
19_DATUM_FUNCTIONAL
 70
0
 62
7
  6
CONTINUOUS
370
-3
390
F
  0
LAYER
  5
20D
100
AcDbSymbolTableRecord
100
AcDbLayerTableRecord
  2
20_DATUM_KINEMATIC_SCHEME
 70
0
 62
7
  6
CONTINUOUS
370
-3
390
F
  0
ENDTAB
  0
TABLE
  2
STYLE
  5
3
100
AcDbSymbolTable
 70
1
  0
STYLE
  5
11
100
AcDbSymbolTableRecord
100
AcDbTextStyleTableRecord
  2
STANDARD
 70
0
 40
0.0
 41
1.0
 50
0.0
 71
0
 42
0.2
  3
ARIAL.TTF
  4

  0
STYLE
  5
20E
100
AcDbSymbolTableRecord
100
AcDbTextStyleTableRecord
  2
TEXTSTYLE_1
 70
0
 40
0.0
 41
0.8
 50
0.0
 71
0
 42
0.2
  3
gdt
  4

  0
ENDTAB
  0
TABLE
  2
VIEW
  5
6
100
AcDbSymbolTable
 70
0
  0
ENDTAB
  0
TABLE
  2
UCS
  5
7
100
AcDbSymbolTable
 70
0
  0
ENDTAB
  0
TABLE
  2
APPID
  5
9
100
AcDbSymbolTable
 70
1
  0
APPID
  5
20F
100
AcDbSymbolTableRecord
100
AcDbRegAppTableRecord
  2
ACAD
 70
0
  0
ENDTAB
  0
TABLE
  2
BLOCK_RECORD
  5
1
100
AcDbSymbolTable
 70
0
  0
BLOCK_RECORD
  5
210
100
AcDbSymbolTableRecord
100
AcDbBlockTableRecord
  2
*Model_Space
  0
BLOCK_RECORD
  5
211
100
AcDbSymbolTableRecord
100
AcDbBlockTableRecord
  2
*Paper_Space
  0
BLOCK_RECORD
  5
212
100
AcDbSymbolTableRecord
100
AcDbBlockTableRecord
  2
_FILLED
  0
ENDTAB
  0
TABLE
  2
DIMSTYLE
  5
A
100
AcDbSymbolTable
 70
1
100
AcDbDimStyleTable
 71
0
  0
DIMSTYLE
105
213
100
AcDbSymbolTableRecord
100
AcDbDimStyleTableRecord
  2
STANDARD
 70
0
  3

  4

 40
1.0
 41
0.934348651
 42
1.0
 43
0.38
 44
1.0
 45
0.0
 46
0.0
 47
0.01
 48
0.01
140
1.3080881114
141
0.09
142
0.0
143
25.4
144
1.0
145
0.0
146
1.0
147
0.625
 71
1
 72
0
 73
0
 74
0
 75
0
 76
0
 77
1
 78
8
 79
2
170
0
171
1
172
0
173
0
174
0
175
0
176
0
177
0
178
0
270
2
179
2
271
2
272
2
273
2
274
2
275
0
280
0
281
0
282
0
283
1
284
8
285
0
286
0
287
3
288
0
340
11
278
46
341
212
342
212
343
212
344
212
  0
ENDTAB
  0
ENDSEC
  0
SECTION
  2
BLOCKS
  0
BLOCK
  5
20
100
AcDbEntity
  8
0
100
AcDbBlockBegin
  2
*Model_Space
 70
0
 10
0.0
 20
0.0
 30
0.0
  3
*Model_Space
  1

  0
ENDBLK
  5
21
100
AcDbEntity
  8
0
100
AcDbBlockEnd
  0
BLOCK
  5
1C
100
AcDbEntity
  8
0
100
AcDbBlockBegin
  2
*Paper_Space
 70
0
 10
0.0
 20
0.0
 30
0.0
  3
*Paper_Space
  1

  0
ENDBLK
  5
1D
100
AcDbEntity
  8
0
100
AcDbBlockEnd
  0
BLOCK
  5
214
100
AcDbEntity
  8
0
100
AcDbBlockBegin
  2
_FILLED
 70
64
 10
0.0
 20
0.0
  3
_FILLED
  1

  0
SOLID
  5
215
100
AcDbEntity
  8
0
  6
BYBLOCK
 62
0
100
AcDbTrace
 10
0.0
 20
0.0
 11
-1.0
 21
0.25
 12
-1.0
 22
-0.25
 13
-1.0
 23
-0.25
  0
ENDBLK
  5
216
100
AcDbEntity
  8
0
  6
BYBLOCK
 62
0
100
AcDbBlockEnd
  0
ENDSEC
  0
SECTION
  2
ENTITIES
  0
LINE
  5
217
100
AcDbEntity
  8
0
100
AcDbLine
 62
7
  6
BYLAYER
 10
12.5805953719
 20
43.9643504821
 11
12.5806029615
 21
43.9550901107
  0
LINE
  5
218
100
AcDbEntity
  8
0
100
AcDbLine
 62
7
  6
BYLAYER
 10
12.5805953719
 20
43.9643504821
 11
12.5820416065
 21
43.954262673
  0
LINE
  5
219
100
AcDbEntity
  8
0
100
AcDbLine
 62
7
  6
BYLAYER
 10
37.236808518
 20
76.2589019548
 11
35.3343606143
 21
75.1605297019
  0
LINE
  5
21A
100
AcDbEntity
  8
0
100
AcDbLine
 62
7
  6
BYLAYER
 10
42.4053989873
 20
79.2429712411
 11
44.307846896
 21
80.3413434969
  0
LWPOLYLINE
  5
21B
100
AcDbEntity
  8
0
100
AcDbPolyline
 62
7
  6
BYLAYER
 90
5
 70
0
 10
26.3650559903
 20
30.5547343764
 10
23.7291839468
 20
29.869920326
 10
20.6187324878
 20
30.5225705783
 10
17.3712086644
 20
32.4525355776
 10
15.112885603
 20
34.6735936673
  0
LINE
  5
21C
100
AcDbEntity
  8
0
100
AcDbLine
 62
7
  6
BYLAYER
 10
14.1658116794
 20
56.4202459876
 11
14.1591330051
 21
56.414623499
  0
LINE
  5
21D
100
AcDbEntity
  8
0
100
AcDbLine
 62
7
  6
BYLAYER
 10
46.6717045863
 20
77.509505713
 11
46.6920757614
 21
77.5242529893
  0
LINE
  5
21E
100
AcDbEntity
  8
0
100
AcDbLine
 62
7
  6
BYLAYER
 10
39.9440090257
 20
72.1694401152
 11
16.9373346682
 21
58.8866097696
  0
LINE
  5
21F
100
AcDbEntity
  8
0
100
AcDbLine
 62
7
  6
BYLAYER
 10
49.1074586395
 20
77.3193243451
 11
47.2050106461
 21
76.2209520404
  0
LINE
  5
220
100
AcDbEntity
  8
0
100
AcDbLine
 62
7
  6
BYLAYER
 10
54.2760490533
 20
80.3033935993
 11
56.178497017
 21
81.4017658869
  0
LINE
  5
221
100
AcDbEntity
  8
0
100
AcDbLine
 62
7
  6
BYLAYER
 10
16.7820051115
 20
57.9309066321
 11
14.1582942757
 21
56.4160742773
  0
LINE
  5
222
100
AcDbEntity
  8
0
100
AcDbLine
 62
7
  6
BYLAYER
 10
14.0950105301
 20
56.3795788473
 11
12.1151197859
 21
55.2364952165
  0
LINE
  5
223
100
AcDbEntity
  8
0
100
AcDbLine
 62
7
  6
BYLAYER
 10
49.8242002078
 20
76.9662635144
 11
47.9579690393
 21
75.8888008785
  0
LINE
  5
224
100
AcDbEntity
  8
0
100
AcDbLine
 62
7
  6
BYLAYER
 10
55.0290074108
 20
79.9712424168
 11
56.8952385837
 21
81.0487050552
  0
LINE
  5
225
100
AcDbEntity
  8
0
100
AcDbLine
 62
7
  6
BYLAYER
 10
14.170387289
 20
56.423060618
 11
14.1657351239
 21
56.4203785929
  0
LINE
  5
226
100
AcDbEntity
  8
0
100
AcDbLine
 62
7
  6
BYLAYER
 10
26.0863137938
 20
51.4973104924
 11
26.1045807598
 21
51.4752696421
  0
LINE
  5
227
100
AcDbEntity
  8
0
100
AcDbLine
 62
7
  6
BYLAYER
 10
26.1215310829
 20
51.5013110041
 11
26.1100477717
 21
51.5151734011
  0
LINE
  5
228
100
AcDbEntity
  8
0
100
AcDbLine
 62
7
  6
BYLAYER
 10
13.4821589829
 20
46.6916244642
 11
15.2286151827
 21
48.2796112977
  0
LINE
  5
229
100
AcDbEntity
  8
0
100
AcDbLine
 62
7
  6
BYLAYER
 10
14.1707547288
 20
56.4224236053
 11
14.1658116794
 21
56.4202459876
  0
LINE
  5
22A
100
AcDbEntity
  8
0
100
AcDbLine
 62
7
  6
BYLAYER
 10
24.6018369843
 20
53.1568943664
 11
21.330274422
 21
55.6917351112
  0
LINE
  5
22B
100
AcDbEntity
  8
0
100
AcDbLine
 62
7
  6
BYLAYER
 10
26.0847269589
 20
51.4948559359
 11
26.1045807598
 21
51.4752696421
  0
LINE
  5
22C
100
AcDbEntity
  8
0
100
AcDbLine
 62
7
  6
BYLAYER
 10
26.1215310829
 20
51.5013110041
 11
24.6018369843
 21
53.1568943664
  0
LINE
  5
22D
100
AcDbEntity
  8
0
100
AcDbLine
 62
7
  6
BYLAYER
 10
21.330274422
 20
55.6917351112
 11
18.0521524661
 21
56.9670782218
  0
LINE
  5
22E
100
AcDbEntity
  8
0
100
AcDbLine
 62
7
  6
BYLAYER
 10
19.1717148067
 20
36.6020849551
 11
18.9037540962
 21
36.2975416587
  0
LINE
  5
22F
100
AcDbEntity
  8
0
100
AcDbLine
 62
7
  6
BYLAYER
 10
61.4677573588
 20
67.8531340611
 11
61.5516266998
 21
67.9015574322
  0
LINE
  5
230
100
AcDbEntity
  8
0
100
AcDbLine
 62
7
  6
BYLAYER
 10
62.1548843499
 20
66.6432724259
 11
62.2457442375
 21
66.6788508391
  0
LINE
  5
231
100
AcDbEntity
  8
0
100
AcDbLine
 62
7
  6
BYLAYER
 10
62.9033298944
 20
66.4690906653
 11
62.6413659382
 21
66.3665122655
  0
LINE
  5
232
100
AcDbEntity
  8
0
100
AcDbLine
 62
7
  6
BYLAYER
 10
62.7002656075
 20
65.7909616009
 11
62.6094057199
 21
65.7553831877
  0
LINE
  5
233
100
AcDbEntity
  8
0
100
AcDbLine
 62
7
  6
BYLAYER
 10
60.7218688788
 20
69.0246747492
 11
60.7981093769
 21
69.0855745471
  0
LINE
  5
234
100
AcDbEntity
  8
0
100
AcDbLine
 62
7
  6
BYLAYER
 10
16.3125678586
 20
38.142298199
 11
17.4147172876
 21
38.8766444605
  0
LINE
  5
235
100
AcDbEntity
  8
0
100
AcDbLine
 62
7
  6
BYLAYER
 10
62.226045974
 20
67.7135832638
 11
61.9842369099
 21
67.573970744
  0
LINE
  5
236
100
AcDbEntity
  8
0
100
AcDbLine
 62
7
  6
BYLAYER
 10
62.0516287815
 20
67.0355332303
 11
61.9677594405
 21
66.9871098592
  0
LINE
  5
237
100
AcDbEntity
  8
0
100
AcDbLine
 62
7
  6
BYLAYER
 10
18.0521524661
 20
56.9670782218
 11
15.2750829077
 21
56.8462740736
  0
LINE
  5
238
100
AcDbEntity
  8
0
100
AcDbLine
 62
7
  6
BYLAYER
 10
59.9228955715
 20
70.1489783583
 11
59.9909269906
 21
70.2218910987
  0
LINE
  5
239
100
AcDbEntity
  8
0
100
AcDbLine
 62
7
  6
BYLAYER
 10
60.6915779874
 20
70.0862526935
 11
60.4954322496
 21
69.8760333057
  0
LINE
  5
23A
100
AcDbEntity
  8
0
100
AcDbLine
 62
7
  6
BYLAYER
 10
61.486920274
 20
68.9223704734
 11
61.267106415
 21
68.746786369
  0
LINE
  5
23B
100
AcDbEntity
  8
0
100
AcDbLine
 62
7
  6
BYLAYER
 10
61.3397868525
 20
68.2480063486
 11
61.2635463544
 21
68.1871065507
  0
LINE
  5
23C
100
AcDbEntity
  8
0
100
AcDbLine
 62
7
  6
BYLAYER
 10
9.3356214563
 20
33.6475061976
 11
16.4066598284
 21
37.7299477363
  0
LINE
  5
23D
100
AcDbEntity
  8
0
100
AcDbLine
 62
7
  6
BYLAYER
 10
61.9398003006
 20
61.8943859947
 11
60.0735690844
 21
60.8169233313
  0
LINE
  5
23E
100
AcDbEntity
  8
0
100
AcDbLine
 62
7
  6
BYLAYER
 10
67.1446074769
 20
64.8993648817
 11
69.0108386694
 21
65.9768275315
  0
LINE
  5
23F
100
AcDbEntity
  8
0
100
AcDbLine
 62
7
  6
BYLAYER
 10
63.2807608126
 20
64.5237634021
 11
63.1836018771
 21
64.50130072
  0
LINE
  5
240
100
AcDbEntity
  8
0
100
AcDbLine
 62
7
  6
BYLAYER
 10
63.5136174956
 20
65.198364018
 11
63.2334923512
 21
65.1336004219
  0
LINE
  5
241
100
AcDbEntity
  8
0
100
AcDbLine
 62
7
  6
BYLAYER
 10
62.7780204008
 20
65.4042976214
 11
62.8751793363
 21
65.4267603035
  0
LINE
  5
242
100
AcDbEntity
  8
0
100
AcDbLine
 62
7
  6
BYLAYER
 10
63.7886964778
 20
63.2435827774
 11
63.6859779325
 21
63.234406781
  0
LINE
  5
243
100
AcDbEntity
  8
0
100
AcDbLine
 62
7
  6
BYLAYER
 10
59.0769181064
 20
71.217488259
 11
59.1362226861
 21
71.301859032
  0
LINE
  5
244
100
AcDbEntity
  8
0
100
AcDbLine
 62
7
  6
BYLAYER
 10
59.846072149
 20
71.1963720777
 11
59.6750873201
 21
70.9531173029
  0
LINE
  5
245
100
AcDbEntity
  8
0
100
AcDbLine
 62
7
  6
BYLAYER
 10
59.7485976714
 20
70.5400609592
 11
59.6892930916
 21
70.4556901862
  0
LINE
  5
246
100
AcDbEntity
  8
0
100
AcDbLine
 62
7
  6
BYLAYER
 10
60.5701573675
 20
69.4191533034
 11
60.5021259484
 21
69.346240563
  0
LINE
  5
247
100
AcDbEntity
  8
0
100
AcDbLine
 62
7
  6
BYLAYER
 10
10.3356169794
 20
31.9154528053
 11
17.4066553515
 21
35.9978943441
  0
LINE
  5
248
100
AcDbEntity
  8
0
100
AcDbLine
 62
7
  6
BYLAYER
 10
62.264096139
 20
60.9523900622
 11
60.3616482313
 21
59.854017807
  0
LINE
  5
249
100
AcDbEntity
  8
0
100
AcDbLine
 62
7
  6
BYLAYER
 10
67.432686588
 20
63.9364593368
 11
69.3351345265
 21
65.0348316098
  0
LINE
  5
24A
100
AcDbEntity
  8
0
100
AcDbLine
 62
7
  6
BYLAYER
 10
17.716713828
 20
35.7102315214
 11
18.9037540962
 21
36.2975416587
  0
LINE
  5
24B
100
AcDbEntity
  8
0
100
AcDbLine
 62
7
  6
BYLAYER
 10
64.0522641206
 20
63.911074319
 11
63.7561097095
 21
63.8846184165
  0
LINE
  5
24C
100
AcDbEntity
  8
0
100
AcDbLine
 62
7
  6
BYLAYER
 10
63.3324230699
 20
64.1456389937
 11
63.4351416152
 21
64.1548149901
  0
LINE
  5
24D
100
AcDbEntity
  8
0
100
AcDbLine
 62
7
  6
BYLAYER
 10
64.2202069059
 20
61.9601626742
 11
64.112710501
 21
61.9643431984
  0
LINE
  5
24E
100
AcDbEntity
  8
0
100
AcDbLine
 62
7
  6
BYLAYER
 10
64.5151703431
 20
62.6170186201
 11
64.2052405792
 21
62.6290717568
  0
LINE
  5
24F
100
AcDbEntity
  8
0
100
AcDbLine
 62
7
  6
BYLAYER
 10
63.813873018
 20
62.8768756952
 11
63.9213687622
 21
62.8726951968
  0
LINE
  5
250
100
AcDbEntity
  8
0
100
AcDbLine
 62
7
  6
BYLAYER
 10
57.2700130295
 20
73.1550854265
 11
57.3105797513
 21
73.2603636114
  0
LINE
  5
251
100
AcDbEntity
  8
0
100
AcDbLine
 62
7
  6
BYLAYER
 10
58.0306418594
 20
73.2220010901
 11
57.913681348
 21
72.9184668182
  0
LINE
  5
252
100
AcDbEntity
  8
0
100
AcDbLine
 62
7
  6
BYLAYER
 10
57.9750455421
 20
72.5974825131
 11
57.9344788203
 21
72.4922043282
  0
LINE
  5
253
100
AcDbEntity
  8
0
100
AcDbLine
 62
7
  6
BYLAYER
 10
58.1903748826
 20
72.2220724458
 11
58.2405012794
 21
72.3172591389
  0
LINE
  5
254
100
AcDbEntity
  8
0
100
AcDbLine
 62
7
  6
BYLAYER
 10
58.956837569
 20
72.2442799471
 11
58.8123149466
 21
71.9698411011
  0
LINE
  5
255
100
AcDbEntity
  8
0
100
AcDbLine
 62
7
  6
BYLAYER
 10
58.8813603296
 20
71.6021985318
 11
58.8312339328
 21
71.5070118388
  0
LINE
  5
256
100
AcDbEntity
  8
0
100
AcDbLine
 62
7
  6
BYLAYER
 10
28.4155663526
 20
31.7387996977
 11
28.422245027
 21
31.7444221864
  0
LINE
  5
257
100
AcDbEntity
  8
0
100
AcDbLine
 62
7
  6
BYLAYER
 10
28.413183083
 20
31.7550003191
 11
28.4066137166
 21
31.7495080512
  0
LINE
  5
258
100
AcDbEntity
  8
0
100
AcDbLine
 62
7
  6
BYLAYER
 10
28.3514742083
 20
31.7034090926
 11
28.344894631
 21
31.697908288
  0
LINE
  5
259
100
AcDbEntity
  8
0
100
AcDbLine
 62
7
  6
BYLAYER
 10
64.572008042
 20
60.6832706946
 11
64.4605518901
 21
60.700775923
  0
LINE
  5
25A
100
AcDbEntity
  8
0
100
AcDbLine
 62
7
  6
BYLAYER
 10
64.8988131674
 20
61.3260454667
 11
64.5774668034
 21
61.3765159108
  0
LINE
  5
25B
100
AcDbEntity
  8
0
100
AcDbLine
 62
7
  6
BYLAYER
 10
64.2187061205
 20
61.6076637806
 11
64.3301622725
 21
61.5901585522
  0
LINE
  5
25C
100
AcDbEntity
  8
0
100
AcDbLine
 62
7
  6
BYLAYER
 10
64.8414224672
 20
59.4226247575
 11
64.7268548167
 21
59.4533214647
  0
LINE
  5
25D
100
AcDbEntity
  8
0
100
AcDbLine
 62
7
  6
BYLAYER
 10
65.20027284
 20
60.0479799438
 11
64.8699555156
 21
60.1364835848
  0
LINE
  5
25E
100
AcDbEntity
  8
0
100
AcDbLine
 62
7
  6
BYLAYER
 10
64.5438413529
 20
60.3476627189
 11
64.6584090033
 21
60.3169660117
  0
LINE
  5
25F
100
AcDbEntity
  8
0
100
AcDbLine
 62
7
  6
BYLAYER
 10
53.3932002816
 20
76.1756410086
 11
53.3932002816
 21
76.0386825394
  0
LINE
  5
260
100
AcDbEntity
  8
0
100
AcDbLine
 62
7
  6
BYLAYER
 10
54.3770262851
 20
75.4567324016
 11
54.3873637545
 21
75.5872014967
  0
LINE
  5
261
100
AcDbEntity
  8
0
100
AcDbLine
 62
7
  6
BYLAYER
 10
55.1018599102
 20
75.6626397839
 11
55.0720552907
 21
75.286475987
  0
LINE
  5
262
100
AcDbEntity
  8
0
100
AcDbLine
 62
7
  6
BYLAYER
 10
55.0917827137
 20
75.1093513468
 11
55.0814452443
 21
74.9788822518
  0
LINE
  5
263
100
AcDbEntity
  8
0
100
AcDbLine
 62
7
  6
BYLAYER
 10
55.3560555447
 20
74.7785933421
 11
55.3766518091
 21
74.9015801146
  0
LINE
  5
264
100
AcDbEntity
  8
0
100
AcDbLine
 62
7
  6
BYLAYER
 10
56.0957903358
 20
74.9377097981
 11
56.0364079279
 21
74.5831187643
  0
LINE
  5
265
100
AcDbEntity
  8
0
100
AcDbLine
 62
7
  6
BYLAYER
 10
56.0730189487
 20
74.3577572976
 11
56.0524226843
 21
74.2347705252
  0
LINE
  5
266
100
AcDbEntity
  8
0
100
AcDbLine
 62
7
  6
BYLAYER
 10
56.3228370565
 20
74.0094264088
 11
56.3535353659
 21
74.123994855
  0
LINE
  5
267
100
AcDbEntity
  8
0
100
AcDbLine
 62
7
  6
BYLAYER
 10
57.0745339288
 20
74.1220944584
 11
56.9860256685
 21
73.7917748398
  0
LINE
  5
268
100
AcDbEntity
  8
0
100
AcDbLine
 62
7
  6
BYLAYER
 10
57.0365509115
 20
73.518338191
 11
57.0058526021
 21
73.4037697447
  0
LINE
  5
269
100
AcDbEntity
  8
0
100
AcDbLine
 62
7
  6
BYLAYER
 10
19.6485286516
 20
36.011095146
 11
21.8969974044
 21
36.7295655415
  0
LINE
  5
26A
100
AcDbEntity
  8
0
100
AcDbLine
 62
7
  6
BYLAYER
 10
65.0263997749
 20
58.1878191396
 11
64.909592555
 21
58.2314737052
  0
LINE
  5
26B
100
AcDbEntity
  8
0
100
AcDbLine
 62
7
  6
BYLAYER
 10
65.4172550706
 20
58.792548902
 11
65.0804807002
 21
58.9184121737
  0
LINE
  5
26C
100
AcDbEntity
  8
0
100
AcDbLine
 62
7
  6
BYLAYER
 10
64.7868042398
 20
59.1064618791
 11
64.9036114597
 21
59.0628073134
  0
LINE
  5
26D
100
AcDbEntity
  8
0
100
AcDbLine
 62
7
  6
BYLAYER
 10
65.1255321761
 20
56.9882514574
 11
65.0073743602
 21
57.0445316438
  0
LINE
  5
26E
100
AcDbEntity
  8
0
100
AcDbLine
 62
7
  6
BYLAYER
 10
65.5481084936
 20
57.5693069293
 11
65.2074401335
 21
57.7315719363
  0
LINE
  5
26F
100
AcDbEntity
  8
0
100
AcDbLine
 62
7
  6
BYLAYER
 10
64.9457456869
 20
57.8935075489
 11
65.0639035028
 21
57.8372273625
  0
LINE
  5
270
100
AcDbEntity
  8
0
100
AcDbLine
 62
7
  6
BYLAYER
 10
65.1380652134
 20
55.8330511451
 11
65.0194560538
 21
55.9015286261
  0
LINE
  5
271
100
AcDbEntity
  8
0
100
AcDbLine
 62
7
  6
BYLAYER
 10
65.0194560538
 20
56.7180310433
 11
65.5918372353
 21
56.387563636
  0
LINE
  5
272
100
AcDbEntity
  8
0
100
AcDbLine
 62
7
  6
BYLAYER
 10
65.0639035028
 20
54.7310099748
 11
64.9457456869
 21
54.8111635954
  0
LINE
  5
273
100
AcDbEntity
  8
0
100
AcDbLine
 62
7
  6
BYLAYER
 10
52.412065044
 20
76.5200147639
 11
52.4017275746
 21
76.6624202704
  0
LINE
  5
274
100
AcDbEntity
  8
0
100
AcDbLine
 62
7
  6
BYLAYER
 10
53.1061465338
 20
76.3268958698
 11
53.1164840032
 21
76.1844903633
  0
LINE
  5
275
100
AcDbEntity
  8
0
100
AcDbLine
 62
7
  6
BYLAYER
 10
54.1003100067
 20
75.630441785
 11
54.1003070627
 21
76.2913672609
  0
LINE
  5
276
100
AcDbEntity
  8
0
100
AcDbLine
 62
7
  6
BYLAYER
 10
28.420546598
 20
31.7424252314
 11
28.4133015797
 21
31.7380712531
  0
LINE
  5
277
100
AcDbEntity
  8
0
100
AcDbLine
 62
7
  6
BYLAYER
 10
28.3522478368
 20
31.7020708903
 11
26.3650559903
 21
30.5547343764
  0
LINE
  5
278
100
AcDbEntity
  8
0
100
AcDbLine
 62
7
  6
BYLAYER
 10
54.9440698949
 20
46.1887131442
 11
31.937267515
 21
32.9058088852
  0
LINE
  5
279
100
AcDbEntity
  8
0
100
AcDbLine
 62
7
  6
BYLAYER
 10
28.410990743
 20
31.7359850673
 11
31.031941316
 21
33.2491457919
  0
LINE
  5
27A
100
AcDbEntity
  8
0
100
AcDbLine
 62
7
  6
BYLAYER
 10
65.0073743602
 20
55.5889784482
 11
65.1255321761
 21
55.5088248275
  0
LINE
  5
27B
100
AcDbEntity
  8
0
100
AcDbLine
 62
7
  6
BYLAYER
 10
64.9036114597
 20
53.6905151451
 11
64.7868042398
 21
53.7817348879
  0
LINE
  5
27C
100
AcDbEntity
  8
0
100
AcDbLine
 62
7
  6
BYLAYER
 10
64.909592555
 20
54.5149425355
 11
65.0263997749
 21
54.4237227927
  0
LINE
  5
27D
100
AcDbEntity
  8
0
100
AcDbLine
 62
7
  6
BYLAYER
 10
64.6584090033
 20
52.7194854499
 11
64.5438413529
 21
52.8210770776
  0
LINE
  5
27E
100
AcDbEntity
  8
0
100
AcDbLine
 62
7
  6
BYLAYER
 10
64.7268548167
 20
53.5040973673
 11
64.8414224672
 21
53.4025057396
  0
LINE
  5
27F
100
AcDbEntity
  8
0
100
AcDbLine
 62
7
  6
BYLAYER
 10
64.3301622725
 20
51.8253110117
 11
64.2187061205
 21
51.9365013505
  0
LINE
  5
280
100
AcDbEntity
  8
0
100
AcDbLine
 62
7
  6
BYLAYER
 10
64.4605518901
 20
52.5641360854
 11
64.572008042
 21
52.4529457465
  0
LINE
  5
281
100
AcDbEntity
  8
0
100
AcDbLine
 62
7
  6
BYLAYER
 10
63.9213687622
 20
51.014797775
 11
63.813873018
 21
51.1347398621
  0
LINE
  5
282
100
AcDbEntity
  8
0
100
AcDbLine
 62
7
  6
BYLAYER
 10
64.112710501
 20
51.7022123629
 11
64.2202069059
 21
51.5822695384
  0
LINE
  5
283
100
AcDbEntity
  8
0
100
AcDbLine
 62
7
  6
BYLAYER
 10
63.4351416152
 20
50.2941120287
 11
63.3324230699
 21
50.4218945014
  0
LINE
  5
284
100
AcDbEntity
  8
0
100
AcDbLine
 62
7
  6
BYLAYER
 10
63.6859779325
 20
50.9248859596
 11
63.7886964778
 21
50.7971034869
  0
LINE
  5
285
100
AcDbEntity
  8
0
100
AcDbLine
 62
7
  6
BYLAYER
 10
62.8751793363
 20
49.6687408328
 11
62.7780204008
 21
49.803390452
  0
LINE
  5
286
100
AcDbEntity
  8
0
100
AcDbLine
 62
7
  6
BYLAYER
 10
63.1836018771
 20
50.238072799
 11
63.2807608126
 21
50.1034231798
  0
LINE
  5
287
100
AcDbEntity
  8
0
100
AcDbLine
 62
7
  6
BYLAYER
 10
62.6165417277
 20
49.6359658998
 11
62.7002656075
 21
49.506507943
  0
LINE
  5
288
100
AcDbEntity
  8
0
100
AcDbLine
 62
7
  6
BYLAYER
 10
46.9389762309
 20
77.2631771473
 11
46.9233529208
 21
77.2979612818
  0
LINE
  5
289
100
AcDbEntity
  8
0
100
AcDbLine
 62
7
  6
BYLAYER
 10
47.5025832977
 20
77.4318765799
 11
47.5706147168
 21
77.2804097004
  0
LINE
  5
28A
100
AcDbEntity
  8
0
100
AcDbLine
 62
7
  6
BYLAYER
 10
47.8042171967
 20
77.3173867211
 11
47.7449126169
 21
77.4702349752
  0
LINE
  5
28B
100
AcDbEntity
  8
0
100
AcDbLine
 62
7
  6
BYLAYER
 10
48.3572876022
 20
77.5249393194
 11
48.4165921819
 21
77.3720910654
  0
LINE
  5
28C
100
AcDbEntity
  8
0
100
AcDbLine
 62
7
  6
BYLAYER
 10
48.6622763555
 20
77.3779294155
 11
48.6121499586
 21
77.5309957766
  0
LINE
  5
28D
100
AcDbEntity
  8
0
100
AcDbLine
 62
7
  6
BYLAYER
 10
49.2530090088
 20
77.506072834
 11
49.3031354057
 21
77.3530064729
  0
LINE
  5
28E
100
AcDbEntity
  8
0
100
AcDbLine
 62
7
  6
BYLAYER
 10
49.559031468
 20
77.327661719
 11
49.5184647462
 21
77.4797812597
  0
LINE
  5
28F
100
AcDbEntity
  8
0
100
AcDbLine
 62
7
  6
BYLAYER
 10
50.182930537
 20
77.3754207089
 11
50.2234972588
 21
77.2233011682
  0
LINE
  5
290
100
AcDbEntity
  8
0
100
AcDbLine
 62
7
  6
BYLAYER
 10
50.4876576862
 20
77.1669661992
 11
50.4569593768
 21
77.3169811979
  0
LINE
  5
291
100
AcDbEntity
  8
0
100
AcDbLine
 62
7
  6
BYLAYER
 10
51.1399749223
 20
77.1339772857
 11
51.1706732318
 21
76.983962287
  0
LINE
  5
292
100
AcDbEntity
  8
0
100
AcDbLine
 62
7
  6
BYLAYER
 10
51.441087604
 20
76.8970658459
 11
51.4204913396
 21
77.0438345979
  0
LINE
  5
293
100
AcDbEntity
  8
0
100
AcDbLine
 62
7
  6
BYLAYER
 10
52.1168584792
 20
76.7835800946
 11
52.1374547436
 21
76.6368113426
  0
LINE
  5
294
100
AcDbEntity
  8
0
100
AcDbLine
 62
7
  6
BYLAYER
 10
63.5099735515
 20
49.9812547202
 11
62.6063846999
 21
49.2987461433
  0
LWPOLYLINE
  5
295
100
AcDbEntity
  8
0
100
AcDbPolyline
 62
7
  6
BYLAYER
 90
3
 70
0
 10
62.6295631026
 20
50.068283796
 10
63.5720075562
 20
50.7778589686
 10
63.6609277179
 20
50.8945036864
  0
LINE
  5
296
100
AcDbEntity
  8
0
100
AcDbLine
 62
7
  6
BYLAYER
 10
28.4106233032
 20
31.73662208
 11
28.4155663526
 21
31.7387996977
  0
LWPOLYLINE
  5
297
100
AcDbEntity
  8
0
100
AcDbPolyline
 62
7
  6
BYLAYER
 90
3
 70
0
 10
53.5346799569
 20
42.6190793105
 10
56.170694163
 20
43.4328082667
 10
58.1934363318
 20
45.30889941
  0
LINE
  5
298
100
AcDbEntity
  8
0
100
AcDbLine
 62
7
  6
BYLAYER
 10
58.1934363318
 20
45.30889941
 11
59.4023717973
 21
47.9811008541
  0
LINE
  5
299
100
AcDbEntity
  8
0
100
AcDbLine
 62
7
  6
BYLAYER
 10
62.2640961544
 20
45.1248094034
 11
60.3616482159
 21
44.0264371304
  0
LINE
  5
29A
100
AcDbEntity
  8
0
100
AcDbLine
 62
7
  6
BYLAYER
 10
67.4326866034
 20
48.108878678
 11
69.3351345111
 21
49.2072509332
  0
LINE
  5
29B
100
AcDbEntity
  8
0
100
AcDbLine
 62
7
  6
BYLAYER
 10
61.9398002752
 20
44.5154507199
 11
60.0735691067
 21
43.4379880839
  0
LINE
  5
29C
100
AcDbEntity
  8
0
100
AcDbLine
 62
7
  6
BYLAYER
 10
67.1446074782
 20
47.5204296223
 11
69.0108386511
 21
48.5978922607
  0
LINE
  5
29D
100
AcDbEntity
  8
0
100
AcDbLine
 62
7
  6
BYLAYER
 10
46.6920757614
 20
77.5242529893
 11
49.4510081599
 21
77.9789048833
  0
LINE
  5
29E
100
AcDbEntity
  8
0
100
AcDbLine
 62
7
  6
BYLAYER
 10
65.3033354174
 20
52.9635798159
 11
64.1004098372
 21
50.6170769259
  0
LINE
  5
29F
100
AcDbEntity
  8
0
100
AcDbLine
 62
7
  6
BYLAYER
 10
49.4510081599
 20
77.9789048833
 11
52.5999202711
 21
77.2289677057
  0
LINE
  5
2A0
100
AcDbEntity
  8
0
100
AcDbLine
 62
7
  6
BYLAYER
 10
65.7711518987
 20
56.4473349106
 11
65.3033354174
 21
52.9635798159
  0
LWPOLYLINE
  5
2A1
100
AcDbEntity
  8
0
100
AcDbPolyline
 62
7
  6
BYLAYER
 90
7
 70
0
 10
52.5999202711
 20
77.2289677057
 10
55.881070739
 20
75.3350465642
 10
59.0273095687
 20
72.4528581468
 10
61.7848264128
 20
68.8171975429
 10
63.9347599049
 20
64.716151129
 10
65.3011741415
 20
60.480994212
 10
65.7711518987
 20
56.4473349106
  0
LWPOLYLINE
  5
2A2
100
AcDbEntity
  8
0
100
AcDbPolyline
 62
7
  6
BYLAYER
 90
3
 70
0
 10
70.5759147885
 20
60.2869687272
 10
70.3932816374
 20
58.1292953903
 10
69.7706057992
 20
56.474913257
  0
LINE
  5
2A3
100
AcDbEntity
  8
0
100
AcDbLine
 62
7
  6
BYLAYER
 10
60.3913890657
 20
78.4388735942
 11
60.3839121396
 21
78.4430220012
  0
LINE
  5
2A4
100
AcDbEntity
  8
0
100
AcDbLine
 62
7
  6
BYLAYER
 10
65.2950836645
 20
74.1180371286
 11
65.3162613392
 21
74.0924130346
  0
LINE
  5
2A5
100
AcDbEntity
  8
0
100
AcDbLine
 62
7
  6
BYLAYER
 10
65.2950836645
 20
74.1180371286
 11
65.3154915711
 21
74.0912396669
  0
ARC
  5
2A6
100
AcDbEntity
  8
0
100
AcDbCircle
 62
7
  6
BYLAYER
 10
-13.7094575243
 20
36.9723377555
 40
87.657902269
100
AcDbArc
 50
18.6711799036
 51
19.3223649687
  0
ARC
  5
2A7
100
AcDbEntity
  8
0
100
AcDbCircle
 62
7
  6
BYLAYER
 10
-20.7681148719
 20
32.8941585609
 40
87.6448083083
100
AcDbArc
 50
18.671131263
 51
19.3224136149
  0
ARC
  5
2A8
100
AcDbEntity
  8
0
100
AcDbCircle
 62
7
  6
BYLAYER
 10
13.0690164287
 20
39.4863936001
 40
10.870628563
100
AcDbArc
 50
39.6093173244
 51
41.2124518331
  0
ARC
  5
2A9
100
AcDbEntity
  8
0
100
AcDbCircle
 62
7
  6
BYLAYER
 10
13.1238280124
 20
39.5136651386
 40
10.5611228798
100
AcDbArc
 50
39.6093172286
 51
41.2124519288
  0
ARC
  5
2AA
100
AcDbEntity
  8
0
100
AcDbCircle
 62
7
  6
BYLAYER
 10
18.1438456598
 20
38.4421259822
 40
1.0115774441
100
AcDbArc
 50
164.3787886659
 51
164.7177492029
  0
ARC
  5
2AB
100
AcDbEntity
  8
0
100
AcDbCircle
 62
7
  6
BYLAYER
 10
15.968488596
 20
49.7709066696
 40
6.6369296917
100
AcDbArc
 50
153.6945948838
 51
154.3085524573
  0
ARC
  5
2AC
100
AcDbEntity
  8
0
100
AcDbCircle
 62
7
  6
BYLAYER
 10
16.5408010552
 20
52.3060296953
 40
4.75066364
100
AcDbArc
 50
120.0999714974
 51
120.437865389
  0
ARC
  5
2AD
100
AcDbEntity
  8
0
100
AcDbCircle
 62
7
  6
BYLAYER
 10
16.4662005057
 20
52.2728762494
 40
4.7420916029
100
AcDbArc
 50
118.9481407225
 51
120.0018140649
  0
ARC
  5
2AE
100
AcDbEntity
  8
0
100
AcDbCircle
 62
7
  6
BYLAYER
 10
27.1060203091
 20
21.4782735074
 40
66.6035572639
100
AcDbArc
 50
63.4318691712
 51
64.1191974176
  0
ARC
  5
2AF
100
AcDbEntity
  8
0
100
AcDbCircle
 62
7
  6
BYLAYER
 10
20.1100605412
 20
17.5482475062
 40
66.4336565526
100
AcDbArc
 50
63.430990258
 51
64.1200763328
  0
ARC
  5
2B0
100
AcDbEntity
  8
0
100
AcDbCircle
 62
7
  6
BYLAYER
 10
25.8512515279
 20
43.0468982049
 40
13.512797194
100
AcDbArc
 50
237.4894724609
 51
241.8352251466
  0
ARC
  5
2B1
100
AcDbEntity
  8
0
100
AcDbCircle
 62
7
  6
BYLAYER
 10
22.1419728391
 20
44.4537532697
 40
9.5361501041
100
AcDbArc
 50
219.6148276383
 51
219.7515836076
  0
ARC
  5
2B2
100
AcDbEntity
  8
0
100
AcDbCircle
 62
7
  6
BYLAYER
 10
23.7111073766
 20
37.7754103037
 40
7.7983037711
100
AcDbArc
 50
256.9367975558
 51
261.5146530576
  0
ARC
  5
2B3
100
AcDbEntity
  8
0
100
AcDbCircle
 62
7
  6
BYLAYER
 10
29.1788822959
 20
38.7947830612
 40
6.591639136
100
AcDbArc
 50
268.0972457163
 51
272.2002171071
  0
ARC
  5
2B4
100
AcDbEntity
  8
0
100
AcDbCircle
 62
7
  6
BYLAYER
 10
25.9704700036
 20
35.8111480312
 40
4.7494610799
100
AcDbArc
 50
300.0982419295
 51
300.9532621475
  0
ARC
  5
2B5
100
AcDbEntity
  8
0
100
AcDbCircle
 62
7
  6
BYLAYER
 10
21.3218712979
 20
39.0888035971
 40
2.5879827338
100
AcDbArc
 50
276.7068690147
 51
283.5640297688
  0
ARC
  5
2B6
100
AcDbEntity
  8
0
100
AcDbCircle
 62
7
  6
BYLAYER
 10
37.6770187256
 20
53.5390998939
 40
27.8617179689
100
AcDbArc
 50
28.1385904214
 51
28.973679964
  0
ARC
  5
2B7
100
AcDbEntity
  8
0
100
AcDbCircle
 62
7
  6
BYLAYER
 10
37.6761726633
 20
53.5406493319
 40
27.8616759531
100
AcDbArc
 50
31.0265957916
 51
31.8616861738
  0
ARC
  5
2B8
100
AcDbEntity
  8
0
100
AcDbCircle
 62
7
  6
BYLAYER
 10
37.8441306529
 20
53.6355914845
 40
27.5719514868
100
AcDbArc
 50
28.149397214
 51
28.9628731713
  0
ARC
  5
2B9
100
AcDbEntity
  8
0
100
AcDbCircle
 62
7
  6
BYLAYER
 10
37.8432929214
 20
53.6371256191
 40
27.571909908
100
AcDbArc
 50
31.0374025951
 51
31.8508793704
  0
ARC
  5
2BA
100
AcDbEntity
  8
0
100
AcDbCircle
 62
7
  6
BYLAYER
 10
38.0162240989
 20
53.7621824586
 40
27.4557943232
100
AcDbArc
 50
33.9252895399
 51
34.7684334636
  0
ARC
  5
2BB
100
AcDbEntity
  8
0
100
AcDbCircle
 62
7
  6
BYLAYER
 10
38.0660348566
 20
53.7358594177
 40
27.4257326855
100
AcDbArc
 50
25.2313858187
 51
26.0754552111
  0
ARC
  5
2BC
100
AcDbEntity
  8
0
100
AcDbCircle
 62
7
  6
BYLAYER
 10
38.2025323816
 20
53.8175436591
 40
27.1699738455
100
AcDbArc
 50
25.2427547941
 51
26.0640862357
  0
ARC
  5
2BD
100
AcDbEntity
  8
0
100
AcDbCircle
 62
7
  6
BYLAYER
 10
38.204161767
 20
53.8729982556
 40
27.1407522766
100
AcDbArc
 50
33.9357542428
 51
34.7579687607
  0
ARC
  5
2BE
100
AcDbEntity
  8
0
100
AcDbCircle
 62
7
  6
BYLAYER
 10
38.6758168802
 20
54.238924218
 40
26.6418683528
100
AcDbArc
 50
36.8641070452
 51
37.724232304
  0
ARC
  5
2BF
100
AcDbEntity
  8
0
100
AcDbCircle
 62
7
  6
BYLAYER
 10
38.8264305059
 20
54.074450719
 40
26.5932774644
100
AcDbArc
 50
22.2752746712
 51
23.1369737344
  0
ARC
  5
2C0
100
AcDbEntity
  8
0
100
AcDbCircle
 62
7
  6
BYLAYER
 10
38.9376328263
 20
54.1469801174
 40
26.3643503685
100
AcDbArc
 50
22.2871843468
 51
23.1250640587
  0
ARC
  5
2C1
100
AcDbEntity
  8
0
100
AcDbCircle
 62
7
  6
BYLAYER
 10
38.8704643412
 20
54.3570245712
 40
26.3171173406
100
AcDbArc
 50
36.8744789615
 51
37.7138603878
  0
ARC
  5
2C2
100
AcDbEntity
  8
0
100
AcDbCircle
 62
7
  6
BYLAYER
 10
39.5954627899
 20
54.9782492513
 40
25.461766113
100
AcDbArc
 50
39.8741024371
 51
40.7604956362
  0
ARC
  5
2C3
100
AcDbEntity
  8
0
100
AcDbCircle
 62
7
  6
BYLAYER
 10
39.7912040509
 20
55.1010033264
 40
25.1332419956
100
AcDbArc
 50
39.8844786412
 51
40.7501194321
  0
ARC
  5
2C4
100
AcDbEntity
  8
0
100
AcDbCircle
 62
7
  6
BYLAYER
 10
33.0204428936
 20
50.8520385598
 40
24.1876504495
100
AcDbArc
 50
204.7099933077
 51
212.5488179826
  0
ARC
  5
2C5
100
AcDbEntity
  8
0
100
AcDbCircle
 62
7
  6
BYLAYER
 10
32.742437681
 20
50.6655355068
 40
23.8529698076
100
AcDbArc
 50
212.5304716117
 51
217.3335867756
  0
ARC
  5
2C6
100
AcDbEntity
  8
0
100
AcDbCircle
 62
7
  6
BYLAYER
 10
32.1566814794
 20
50.4555413218
 40
23.2372331568
100
AcDbArc
 50
201.6876060115
 51
204.7121686358
  0
ARC
  5
2C7
100
AcDbEntity
  8
0
100
AcDbCircle
 62
7
  6
BYLAYER
 10
32.2232204859
 20
50.2814090249
 40
23.2071774642
100
AcDbArc
 50
217.3569318662
 51
217.481714489
  0
ARC
  5
2C8
100
AcDbEntity
  8
0
100
AcDbCircle
 62
7
  6
BYLAYER
 10
30.8984474527
 20
49.1802448785
 40
21.4840297976
100
AcDbArc
 50
221.7605683232
 51
222.6027730973
  0
ARC
  5
2C9
100
AcDbEntity
  8
0
100
AcDbCircle
 62
7
  6
BYLAYER
 10
30.0543553081
 20
48.3939794805
 40
20.3304928515
100
AcDbArc
 50
222.5820136755
 51
227.4092969867
  0
ARC
  5
2CA
100
AcDbEntity
  8
0
100
AcDbCircle
 62
7
  6
BYLAYER
 10
27.375475825
 20
49.04011233
 40
18.2431103946
100
AcDbArc
 50
189.7436798262
 51
192.9207696993
  0
ARC
  5
2CB
100
AcDbEntity
  8
0
100
AcDbCircle
 62
7
  6
BYLAYER
 10
20.8645504032
 20
48.6016197208
 40
11.6996768428
100
AcDbArc
 50
174.641881828
 51
177.722084573
  0
ARC
  5
2CC
100
AcDbEntity
  8
0
100
AcDbCircle
 62
7
  6
BYLAYER
 10
39.9552727111
 20
54.5088213246
 40
25.383619641
100
AcDbArc
 50
19.2383614943
 51
20.1274861833
  0
ARC
  5
2CD
100
AcDbEntity
  8
0
100
AcDbCircle
 62
7
  6
BYLAYER
 10
40.0264342271
 20
54.5693359505
 40
25.1963779311
100
AcDbArc
 50
19.2512757315
 51
20.1147504339
  0
ARC
  5
2CE
100
AcDbEntity
  8
0
100
AcDbCircle
 62
7
  6
BYLAYER
 10
41.3764374103
 20
54.9702630691
 40
23.8892549331
100
AcDbArc
 50
16.0876562734
 51
17.0134367624
  0
ARC
  5
2CF
100
AcDbEntity
  8
0
100
AcDbCircle
 62
7
  6
BYLAYER
 10
41.4313118497
 20
55.0299465997
 40
23.7177507569
100
AcDbArc
 50
16.1010996601
 51
16.9999933757
  0
ARC
  5
2D0
100
AcDbEntity
  8
0
100
AcDbCircle
 62
7
  6
BYLAYER
 10
43.0714007108
 20
55.418540662
 40
22.1357967539
100
AcDbArc
 50
12.7847986231
 51
13.758962844
  0
ARC
  5
2D1
100
AcDbEntity
  8
0
100
AcDbCircle
 62
7
  6
BYLAYER
 10
43.0978113971
 20
55.4755274927
 40
21.9924965052
100
AcDbArc
 50
12.7992804408
 51
13.7444810262
  0
ARC
  5
2D2
100
AcDbEntity
  8
0
100
AcDbCircle
 62
7
  6
BYLAYER
 10
49.0285565761
 20
50.9146514279
 40
10.8042462537
100
AcDbArc
 50
344.1480848641
 51
344.3494570666
  0
ARC
  5
2D3
100
AcDbEntity
  8
0
100
AcDbCircle
 62
7
  6
BYLAYER
 10
46.2216436582
 20
58.4736792143
 40
24.673068112
100
AcDbArc
 50
28.0966411574
 51
30.7271618243
  0
ARC
  5
2D4
100
AcDbEntity
  8
0
100
AcDbCircle
 62
7
  6
BYLAYER
 10
46.7510964255
 20
58.8103545627
 40
24.0459281254
100
AcDbArc
 50
30.6821623696
 51
39.4597668881
  0
ARC
  5
2D5
100
AcDbEntity
  8
0
100
AcDbCircle
 62
7
  6
BYLAYER
 10
40.7083172744
 20
55.9748576491
 40
23.9677191748
100
AcDbArc
 50
42.9884180348
 51
43.9111635223
  0
ARC
  5
2D6
100
AcDbEntity
  8
0
100
AcDbCircle
 62
7
  6
BYLAYER
 10
46.6165877512
 20
58.9618917867
 40
23.9342771876
100
AcDbArc
 50
39.2664010069
 51
39.6146423545
  0
ARC
  5
2D7
100
AcDbEntity
  8
0
100
AcDbCircle
 62
7
  6
BYLAYER
 10
46.9574313822
 20
58.8438363503
 40
23.8496687889
100
AcDbArc
 50
19.9711149598
 51
28.1446668289
  0
ARC
  5
2D8
100
AcDbEntity
  8
0
100
AcDbCircle
 62
7
  6
BYLAYER
 10
40.8997808956
 20
56.0989556081
 40
23.6414791624
100
AcDbArc
 50
42.998895931
 51
43.9006856261
  0
ARC
  5
2D9
100
AcDbEntity
  8
0
100
AcDbCircle
 62
7
  6
BYLAYER
 10
47.433648355
 20
59.4294917018
 40
23.1125921245
100
AcDbArc
 50
39.371588796
 51
39.6147456349
  0
ARC
  5
2DA
100
AcDbEntity
  8
0
100
AcDbCircle
 62
7
  6
BYLAYER
 10
47.822353623
 20
59.6557323968
 40
22.6815906245
100
AcDbArc
 50
39.6148029536
 51
39.8056625032
  0
ARC
  5
2DB
100
AcDbEntity
  8
0
100
AcDbCircle
 62
7
  6
BYLAYER
 10
48.0294567928
 20
59.7791387445
 40
22.524713356
100
AcDbArc
 50
39.6147418205
 51
39.9209404561
  0
ARC
  5
2DC
100
AcDbEntity
  8
0
100
AcDbCircle
 62
7
  6
BYLAYER
 10
48.014506167
 20
59.8170467683
 40
22.4307040243
100
AcDbArc
 50
39.8033337787
 51
40.910598581
  0
ARC
  5
2DD
100
AcDbEntity
  8
0
100
AcDbCircle
 62
7
  6
BYLAYER
 10
41.9402380781
 20
57.2080240428
 40
22.2244236995
100
AcDbArc
 50
46.24335243
 51
47.2136264318
  0
ARC
  5
2DE
100
AcDbEntity
  8
0
100
AcDbCircle
 62
7
  6
BYLAYER
 10
48.4871267238
 20
59.4269697023
 40
22.2128094694
100
AcDbArc
 50
17.6722503741
 51
19.9050701059
  0
ARC
  5
2DF
100
AcDbEntity
  8
0
100
AcDbCircle
 62
7
  6
BYLAYER
 10
42.1226025742
 20
57.3296641173
 40
21.9063461836
100
AcDbArc
 50
46.2540331268
 51
47.202945735
  0
ARC
  5
2E0
100
AcDbEntity
  8
0
100
AcDbCircle
 62
7
  6
BYLAYER
 10
43.1884257427
 20
58.61133639
 40
20.3460729391
100
AcDbArc
 50
49.6797716196
 51
50.5328734783
  0
ARC
  5
2E1
100
AcDbEntity
  8
0
100
AcDbCircle
 62
7
  6
BYLAYER
 10
44.9021006728
 20
55.7910188953
 40
20.2673410875
100
AcDbArc
 50
9.4658726726
 51
10.3222987194
  0
ARC
  5
2E2
100
AcDbEntity
  8
0
100
AcDbCircle
 62
7
  6
BYLAYER
 10
44.9580457695
 20
55.857971932
 40
20.0930920818
100
AcDbArc
 50
9.3039571558
 51
10.3077098257
  0
ARC
  5
2E3
100
AcDbEntity
  8
0
100
AcDbCircle
 62
7
  6
BYLAYER
 10
45.1460054014
 20
55.8319567432
 40
20.0200247892
100
AcDbArc
 50
9.28706044
 51
9.4651061678
  0
ARC
  5
2E4
100
AcDbEntity
  8
0
100
AcDbCircle
 62
7
  6
BYLAYER
 10
43.3965797616
 20
58.8628060164
 40
20.0196310074
100
AcDbArc
 50
50.5353053082
 51
50.7133580181
  0
ARC
  5
2E5
100
AcDbEntity
  8
0
100
AcDbCircle
 62
7
  6
BYLAYER
 10
43.384084795
 20
58.7577629771
 40
20.0006136786
100
AcDbArc
 50
49.6903844947
 51
50.698771895
  0
ARC
  5
2E6
100
AcDbEntity
  8
0
100
AcDbCircle
 62
7
  6
BYLAYER
 10
44.4302903393
 20
60.1930126085
 40
18.3347971767
100
AcDbArc
 50
53.3427615283
 51
54.2328771924
  0
ARC
  5
2E7
100
AcDbEntity
  8
0
100
AcDbCircle
 62
7
  6
BYLAYER
 10
46.95988552
 20
56.0778945924
 40
18.1893023207
100
AcDbArc
 50
5.5505253055
 51
6.6611973851
  0
ARC
  5
2E8
100
AcDbEntity
  8
0
100
AcDbCircle
 62
7
  6
BYLAYER
 10
46.9349738011
 20
56.1377645112
 40
18.0961470357
100
AcDbArc
 50
5.5677689492
 51
6.6439537413
  0
ARC
  5
2E9
100
AcDbEntity
  8
0
100
AcDbCircle
 62
7
  6
BYLAYER
 10
44.6117432597
 20
60.3357787222
 40
18.0009761019
100
AcDbArc
 50
53.3536683006
 51
54.435535042
  0
ARC
  5
2EA
100
AcDbEntity
  8
0
100
AcDbCircle
 62
7
  6
BYLAYER
 10
44.6264765947
 20
60.4638584151
 40
18.0003637568
100
AcDbArc
 50
54.235672353
 51
54.4513406825
  0
ARC
  5
2EB
100
AcDbEntity
  8
0
100
AcDbCircle
 62
7
  6
BYLAYER
 10
48.9929800355
 20
56.2217083168
 40
16.1507531389
100
AcDbArc
 50
1.5179846205
 51
2.7203804167
  0
ARC
  5
2EC
100
AcDbEntity
  8
0
100
AcDbCircle
 62
7
  6
BYLAYER
 10
48.9472720026
 20
56.2867764031
 40
16.0779688002
100
AcDbArc
 50
1.5370122245
 51
2.7013528128
  0
ARC
  5
2ED
100
AcDbEntity
  8
0
100
AcDbCircle
 62
7
  6
BYLAYER
 10
55.940779002
 20
55.3981008062
 40
9.1198713295
100
AcDbArc
 50
341.1592903256
 51
342.9196825971
  0
ARC
  5
2EE
100
AcDbEntity
  8
0
100
AcDbCircle
 62
7
  6
BYLAYER
 10
55.8563885394
 20
55.4952139228
 40
9.0897109004
100
AcDbArc
 50
341.1881749971
 51
342.8907979256
  0
ARC
  5
2EF
100
AcDbEntity
  8
0
100
AcDbCircle
 62
7
  6
BYLAYER
 10
57.1047448019
 20
54.9477976664
 40
7.8712502522
100
AcDbArc
 50
334.6864130185
 51
336.6282629079
  0
ARC
  5
2F0
100
AcDbEntity
  8
0
100
AcDbCircle
 62
7
  6
BYLAYER
 10
57.0213561001
 20
55.0515618629
 40
7.8425409984
100
AcDbArc
 50
334.7179548699
 51
336.5967210566
  0
ARC
  5
2F1
100
AcDbEntity
  8
0
100
AcDbCircle
 62
7
  6
BYLAYER
 10
57.9881684842
 20
54.4814705677
 40
6.8717309166
100
AcDbArc
 50
327.5771900987
 51
329.7029480567
  0
ARC
  5
2F2
100
AcDbEntity
  8
0
100
AcDbCircle
 62
7
  6
BYLAYER
 10
57.9074924529
 20
54.5904732683
 40
6.8430566821
100
AcDbArc
 50
327.6109652836
 51
329.6687467608
  0
ARC
  5
2F3
100
AcDbEntity
  8
0
100
AcDbCircle
 62
7
  6
BYLAYER
 10
58.5941087021
 20
54.0555522803
 40
6.1305817369
100
AcDbArc
 50
319.8599550815
 51
322.1531055672
  0
ARC
  5
2F4
100
AcDbEntity
  8
0
100
AcDbCircle
 62
7
  6
BYLAYER
 10
58.5209684846
 20
54.1650723672
 40
6.0960213058
100
AcDbArc
 50
319.8949841363
 51
322.1180765125
  0
ARC
  5
2F5
100
AcDbEntity
  8
0
100
AcDbCircle
 62
7
  6
BYLAYER
 10
58.883854899
 20
54.632673631
 40
6.0694783795
100
AcDbArc
 50
321.9472248537
 51
322.3178428876
  0
ARC
  5
2F6
100
AcDbEntity
  8
0
100
AcDbCircle
 62
7
  6
BYLAYER
 10
58.9524344013
 20
53.7226955105
 40
5.6411414053
100
AcDbArc
 50
311.634366208
 51
314.0576194514
  0
ARC
  5
2F7
100
AcDbEntity
  8
0
100
AcDbCircle
 62
7
  6
BYLAYER
 10
58.8851204772
 20
53.8314488648
 40
5.6017786811
100
AcDbArc
 50
311.7757140103
 51
314.0224340008
  0
ARC
  5
2F8
100
AcDbEntity
  8
0
100
AcDbCircle
 62
7
  6
BYLAYER
 10
56.0247641186
 20
60.2840310752
 40
14.5511448794
100
AcDbArc
 50
0.0115809735
 51
1.5798944358
  0
ARC
  5
2F9
100
AcDbEntity
  8
0
100
AcDbCircle
 62
7
  6
BYLAYER
 10
50.9767449517
 20
56.2181046006
 40
14.1665541935
100
AcDbArc
 50
357.1301606252
 51
358.4424825568
  0
ARC
  5
2FA
100
AcDbEntity
  8
0
100
AcDbCircle
 62
7
  6
BYLAYER
 10
50.9144702055
 20
56.2902512561
 40
14.1103412809
100
AcDbArc
 50
357.1512714947
 51
358.4213716873
  0
ARC
  5
2FB
100
AcDbEntity
  8
0
100
AcDbCircle
 62
7
  6
BYLAYER
 10
52.8362371297
 20
56.0674376737
 40
12.3004822639
100
AcDbArc
 50
352.3205863599
 51
353.7625924666
  0
ARC
  5
2FC
100
AcDbEntity
  8
0
100
AcDbCircle
 62
7
  6
BYLAYER
 10
52.7620042236
 20
56.147845835
 40
12.2568460647
100
AcDbArc
 50
352.3440780885
 51
353.7391007381
  0
ARC
  5
2FD
100
AcDbEntity
  8
0
100
AcDbCircle
 62
7
  6
BYLAYER
 10
54.5073648693
 20
55.7846261204
 40
10.6050574701
100
AcDbArc
 50
347.0193975965
 51
348.6113338888
  0
ARC
  5
2FE
100
AcDbEntity
  8
0
100
AcDbCircle
 62
7
  6
BYLAYER
 10
54.425844468
 20
55.8736542222
 40
10.5700337698
100
AcDbArc
 50
347.0455213968
 51
348.5852100885
  0
ARC
  5
2FF
100
AcDbEntity
  8
0
100
AcDbCircle
 62
7
  6
BYLAYER
 10
49.11222078
 20
60.8010221419
 40
20.9567538005
100
AcDbArc
 50
40.8429320836
 51
45.9941814744
  0
ARC
  5
300
100
AcDbEntity
  8
0
100
AcDbCircle
 62
7
  6
BYLAYER
 10
45.6057597152
 20
61.9169816615
 40
16.2478146175
100
AcDbArc
 50
57.2837415476
 51
58.4789443315
  0
ARC
  5
301
100
AcDbEntity
  8
0
100
AcDbCircle
 62
7
  6
BYLAYER
 10
45.7410307185
 20
62.0069861431
 40
15.9836195476
100
AcDbArc
 50
57.2957408798
 51
58.4669449994
  0
ARC
  5
302
100
AcDbEntity
  8
0
100
AcDbCircle
 62
7
  6
BYLAYER
 10
55.1182943929
 20
60.8776708286
 40
15.4829307748
100
AcDbArc
 50
2.9682546077
 51
6.0401965693
  0
ARC
  5
303
100
AcDbEntity
  8
0
100
AcDbCircle
 62
7
  6
BYLAYER
 10
52.4619035239
 20
65.6827457681
 40
14.9907463089
100
AcDbArc
 50
57.5195869225
 51
58.3920849611
  0
ARC
  5
304
100
AcDbEntity
  8
0
100
AcDbCircle
 62
7
  6
BYLAYER
 10
52.7516782057
 20
66.1577190074
 40
14.4343614099
100
AcDbArc
 50
58.3835616918
 51
59.9968758138
  0
ARC
  5
305
100
AcDbEntity
  8
0
100
AcDbCircle
 62
7
  6
BYLAYER
 10
46.6028194551
 20
63.6367691579
 40
14.2594733092
100
AcDbArc
 50
61.5623995727
 51
62.866157907
  0
ARC
  5
306
100
AcDbEntity
  8
0
100
AcDbCircle
 62
7
  6
BYLAYER
 10
46.7195902807
 20
63.7088872947
 40
14.0200185885
100
AcDbArc
 50
61.5751429741
 51
62.8534145056
  0
ARC
  5
307
100
AcDbEntity
  8
0
100
AcDbCircle
 62
7
  6
BYLAYER
 10
56.5835486822
 20
60.9579814961
 40
14.0154842712
100
AcDbArc
 50
359.2360762368
 51
2.9505608722
  0
ARC
  5
308
100
AcDbEntity
  8
0
100
AcDbCircle
 62
7
  6
BYLAYER
 10
57.9349989065
 20
60.9480655013
 40
12.6640075911
100
AcDbArc
 50
356.8513248388
 51
358.7703620219
  0
ARC
  5
309
100
AcDbEntity
  8
0
100
AcDbCircle
 62
7
  6
BYLAYER
 10
54.3016651448
 20
67.533121431
 40
12.4911984384
100
AcDbArc
 50
61.6093141282
 51
63.1080584813
  0
ARC
  5
30A
100
AcDbEntity
  8
0
100
AcDbCircle
 62
7
  6
BYLAYER
 10
47.4117662085
 20
65.3255704724
 40
12.3864392696
100
AcDbArc
 50
66.2431068528
 51
67.6750917548
  0
ARC
  5
30B
100
AcDbEntity
  8
0
100
AcDbCircle
 62
7
  6
BYLAYER
 10
47.5106362128
 20
65.3770795033
 40
12.1732908783
100
AcDbArc
 50
66.2568068857
 51
67.6613917218
  0
ARC
  5
30C
100
AcDbEntity
  8
0
100
AcDbCircle
 62
7
  6
BYLAYER
 10
54.9629594955
 20
68.664015194
 40
11.1810421849
100
AcDbArc
 50
60.5981292624
 51
60.9545668737
  0
ARC
  5
30D
100
AcDbEntity
  8
0
100
AcDbCircle
 62
7
  6
BYLAYER
 10
48.0125745175
 20
66.9202288134
 40
10.6818205914
100
AcDbArc
 50
71.3951854037
 51
72.9756650906
  0
ARC
  5
30E
100
AcDbEntity
  8
0
100
AcDbCircle
 62
7
  6
BYLAYER
 10
48.0952332569
 20
66.9492517545
 40
10.4954154997
100
AcDbArc
 50
71.4101149765
 51
72.9607355178
  0
ARC
  5
30F
100
AcDbEntity
  8
0
100
AcDbCircle
 62
7
  6
BYLAYER
 10
55.4832994793
 20
69.6072676438
 40
10.1037893639
100
AcDbArc
 50
60.9857455336
 51
62.3371044593
  0
ARC
  5
310
100
AcDbEntity
  8
0
100
AcDbCircle
 62
7
  6
BYLAYER
 10
48.404272918
 20
68.3634189767
 40
9.1858477098
100
AcDbArc
 50
77.0875545259
 51
78.8352846371
  0
ARC
  5
311
100
AcDbEntity
  8
0
100
AcDbCircle
 62
7
  6
BYLAYER
 10
48.4733208691
 20
68.3690400996
 40
9.0255779021
100
AcDbArc
 50
77.1040670167
 51
78.8187721463
  0
ARC
  5
312
100
AcDbEntity
  8
0
100
AcDbCircle
 62
7
  6
BYLAYER
 10
48.6047059265
 20
69.6071631692
 40
7.9254697513
100
AcDbArc
 50
83.3794193059
 51
85.3079651803
  0
ARC
  5
313
100
AcDbEntity
  8
0
100
AcDbCircle
 62
7
  6
BYLAYER
 10
48.6634146069
 20
69.5894823263
 40
7.7898363189
100
AcDbArc
 50
83.3979618103
 51
85.2894226759
  0
ARC
  5
314
100
AcDbEntity
  8
0
100
AcDbCircle
 62
7
  6
BYLAYER
 10
56.6605446805
 20
71.8346643045
 40
7.5844433531
100
AcDbArc
 50
62.4018402151
 51
62.9586122604
  0
ARC
  5
315
100
AcDbEntity
  8
0
100
AcDbCircle
 62
7
  6
BYLAYER
 10
48.8821070958
 20
72.8463464046
 40
6.9157239789
100
AcDbArc
 50
140.9570574612
 51
142.1822170038
  0
ARC
  5
316
100
AcDbEntity
  8
0
100
AcDbCircle
 62
7
  6
BYLAYER
 10
48.648979004
 20
70.6157172512
 40
6.9153765958
100
AcDbArc
 50
90.3051401189
 51
92.417459953
  0
ARC
  5
317
100
AcDbEntity
  8
0
100
AcDbCircle
 62
7
  6
BYLAYER
 10
48.701007313
 20
70.575839392
 40
6.8022002892
100
AcDbArc
 50
90.3262374382
 51
92.3963626337
  0
ARC
  5
318
100
AcDbEntity
  8
0
100
AcDbCircle
 62
7
  6
BYLAYER
 10
48.5866950478
 20
71.3676335946
 40
6.1603848314
100
AcDbArc
 50
97.8537215444
 51
100.1357613735
  0
ARC
  5
319
100
AcDbEntity
  8
0
100
AcDbCircle
 62
7
  6
BYLAYER
 10
49.2194734103
 20
71.4111138419
 40
6.0172967477
100
AcDbArc
 50
97.7223384148
 51
99.546920084
  0
ARC
  5
31A
100
AcDbEntity
  8
0
100
AcDbCircle
 62
7
  6
BYLAYER
 10
48.482352199
 20
71.8425069718
 40
5.6738400117
100
AcDbArc
 50
105.9482898447
 51
107.3038509309
  0
ARC
  5
31B
100
AcDbEntity
  8
0
100
AcDbCircle
 62
7
  6
BYLAYER
 10
48.8201150777
 20
72.4924107447
 40
5.4633277403
100
AcDbArc
 50
113.1861359432
 51
118.0070736705
  0
ARC
  5
31C
100
AcDbEntity
  8
0
100
AcDbCircle
 62
7
  6
BYLAYER
 10
-6.9823725886
 20
81.5862597319
 40
78.2592537239
100
AcDbArc
 50
331.7257574952
 51
332.2311319983
  0
ARC
  5
31D
100
AcDbEntity
  8
0
100
AcDbCircle
 62
7
  6
BYLAYER
 10
0.677166622
 20
85.3555057733
 40
77.5926084374
100
AcDbArc
 50
331.7235864919
 51
332.2333030031
  0
ARC
  5
31E
100
AcDbEntity
  8
0
100
AcDbCircle
 62
7
  6
BYLAYER
 10
121.1028095321
 20
4.7424035932
 40
108.3679703894
100
AcDbArc
 50
136.5692195245
 51
136.885888346
  0
ARC
  5
31F
100
AcDbEntity
  8
0
100
AcDbCircle
 62
7
  6
BYLAYER
 10
113.4209960419
 20
1.2349730953
 40
107.5291149035
100
AcDbArc
 50
136.567984323
 51
136.8871235458
  0
ARC
  5
320
100
AcDbEntity
  8
0
100
AcDbCircle
 62
7
  6
BYLAYER
 10
147.8181717995
 20
67.6812468357
 40
106.406561247
100
AcDbArc
 50
173.9983104006
 51
175.0571627942
  0
ARC
  5
321
100
AcDbEntity
  8
0
100
AcDbCircle
 62
7
  6
BYLAYER
 10
120.295806549
 20
14.3205348122
 40
66.8920321686
100
AcDbArc
 50
153.6350403946
 51
154.1962319497
  0
ARC
  5
322
100
AcDbEntity
  8
0
100
AcDbCircle
 62
7
  6
BYLAYER
 10
127.0044603558
 20
18.5803841026
 40
66.4885570696
100
AcDbArc
 50
153.6333376298
 51
154.1979347129
  0
ARC
  5
323
100
AcDbEntity
  8
0
100
AcDbCircle
 62
7
  6
BYLAYER
 10
146.4863330674
 20
86.1450835997
 40
90.048217538
100
AcDbArc
 50
196.3362145697
 51
196.975726174
  0
ARC
  5
324
100
AcDbEntity
  8
0
100
AcDbCircle
 62
7
  6
BYLAYER
 10
153.3174115684
 20
90.1557346827
 40
89.7977526702
100
AcDbArc
 50
196.3353226967
 51
196.9766180524
  0
ARC
  5
325
100
AcDbEntity
  8
0
100
AcDbCircle
 62
7
  6
BYLAYER
 10
84.094515984
 20
146.8797964328
 40
72.949012256
100
AcDbArc
 50
245.8731836943
 51
246.5195618556
  0
ARC
  5
326
100
AcDbEntity
  8
0
100
AcDbCircle
 62
7
  6
BYLAYER
 10
76.8650270583
 20
142.4381609829
 40
72.5564286173
100
AcDbArc
 50
245.8714349841
 51
246.5213105639
  0
SPLINE
  5
327
100
AcDbEntity
  8
0
100
AcDbSpline
 62
7
  6
BYLAYER
 70
0
 71
3
 72
15
 73
11
 74
0
 42
0.0000001
 43
0.0000001
 44
0.0000000001
 40
0.0
 40
0.0
 40
0.0
 40
0.0
 40
0.1271906234
 40
0.2560469927
 40
0.3853921183
 40
0.5140661967
 40
0.6409105957
 40
0.7648296979
 40
0.8848173721
 40
1.0
 40
1.0
 40
1.0
 40
1.0
 10
65.381351985
 20
74.1413964017
 30
0.0
 10
65.7297175491
 20
73.7205168489
 30
0.0
 10
66.4006060688
 20
72.8476164415
 30
0.0
 10
67.3172231775
 20
71.4676210019
 30
0.0
 10
68.1413690559
 20
70.02305945
 30
0.0
 10
68.8618247835
 20
68.5336832774
 30
0.0
 10
69.4687973099
 20
67.0195909486
 30
0.0
 10
69.9540368965
 20
65.5011957879
 30
0.0
 10
70.3108658623
 20
63.999030344
 30
0.0
 10
70.4633014789
 20
62.998912673
 30
0.0
 10
70.51526885
 20
62.5068801291
 30
0.0
  0
SPLINE
  5
328
100
AcDbEntity
  8
0
100
AcDbSpline
 62
7
  6
BYLAYER
 70
0
 71
3
 72
11
 73
7
 74
0
 42
0.0000001
 43
0.0000001
 44
0.0000000001
 40
0.0
 40
0.0
 40
0.0
 40
0.0
 40
0.2354057618
 40
0.481514814
 40
0.7369505384
 40
1.0
 40
1.0
 40
1.0
 40
1.0
 10
61.0325185548
 20
78.0583882725
 30
0.0
 10
61.4144236557
 20
77.8173915326
 30
0.0
 10
62.1727618688
 20
77.2875334568
 30
0.0
 10
63.2616234498
 20
76.3836897274
 30
0.0
 10
64.3164154155
 20
75.362621871
 30
0.0
 10
64.9805215959
 20
74.6209280892
 30
0.0
 10
65.3043501551
 20
74.2339224196
 30
0.0
  0
SPLINE
  5
329
100
AcDbEntity
  8
0
100
AcDbSpline
 62
7
  6
BYLAYER
 70
0
 71
3
 72
29
 73
25
 74
0
 42
0.0000001
 43
0.0000001
 44
0.0000000001
 40
0.0
 40
0.0
 40
0.0
 40
0.0
 40
0.0069257812
 40
0.0128718884
 40
0.0187647892
 40
0.0249000494
 40
0.0312502684
 40
0.0377996251
 40
0.0513115779
 40
0.0651965683
 40
0.0793796624
 40
0.0937957193
 40
0.1084016634
 40
0.1380281614
 40
0.1680923864
 40
0.1984967104
 40
0.2291770463
 40
0.2911723141
 40
0.3538502618
 40
0.4806718061
 40
0.6089448992
 40
0.7383643086
 40
0.8687306862
 40
1.0
 40
1.0
 40
1.0
 40
1.0
 10
61.3076014986
 20
77.8036802398
 30
0.0
 10
61.3097290674
 20
77.8049085849
 30
0.0
 10
61.3131231717
 20
77.8085394814
 30
0.0
 10
61.3139097891
 20
77.8154517679
 30
0.0
 10
61.3120723491
 20
77.8216237891
 30
0.0
 10
61.3093814991
 20
77.8275662536
 30
0.0
 10
61.3059639605
 20
77.833405064
 30
0.0
 10
61.3005397274
 20
77.8410514275
 30
0.0
 10
61.2928469903
 20
77.8503314298
 30
0.0
 10
61.2828460715
 20
77.861177341
 30
0.0
 10
61.2721511543
 20
77.8717999639
 30
0.0
 10
61.2609493458
 20
77.8822617106
 30
0.0
 10
61.2453879297
 20
77.8960711737
 30
0.0
 10
61.2252111692
 20
77.9130327678
 30
0.0
 10
61.2002089597
 20
77.9329422537
 30
0.0
 10
61.1745202754
 20
77.9525783238
 30
0.0
 10
61.1394075387
 20
77.9785262088
 30
0.0
 10
61.0944829026
 20
78.0104492786
 30
0.0
 10
61.0207795664
 20
78.0607169114
 30
0.0
 10
60.9263306701
 20
78.1222614224
 30
0.0
 10
60.8106705147
 20
78.1945634721
 30
0.0
 10
60.6928356243
 20
78.2657262285
 30
0.0
 10
60.5732302049
 20
78.3359900483
 30
0.0
 10
60.49265947
 20
78.382055161
 30
0.0
 10
60.4520931219
 20
78.4049143503
 30
0.0
  0
SPLINE
  5
32A
100
AcDbEntity
  8
0
100
AcDbSpline
 62
7
  6
BYLAYER
 70
0
 71
3
 72
9
 73
5
 74
0
 42
0.0000001
 43
0.0000001
 44
0.0000000001
 40
0.0
 40
0.0
 40
0.0
 40
0.0
 40
0.2484054248
 40
1.0
 40
1.0
 40
1.0
 40
1.0
 10
60.1086905141
 20
78.5899638009
 30
0.0
 10
60.0959289646
 20
78.5964760214
 30
0.0
 10
60.0444736342
 20
78.6225312391
 30
0.0
 10
59.9926664056
 20
78.6478991842
 30
0.0
 10
59.953450928
 20
78.6663735121
 30
0.0
  0
SPLINE
  5
32B
100
AcDbEntity
  8
0
100
AcDbSpline
 62
7
  6
BYLAYER
 70
0
 71
3
 72
9
 73
5
 74
0
 42
0.0000001
 43
0.0000001
 44
0.0000000001
 40
0.0
 40
0.0
 40
0.0
 40
0.0
 40
0.5170824033
 40
1.0
 40
1.0
 40
1.0
 40
1.0
 10
44.3078468968
 20
80.3413434974
 30
0.0
 10
45.4067463213
 20
80.5081114831
 30
0.0
 10
47.5351995716
 20
80.8098952494
 30
0.0
 10
49.6722263298
 20
81.0464944032
 30
0.0
 10
50.7061526601
 20
81.1388565808
 30
0.0
  0
SPLINE
  5
32C
100
AcDbEntity
  8
0
100
AcDbSpline
 62
7
  6
BYLAYER
 70
0
 71
3
 72
9
 73
5
 74
0
 42
0.0000001
 43
0.0000001
 44
0.0000000001
 40
0.0
 40
0.0
 40
0.0
 40
0.0
 40
0.521673347
 40
1.0
 40
1.0
 40
1.0
 40
1.0
 10
50.7061526601
 20
81.1388565808
 30
0.0
 10
51.6552779614
 20
81.223643358
 30
0.0
 10
53.4781534653
 20
81.3504674412
 30
0.0
 10
55.3047835356
 20
81.3970119873
 30
0.0
 10
56.178497017
 20
81.4017658869
 30
0.0
  0
SPLINE
  5
32D
100
AcDbEntity
  8
0
100
AcDbSpline
 62
7
  6
BYLAYER
 70
0
 71
3
 72
10
 73
6
 74
0
 42
0.0000001
 43
0.0000001
 44
0.0000000001
 40
0.0
 40
0.0
 40
0.0
 40
0.0
 40
0.5016776128
 40
0.7513518284
 40
1.0
 40
1.0
 40
1.0
 40
1.0
 10
56.8952385831
 20
81.0487050549
 30
0.0
 10
58.0463868155
 20
79.8885841462
 30
0.0
 10
59.7371278174
 20
78.1170185158
 30
0.0
 10
61.8900238967
 20
75.6716060989
 30
0.0
 10
62.9266254682
 20
74.4218626557
 30
0.0
 10
63.4341277127
 20
73.7905269628
 30
0.0
  0
SPLINE
  5
32E
100
AcDbEntity
  8
0
100
AcDbSpline
 62
7
  6
BYLAYER
 70
0
 71
3
 72
9
 73
5
 74
0
 42
0.0000001
 43
0.0000001
 44
0.0000000001
 40
0.0
 40
0.0
 40
0.0
 40
0.0
 40
0.4887825648
 40
1.0
 40
1.0
 40
1.0
 40
1.0
 10
62.3806258246
 20
46.8805223974
 30
0.0
 10
63.1589776621
 20
46.9674757449
 30
0.0
 10
64.7490884986
 20
47.1663838638
 30
0.0
 10
66.3348423805
 20
47.3968415043
 30
0.0
 10
67.1446074819
 20
47.5204296244
 30
0.0
  0
SPLINE
  5
32F
100
AcDbEntity
  8
0
100
AcDbSpline
 62
7
  6
BYLAYER
 70
0
 71
3
 72
10
 73
6
 74
0
 42
0.0000001
 43
0.0000001
 44
0.0000000001
 40
0.0
 40
0.0
 40
0.0
 40
0.0
 40
0.2442241631
 40
0.4925993318
 40
1.0
 40
1.0
 40
1.0
 40
1.0
 10
69.7981182317
 20
57.3883434472
 30
0.0
 10
69.7981182317
 20
56.7210114001
 30
0.0
 10
69.7767543145
 20
55.3749157677
 30
0.0
 10
69.6528694232
 20
52.6449811574
 30
0.0
 10
69.4777927536
 20
50.5863425793
 30
0.0
 10
69.3351345111
 20
49.2072509332
 30
0.0
  0
SPLINE
  5
330
100
AcDbEntity
  8
0
100
AcDbSpline
 62
7
  6
BYLAYER
 70
0
 71
3
 72
10
 73
6
 74
0
 42
0.0000001
 43
0.0000001
 44
0.0000000001
 40
0.0
 40
0.0
 40
0.0
 40
0.0
 40
0.2518493172
 40
0.5024476721
 40
1.0
 40
1.0
 40
1.0
 40
1.0
 10
63.4341277127
 20
73.7905269628
 30
0.0
 10
63.9392546041
 20
73.1621462261
 30
0.0
 10
64.9278987855
 20
71.8929982815
 30
0.0
 10
66.8188041331
 20
69.3094326484
 30
0.0
 10
68.1524094368
 20
67.3185036366
 30
0.0
 10
69.0108386694
 20
65.9768275315
 30
0.0
  0
SPLINE
  5
331
100
AcDbEntity
  8
0
100
AcDbSpline
 62
7
  6
BYLAYER
 70
0
 71
3
 72
11
 73
7
 74
0
 42
0.0000001
 43
0.0000001
 44
0.0000000001
 40
0.0
 40
0.0
 40
0.0
 40
0.0
 40
0.2438668952
 40
0.4915241304
 40
0.7434624398
 40
1.0
 40
1.0
 40
1.0
 40
1.0
 10
69.3351345111
 20
65.0348316009
 30
0.0
 10
69.4078283962
 20
64.4160316348
 30
0.0
 10
69.5393409698
 20
63.1669829301
 30
0.0
 10
69.6864665143
 20
61.2729573794
 30
0.0
 10
69.7778531372
 20
59.3429749837
 30
0.0
 10
69.7981182317
 20
58.043770926
 30
0.0
 10
69.7981182317
 20
57.3883434472
 30
0.0
  0
SPLINE
  5
332
100
AcDbEntity
  8
0
100
AcDbSpline
 62
7
  6
BYLAYER
 70
0
 71
3
 72
11
 73
7
 74
0
 42
0.0000001
 43
0.0000001
 44
0.0000000001
 40
0.0
 40
0.0
 40
0.0
 40
0.0
 40
0.2438668952
 40
0.4915241304
 40
0.7434624398
 40
1.0
 40
1.0
 40
1.0
 40
1.0
 10
67.4326866034
 20
48.108878678
 30
0.0
 10
67.3599927183
 20
48.7276786441
 30
0.0
 10
67.2284801447
 20
49.9767273488
 30
0.0
 10
67.0813546002
 20
51.8707528995
 30
0.0
 10
66.9899679773
 20
53.8007352952
 30
0.0
 10
66.9697028828
 20
55.0999393529
 30
0.0
 10
66.9697028828
 20
55.7553668317
 30
0.0
  0
SPLINE
  5
333
100
AcDbEntity
  8
0
100
AcDbSpline
 62
7
  6
BYLAYER
 70
0
 71
3
 72
9
 73
5
 74
0
 42
0.0000001
 43
0.0000001
 44
0.0000000001
 40
0.0
 40
0.0
 40
0.0
 40
0.0
 40
0.521673212
 40
1.0
 40
1.0
 40
1.0
 40
1.0
 10
47.8777372644
 20
79.5058799799
 30
0.0
 10
46.9286132629
 20
79.4210933866
 30
0.0
 10
45.1057397555
 20
79.2942701296
 30
0.0
 10
43.2791117452
 20
79.2477251354
 30
0.0
 10
42.4053989931
 20
79.2429712444
 30
0.0
  0
SPLINE
  5
334
100
AcDbEntity
  8
0
100
AcDbSpline
 62
7
  6
BYLAYER
 70
0
 71
3
 72
9
 73
5
 74
0
 42
0.0000001
 43
0.0000001
 44
0.0000000001
 40
0.0
 40
0.0
 40
0.0
 40
0.0
 40
0.5170818251
 40
1.0
 40
1.0
 40
1.0
 40
1.0
 10
54.2760490533
 20
80.3033935993
 30
0.0
 10
53.1771498353
 20
80.1366256466
 30
0.0
 10
51.0486941738
 20
79.8348448939
 30
0.0
 10
48.9116658027
 20
79.5982422578
 30
0.0
 10
47.8777372644
 20
79.5058799799
 30
0.0
  0
SPLINE
  5
335
100
AcDbEntity
  8
0
100
AcDbSpline
 62
7
  6
BYLAYER
 70
0
 71
3
 72
10
 73
6
 74
0
 42
0.0000001
 43
0.0000001
 44
0.0000000001
 40
0.0
 40
0.0
 40
0.0
 40
0.0
 40
0.2518493845
 40
0.5024476491
 40
1.0
 40
1.0
 40
1.0
 40
1.0
 10
60.605712317
 20
72.1575504757
 30
0.0
 10
60.1005858582
 20
72.7859308093
 30
0.0
 10
59.111936533
 20
74.055072701
 30
0.0
 10
57.2210447407
 20
76.6386444191
 30
0.0
 10
55.8874358318
 20
78.6295675822
 30
0.0
 10
55.0290074145
 20
79.971242419
 30
0.0
  0
SPLINE
  5
336
100
AcDbEntity
  8
0
100
AcDbSpline
 62
7
  6
BYLAYER
 70
0
 71
3
 72
10
 73
6
 74
0
 42
0.0000001
 43
0.0000001
 44
0.0000000001
 40
0.0
 40
0.0
 40
0.0
 40
0.0
 40
0.5016775218
 40
0.7513517917
 40
1.0
 40
1.0
 40
1.0
 40
1.0
 10
67.1446074769
 20
64.8993648817
 30
0.0
 10
65.9934583448
 20
66.0594866998
 30
0.0
 10
64.302721907
 20
67.8310596254
 30
0.0
 10
62.1498175861
 20
70.2764688887
 30
0.0
 10
61.1132150393
 20
71.5262140111
 30
0.0
 10
60.605712317
 20
72.1575504757
 30
0.0
  0
SPLINE
  5
337
100
AcDbEntity
  8
0
100
AcDbSpline
 62
7
  6
BYLAYER
 70
0
 71
3
 72
10
 73
6
 74
0
 42
0.0000001
 43
0.0000001
 44
0.0000000001
 40
0.0
 40
0.0
 40
0.0
 40
0.0
 40
0.2442241631
 40
0.4925993318
 40
1.0
 40
1.0
 40
1.0
 40
1.0
 10
66.9697028828
 20
55.7553668317
 30
0.0
 10
66.9697028828
 20
56.4226988788
 30
0.0
 10
66.9910668
 20
57.7687945112
 30
0.0
 10
67.1149516913
 20
60.4987291215
 30
0.0
 10
67.290028361
 20
62.5573676996
 30
0.0
 10
67.4326866034
 20
63.9364593457
 30
0.0
  0
SPLINE
  5
338
100
AcDbEntity
  8
0
100
AcDbSpline
 62
7
  6
BYLAYER
 70
0
 71
3
 72
9
 73
5
 74
0
 42
0.0000001
 43
0.0000001
 44
0.0000000001
 40
0.0
 40
0.0
 40
0.0
 40
0.0
 40
0.2532484367
 40
1.0
 40
1.0
 40
1.0
 40
1.0
 10
64.1417068681
 20
50.5647729713
 30
0.0
 10
64.0976224084
 20
50.504937003
 30
0.0
 10
63.9194819049
 20
50.2716928302
 30
0.0
 10
63.724842213
 20
50.0509873214
 30
0.0
 10
63.5708620726
 20
49.8950443614
 30
0.0
  0
SPLINE
  5
339
100
AcDbEntity
  8
0
100
AcDbSpline
 62
7
  6
BYLAYER
 70
0
 71
3
 72
15
 73
11
 74
0
 42
0.0000001
 43
0.0000001
 44
0.0000000001
 40
0.0
 40
0.0
 40
0.0
 40
0.0
 40
0.1491363322
 40
0.2932607256
 40
0.4309986189
 40
0.5612444566
 40
0.6832502574
 40
0.7967301445
 40
0.9019803511
 40
1.0
 40
1.0
 40
1.0
 40
1.0
 10
60.605712384
 20
72.1575503589
 30
0.0
 10
60.1312302857
 20
72.7478087267
 30
0.0
 10
59.1525400971
 20
73.8727795532
 30
0.0
 10
57.5817509141
 20
75.4005835183
 30
0.0
 10
55.9539443204
 20
76.7207432788
 30
0.0
 10
54.2962152542
 20
77.8109127715
 30
0.0
 10
52.635751645
 20
78.6526807004
 30
0.0
 10
50.9990189908
 20
79.2312789036
 30
0.0
 10
49.4129294332
 20
79.535580317
 30
0.0
 10
48.3735155721
 20
79.5501688384
 30
0.0
 10
47.8777403039
 20
79.5058802425
 30
0.0
  0
SPLINE
  5
33A
100
AcDbEntity
  8
0
100
AcDbSpline
 62
7
  6
BYLAYER
 70
0
 71
3
 72
15
 73
11
 74
0
 42
0.0000001
 43
0.0000001
 44
0.0000000001
 40
0.0
 40
0.0
 40
0.0
 40
0.0
 40
0.1108410466
 40
0.2280578212
 40
0.3507094039
 40
0.4776259749
 40
0.6074737875
 40
0.7388131822
 40
0.8701524818
 40
1.0
 40
1.0
 40
1.0
 40
1.0
 10
66.9697028828
 20
55.7553668317
 30
0.0
 10
66.9697028828
 20
56.4167687571
 30
0.0
 10
66.8904811632
 20
57.7783898372
 30
0.0
 10
66.5610870029
 20
59.8479485637
 30
0.0
 10
66.0233019519
 20
61.9723734964
 30
0.0
 10
65.2862470347
 20
64.1156460265
 30
0.0
 10
64.3623821955
 20
66.2417538783
 30
0.0
 10
63.2672894939
 20
68.314793178
 30
0.0
 10
62.0196111959
 20
70.2995585618
 30
0.0
 10
61.0911542159
 20
71.5536581394
 30
0.0
 10
60.605712384
 20
72.1575503589
 30
0.0
  0
SPLINE
  5
33B
100
AcDbEntity
  8
0
100
AcDbSpline
 62
7
  6
BYLAYER
 70
0
 71
3
 72
17
 73
13
 74
0
 42
0.0000001
 43
0.0000001
 44
0.0000000001
 40
0.0
 40
0.0
 40
0.0
 40
0.0
 40
0.0547198864
 40
0.1092908879
 40
0.164033758
 40
0.219259376
 40
0.3322256214
 40
0.4504193658
 40
0.5754666968
 40
0.7084396333
 40
0.8499270488
 40
1.0
 40
1.0
 40
1.0
 40
1.0
 10
62.4999828976
 20
47.1523957444
 30
0.0
 10
62.6738263367
 20
47.2231949635
 30
0.0
 10
63.0147386072
 20
47.3807198776
 30
0.0
 10
63.501866193
 20
47.6639285975
 30
0.0
 10
63.961832754
 20
47.9925175866
 30
0.0
 10
64.5411410809
 20
48.4931629967
 30
0.0
 10
65.1933325822
 20
49.2352585753
 30
0.0
 10
65.8373318584
 20
50.2796098224
 30
0.0
 10
66.3433424389
 20
51.4715768618
 30
0.0
 10
66.7067386767
 20
52.7967042617
 30
0.0
 10
66.9243101065
 20
54.2395584189
 30
0.0
 10
66.9697028828
 20
55.2405667033
 30
0.0
 10
66.9697028828
 20
55.7553668317
 30
0.0
  0
SPLINE
  5
33C
100
AcDbEntity
  8
0
100
AcDbSpline
 62
7
  6
BYLAYER
 70
0
 71
3
 72
15
 73
11
 74
0
 42
0.0000001
 43
0.0000001
 44
0.0000000001
 40
0.0
 40
0.0
 40
0.0
 40
0.0
 40
0.1289736184
 40
0.2552347805
 40
0.3794646169
 40
0.5024842468
 40
0.6251806581
 40
0.7484373936
 40
0.8731075196
 40
1.0
 40
1.0
 40
1.0
 40
1.0
 10
47.8777403039
 20
79.5058802425
 30
0.0
 10
47.6604183993
 20
79.4864664961
 30
0.0
 10
47.2317883851
 20
79.4285061442
 30
0.0
 10
46.6058501222
 20
79.2816426893
 30
0.0
 10
46.00715071
 20
79.0761800457
 30
0.0
 10
45.4381256736
 20
78.8129477004
 30
0.0
 10
44.9009259676
 20
78.492874476
 30
0.0
 10
44.3975274245
 20
78.1172203709
 30
0.0
 10
43.9298827122
 20
77.6874716397
 30
0.0
 10
43.6460673644
 20
77.3693016111
 30
0.0
 10
43.5108435735
 20
77.2025794478
 30
0.0
  0
SPLINE
  5
33D
100
AcDbEntity
  8
0
100
AcDbSpline
 62
7
  6
BYLAYER
 70
0
 71
3
 72
9
 73
5
 74
0
 42
0.0000001
 43
0.0000001
 44
0.0000000001
 40
0.0
 40
0.0
 40
0.0
 40
0.0
 40
0.253338571
 40
1.0
 40
1.0
 40
1.0
 40
1.0
 10
34.9238064872
 20
74.7244402579
 30
0.0
 10
34.8734158146
 20
74.2444709828
 30
0.0
 10
34.6863726289
 20
72.3487191621
 30
0.0
 10
34.5533770874
 20
70.4472311663
 30
0.0
 10
34.4967002878
 20
69.0259789157
 30
0.0
  0
SPLINE
  5
33E
100
AcDbEntity
  8
0
100
AcDbSpline
 62
7
  6
BYLAYER
 70
0
 71
3
 72
9
 73
5
 74
0
 42
0.0000001
 43
0.0000001
 44
0.0000000001
 40
0.0
 40
0.0
 40
0.0
 40
0.0
 40
0.4792599429
 40
1.0
 40
1.0
 40
1.0
 40
1.0
 10
48.3079607588
 20
42.3579623667
 30
0.0
 10
49.1441246514
 20
42.3656225966
 30
0.0
 10
50.8887055265
 20
42.4154589877
 30
0.0
 10
52.6297113866
 20
42.5382371297
 30
0.0
 10
53.534679977
 20
42.6190793221
 30
0.0
  0
SPLINE
  5
33F
100
AcDbEntity
  8
0
100
AcDbSpline
 62
7
  6
BYLAYER
 70
0
 71
3
 72
9
 73
5
 74
0
 42
0.0000001
 43
0.0000001
 44
0.0000000001
 40
0.0
 40
0.0
 40
0.0
 40
0.0
 40
0.5170818264
 40
1.0
 40
1.0
 40
1.0
 40
1.0
 10
37.236808518
 20
76.2589019548
 30
0.0
 10
38.3357066951
 20
76.4256697515
 30
0.0
 10
40.4641603146
 20
76.7274503723
 30
0.0
 10
42.6011866582
 20
76.9640527597
 30
0.0
 10
43.6351142043
 20
77.0564150355
 30
0.0
  0
SPLINE
  5
340
100
AcDbEntity
  8
0
100
AcDbSpline
 62
7
  6
BYLAYER
 70
0
 71
3
 72
9
 73
5
 74
0
 42
0.0000001
 43
0.0000001
 44
0.0000000001
 40
0.0
 40
0.0
 40
0.0
 40
0.0
 40
0.5216732059
 40
1.0
 40
1.0
 40
1.0
 40
1.0
 10
43.6351142043
 20
77.0564150355
 30
0.0
 10
44.5842392525
 20
77.1412018019
 30
0.0
 10
46.4071148062
 20
77.2680251737
 30
0.0
 10
48.2337448607
 20
77.3145704258
 30
0.0
 10
49.1074586044
 20
77.3193243248
 30
0.0
  0
SPLINE
  5
341
100
AcDbEntity
  8
0
100
AcDbSpline
 62
7
  6
BYLAYER
 70
0
 71
3
 72
10
 73
6
 74
0
 42
0.0000001
 43
0.0000001
 44
0.0000000001
 40
0.0
 40
0.0
 40
0.0
 40
0.0
 40
0.5016775205
 40
0.7513518
 40
1.0
 40
1.0
 40
1.0
 40
1.0
 10
49.8242002078
 20
76.9662635144
 30
0.0
 10
50.9753481925
 20
75.8061428557
 30
0.0
 10
52.6660825369
 20
74.0345713201
 30
0.0
 10
54.8189864128
 20
71.5891659614
 30
0.0
 10
55.8555869795
 20
70.3394212839
 30
0.0
 10
56.363089257
 20
69.7080855313
 30
0.0
  0
SPLINE
  5
342
100
AcDbEntity
  8
0
100
AcDbSpline
 62
7
  6
BYLAYER
 70
0
 71
3
 72
10
 73
6
 74
0
 42
0.0000001
 43
0.0000001
 44
0.0000000001
 40
0.0
 40
0.0
 40
0.0
 40
0.0
 40
0.2518493708
 40
0.5024476483
 40
1.0
 40
1.0
 40
1.0
 40
1.0
 10
56.363089257
 20
69.7080855313
 30
0.0
 10
56.8682162772
 20
69.0797046573
 30
0.0
 10
57.8568656139
 20
67.8105607194
 30
0.0
 10
59.7477611313
 20
65.2269877313
 30
0.0
 10
61.08137099
 20
63.2360621799
 30
0.0
 10
61.9398002802
 20
61.8943859829
 30
0.0
  0
SPLINE
  5
343
100
AcDbEntity
  8
0
100
AcDbSpline
 62
7
  6
BYLAYER
 70
0
 71
3
 72
11
 73
7
 74
0
 42
0.0000001
 43
0.0000001
 44
0.0000000001
 40
0.0
 40
0.0
 40
0.0
 40
0.0
 40
0.2438668952
 40
0.4915241304
 40
0.7434624398
 40
1.0
 40
1.0
 40
1.0
 40
1.0
 10
62.264096139
 20
60.9523900622
 30
0.0
 10
62.3367900241
 20
60.3335900961
 30
0.0
 10
62.4683025977
 20
59.0845413914
 30
0.0
 10
62.6154281422
 20
57.1905158407
 30
0.0
 10
62.7068147651
 20
55.260533445
 30
0.0
 10
62.7270798596
 20
53.9613293873
 30
0.0
 10
62.7270798596
 20
53.3059019085
 30
0.0
  0
SPLINE
  5
344
100
AcDbEntity
  8
0
100
AcDbSpline
 62
7
  6
BYLAYER
 70
0
 71
3
 72
9
 73
5
 74
0
 42
0.0000001
 43
0.0000001
 44
0.0000000001
 40
0.0
 40
0.0
 40
0.0
 40
0.0
 40
0.4826824781
 40
1.0
 40
1.0
 40
1.0
 40
1.0
 10
53.534679977
 20
42.6190793221
 30
0.0
 10
54.5908895381
 20
42.7134320939
 30
0.0
 10
56.7749470147
 20
42.9562490235
 30
0.0
 10
58.950072883
 20
43.2665176341
 30
0.0
 10
60.0735691067
 20
43.4379880839
 30
0.0
  0
SPLINE
  5
345
100
AcDbEntity
  8
0
100
AcDbSpline
 62
7
  6
BYLAYER
 70
0
 71
3
 72
10
 73
6
 74
0
 42
0.0000001
 43
0.0000001
 44
0.0000000001
 40
0.0
 40
0.0
 40
0.0
 40
0.0
 40
0.2442241631
 40
0.4925993318
 40
1.0
 40
1.0
 40
1.0
 40
1.0
 10
62.7270798596
 20
53.3059019085
 30
0.0
 10
62.7270798596
 20
52.6385698614
 30
0.0
 10
62.7057159424
 20
51.292474229
 30
0.0
 10
62.5818310511
 20
48.5625396187
 30
0.0
 10
62.4067543814
 20
46.5039010406
 30
0.0
 10
62.264096139
 20
45.1248093945
 30
0.0
  0
SPLINE
  5
346
100
AcDbEntity
  8
0
100
AcDbSpline
 62
7
  6
BYLAYER
 70
0
 71
3
 72
9
 73
5
 74
0
 42
0.0000001
 43
0.0000001
 44
0.0000000001
 40
0.0
 40
0.0
 40
0.0
 40
0.0
 40
0.5170819149
 40
1.0
 40
1.0
 40
1.0
 40
1.0
 10
47.2050106408
 20
76.2209520373
 30
0.0
 10
46.1061112525
 20
76.05418406
 30
0.0
 10
43.9776557069
 20
75.7524027307
 30
0.0
 10
41.8406273049
 20
75.5158007215
 30
0.0
 10
40.8066989794
 20
75.4234384499
 30
0.0
  0
SPLINE
  5
347
100
AcDbEntity
  8
0
100
AcDbSpline
 62
7
  6
BYLAYER
 70
0
 71
3
 72
10
 73
6
 74
0
 42
0.0000001
 43
0.0000001
 44
0.0000000001
 40
0.0
 40
0.0
 40
0.0
 40
0.0
 40
0.2518493595
 40
0.5024476983
 40
1.0
 40
1.0
 40
1.0
 40
1.0
 10
53.534674032
 20
68.0751088318
 30
0.0
 10
53.0295476156
 20
68.7034891313
 30
0.0
 10
52.0408994784
 20
69.9726321372
 30
0.0
 10
50.1499989775
 20
72.5561976733
 30
0.0
 10
48.8163974003
 20
74.5471261301
 30
0.0
 10
47.9579690393
 20
75.8888008785
 30
0.0
  0
SPLINE
  5
348
100
AcDbEntity
  8
0
100
AcDbSpline
 62
7
  6
BYLAYER
 70
0
 71
3
 72
9
 73
5
 74
0
 42
0.0000001
 43
0.0000001
 44
0.0000000001
 40
0.0
 40
0.0
 40
0.0
 40
0.0
 40
0.5216738855
 40
1.0
 40
1.0
 40
1.0
 40
1.0
 10
40.8066989794
 20
75.4234384499
 30
0.0
 10
39.8575737215
 20
75.3386517538
 30
0.0
 10
38.034700366
 20
75.2118247591
 30
0.0
 10
36.208072164
 20
75.1652835867
 30
0.0
 10
35.3343606143
 20
75.1605297019
 30
0.0
  0
SPLINE
  5
349
100
AcDbEntity
  8
0
100
AcDbSpline
 62
7
  6
BYLAYER
 70
0
 71
3
 72
10
 73
6
 74
0
 42
0.0000001
 43
0.0000001
 44
0.0000000001
 40
0.0
 40
0.0
 40
0.0
 40
0.0
 40
0.5016775296
 40
0.7513517379
 40
1.0
 40
1.0
 40
1.0
 40
1.0
 10
60.0735690878
 20
60.8169233332
 30
0.0
 10
58.9224199619
 20
61.9770451464
 30
0.0
 10
57.231679407
 20
63.7486141248
 30
0.0
 10
55.0787843234
 20
66.1940313429
 30
0.0
 10
54.0421768649
 20
67.4437722528
 30
0.0
 10
53.534674032
 20
68.0751088318
 30
0.0
  0
SPLINE
  5
34A
100
AcDbEntity
  8
0
100
AcDbSpline
 62
7
  6
BYLAYER
 70
0
 71
3
 72
10
 73
6
 74
0
 42
0.0000001
 43
0.0000001
 44
0.0000000001
 40
0.0
 40
0.0
 40
0.0
 40
0.0
 40
0.2442241631
 40
0.4925993318
 40
1.0
 40
1.0
 40
1.0
 40
1.0
 10
59.8986645107
 20
51.672925293
 30
0.0
 10
59.8986645107
 20
52.3402573401
 30
0.0
 10
59.9200284279
 20
53.6863529725
 30
0.0
 10
60.0439133192
 20
56.4162875827
 30
0.0
 10
60.2189899888
 20
58.4749261609
 30
0.0
 10
60.3616482313
 20
59.854017807
 30
0.0
  0
SPLINE
  5
34B
100
AcDbEntity
  8
0
100
AcDbSpline
 62
7
  6
BYLAYER
 70
0
 71
3
 72
15
 73
11
 74
0
 42
0.0000001
 43
0.0000001
 44
0.0000000001
 40
0.0
 40
0.0
 40
0.0
 40
0.0
 40
0.1491363322
 40
0.2932607256
 40
0.4309986189
 40
0.5612444566
 40
0.6832502574
 40
0.7967301445
 40
0.9019803511
 40
1.0
 40
1.0
 40
1.0
 40
1.0
 10
53.5346740119
 20
68.0751088202
 30
0.0
 10
53.0601918903
 20
68.6653671693
 30
0.0
 10
52.0815017354
 20
69.7903380229
 30
0.0
 10
50.5107125393
 20
71.3181419774
 30
0.0
 10
48.8829059489
 20
72.6383017408
 30
0.0
 10
47.225176882
 20
73.7284712318
 30
0.0
 10
45.5647132727
 20
74.5702391645
 30
0.0
 10
43.9279806195
 20
75.1488373556
 30
0.0
 10
42.3418910583
 20
75.4531388093
 30
0.0
 10
41.3024772055
 20
75.4677272373
 30
0.0
 10
40.8067019317
 20
75.4234387038
 30
0.0
  0
SPLINE
  5
34C
100
AcDbEntity
  8
0
100
AcDbSpline
 62
7
  6
BYLAYER
 70
0
 71
3
 72
15
 73
11
 74
0
 42
0.0000001
 43
0.0000001
 44
0.0000000001
 40
0.0
 40
0.0
 40
0.0
 40
0.0
 40
0.1214977242
 40
0.2393439369
 40
0.3559133541
 40
0.4737685985
 40
0.5953083997
 40
0.7225805659
 40
0.8571403581
 40
1.0
 40
1.0
 40
1.0
 40
1.0
 10
40.8067019317
 20
75.4234387038
 30
0.0
 10
40.4297484302
 20
75.3897647485
 30
0.0
 10
39.6906333547
 20
75.2646886731
 30
0.0
 10
38.6408073463
 20
74.8909926118
 30
0.0
 10
37.6855347296
 20
74.3385762898
 30
0.0
 10
36.8376462826
 20
73.6149207643
 30
0.0
 10
36.1072249494
 20
72.7299115135
 30
0.0
 10
35.5018257235
 20
71.6951731173
 30
0.0
 10
35.0270157839
 20
70.5233843973
 30
0.0
 10
34.8068875558
 20
69.6852315503
 30
0.0
 10
34.7176853486
 20
69.2492687402
 30
0.0
  0
SPLINE
  5
34D
100
AcDbEntity
  8
0
100
AcDbSpline
 62
7
  6
BYLAYER
 70
0
 71
3
 72
11
 73
7
 74
0
 42
0.0000001
 43
0.0000001
 44
0.0000000001
 40
0.0
 40
0.0
 40
0.0
 40
0.0
 40
0.2667712491
 40
0.5217107544
 40
0.7657365388
 40
1.0
 40
1.0
 40
1.0
 40
1.0
 10
49.8018553279
 20
43.1226283972
 30
0.0
 10
50.1217042429
 20
43.0159990535
 30
0.0
 10
50.7563481141
 20
42.8334540725
 30
0.0
 10
51.7088342742
 20
42.6537743725
 30
0.0
 10
52.6339189372
 20
42.5759573537
 30
0.0
 10
53.2397842332
 20
42.5927357233
 30
0.0
 10
53.5346799569
 20
42.6190793105
 30
0.0
  0
SPLINE
  5
34E
100
AcDbEntity
  8
0
100
AcDbSpline
 62
7
  6
BYLAYER
 70
0
 71
3
 72
9
 73
5
 74
0
 42
0.0000001
 43
0.0000001
 44
0.0000000001
 40
0.0
 40
0.0
 40
0.0
 40
0.0
 40
0.4811712871
 40
1.0
 40
1.0
 40
1.0
 40
1.0
 10
59.4322350432
 20
47.9999968234
 30
0.0
 10
59.59280458
 20
48.5731365524
 30
0.0
 10
59.8289368977
 20
49.7926606752
 30
0.0
 10
59.8986645107
 20
51.0311358857
 30
0.0
 10
59.8986645107
 20
51.672925293
 30
0.0
  0
SPLINE
  5
34F
100
AcDbEntity
  8
0
100
AcDbSpline
 62
7
  6
BYLAYER
 70
0
 71
3
 72
15
 73
11
 74
0
 42
0.0000001
 43
0.0000001
 44
0.0000000001
 40
0.0
 40
0.0
 40
0.0
 40
0.0
 40
0.1108410466
 40
0.2280578212
 40
0.3507094039
 40
0.4776259749
 40
0.6074737875
 40
0.7388131822
 40
0.8701524818
 40
1.0
 40
1.0
 40
1.0
 40
1.0
 10
59.8986645107
 20
51.672925293
 30
0.0
 10
59.8986645107
 20
52.3343272183
 30
0.0
 10
59.819442791
 20
53.6959482985
 30
0.0
 10
59.4900486308
 20
55.7655070249
 30
0.0
 10
58.9522635799
 20
57.8899319578
 30
0.0
 10
58.2152086623
 20
60.0332044875
 30
0.0
 10
57.2913438244
 20
62.1593123403
 30
0.0
 10
56.196251118
 20
64.2323516363
 30
0.0
 10
54.9485728376
 20
66.2171170342
 30
0.0
 10
54.0201158143
 20
67.471216577
 30
0.0
 10
53.5346740119
 20
68.0751088202
 30
0.0
  0
SPLINE
  5
350
100
AcDbEntity
  8
0
100
AcDbSpline
 62
7
  6
BYLAYER
 70
0
 71
3
 72
11
 73
7
 74
0
 42
0.0000001
 43
0.0000001
 44
0.0000000001
 40
0.0
 40
0.0
 40
0.0
 40
0.0
 40
0.2438668952
 40
0.4915241304
 40
0.7434624398
 40
1.0
 40
1.0
 40
1.0
 40
1.0
 10
60.3616482313
 20
44.0264371393
 30
0.0
 10
60.2889543462
 20
44.6452371054
 30
0.0
 10
60.1574417726
 20
45.8942858101
 30
0.0
 10
60.0103162281
 20
47.7883113608
 30
0.0
 10
59.9189296052
 20
49.7182937565
 30
0.0
 10
59.8986645107
 20
51.0174978142
 30
0.0
 10
59.8986645107
 20
51.672925293
 30
0.0
  0
SPLINE
  5
351
100
AcDbEntity
  8
0
100
AcDbSpline
 62
7
  6
BYLAYER
 70
0
 71
3
 72
11
 73
7
 74
0
 42
0.0000001
 43
0.0000001
 44
0.0000000001
 40
0.0
 40
0.0
 40
0.0
 40
0.0
 40
0.2177239861
 40
0.4508730345
 40
0.7104683317
 40
1.0
 40
1.0
 40
1.0
 40
1.0
 10
9.3356432404
 20
33.6474683216
 30
0.0
 10
9.3026654322
 20
33.6284303816
 30
0.0
 10
9.2409106731
 20
33.5766071995
 30
0.0
 10
9.1751941504
 20
33.4691330221
 30
0.0
 10
9.1362424889
 20
33.336715429
 30
0.0
 10
9.1285094927
 20
33.2403575689
 30
0.0
 10
9.1285094927
 20
33.189720256
 30
0.0
  0
SPLINE
  5
352
100
AcDbEntity
  8
0
100
AcDbSpline
 62
7
  6
BYLAYER
 70
0
 71
3
 72
23
 73
19
 74
0
 42
0.0000001
 43
0.0000001
 44
0.0000000001
 40
0.0
 40
0.0
 40
0.0
 40
0.0
 40
0.0737005064
 40
0.1484007594
 40
0.2233927888
 40
0.298041973
 40
0.3716876086
 40
0.4437024784
 40
0.5135084714
 40
0.5805882469
 40
0.6445170994
 40
0.7049842975
 40
0.7618216164
 40
0.8150412314
 40
0.8648690992
 40
0.9117768582
 40
0.9564982528
 40
1.0
 40
1.0
 40
1.0
 40
1.0
 10
26.0508206992
 20
51.4604865887
 30
0.0
 10
26.3939351092
 20
51.0459512433
 30
0.0
 10
27.0554276593
 20
50.1864952063
 30
0.0
 10
27.9613925233
 20
48.8287837522
 30
0.0
 10
28.7785606391
 20
47.4077686199
 30
0.0
 10
29.4961102697
 20
45.9425185688
 30
0.0
 10
30.104663089
 20
44.4521411596
 30
0.0
 10
30.5961992414
 20
42.9562743895
 30
0.0
 10
30.9642479698
 20
41.4745516682
 30
0.0
 10
31.2039058754
 20
40.0263515748
 30
0.0
 10
31.3120233182
 20
38.6305661052
 30
0.0
 10
31.2869998844
 20
37.3052658843
 30
0.0
 10
31.1287356992
 20
36.0675315901
 30
0.0
 10
30.8386969269
 20
34.9332815675
 30
0.0
 10
30.4196245444
 20
33.917332416
 30
0.0
 10
29.8753293078
 20
33.0335811877
 30
0.0
 10
29.2121247158
 20
32.2956122544
 30
0.0
 10
28.6926440855
 20
31.9062751514
 30
0.0
 10
28.420546598
 20
31.7424252314
 30
0.0
  0
SPLINE
  5
353
100
AcDbEntity
  8
0
100
AcDbSpline
 62
7
  6
BYLAYER
 70
0
 71
3
 72
11
 73
7
 74
0
 42
0.0000001
 43
0.0000001
 44
0.0000000001
 40
0.0
 40
0.0
 40
0.0
 40
0.0
 40
0.2390934377
 40
0.4816799579
 40
0.7341959632
 40
1.0
 40
1.0
 40
1.0
 40
1.0
 10
17.7167138279
 20
35.7102315214
 30
0.0
 10
17.6655801224
 20
35.6849321745
 30
0.0
 10
17.5546615508
 20
35.648625675
 30
0.0
 10
17.3779406522
 20
35.6401461814
 30
0.0
 10
17.1980883434
 20
35.6733546303
 30
0.0
 10
17.0823638361
 20
35.7190417479
 30
0.0
 10
17.025387179
 20
35.7469021459
 30
0.0
  0
SPLINE
  5
354
100
AcDbEntity
  8
0
100
AcDbSpline
 62
7
  6
BYLAYER
 70
0
 71
3
 72
11
 73
7
 74
0
 42
0.0000001
 43
0.0000001
 44
0.0000000001
 40
0.0
 40
0.0
 40
0.0
 40
0.0
 40
0.2667076248
 40
0.5195053448
 40
0.7617565528
 40
1.0
 40
1.0
 40
1.0
 40
1.0
 10
15.9972062549
 20
37.4996845068
 30
0.0
 10
16.0003698669
 20
37.565513029
 30
0.0
 10
16.0166721885
 20
37.693636362
 30
0.0
 10
16.0769938833
 20
37.8734609855
 30
0.0
 10
16.1740948466
 20
38.0286767354
 30
0.0
 10
16.2635757036
 20
38.109655433
 30
0.0
 10
16.3125678586
 20
38.142298199
 30
0.0
  0
SPLINE
  5
355
100
AcDbEntity
  8
0
100
AcDbSpline
 62
7
  6
BYLAYER
 70
0
 71
3
 72
9
 73
5
 74
0
 42
0.0000001
 43
0.0000001
 44
0.0000000001
 40
0.0
 40
0.0
 40
0.0
 40
0.0
 40
0.243317842
 40
1.0
 40
1.0
 40
1.0
 40
1.0
 10
58.5405434357
 20
79.3712364723
 30
0.0
 10
58.6600081804
 20
79.3210225721
 30
0.0
 10
59.1474574991
 20
79.1062919098
 30
0.0
 10
59.6205303424
 20
78.8593494948
 30
0.0
 10
59.9695405202
 20
78.6578491235
 30
0.0
  0
SPLINE
  5
356
100
AcDbEntity
  8
0
100
AcDbSpline
 62
7
  6
BYLAYER
 70
0
 71
3
 72
15
 73
11
 74
0
 42
0.0000001
 43
0.0000001
 44
0.0000000001
 40
0.0
 40
0.0
 40
0.0
 40
0.0
 40
0.1295142651
 40
0.2607173984
 40
0.3920523425
 40
0.5219977971
 40
0.6490552172
 40
0.7718466314
 40
0.8891540322
 40
1.0
 40
1.0
 40
1.0
 40
1.0
 10
65.3007965957
 20
74.0909011993
 30
0.0
 10
65.7021586923
 20
73.6017824165
 30
0.0
 10
66.4703438384
 20
72.5838598272
 30
0.0
 10
67.5032436224
 20
70.9688443024
 30
0.0
 10
68.4108587692
 20
69.2777072815
 30
0.0
 10
69.1773492983
 20
67.5401855186
 30
0.0
 10
69.7893196267
 20
65.7864302994
 30
0.0
 10
70.2361359152
 20
64.0468913305
 30
0.0
 10
70.5099656052
 20
62.3519742281
 30
0.0
 10
70.5758798456
 20
61.2367307747
 30
0.0
 10
70.5758983276
 20
60.6952155571
 30
0.0
  0
SPLINE
  5
357
100
AcDbEntity
  8
0
100
AcDbSpline
 62
7
  6
BYLAYER
 70
0
 71
3
 72
9
 73
5
 74
0
 42
0.0000001
 43
0.0000001
 44
0.0000000001
 40
0.0
 40
0.0
 40
0.0
 40
0.0
 40
0.2555537127
 40
1.0
 40
1.0
 40
1.0
 40
1.0
 10
14.7831675792
 20
38.3274049688
 30
0.0
 10
14.8606427814
 20
38.2338029259
 30
0.0
 10
15.170616072
 20
37.873259641
 30
0.0
 10
15.5078016134
 20
37.5357957838
 30
0.0
 10
15.7738124324
 20
37.3022936957
 30
0.0
  0
SPLINE
  5
358
100
AcDbEntity
  8
0
100
AcDbSpline
 62
7
  6
BYLAYER
 70
0
 71
3
 72
9
 73
5
 74
0
 42
0.0000001
 43
0.0000001
 44
0.0000000001
 40
0.0
 40
0.0
 40
0.0
 40
0.0
 40
0.5160163386
 40
1.0
 40
1.0
 40
1.0
 40
1.0
 10
18.3000069028
 20
35.9516256072
 30
0.0
 10
18.5299607434
 20
35.9084010705
 30
0.0
 10
18.9859702878
 20
35.8688231464
 30
0.0
 10
19.4394851965
 20
35.944297894
 30
0.0
 10
19.6485286516
 20
36.011095146
 30
0.0
  0
SPLINE
  5
359
100
AcDbEntity
  8
0
100
AcDbSpline
 62
7
  6
BYLAYER
 70
0
 71
3
 72
17
 73
13
 74
0
 42
0.0000001
 43
0.0000001
 44
0.0000000001
 40
0.0
 40
0.0
 40
0.0
 40
0.0
 40
0.0457471434
 40
0.093110403
 40
0.142673988
 40
0.1948901412
 40
0.3080612313
 40
0.4331747239
 40
0.568475566
 40
0.7107876519
 40
0.8560738473
 40
1.0
 40
1.0
 40
1.0
 40
1.0
 10
13.4821589829
 20
46.6916244642
 30
0.0
 10
13.3789106567
 20
46.5977446505
 30
0.0
 10
13.1859673543
 20
46.386965115
 30
0.0
 10
12.9491240097
 20
46.0197437265
 30
0.0
 10
12.7629076323
 20
45.6028749637
 30
0.0
 10
12.5783934762
 20
44.9719524993
 30
0.0
 10
12.4879601047
 20
44.0827959567
 30
0.0
 10
12.5858470592
 20
42.9424485303
 30
0.0
 10
12.8785697502
 20
41.7449156528
 30
0.0
 10
13.3523039562
 20
40.5411378353
 30
0.0
 10
13.9854947978
 20
39.3834588122
 30
0.0
 10
14.5032284227
 20
38.6656148239
 30
0.0
 10
14.7831675792
 20
38.3274049688
 30
0.0
  0
SPLINE
  5
35A
100
AcDbEntity
  8
0
100
AcDbSpline
 62
7
  6
BYLAYER
 70
0
 71
3
 72
17
 73
13
 74
0
 42
0.0000001
 43
0.0000001
 44
0.0000000001
 40
0.0
 40
0.0
 40
0.0
 40
0.0
 40
0.1286846513
 40
0.2703032228
 40
0.4174430309
 40
0.5617811216
 40
0.695448235
 40
0.8127121431
 40
0.8646788239
 40
0.9125086207
 40
0.9571391214
 40
1.0
 40
1.0
 40
1.0
 40
1.0
 10
9.1285094927
 20
33.189720256
 30
0.0
 10
9.1285094927
 20
33.104248759
 30
0.0
 10
9.1524392173
 20
32.924513439
 30
0.0
 10
9.2416663912
 20
32.6606158688
 30
0.0
 10
9.3792257908
 20
32.406421232
 30
0.0
 10
9.5539579683
 20
32.1827533186
 30
0.0
 10
9.7516534318
 20
32.0076663576
 30
0.0
 10
9.9305972201
 20
31.9098598456
 30
0.0
 10
10.0705613291
 20
31.8725680418
 30
0.0
 10
10.166897255
 20
31.8655303558
 30
0.0
 10
10.2566143536
 20
31.8786169185
 30
0.0
 10
10.3109406747
 20
31.9012577377
 30
0.0
 10
10.3355951953
 20
31.9154906813
 30
0.0
  0
SPLINE
  5
35B
100
AcDbEntity
  8
0
100
AcDbSpline
 62
7
  6
BYLAYER
 70
0
 71
3
 72
22
 73
18
 74
0
 42
0.0000001
 43
0.0000001
 44
0.0000000001
 40
0.0
 40
0.0
 40
0.0
 40
0.0
 40
0.1495955971
 40
0.2246891632
 40
0.2991425297
 40
0.3723524823
 40
0.4437562528
 40
0.5128420848
 40
0.5791707087
 40
0.6423955187
 40
0.7022870524
 40
0.7587613034
 40
0.8119052653
 40
0.8620032715
 40
0.9095536523
 40
0.9552618409
 40
1.0
 40
1.0
 40
1.0
 40
1.0
 10
13.752207076
 20
36.1689192168
 30
0.0
 10
13.1138049811
 20
37.0060219239
 30
0.0
 10
12.2377775251
 20
38.3295270458
 30
0.0
 10
11.2494516045
 20
40.1893406059
 30
0.0
 10
10.6048815697
 20
41.6196694144
 30
0.0
 10
10.0663051199
 20
43.065428723
 30
0.0
 10
9.6403308889
 20
44.5090656212
 30
0.0
 10
9.3322678866
 20
45.9329936881
 30
0.0
 10
9.146028245
 20
47.3200499927
 30
0.0
 10
9.0842122304
 20
48.6536751343
 30
0.0
 10
9.1481355495
 20
49.9181126695
 30
0.0
 10
9.3378933954
 20
51.09851906
 30
0.0
 10
9.6526401345
 20
52.180919004
 30
0.0
 10
10.0905417638
 20
53.1518635166
 30
0.0
 10
10.6485805586
 20
53.9981181616
 30
0.0
 10
11.3210012712
 20
54.7060103832
 30
0.0
 10
11.8424613826
 20
55.0790767537
 30
0.0
 10
12.1151197859
 20
55.2364952165
 30
0.0
  0
SPLINE
  5
35C
100
AcDbEntity
  8
0
100
AcDbSpline
 62
7
  6
BYLAYER
 70
0
 71
3
 72
18
 73
14
 74
0
 42
0.0000001
 43
0.0000001
 44
0.0000000001
 40
0.0
 40
0.0
 40
0.0
 40
0.0
 40
0.0474550243
 40
0.0955797095
 40
0.1449249119
 40
0.1959700275
 40
0.2491111779
 40
0.3046459014
 40
0.4235240576
 40
0.5533893074
 40
0.6937526117
 40
0.843274961
 40
1.0
 40
1.0
 40
1.0
 40
1.0
 10
14.1709438071
 20
56.4224821894
 30
0.0
 10
14.3625812
 20
56.5284818625
 30
0.0
 10
14.763944976
 20
56.715360602
 30
0.0
 10
15.4048135331
 20
56.9132185171
 30
0.0
 10
16.0823666336
 20
57.0283267252
 30
0.0
 10
16.7918233186
 20
57.0604131185
 30
0.0
 10
17.5286504392
 20
57.0093613993
 30
0.0
 10
18.5645497634
 20
56.8274211588
 30
0.0
 10
19.9050768848
 20
56.3830185568
 30
0.0
 10
21.5044655826
 20
55.5538399099
 30
0.0
 10
23.0943568474
 20
54.4383121526
 30
0.0
 10
24.6360199984
 20
53.0644819121
 30
0.0
 10
25.589647694
 20
52.0176550007
 30
0.0
 10
26.0508206992
 20
51.4604865887
 30
0.0
  0
SPLINE
  5
35D
100
AcDbEntity
  8
0
100
AcDbSpline
 62
7
  6
BYLAYER
 70
0
 71
3
 72
11
 73
7
 74
0
 42
0.0000001
 43
0.0000001
 44
0.0000000001
 40
0.0
 40
0.0
 40
0.0
 40
0.0
 40
0.2325810675
 40
0.4780121557
 40
0.7345771936
 40
1.0
 40
1.0
 40
1.0
 40
1.0
 10
60.3230834018
 20
78.4537189275
 30
0.0
 10
60.763109666
 20
78.1996706848
 30
0.0
 10
61.6389256531
 20
77.6269967492
 30
0.0
 10
62.8936037419
 20
76.6231621204
 30
0.0
 10
64.1082929003
 20
75.4648857825
 30
0.0
 10
64.8686920924
 20
74.6132770498
 30
0.0
 10
65.2384145123
 20
74.1665951076
 30
0.0
  0
SPLINE
  5
35E
100
AcDbEntity
  8
0
100
AcDbSpline
 62
7
  6
BYLAYER
 70
0
 71
3
 72
11
 73
7
 74
0
 42
0.0000001
 43
0.0000001
 44
0.0000000001
 40
0.0
 40
0.0
 40
0.0
 40
0.0
 40
0.2431484298
 40
0.4891300573
 40
0.7406227496
 40
1.0
 40
1.0
 40
1.0
 40
1.0
 10
16.9373389495
 20
58.8866023545
 30
0.0
 10
16.7449167713
 20
58.7754943292
 30
0.0
 10
16.3723261546
 20
58.5257692625
 30
0.0
 10
15.8633302453
 20
58.0769032242
 30
0.0
 10
15.4059202192
 20
57.5558046058
 30
0.0
 10
15.1417512899
 20
57.169385803
 30
0.0
 10
15.0190190429
 20
56.9666087134
 30
0.0
  0
SPLINE
  5
35F
100
AcDbEntity
  8
0
100
AcDbSpline
 62
7
  6
BYLAYER
 70
0
 71
3
 72
11
 73
7
 74
0
 42
0.0000001
 43
0.0000001
 44
0.0000000001
 40
0.0
 40
0.0
 40
0.0
 40
0.0
 40
0.2587017311
 40
0.5100736276
 40
0.7563464749
 40
1.0
 40
1.0
 40
1.0
 40
1.0
 10
29.4319458394
 20
32.208003473
 30
0.0
 10
29.6581398482
 20
32.2168399956
 30
0.0
 10
30.1036489815
 20
32.2582551145
 30
0.0
 10
30.7524921386
 20
32.3962843298
 30
0.0
 10
31.3671524377
 20
32.6085159763
 30
0.0
 10
31.7526327069
 20
32.7992073145
 30
0.0
 10
31.9372632338
 20
32.9058163003
 30
0.0
  0
SPLINE
  5
360
100
AcDbEntity
  8
0
100
AcDbSpline
 62
7
  6
BYLAYER
 70
0
 71
3
 72
11
 73
7
 74
0
 42
0.0000001
 43
0.0000001
 44
0.0000000001
 40
0.0
 40
0.0
 40
0.0
 40
0.0
 40
0.2180508542
 40
0.4501732534
 40
0.7091887944
 40
1.0
 40
1.0
 40
1.0
 40
1.0
 10
17.7167124964
 20
35.7102339456
 30
0.0
 10
17.7666710506
 20
35.7349684815
 30
0.0
 10
17.8611617735
 20
35.8056107439
 30
0.0
 10
17.9624960178
 20
35.9594249285
 30
0.0
 10
18.0225088795
 20
36.1522229059
 30
0.0
 10
18.0342491696
 20
36.2933224608
 30
0.0
 10
18.0342491696
 20
36.3676705313
 30
0.0
  0
SPLINE
  5
361
100
AcDbEntity
  8
0
100
AcDbSpline
 62
7
  6
BYLAYER
 70
0
 71
3
 72
15
 73
11
 74
0
 42
0.0000001
 43
0.0000001
 44
0.0000000001
 40
0.0
 40
0.0
 40
0.0
 40
0.0
 40
0.129002095
 40
0.2596451922
 40
0.3904769233
 40
0.5200861863
 40
0.6470676349
 40
0.7701207391
 40
0.888084107
 40
1.0
 40
1.0
 40
1.0
 40
1.0
 10
65.1467803812
 20
74.110541416
 30
0.0
 10
65.5473918997
 20
73.620507294
 30
0.0
 10
66.3152409538
 20
72.6021272052
 30
0.0
 10
67.3517749952
 20
70.9888847722
 30
0.0
 10
68.2677829622
 20
69.3007656031
 30
0.0
 10
69.0483225001
 20
67.5655519886
 30
0.0
 10
69.6806280254
 20
65.8114105263
 30
0.0
 10
70.1544061168
 20
64.0668716578
 30
0.0
 10
70.4618894743
 20
62.3604829041
 30
0.0
 10
70.5552679271
 20
61.2341253742
 30
0.0
 10
70.570377401
 20
60.685218734
 30
0.0
  0
SPLINE
  5
362
100
AcDbEntity
  8
0
100
AcDbSpline
 62
7
  6
BYLAYER
 70
0
 71
3
 72
18
 73
14
 74
0
 42
0.0000001
 43
0.0000001
 44
0.0000000001
 40
0.0
 40
0.0
 40
0.0
 40
0.0
 40
0.1570124042
 40
0.3067336009
 40
0.4471702704
 40
0.5769787252
 40
0.6956878935
 40
0.7511159406
 40
0.8041491044
 40
0.8551003671
 40
0.9043824159
 40
0.9524931023
 40
1.0
 40
1.0
 40
1.0
 40
1.0
 10
24.0709299549
 20
50.3174029579
 30
0.0
 10
23.6060107872
 20
50.8790973145
 30
0.0
 10
22.6444351171
 20
51.9338339111
 30
0.0
 10
21.0892859871
 20
53.3160420593
 30
0.0
 10
19.4856844025
 20
54.4351926541
 30
0.0
 10
17.8733387021
 20
55.2627115404
 30
0.0
 10
16.5228118928
 20
55.7008905561
 30
0.0
 10
15.4805571404
 20
55.874596804
 30
0.0
 10
14.7399895979
 20
55.9180923197
 30
0.0
 10
14.0277059048
 20
55.8770800214
 30
0.0
 10
13.3483642834
 20
55.7515870493
 30
0.0
 10
12.7068250184
 20
55.5421398866
 30
0.0
 10
12.3061923543
 20
55.3467785658
 30
0.0
 10
12.1151266122
 20
55.2364833923
 30
0.0
  0
SPLINE
  5
363
100
AcDbEntity
  8
0
100
AcDbSpline
 62
7
  6
BYLAYER
 70
0
 71
3
 72
17
 73
13
 74
0
 42
0.0000001
 43
0.0000001
 44
0.0000000001
 40
0.0
 40
0.0
 40
0.0
 40
0.0
 40
0.0428570455
 40
0.087485165
 40
0.1353123244
 40
0.1872781392
 40
0.3045378316
 40
0.4381995438
 40
0.5825378192
 40
0.7296849502
 40
0.8713141218
 40
1.0
 40
1.0
 40
1.0
 40
1.0
 10
16.4066803677
 20
37.7299121119
 30
0.0
 10
16.4313318732
 20
37.744145183
 30
0.0
 10
16.4856550093
 20
37.76678389
 30
0.0
 10
16.575365753
 20
37.7798687008
 30
0.0
 10
16.6716983491
 20
37.7728387831
 30
0.0
 10
16.8116572994
 20
37.7355461903
 30
0.0
 10
16.9905981998
 20
37.637751259
 30
0.0
 10
17.1882930778
 20
37.4626720086
 30
0.0
 10
17.3630300108
 20
37.2390064978
 30
0.0
 10
17.5006024715
 20
36.9848049864
 30
0.0
 10
17.5898353252
 20
36.7208955842
 30
0.0
 10
17.6137673151
 20
36.5411525929
 30
0.0
 10
17.6137673151
 20
36.4556802857
 30
0.0
  0
SPLINE
  5
364
100
AcDbEntity
  8
0
100
AcDbSpline
 62
7
  6
BYLAYER
 70
0
 71
3
 72
19
 73
15
 74
0
 42
0.0000001
 43
0.0000001
 44
0.0000000001
 40
0.0
 40
0.0
 40
0.0
 40
0.0
 40
0.0464723774
 40
0.0927394644
 40
0.1397751028
 40
0.1884766596
 40
0.2934048353
 40
0.3507834015
 40
0.4116321963
 40
0.4759553265
 40
0.5436157302
 40
0.6877686352
 40
0.8412076314
 40
1.0
 40
1.0
 40
1.0
 40
1.0
 10
19.6485230302
 20
36.0111067495
 30
0.0
 10
19.7668632477
 20
36.0489067164
 30
0.0
 10
19.9970359724
 20
36.1450743403
 30
0.0
 10
20.3119917123
 20
36.349676362
 30
0.0
 10
20.5900513821
 20
36.6109983381
 30
0.0
 10
20.9151394019
 20
37.040375566
 30
0.0
 10
21.1439210316
 20
37.5655097957
 30
0.0
 10
21.2809405726
 20
38.1467018652
 30
0.0
 10
21.3409244424
 20
38.6320238513
 30
0.0
 10
21.3540811101
 20
39.1480351368
 30
0.0
 10
21.3084404179
 20
39.8855812122
 30
0.0
 10
21.1302777183
 20
40.8496050372
 30
0.0
 10
20.7483332265
 20
42.0114413377
 30
0.0
 10
20.3914315809
 20
42.7686236077
 30
0.0
 10
20.1881806308
 20
43.1412861925
 30
0.0
  0
SPLINE
  5
365
100
AcDbEntity
  8
0
100
AcDbSpline
 62
7
  6
BYLAYER
 70
0
 71
3
 72
19
 73
15
 74
0
 42
0.0000001
 43
0.0000001
 44
0.0000000001
 40
0.0
 40
0.0
 40
0.0
 40
0.0
 40
0.1570007591
 40
0.3067048657
 40
0.4471307534
 40
0.5134521977
 40
0.5770163013
 40
0.6957151011
 40
0.7511383267
 40
0.8041665866
 40
0.8551134725
 40
0.9043909721
 40
0.9524975245
 40
1.0
 40
1.0
 40
1.0
 40
1.0
 10
29.5223980041
 20
53.7086179184
 30
0.0
 10
29.0330018787
 20
54.2998842305
 30
0.0
 10
28.0207994815
 20
55.410166488
 30
0.0
 10
26.3839011361
 20
56.8649741879
 30
0.0
 10
24.9507435795
 20
57.8653426506
 30
0.0
 10
23.7936034153
 20
58.5059595474
 30
0.0
 10
22.6892287737
 20
59.0146410191
 30
0.0
 10
21.5769490413
 20
59.3754638157
 30
0.0
 10
20.4799091499
 20
59.558295303
 30
0.0
 10
19.7003501039
 20
59.6040858911
 30
0.0
 10
18.9505828765
 20
59.5609082817
 30
0.0
 10
18.2354804906
 20
59.4288219731
 30
0.0
 10
17.5601885191
 20
59.2083269026
 30
0.0
 10
17.1384465708
 20
59.0027255108
 30
0.0
 10
16.9373389495
 20
58.8866023545
 30
0.0
  0
SPLINE
  5
366
100
AcDbEntity
  8
0
100
AcDbSpline
 62
7
  6
BYLAYER
 70
0
 71
3
 72
21
 73
17
 74
0
 42
0.0000001
 43
0.0000001
 44
0.0000000001
 40
0.0
 40
0.0
 40
0.0
 40
0.0
 40
0.1516221146
 40
0.3041743858
 40
0.451544745
 40
0.5215846868
 40
0.588384488
 40
0.6515104107
 40
0.7107001495
 40
0.7659003763
 40
0.7920747319
 40
0.8173536598
 40
0.8654916579
 40
0.9111922299
 40
0.9555896517
 40
1.0
 40
1.0
 40
1.0
 40
1.0
 10
21.2602182234
 20
46.2469014197
 30
0.0
 10
21.6100354839
 20
45.8242679929
 30
0.0
 10
22.2482280776
 20
44.9218767126
 30
0.0
 10
22.9973167196
 20
43.4643743662
 30
0.0
 10
23.4334595392
 20
42.1924826612
 30
0.0
 10
23.6445916189
 20
41.1848875768
 30
0.0
 10
23.729612102
 20
40.4652664635
 30
0.0
 10
23.7425197968
 20
39.7798360142
 30
0.0
 10
23.6830480384
 20
39.1388267774
 30
0.0
 10
23.5716223701
 20
38.6407352779
 30
0.0
 10
23.4454333007
 20
38.2756424055
 30
0.0
 10
23.3009914922
 20
37.9451734894
 30
0.0
 10
23.0790954783
 20
37.5727572085
 30
0.0
 10
22.7431824153
 20
37.1975366084
 30
0.0
 10
22.3470392696
 20
36.9086002682
 30
0.0
 10
22.0500686289
 20
36.7784684718
 30
0.0
 10
21.8969962103
 20
36.7295680063
 30
0.0
  0
SPLINE
  5
367
100
AcDbEntity
  8
0
100
AcDbSpline
 62
7
  6
BYLAYER
 70
0
 71
3
 72
15
 73
11
 74
0
 42
0.0000001
 43
0.0000001
 44
0.0000000001
 40
0.0
 40
0.0
 40
0.0
 40
0.0
 40
0.1000673725
 40
0.2071366964
 40
0.3218179541
 40
0.4442174041
 40
0.5740207989
 40
0.7105560822
 40
0.8529500803
 40
1.0
 40
1.0
 40
1.0
 40
1.0
 10
16.8273497147
 20
57.0422469923
 30
0.0
 10
17.1978225825
 20
57.0406475011
 30
0.0
 10
17.9653810829
 20
56.9689278366
 30
0.0
 10
19.1249405366
 20
56.6796512453
 30
0.0
 10
20.3132275188
 20
56.2109089333
 30
0.0
 10
21.5136976835
 20
55.5698844747
 30
0.0
 10
22.7100204876
 20
54.7658558484
 30
0.0
 10
23.8858087092
 20
53.810258467
 30
0.0
 10
25.0243181094
 20
52.7166178599
 30
0.0
 10
25.7386480356
 20
51.9162613886
 30
0.0
 10
26.0863137938
 20
51.4973104924
 30
0.0
  0
SPLINE
  5
368
100
AcDbEntity
  8
0
100
AcDbSpline
 62
7
  6
BYLAYER
 70
0
 71
3
 72
18
 73
14
 74
0
 42
0.0000001
 43
0.0000001
 44
0.0000000001
 40
0.0
 40
0.0
 40
0.0
 40
0.0
 40
0.160079515
 40
0.3117573956
 40
0.4526698343
 40
0.5814131643
 40
0.6978567391
 40
0.7519911722
 40
0.8038214118
 40
0.8538682767
 40
0.9027643321
 40
0.9512255572
 40
1.0
 40
1.0
 40
1.0
 40
1.0
 10
19.0596878059
 20
44.8119420884
 30
0.0
 10
18.837681684
 20
45.0801598657
 30
0.0
 10
18.3774947753
 20
45.5804020023
 30
0.0
 10
17.6297169023
 20
46.2245079641
 30
0.0
 10
16.8601628649
 20
46.727917616
 30
0.0
 10
16.0914132931
 20
47.0752284198
 30
0.0
 10
15.4530042021
 20
47.2282606965
 30
0.0
 10
14.9689122998
 20
47.255806321
 30
0.0
 10
14.6294281271
 20
47.2314952648
 30
0.0
 10
14.3076160706
 20
47.1628144649
 30
0.0
 10
14.0062204767
 20
47.0499404547
 30
0.0
 10
13.7279050481
 20
46.8939754467
 30
0.0
 10
13.5606590991
 20
46.7629785538
 30
0.0
 10
13.4821686363
 20
46.6916102327
 30
0.0
  0
SPLINE
  5
369
100
AcDbEntity
  8
0
100
AcDbSpline
 62
7
  6
BYLAYER
 70
0
 71
3
 72
9
 73
5
 74
0
 42
0.0000001
 43
0.0000001
 44
0.0000000001
 40
0.0
 40
0.0
 40
0.0
 40
0.0
 40
0.5033201781
 40
1.0
 40
1.0
 40
1.0
 40
1.0
 10
20.1881806308
 20
43.1412861925
 30
0.0
 10
20.0260380724
 20
43.438576143
 30
0.0
 10
19.6758908467
 20
44.0143801615
 30
0.0
 10
19.2727588104
 20
44.5545193166
 30
0.0
 10
19.0596878059
 20
44.8119420884
 30
0.0
  0
SPLINE
  5
36A
100
AcDbEntity
  8
0
100
AcDbSpline
 62
7
  6
BYLAYER
 70
0
 71
3
 72
11
 73
7
 74
0
 42
0.0000001
 43
0.0000001
 44
0.0000000001
 40
0.0
 40
0.0
 40
0.0
 40
0.0
 40
0.2177239861
 40
0.4508730345
 40
0.7104683317
 40
1.0
 40
1.0
 40
1.0
 40
1.0
 10
10.3355951953
 20
31.9154906813
 30
0.0
 10
10.3685730035
 20
31.9345286214
 30
0.0
 10
10.4303277626
 20
31.9863518034
 30
0.0
 10
10.4960442852
 20
32.0938259809
 30
0.0
 10
10.5349959467
 20
32.2262435739
 30
0.0
 10
10.542728943
 20
32.3226014341
 30
0.0
 10
10.542728943
 20
32.373238747
 30
0.0
  0
SPLINE
  5
36B
100
AcDbEntity
  8
0
100
AcDbSpline
 62
7
  6
BYLAYER
 70
0
 71
3
 72
9
 73
5
 74
0
 42
0.0000001
 43
0.0000001
 44
0.0000000001
 40
0.0
 40
0.0
 40
0.0
 40
0.0
 40
0.256189979
 40
1.0
 40
1.0
 40
1.0
 40
1.0
 10
14.8103502627
 20
38.3557643222
 30
0.0
 10
14.8891837004
 20
38.2609828035
 30
0.0
 10
15.2040311308
 20
37.8970562078
 30
0.0
 10
15.5474008264
 20
37.5574275769
 30
0.0
 10
15.8185598511
 20
37.3237915229
 30
0.0
  0
SPLINE
  5
36C
100
AcDbEntity
  8
0
100
AcDbSpline
 62
7
  6
BYLAYER
 70
0
 71
3
 72
9
 73
5
 74
0
 42
0.0000001
 43
0.0000001
 44
0.0000000001
 40
0.0
 40
0.0
 40
0.0
 40
0.0
 40
0.2551297885
 40
1.0
 40
1.0
 40
1.0
 40
1.0
 10
18.5522277073
 20
36.0204655095
 30
0.0
 10
18.5864945051
 20
36.0181214595
 30
0.0
 10
18.7209546513
 20
36.0113601711
 30
0.0
 10
18.8559638388
 20
36.0145734493
 30
0.0
 10
18.9558717709
 20
36.0231833478
 30
0.0
  0
SPLINE
  5
36D
100
AcDbEntity
  8
0
100
AcDbSpline
 62
7
  6
BYLAYER
 70
0
 71
3
 72
9
 73
5
 74
0
 42
0.0000001
 43
0.0000001
 44
0.0000000001
 40
0.0
 40
0.0
 40
0.0
 40
0.0
 40
0.5072667836
 40
1.0
 40
1.0
 40
1.0
 40
1.0
 10
18.9558717709
 20
36.0231833478
 30
0.0
 10
19.0664274969
 20
36.0327108554
 30
0.0
 10
19.2834106789
 20
36.0665274832
 30
0.0
 10
19.4930052007
 20
36.1325364224
 30
0.0
 10
19.592916291
 20
36.1729796041
 30
0.0
  0
SPLINE
  5
36E
100
AcDbEntity
  8
0
100
AcDbSpline
 62
7
  6
BYLAYER
 70
0
 71
3
 72
19
 73
15
 74
0
 42
0.0000001
 43
0.0000001
 44
0.0000000001
 40
0.0
 40
0.0
 40
0.0
 40
0.0
 40
0.0459386216
 40
0.0920607649
 40
0.1392663182
 40
0.1883507296
 40
0.2399579011
 40
0.2945414319
 40
0.3523839618
 40
0.4135916528
 40
0.5457587497
 40
0.6896235251
 40
0.8422830376
 40
1.0
 40
1.0
 40
1.0
 40
1.0
 10
19.592916291
 20
36.1729796041
 30
0.0
 10
19.7009487873
 20
36.2167102637
 30
0.0
 10
19.9103473121
 20
36.3232846353
 30
0.0
 10
20.193828329
 20
36.537016754
 30
0.0
 10
20.4422865465
 20
36.8016330409
 30
0.0
 10
20.6533068911
 20
37.1136435629
 30
0.0
 10
20.82482399
 20
37.4696692067
 30
0.0
 10
20.9556693293
 20
37.8658167418
 30
0.0
 10
21.0445957313
 20
38.2981720486
 30
0.0
 10
21.1081773836
 20
38.9332786527
 30
0.0
 10
21.0725419796
 20
39.7926400588
 30
0.0
 10
20.8643678453
 20
40.8635033408
 30
0.0
 10
20.4981063818
 20
41.959236246
 30
0.0
 10
20.1603724668
 20
42.6728958977
 30
0.0
 10
19.9687820544
 20
43.0241787736
 30
0.0
  0
SPLINE
  5
36F
100
AcDbEntity
  8
0
100
AcDbSpline
 62
7
  6
BYLAYER
 70
0
 71
3
 72
14
 73
10
 74
0
 42
0.0000001
 43
0.0000001
 44
0.0000000001
 40
0.0
 40
0.0
 40
0.0
 40
0.0
 40
0.1109228189
 40
0.2283559259
 40
0.3512364855
 40
0.4783811263
 40
0.6083772123
 40
0.7397014373
 40
1.0
 40
1.0
 40
1.0
 40
1.0
 10
12.5806029615
 20
43.9550901107
 30
0.0
 10
12.5809732446
 20
43.7290713708
 30
0.0
 10
12.6093645216
 20
43.2635444803
 30
0.0
 10
12.725081199
 20
42.556244224
 30
0.0
 10
12.9132899939
 20
41.8305215182
 30
0.0
 10
13.170509605
 20
41.0992598161
 30
0.0
 10
13.4923767378
 20
40.3751290018
 30
0.0
 10
13.9982092723
 20
39.4396193702
 30
0.0
 10
14.4576265918
 20
38.7818665521
 30
0.0
 10
14.7958162249
 20
38.3732810999
 30
0.0
  0
SPLINE
  5
370
100
AcDbEntity
  8
0
100
AcDbSpline
 62
7
  6
BYLAYER
 70
0
 71
3
 72
17
 73
13
 74
0
 42
0.0000001
 43
0.0000001
 44
0.0000000001
 40
0.0
 40
0.0
 40
0.0
 40
0.0
 40
0.1592523666
 40
0.3104502793
 40
0.451325073
 40
0.5804947347
 40
0.6976991683
 40
0.8042319247
 40
0.8545190836
 40
0.9034670134
 40
0.9517281913
 40
1.0
 40
1.0
 40
1.0
 40
1.0
 10
18.8760532588
 20
44.6418884876
 30
0.0
 10
18.6667175595
 20
44.8947984321
 30
0.0
 10
18.2330688078
 20
45.3674749564
 30
0.0
 10
17.5293722255
 20
45.9794039094
 30
0.0
 10
16.8048045223
 20
46.4629934794
 30
0.0
 10
16.0791199696
 20
46.8042069168
 30
0.0
 10
15.3716828667
 20
46.9925110837
 30
0.0
 10
14.8009589531
 20
47.0148540425
 30
0.0
 10
14.3811579576
 20
46.9459030866
 30
0.0
 10
14.0899904118
 20
46.8545547302
 30
0.0
 10
13.8191289806
 20
46.7233424877
 30
0.0
 10
13.6542549008
 20
46.6103577338
 30
0.0
 10
13.5764926613
 20
46.5482595858
 30
0.0
  0
SPLINE
  5
371
100
AcDbEntity
  8
0
100
AcDbSpline
 62
7
  6
BYLAYER
 70
0
 71
3
 72
11
 73
7
 74
0
 42
0.0000001
 43
0.0000001
 44
0.0000000001
 40
0.0
 40
0.0
 40
0.0
 40
0.0
 40
0.2282187625
 40
0.4679495007
 40
0.7241392981
 40
1.0
 40
1.0
 40
1.0
 40
1.0
 10
13.5764926613
 20
46.5482595858
 30
0.0
 10
13.4569976145
 20
46.4528351078
 30
0.0
 10
13.2334476949
 20
46.2288898134
 30
0.0
 10
12.9669865616
 20
45.8199028459
 30
0.0
 10
12.7667237553
 20
45.3404742643
 30
0.0
 10
12.6822513355
 20
44.99261137
 30
0.0
 10
12.6504256698
 20
44.8105274126
 30
0.0
  0
SPLINE
  5
372
100
AcDbEntity
  8
0
100
AcDbSpline
 62
7
  6
BYLAYER
 70
0
 71
3
 72
9
 73
5
 74
0
 42
0.0000001
 43
0.0000001
 44
0.0000000001
 40
0.0
 40
0.0
 40
0.0
 40
0.0
 40
0.2410599838
 40
1.0
 40
1.0
 40
1.0
 40
1.0
 10
12.6504256698
 20
44.8105274126
 30
0.0
 10
12.638670724
 20
44.7432739243
 30
0.0
 10
12.5966788921
 20
44.4631148047
 30
0.0
 10
12.5805953719
 20
44.1792976289
 30
0.0
 10
12.5805953719
 20
43.9643504821
 30
0.0
  0
SPLINE
  5
373
100
AcDbEntity
  8
0
100
AcDbSpline
 62
7
  6
BYLAYER
 70
0
 71
3
 72
9
 73
5
 74
0
 42
0.0000001
 43
0.0000001
 44
0.0000000001
 40
0.0
 40
0.0
 40
0.0
 40
0.0
 40
0.2520647791
 40
1.0
 40
1.0
 40
1.0
 40
1.0
 10
19.9687820544
 20
43.0241787736
 30
0.0
 10
19.8901767123
 20
43.1683024293
 30
0.0
 10
19.5648453052
 20
43.7325847581
 30
0.0
 10
19.1866515327
 20
44.2666376704
 30
0.0
 10
18.8760532588
 20
44.6418884876
 30
0.0
  0
SPLINE
  5
374
100
AcDbEntity
  8
0
100
AcDbSpline
 62
7
  6
BYLAYER
 70
0
 71
3
 72
11
 73
7
 74
0
 42
0.0000001
 43
0.0000001
 44
0.0000000001
 40
0.0
 40
0.0
 40
0.0
 40
0.0
 40
0.2647804394
 40
0.5113700034
 40
0.7516288012
 40
1.0
 40
1.0
 40
1.0
 40
1.0
 10
19.4377442452
 20
36.5452952406
 30
0.0
 10
19.4142959137
 20
36.4876133278
 30
0.0
 10
19.3566396436
 20
36.3804689472
 30
0.0
 10
19.2326480923
 20
36.2510788092
 30
0.0
 10
19.0786271031
 20
36.1667748177
 30
0.0
 10
18.9641915406
 20
36.1438112281
 30
0.0
 10
18.9059318193
 20
36.1396663033
 30
0.0
  0
SPLINE
  5
375
100
AcDbEntity
  8
0
100
AcDbSpline
 62
7
  6
BYLAYER
 70
0
 71
3
 72
9
 73
5
 74
0
 42
0.0000001
 43
0.0000001
 44
0.0000000001
 40
0.0
 40
0.0
 40
0.0
 40
0.0
 40
0.2426063222
 40
1.0
 40
1.0
 40
1.0
 40
1.0
 10
18.9059318193
 20
36.1396663033
 30
0.0
 10
18.8919865886
 20
36.138674161
 30
0.0
 10
18.8343874582
 20
36.1363195135
 30
0.0
 10
18.7765753229
 20
36.1407783651
 30
0.0
 10
18.7334290647
 20
36.1473623589
 30
0.0
  0
SPLINE
  5
376
100
AcDbEntity
  8
0
100
AcDbSpline
 62
7
  6
BYLAYER
 70
0
 71
3
 72
9
 73
5
 74
0
 42
0.0000001
 43
0.0000001
 44
0.0000000001
 40
0.0
 40
0.0
 40
0.0
 40
0.0
 40
0.2698562496
 40
1.0
 40
1.0
 40
1.0
 40
1.0
 10
19.5157342669
 20
36.9905670458
 30
0.0
 10
19.5157342669
 20
36.9497708914
 30
0.0
 10
19.5099652263
 20
36.7988203658
 30
0.0
 10
19.479312102
 20
36.6475504263
 30
0.0
 10
19.4377442452
 20
36.5452952406
 30
0.0
  0
SPLINE
  5
377
100
AcDbEntity
  8
0
100
AcDbSpline
 62
7
  6
BYLAYER
 70
0
 71
3
 72
9
 73
5
 74
0
 42
0.0000001
 43
0.0000001
 44
0.0000000001
 40
0.0
 40
0.0
 40
0.0
 40
0.0
 40
0.2618447095
 40
1.0
 40
1.0
 40
1.0
 40
1.0
 10
17.1696329078
 20
38.7145198866
 30
0.0
 10
17.1755737363
 20
38.7357668643
 30
0.0
 10
17.2008979371
 20
38.8161160373
 30
0.0
 10
17.2373633978
 20
38.8932146286
 30
0.0
 10
17.2711069052
 20
38.9454586772
 30
0.0
  0
SPLINE
  5
378
100
AcDbEntity
  8
0
100
AcDbSpline
 62
7
  6
BYLAYER
 70
0
 71
3
 72
20
 73
16
 74
0
 42
0.0000001
 43
0.0000001
 44
0.0000000001
 40
0.0
 40
0.0
 40
0.0
 40
0.0
 40
0.0458553699
 40
0.0899681738
 40
0.1347085275
 40
0.1822471336
 40
0.2341442244
 40
0.2912052238
 40
0.3535385113
 40
0.4207311495
 40
0.5659878291
 40
0.7179871806
 40
0.8658612386
 40
0.9352203704
 40
1.0
 40
1.0
 40
1.0
 40
1.0
 10
17.2711069052
 20
38.9454586772
 30
0.0
 10
17.3014176493
 20
38.9923878826
 30
0.0
 10
17.3724606835
 20
39.0778511543
 30
0.0
 10
17.5103422673
 20
39.1709411585
 30
0.0
 10
17.6711039934
 20
39.2210975522
 30
0.0
 10
17.8484259837
 20
39.2273424549
 30
0.0
 10
18.0369480818
 20
39.1909957116
 30
0.0
 10
18.2319224922
 20
39.1138789663
 30
0.0
 10
18.428675039
 20
38.9984982184
 30
0.0
 10
18.693489727
 20
38.7924606282
 30
0.0
 10
18.9940577088
 20
38.4607116965
 30
0.0
 10
19.2772025103
 20
37.9949662584
 30
0.0
 10
19.4367929683
 20
37.570692993
 30
0.0
 10
19.5036227177
 20
37.2330478249
 30
0.0
 10
19.5157342669
 20
37.0694896691
 30
0.0
 10
19.5157342669
 20
36.9905670458
 30
0.0
  0
SPLINE
  5
379
100
AcDbEntity
  8
0
100
AcDbSpline
 62
7
  6
BYLAYER
 70
0
 71
3
 72
9
 73
5
 74
0
 42
0.0000001
 43
0.0000001
 44
0.0000000001
 40
0.0
 40
0.0
 40
0.0
 40
0.0
 40
0.2698564128
 40
1.0
 40
1.0
 40
1.0
 40
1.0
 10
19.2404867593
 20
36.9947276396
 30
0.0
 10
19.2404867593
 20
36.9587533833
 30
0.0
 10
19.2353998535
 20
36.8256445089
 30
0.0
 10
19.2083695238
 20
36.6922540229
 30
0.0
 10
19.1717148067
 20
36.6020849551
 30
0.0
  0
SPLINE
  5
37A
100
AcDbEntity
  8
0
100
AcDbSpline
 62
7
  6
BYLAYER
 70
0
 71
3
 72
18
 73
14
 74
0
 42
0.0000001
 43
0.0000001
 44
0.0000000001
 40
0.0
 40
0.0
 40
0.0
 40
0.0
 40
0.0475068977
 40
0.0956175841
 40
0.1448996329
 40
0.1958508956
 40
0.2488840594
 40
0.3043121065
 40
0.4230212748
 40
0.5528297296
 40
0.6932663991
 40
0.8429875958
 40
1.0
 40
1.0
 40
1.0
 40
1.0
 10
16.7820119378
 20
57.9308948079
 30
0.0
 10
16.9730776799
 20
58.0411899813
 30
0.0
 10
17.373710344
 20
58.2365513021
 30
0.0
 10
18.015249609
 20
58.4459984649
 30
0.0
 10
18.6945912304
 20
58.5714914369
 30
0.0
 10
19.4068749235
 20
58.6125037353
 30
0.0
 10
20.147442466
 20
58.5690082196
 30
0.0
 10
21.1896972184
 20
58.3953019716
 30
0.0
 10
22.5402240277
 20
57.957122956
 30
0.0
 10
24.1525697282
 20
57.1296040696
 30
0.0
 10
25.7561713128
 20
56.0104534748
 30
0.0
 10
27.3113204428
 20
54.6282453267
 30
0.0
 10
28.2728961128
 20
53.5735087301
 30
0.0
 10
28.7378152806
 20
53.0118143734
 30
0.0
  0
SPLINE
  5
37B
100
AcDbEntity
  8
0
100
AcDbSpline
 62
7
  6
BYLAYER
 70
0
 71
3
 72
9
 73
5
 74
0
 42
0.0000001
 43
0.0000001
 44
0.0000000001
 40
0.0
 40
0.0
 40
0.0
 40
0.0
 40
0.2372406965
 40
1.0
 40
1.0
 40
1.0
 40
1.0
 10
18.0342491696
 20
36.3676705313
 30
0.0
 10
18.0342491696
 20
36.4000375105
 30
0.0
 10
18.0292435109
 20
36.5364582318
 30
0.0
 10
18.0057132377
 20
36.6718963885
 30
0.0
 10
17.9800408104
 20
36.7727440032
 30
0.0
  0
SPLINE
  5
37C
100
AcDbEntity
  8
0
100
AcDbSpline
 62
7
  6
BYLAYER
 70
0
 71
3
 72
18
 73
14
 74
0
 42
0.0000001
 43
0.0000001
 44
0.0000000001
 40
0.0
 40
0.0
 40
0.0
 40
0.0
 40
0.1439031642
 40
0.2927597343
 40
0.4400148377
 40
0.5794292902
 40
0.7058534894
 40
0.7632923464
 40
0.8166845506
 40
0.8662934885
 40
0.9126943067
 40
0.9568469788
 40
1.0
 40
1.0
 40
1.0
 40
1.0
 10
17.9800408104
 20
36.7727440032
 30
0.0
 10
17.9513769617
 20
36.8853426576
 30
0.0
 10
17.8730400062
 20
37.1096282266
 30
0.0
 10
17.7066479848
 20
37.4248608966
 30
0.0
 10
17.498035647
 20
37.7096557369
 30
0.0
 10
17.2605837279
 20
37.9458827962
 30
0.0
 10
17.0436822745
 20
38.0948292087
 30
0.0
 10
16.8686396998
 20
38.1738114469
 30
0.0
 10
16.7440196061
 20
38.2108100295
 30
0.0
 10
16.623901406
 20
38.2269270504
 30
0.0
 10
16.5101513689
 20
38.2214027003
 30
0.0
 10
16.4048543599
 20
38.1942233188
 30
0.0
 10
16.3415708039
 20
38.1616049477
 30
0.0
 10
16.3125811924
 20
38.1422762105
 30
0.0
  0
SPLINE
  5
37D
100
AcDbEntity
  8
0
100
AcDbSpline
 62
7
  6
BYLAYER
 70
0
 71
3
 72
16
 73
12
 74
0
 42
0.0000001
 43
0.0000001
 44
0.0000000001
 40
0.0
 40
0.0
 40
0.0
 40
0.0
 40
0.1425070587
 40
0.2899720534
 40
0.4362522193
 40
0.5755074775
 40
0.7027670083
 40
0.8150067338
 40
0.9123605951
 40
0.956945923
 40
1.0
 40
1.0
 40
1.0
 40
1.0
 10
17.7124985761
 20
36.7193267287
 30
0.0
 10
17.6886619763
 20
36.8129627607
 30
0.0
 10
17.6240016025
 20
36.9996225955
 30
0.0
 10
17.4872370087
 20
37.2629444869
 30
0.0
 10
17.3157509347
 20
37.5025251068
 30
0.0
 10
17.1198856039
 20
37.7040817384
 30
0.0
 10
16.9107193557
 20
37.8557569776
 30
0.0
 10
16.6998775473
 20
37.948774661
 30
0.0
 10
16.5253992302
 20
37.9716547868
 30
0.0
 10
16.4008443604
 20
37.9513272823
 30
0.0
 10
16.3449499737
 20
37.9296118712
 30
0.0
 10
16.3190721586
 20
37.9161033615
 30
0.0
  0
SPLINE
  5
37E
100
AcDbEntity
  8
0
100
AcDbSpline
 62
7
  6
BYLAYER
 70
0
 71
3
 72
11
 73
7
 74
0
 42
0.0000001
 43
0.0000001
 44
0.0000000001
 40
0.0
 40
0.0
 40
0.0
 40
0.0
 40
0.2324920562
 40
0.4720015238
 40
0.7260147609
 40
1.0
 40
1.0
 40
1.0
 40
1.0
 10
16.3190721586
 20
37.9161033615
 30
0.0
 10
16.2906006991
 20
37.9012409403
 30
0.0
 10
16.2362535818
 20
37.8638963932
 30
0.0
 10
16.168631444
 20
37.7887146036
 30
0.0
 10
16.1158189786
 20
37.6959739601
 30
0.0
 10
16.0918954454
 20
37.6266322873
 30
0.0
 10
16.0823174223
 20
37.5900150103
 30
0.0
  0
SPLINE
  5
37F
100
AcDbEntity
  8
0
100
AcDbSpline
 62
7
  6
BYLAYER
 70
0
 71
3
 72
9
 73
5
 74
0
 42
0.0000001
 43
0.0000001
 44
0.0000000001
 40
0.0
 40
0.0
 40
0.0
 40
0.0
 40
0.2372407711
 40
1.0
 40
1.0
 40
1.0
 40
1.0
 10
17.75900165
 20
36.371831384
 30
0.0
 10
17.75900165
 20
36.3995976505
 30
0.0
 10
17.7547073479
 20
36.5166271917
 30
0.0
 10
17.7345218598
 20
36.6328138483
 30
0.0
 10
17.7124985761
 20
36.7193267287
 30
0.0
  0
SPLINE
  5
380
100
AcDbEntity
  8
0
100
AcDbSpline
 62
7
  6
BYLAYER
 70
0
 71
3
 72
10
 73
6
 74
0
 42
0.0000001
 43
0.0000001
 44
0.0000000001
 40
0.0
 40
0.0
 40
0.0
 40
0.0
 40
0.5271333694
 40
0.7678446605
 40
1.0
 40
1.0
 40
1.0
 40
1.0
 10
17.1174985122
 20
35.7885955397
 30
0.0
 10
17.1827538726
 20
35.7701716118
 30
0.0
 10
17.2831017351
 20
35.7558598942
 30
0.0
 10
17.4109050139
 20
35.7759479295
 30
0.0
 10
17.468190672
 20
35.7981008842
 30
0.0
 10
17.4946478954
 20
35.8119498688
 30
0.0
  0
SPLINE
  5
381
100
AcDbEntity
  8
0
100
AcDbSpline
 62
7
  6
BYLAYER
 70
0
 71
3
 72
9
 73
5
 74
0
 42
0.0000001
 43
0.0000001
 44
0.0000000001
 40
0.0
 40
0.0
 40
0.0
 40
0.0
 40
0.494550265
 40
1.0
 40
1.0
 40
1.0
 40
1.0
 10
17.4946478954
 20
35.8119498688
 30
0.0
 10
17.5191878822
 20
35.8247952794
 30
0.0
 10
17.5662197218
 20
35.8560345192
 30
0.0
 10
17.6058958951
 20
35.896139904
 30
0.0
 10
17.623841445
 20
35.9180342636
 30
0.0
  0
SPLINE
  5
382
100
AcDbEntity
  8
0
100
AcDbSpline
 62
7
  6
BYLAYER
 70
0
 71
3
 72
10
 73
6
 74
0
 42
0.0000001
 43
0.0000001
 44
0.0000000001
 40
0.0
 40
0.0
 40
0.0
 40
0.0
 40
0.4591054983
 40
0.7191302894
 40
1.0
 40
1.0
 40
1.0
 40
1.0
 10
17.623841445
 20
35.9180342636
 30
0.0
 10
17.6705083498
 20
35.9749699388
 30
0.0
 10
17.721890044
 20
36.0825853565
 30
0.0
 10
17.7537556401
 20
36.2398382304
 30
0.0
 10
17.75900165
 20
36.3267942375
 30
0.0
 10
17.75900165
 20
36.371831384
 30
0.0
  0
SPLINE
  5
383
100
AcDbEntity
  8
0
100
AcDbSpline
 62
7
  6
BYLAYER
 70
0
 71
3
 72
11
 73
7
 74
0
 42
0.0000001
 43
0.0000001
 44
0.0000000001
 40
0.0
 40
0.0
 40
0.0
 40
0.0
 40
0.2895453772
 40
0.5491366158
 40
0.7822776227
 40
1.0
 40
1.0
 40
1.0
 40
1.0
 10
17.6137673151
 20
36.4556802857
 30
0.0
 10
17.6137673151
 20
36.4050404595
 30
0.0
 10
17.6060349172
 20
36.3086804361
 30
0.0
 10
17.5670807374
 20
36.1762631335
 30
0.0
 10
17.5013656079
 20
36.0687903112
 30
0.0
 10
17.43961137
 20
36.0169696857
 30
0.0
 10
17.4066348122
 20
35.9979299685
 30
0.0
  0
SPLINE
  5
384
100
AcDbEntity
  8
0
100
AcDbSpline
 62
7
  6
BYLAYER
 70
0
 71
3
 72
9
 73
5
 74
0
 42
0.0000001
 43
0.0000001
 44
0.0000000001
 40
0.0
 40
0.0
 40
0.0
 40
0.0
 40
0.5118535232
 40
1.0
 40
1.0
 40
1.0
 40
1.0
 10
16.2955617276
 20
33.4265301723
 30
0.0
 10
16.6605767987
 20
33.0918428109
 30
0.0
 10
17.3995478766
 20
32.4654566829
 30
0.0
 10
18.1903494856
 20
31.9053218568
 30
0.0
 10
18.5887370008
 20
31.6516548661
 30
0.0
  0
SPLINE
  5
385
100
AcDbEntity
  8
0
100
AcDbSpline
 62
7
  6
BYLAYER
 70
0
 71
3
 72
9
 73
5
 74
0
 42
0.0000001
 43
0.0000001
 44
0.0000000001
 40
0.0
 40
0.0
 40
0.0
 40
0.0
 40
0.2636382072
 40
1.0
 40
1.0
 40
1.0
 40
1.0
 10
19.4730915988
 20
31.1340998801
 30
0.0
 10
19.6791130655
 20
31.0241353952
 30
0.0
 10
20.4717780251
 20
30.6290796238
 30
0.0
 10
21.3130419427
 20
30.3261043083
 30
0.0
 10
21.9484900283
 20
30.1789162578
 30
0.0
  0
SPLINE
  5
386
100
AcDbEntity
  8
0
100
AcDbSpline
 62
7
  6
BYLAYER
 70
0
 71
3
 72
30
 73
26
 74
0
 42
0.0000001
 43
0.0000001
 44
0.0000000001
 40
0.0
 40
0.0
 40
0.0
 40
0.0
 40
0.0509527853
 40
0.0751608203
 40
0.0987188883
 40
0.1218240195
 40
0.1446957942
 40
0.1675644279
 40
0.1906609237
 40
0.2142042384
 40
0.2383937022
 40
0.2892964624
 40
0.3163176061
 40
0.3444729839
 40
0.3738061088
 40
0.4043317315
 40
0.43604223
 40
0.4689050413
 40
0.537848787
 40
0.6106045161
 40
0.6863802545
 40
0.7642483304
 40
0.8431817697
 40
0.9221287793
 40
1.0
 40
1.0
 40
1.0
 40
1.0
 10
22.5604171899
 20
30.0624696323
 30
0.0
 10
22.9865225939
 20
29.9993894323
 30
0.0
 10
23.6264438443
 20
29.9616664278
 30
0.0
 10
24.4578119041
 20
30.0486849425
 30
0.0
 10
25.0442074472
 20
30.1783370895
 30
0.0
 10
25.6003219632
 20
30.3732133757
 30
0.0
 10
26.1232069991
 20
30.6321856368
 30
0.0
 10
26.6099056315
 20
30.95393088
 30
0.0
 10
27.0576966454
 20
31.3366358499
 30
0.0
 10
27.4643305305
 20
31.7780756122
 30
0.0
 10
27.9568077887
 20
32.4527979366
 30
0.0
 10
28.348826745
 20
33.2295883346
 30
0.0
 10
28.6412607939
 20
34.078045637
 30
0.0
 10
28.8163846005
 20
34.7716079776
 30
0.0
 10
28.9418168737
 20
35.5056949918
 30
0.0
 10
29.0171716021
 20
36.2767589414
 30
0.0
 10
29.0419550105
 20
37.080893891
 30
0.0
 10
29.0070863155
 20
38.2096910926
 30
0.0
 10
28.8322322156
 20
39.6782781491
 30
0.0
 10
28.4301377841
 20
41.4750774264
 30
0.0
 10
27.8405159953
 20
43.2986633204
 30
0.0
 10
27.0752084978
 20
45.1123132739
 30
0.0
 10
26.1496048818
 20
46.8799125088
 30
0.0
 10
25.0823115277
 20
48.565584575
 30
0.0
 10
24.2814649289
 20
49.624457175
 30
0.0
 10
23.8617078953
 20
50.1315886792
 30
0.0
  0
SPLINE
  5
387
100
AcDbEntity
  8
0
100
AcDbSpline
 62
7
  6
BYLAYER
 70
0
 71
3
 72
23
 73
19
 74
0
 42
0.0000001
 43
0.0000001
 44
0.0000000001
 40
0.0
 40
0.0
 40
0.0
 40
0.0
 40
0.0829218075
 40
0.1637028285
 40
0.2417801223
 40
0.316763128
 40
0.388323095
 40
0.4562241728
 40
0.520373098
 40
0.5808314895
 40
0.6378385748
 40
0.6918461036
 40
0.7435196325
 40
0.7937220185
 40
0.843458159
 40
0.8937801116
 40
0.9456797976
 40
1.0
 40
1.0
 40
1.0
 40
1.0
 10
23.8617078953
 20
50.1315886792
 30
0.0
 10
23.564882987
 20
50.4901991377
 30
0.0
 10
22.9566526986
 20
51.180134703
 30
0.0
 10
21.9935378536
 20
52.1379762305
 30
0.0
 10
20.9994889451
 20
52.9972034953
 30
0.0
 10
19.985197335
 20
53.7485908
 30
0.0
 10
18.9611997977
 20
54.3844490319
 30
0.0
 10
17.9379927981
 20
54.8978647586
 30
0.0
 10
16.9261356466
 20
55.2833183351
 30
0.0
 10
15.9359566564
 20
55.536534144
 30
0.0
 10
14.9775330993
 20
55.6540637742
 30
0.0
 10
14.0609251571
 20
55.6339129802
 30
0.0
 10
13.1962182349
 20
55.4750948709
 30
0.0
 10
12.3937626092
 20
55.1782912545
 30
0.0
 10
11.6636649757
 20
54.7466921735
 30
0.0
 10
11.0151964241
 20
54.1855782145
 30
0.0
 10
10.4558963091
 20
53.5027371898
 30
0.0
 10
10.1539921114
 20
52.9854694862
 30
0.0
 10
10.0188486251
 20
52.7121002963
 30
0.0
  0
SPLINE
  5
388
100
AcDbEntity
  8
0
100
AcDbSpline
 62
7
  6
BYLAYER
 70
0
 71
3
 72
9
 73
5
 74
0
 42
0.0000001
 43
0.0000001
 44
0.0000000001
 40
0.0
 40
0.0
 40
0.0
 40
0.0
 40
0.2342232981
 40
1.0
 40
1.0
 40
1.0
 40
1.0
 10
9.9876742059
 20
52.6481788088
 30
0.0
 10
9.8840142472
 20
52.4327133464
 30
0.0
 10
9.4908122231
 20
51.4890427812
 30
0.0
 10
9.2891548346
 20
50.4724451947
 30
0.0
 10
9.2159954209
 20
49.6941420557
 30
0.0
  0
SPLINE
  5
389
100
AcDbEntity
  8
0
100
AcDbSpline
 62
7
  6
BYLAYER
 70
0
 71
3
 72
9
 73
5
 74
0
 42
0.0000001
 43
0.0000001
 44
0.0000000001
 40
0.0
 40
0.0
 40
0.0
 40
0.0
 40
0.4851447339
 40
1.0
 40
1.0
 40
1.0
 40
1.0
 10
9.1741187663
 20
49.0666426997
 30
0.0
 10
9.1537097315
 20
48.5615096651
 30
0.0
 10
9.1751656404
 20
47.5171880608
 30
0.0
 10
9.3048315022
 20
46.4814174027
 30
0.0
 10
9.3955271571
 20
45.9526339466
 30
0.0
  0
SPLINE
  5
38A
100
AcDbEntity
  8
0
100
AcDbSpline
 62
7
  6
BYLAYER
 70
0
 71
3
 72
9
 73
5
 74
0
 42
0.0000001
 43
0.0000001
 44
0.0000000001
 40
0.0
 40
0.0
 40
0.0
 40
0.0
 40
0.2442573247
 40
1.0
 40
1.0
 40
1.0
 40
1.0
 10
9.5942772993
 20
44.9608898721
 30
0.0
 10
9.6531662668
 20
44.7035021101
 30
0.0
 10
9.9160065379
 20
43.6547887112
 30
0.0
 10
10.2625154792
 20
42.6274618482
 30
0.0
 10
10.5643532234
 20
41.8683202772
 30
0.0
  0
SPLINE
  5
38B
100
AcDbEntity
  8
0
100
AcDbSpline
 62
7
  6
BYLAYER
 70
0
 71
3
 72
17
 73
13
 74
0
 42
0.0000001
 43
0.0000001
 44
0.0000000001
 40
0.0
 40
0.0
 40
0.0
 40
0.0
 40
0.1286846513
 40
0.2703032228
 40
0.4174430309
 40
0.5617811216
 40
0.695448235
 40
0.8127121431
 40
0.8646788239
 40
0.9125086207
 40
0.9571391214
 40
1.0
 40
1.0
 40
1.0
 40
1.0
 10
10.542728943
 20
32.373238747
 30
0.0
 10
10.542728943
 20
32.4587102439
 30
0.0
 10
10.5187992183
 20
32.638445564
 30
0.0
 10
10.4295720444
 20
32.9023431341
 30
0.0
 10
10.2920126449
 20
33.156537771
 30
0.0
 10
10.1172804673
 20
33.3802056844
 30
0.0
 10
9.9195850038
 20
33.5552926454
 30
0.0
 10
9.7406412156
 20
33.6530991574
 30
0.0
 10
9.6006771065
 20
33.6903909612
 30
0.0
 10
9.5043411807
 20
33.6974286471
 30
0.0
 10
9.414624082
 20
33.6843420845
 30
0.0
 10
9.3602977609
 20
33.6617012652
 30
0.0
 10
9.3356432404
 20
33.6474683216
 30
0.0
  0
SPLINE
  5
38C
100
AcDbEntity
  8
0
100
AcDbSpline
 62
7
  6
BYLAYER
 70
0
 71
3
 72
9
 73
5
 74
0
 42
0.0000001
 43
0.0000001
 44
0.0000000001
 40
0.0
 40
0.0
 40
0.0
 40
0.0
 40
0.5025302811
 40
1.0
 40
1.0
 40
1.0
 40
1.0
 10
15.2582807613
 20
56.881934338
 30
0.0
 10
15.0677502019
 20
56.8275088823
 30
0.0
 10
14.6946537977
 20
56.6966214674
 30
0.0
 10
14.3403805048
 20
56.5209356521
 30
0.0
 10
14.170387289
 20
56.423060618
 30
0.0
  0
SPLINE
  5
38D
100
AcDbEntity
  8
0
100
AcDbSpline
 62
7
  6
BYLAYER
 70
0
 71
3
 72
18
 73
14
 74
0
 42
0.0000001
 43
0.0000001
 44
0.0000000001
 40
0.0
 40
0.0
 40
0.0
 40
0.0
 40
0.0492770197
 40
0.0982249657
 40
0.1475511126
 40
0.1979376775
 40
0.2499938637
 40
0.3042304806
 40
0.4205207819
 40
0.5487438879
 40
0.6889767464
 40
0.8400992476
 40
1.0
 40
1.0
 40
1.0
 40
1.0
 10
15.2286157514
 20
48.2796104594
 30
0.0
 10
15.3107812511
 20
48.3543273993
 30
0.0
 10
15.4855158592
 20
48.4917545141
 30
0.0
 10
15.7753610505
 20
48.6571425817
 30
0.0
 10
16.0888193834
 20
48.7788466879
 30
0.0
 10
16.4231880957
 20
48.856004233
 30
0.0
 10
16.7758594854
 20
48.8882218865
 30
0.0
 10
17.2783294318
 20
48.8707211362
 30
0.0
 10
17.9421535396
 20
48.7287298678
 30
0.0
 10
18.7448130249
 20
48.3904917614
 30
0.0
 10
19.552072746
 20
47.8917998468
 30
0.0
 10
20.3416838057
 20
47.2469961392
 30
0.0
 10
20.8312192339
 20
46.7429840389
 30
0.0
 10
21.0686622978
 20
46.4718922591
 30
0.0
  0
SPLINE
  5
38E
100
AcDbEntity
  8
0
100
AcDbSpline
 62
7
  6
BYLAYER
 70
0
 71
3
 72
17
 73
13
 74
0
 42
0.0000001
 43
0.0000001
 44
0.0000000001
 40
0.0
 40
0.0
 40
0.0
 40
0.0
 40
0.1390485463
 40
0.2798041469
 40
0.4190159359
 40
0.5535213646
 40
0.6805212854
 40
0.7405320037
 40
0.7979186194
 40
0.8525599364
 40
0.9044209607
 40
1.0
 40
1.0
 40
1.0
 40
1.0
 10
26.1045807598
 20
51.4752696421
 30
0.0
 10
26.6615427976
 20
50.8023732439
 30
0.0
 10
27.7052752164
 20
49.382807229
 30
0.0
 10
29.0298965515
 20
47.1026889195
 30
0.0
 10
30.090928299
 20
44.7191253768
 30
0.0
 10
30.8517470553
 20
42.3138641848
 30
0.0
 10
31.2212101978
 20
40.3214793294
 30
0.0
 10
31.3365540668
 20
38.7892244098
 30
0.0
 10
31.3339756208
 20
37.7073584302
 30
0.0
 10
31.2437640147
 20
36.6801176166
 30
0.0
 10
31.0143913603
 20
35.4307594172
 30
0.0
 10
30.706621152
 20
34.5454581924
 30
0.0
 10
30.4346011279
 20
34.0101890584
 30
0.0
  0
SPLINE
  5
38F
100
AcDbEntity
  8
0
100
AcDbSpline
 62
7
  6
BYLAYER
 70
0
 71
3
 72
23
 73
19
 74
0
 42
0.0000001
 43
0.0000001
 44
0.0000000001
 40
0.0
 40
0.0
 40
0.0
 40
0.0
 40
0.0435229125
 40
0.0881815041
 40
0.1349721815
 40
0.1846582026
 40
0.2377366256
 40
0.2944524258
 40
0.3548297484
 40
0.4187071475
 40
0.4857761705
 40
0.5556109958
 40
0.6276920843
 40
0.7014343612
 40
0.7762020795
 40
0.8513265105
 40
0.9261646417
 40
1.0
 40
1.0
 40
1.0
 40
1.0
 10
26.365049164
 20
30.5547462005
 30
0.0
 10
26.6413619538
 20
30.7142513359
 30
0.0
 10
27.1696793857
 20
31.0955744038
 30
0.0
 10
27.8465034021
 20
31.8250915177
 30
0.0
 10
28.4035467601
 20
32.7031483803
 30
0.0
 10
28.834261229
 20
33.7159272773
 30
0.0
 10
29.1346671153
 20
34.8493429787
 30
0.0
 10
29.3018849912
 20
36.0883935893
 30
0.0
 10
29.3343692841
 20
37.4169553991
 30
0.0
 10
29.2321497421
 20
38.8177170394
 30
0.0
 10
28.9967637675
 20
40.2723442885
 30
0.0
 10
28.6313459818
 20
41.7616633187
 30
0.0
 10
28.1408212459
 20
43.2659823015
 30
0.0
 10
27.5317268739
 20
44.7653323617
 30
0.0
 10
26.8121675059
 20
46.239711402
 30
0.0
 10
25.9916768272
 20
47.6696772657
 30
0.0
 10
25.0812318274
 20
49.0358280608
 30
0.0
 10
24.416045688
 20
49.9004497044
 30
0.0
 10
24.0709299549
 20
50.3174029579
 30
0.0
  0
SPLINE
  5
390
100
AcDbEntity
  8
0
100
AcDbSpline
 62
7
  6
BYLAYER
 70
0
 71
3
 72
21
 73
17
 74
0
 42
0.0000001
 43
0.0000001
 44
0.0000000001
 40
0.0
 40
0.0
 40
0.0
 40
0.0
 40
0.1525544597
 40
0.3059260143
 40
0.3809549954
 40
0.4538182933
 40
0.5238417581
 40
0.5904577843
 40
0.6532369427
 40
0.7119391086
 40
0.7665624781
 40
0.8173895193
 40
0.8650433638
 40
0.9104975473
 40
0.9550153691
 40
1.0
 40
1.0
 40
1.0
 40
1.0
 10
21.4438527705
 20
46.4169550205
 30
0.0
 10
21.8118754
 20
45.9723266885
 30
0.0
 10
22.4814655517
 20
45.0222612661
 30
0.0
 10
23.1368967424
 20
43.7326168209
 30
0.0
 10
23.5362515848
 20
42.6640047186
 30
0.0
 10
23.7633852086
 20
41.8704668621
 30
0.0
 10
23.9166903138
 20
41.0917616375
 30
0.0
 10
23.9938147711
 20
40.3400360235
 30
0.0
 10
23.9933402927
 20
39.6269666486
 30
0.0
 10
23.9150374984
 20
38.9635619605
 30
0.0
 10
23.7597358296
 20
38.360003072
 30
0.0
 10
23.5288796703
 20
37.8257758017
 30
0.0
 10
23.2250497377
 20
37.3698490506
 30
0.0
 10
22.8521052434
 20
37.0008355881
 30
0.0
 10
22.4164247464
 20
36.726934463
 30
0.0
 10
22.0942689971
 20
36.6129852343
 30
0.0
 10
21.9288357297
 20
36.5730037623
 30
0.0
  0
SPLINE
  5
391
100
AcDbEntity
  8
0
100
AcDbSpline
 62
7
  6
BYLAYER
 70
0
 71
3
 72
23
 73
19
 74
0
 42
0.0000001
 43
0.0000001
 44
0.0000000001
 40
0.0
 40
0.0
 40
0.0
 40
0.0
 40
0.0738353583
 40
0.1486734895
 40
0.2237979205
 40
0.2985656388
 40
0.3723079157
 40
0.4443890042
 40
0.5142238295
 40
0.5812928525
 40
0.6451702516
 40
0.7055475742
 40
0.7622633744
 40
0.8153417974
 40
0.8650278185
 40
0.9118184959
 40
0.9564770875
 40
1.0
 40
1.0
 40
1.0
 40
1.0
 10
28.7378152806
 20
53.0118143734
 30
0.0
 10
29.0829310136
 20
52.5948611199
 30
0.0
 10
29.748117153
 20
51.7302394764
 30
0.0
 10
30.6585621528
 20
50.3640886812
 30
0.0
 10
31.4790528315
 20
48.9341228176
 30
0.0
 10
32.1986121995
 20
47.4597437773
 30
0.0
 10
32.8077065715
 20
45.960393717
 30
0.0
 10
33.2982313074
 20
44.4560747342
 30
0.0
 10
33.6636490931
 20
42.9667557041
 30
0.0
 10
33.8990350677
 20
41.512128455
 30
0.0
 10
34.0012546097
 20
40.1113668146
 30
0.0
 10
33.9687703168
 20
38.7828050049
 30
0.0
 10
33.8015524409
 20
37.5437543943
 30
0.0
 10
33.5011465546
 20
36.4103386929
 30
0.0
 10
33.0704320857
 20
35.3975597958
 30
0.0
 10
32.5133887278
 20
34.5195029333
 30
0.0
 10
31.8365647114
 20
33.7899858193
 30
0.0
 10
31.3082472794
 20
33.4086627515
 30
0.0
 10
31.0319344896
 20
33.2491576161
 30
0.0
  0
SPLINE
  5
392
100
AcDbEntity
  8
0
100
AcDbSpline
 62
7
  6
BYLAYER
 70
0
 71
3
 72
11
 73
7
 74
0
 42
0.0000001
 43
0.0000001
 44
0.0000000001
 40
0.0
 40
0.0
 40
0.0
 40
0.0
 40
0.2350778768
 40
0.4811407813
 40
0.7367574577
 40
1.0
 40
1.0
 40
1.0
 40
1.0
 10
60.5121030619
 20
78.3285657216
 30
0.0
 10
60.9183627998
 20
78.0699720191
 30
0.0
 10
61.7251951676
 20
77.5011777119
 30
0.0
 10
62.8833139628
 20
76.5309525404
 30
0.0
 10
64.004870904
 20
75.4345815813
 30
0.0
 10
64.7105105976
 20
74.6383170168
 30
0.0
 10
65.0543658241
 20
74.2228866504
 30
0.0
  0
SPLINE
  5
393
100
AcDbEntity
  8
0
100
AcDbSpline
 62
7
  6
BYLAYER
 70
0
 71
3
 72
9
 73
5
 74
0
 42
0.0000001
 43
0.0000001
 44
0.0000000001
 40
0.0
 40
0.0
 40
0.0
 40
0.0
 40
0.2555260482
 40
1.0
 40
1.0
 40
1.0
 40
1.0
 10
14.7803770654
 20
47.9605040945
 30
0.0
 10
14.8064399197
 20
48.0020181403
 30
0.0
 10
14.9124776646
 20
48.1618926714
 30
0.0
 10
15.0352540808
 20
48.3108090549
 30
0.0
 10
15.135290373
 20
48.4127298706
 30
0.0
  0
SPLINE
  5
394
100
AcDbEntity
  8
0
100
AcDbSpline
 62
7
  6
BYLAYER
 70
0
 71
3
 72
18
 73
14
 74
0
 42
0.0000001
 43
0.0000001
 44
0.0000000001
 40
0.0
 40
0.0
 40
0.0
 40
0.0
 40
0.0498404447
 40
0.0990706041
 40
0.1484361137
 40
0.198671033
 40
0.2504476343
 40
0.3043359227
 40
0.4199272866
 40
0.5477091806
 40
0.6879100818
 40
0.8393940548
 40
1.0
 40
1.0
 40
1.0
 40
1.0
 10
15.135290373
 20
48.4127298706
 30
0.0
 10
15.2178911156
 20
48.4968866788
 30
0.0
 10
15.3943370786
 20
48.6527137328
 30
0.0
 10
15.6906683544
 20
48.8436049451
 30
0.0
 10
16.0134082218
 20
48.9877974717
 30
0.0
 10
16.359722404
 20
49.083959983
 30
0.0
 10
16.7266692016
 20
49.13158318
 30
0.0
 10
17.2514525209
 20
49.1300805622
 30
0.0
 10
17.9486620817
 20
48.9977210795
 30
0.0
 10
18.794104124
 20
48.655851841
 30
0.0
 10
19.6459996146
 20
48.1396276525
 30
0.0
 10
20.4799343482
 20
47.4647458036
 30
0.0
 10
20.9963177355
 20
46.934384785
 30
0.0
 10
21.2466831048
 20
46.648539444
 30
0.0
  0
SPLINE
  5
395
100
AcDbEntity
  8
0
100
AcDbSpline
 62
7
  6
BYLAYER
 70
0
 71
3
 72
23
 73
19
 74
0
 42
0.0000001
 43
0.0000001
 44
0.0000000001
 40
0.0
 40
0.0
 40
0.0
 40
0.0
 40
0.0435206546
 40
0.088185207
 40
0.1349871959
 40
0.184686892
 40
0.237778879
 40
0.2945063066
 40
0.3548921387
 40
0.4187742854
 40
0.4858444069
 40
0.5556768039
 40
0.6277506359
 40
0.7014825258
 40
0.7762387371
 40
0.8513509128
 40
0.926176997
 40
1.0
 40
1.0
 40
1.0
 40
1.0
 10
28.4230837564
 20
31.742971408
 30
0.0
 10
28.6989852717
 20
31.9029057551
 30
0.0
 10
29.2264396153
 20
32.2850210821
 30
0.0
 10
29.9019289301
 20
33.0153765524
 30
0.0
 10
30.4577154273
 20
33.8940012442
 30
0.0
 10
30.8872854019
 20
34.9070935491
 30
0.0
 10
31.1866722125
 20
36.0405906872
 30
0.0
 10
31.3530082576
 20
37.2795096836
 30
0.0
 10
31.3847600825
 20
38.6077473709
 30
0.0
 10
31.2819639532
 20
40.0080185477
 30
0.0
 10
31.046158807
 20
41.462017453
 30
0.0
 10
30.6804831597
 20
42.950589265
 30
0.0
 10
30.1898682383
 20
44.4540723092
 30
0.0
 10
29.5808288496
 20
45.9525302609
 30
0.0
 10
28.8614741726
 20
47.4260161233
 30
0.0
 10
28.0413040726
 20
48.8551198437
 30
0.0
 10
27.1312864085
 20
50.2204606927
 30
0.0
 10
26.4664543738
 20
51.0845902504
 30
0.0
 10
26.1215310829
 20
51.5013110041
 30
0.0
  0
SPLINE
  5
396
100
AcDbEntity
  8
0
100
AcDbSpline
 62
7
  6
BYLAYER
 70
0
 71
3
 72
17
 73
13
 74
0
 42
0.0000001
 43
0.0000001
 44
0.0000000001
 40
0.0
 40
0.0
 40
0.0
 40
0.0
 40
0.0428956198
 40
0.0872024753
 40
0.1344959794
 40
0.1858582803
 40
0.3021247305
 40
0.4354416982
 40
0.5801043347
 40
0.7280403966
 40
0.870553262
 40
1.0
 40
1.0
 40
1.0
 40
1.0
 10
17.4147176598
 20
38.8766438466
 30
0.0
 10
17.450421472
 20
38.9004362854
 30
0.0
 10
17.5297533967
 20
38.9394143829
 30
0.0
 10
17.6628555286
 20
38.9663643415
 30
0.0
 10
17.8068887831
 20
38.9620861246
 30
0.0
 10
18.0174637637
 20
38.9136139803
 30
0.0
 10
18.2886672048
 20
38.7729604836
 30
0.0
 10
18.5892866434
 20
38.5140161048
 30
0.0
 10
18.8561161527
 20
38.1789941133
 30
0.0
 10
19.0667196806
 20
37.7957077891
 30
0.0
 10
19.2036769747
 20
37.3965313045
 30
0.0
 10
19.2404867593
 20
37.1242028014
 30
0.0
 10
19.2404867593
 20
36.9947276396
 30
0.0
  0
SPLINE
  5
397
100
AcDbEntity
  8
0
100
AcDbSpline
 62
7
  6
BYLAYER
 70
0
 71
3
 72
23
 73
19
 74
0
 42
0.0000001
 43
0.0000001
 44
0.0000000001
 40
0.0
 40
0.0
 40
0.0
 40
0.0
 40
0.0435229692
 40
0.0881819163
 40
0.1349725224
 40
0.184657921
 40
0.2377366537
 40
0.2944530264
 40
0.3548297745
 40
0.4187069501
 40
0.4857764353
 40
0.5556111874
 40
0.6276921794
 40
0.7014340119
 40
0.7762024618
 40
0.8513274704
 40
0.9261616608
 40
1.0
 40
1.0
 40
1.0
 40
1.0
 10
31.9372632338
 20
32.9058163003
 30
0.0
 10
32.2280997354
 20
33.0737505254
 30
0.0
 10
32.7842817198
 20
33.475061443
 30
0.0
 10
33.4966700944
 20
34.243047778
 30
0.0
 10
34.0830259407
 20
35.167307082
 30
0.0
 10
34.5364599364
 20
36.2333682319
 30
0.0
 10
34.8526632173
 20
37.4264467419
 30
0.0
 10
35.02863769
 20
38.7307176464
 30
0.0
 10
35.0628645758
 20
40.1291996989
 30
0.0
 10
34.9552851124
 20
41.6036868159
 30
0.0
 10
34.7074784909
 20
43.1348702453
 30
0.0
 10
34.3228265413
 20
44.702575786
 30
0.0
 10
33.806502105
 20
46.2860705506
 30
0.0
 10
33.16535529
 20
47.8643387276
 30
0.0
 10
32.4078986453
 20
49.4163121105
 30
0.0
 10
31.5442407721
 20
50.9215249174
 30
0.0
 10
30.5858952133
 20
52.3595877854
 30
0.0
 10
29.8856924879
 20
53.2697019186
 30
0.0
 10
29.5223980041
 20
53.7086179184
 30
0.0
  0
ELLIPSE
  5
398
100
AcDbEntity
  8
0
100
AcDbEllipse
 62
7
  6
BYLAYER
 10
45.1830269625
 20
60.4862379917
 30
0.0
 11
24.6921581758
 21
6.3071398165
 31
0.0
 40
0.6370116215
 41
1.2447639568
 42
1.2699691479
  0
ELLIPSE
  5
399
100
AcDbEntity
  8
0
100
AcDbEllipse
 62
7
  6
BYLAYER
 10
45.0268595188
 20
61.0117475659
 30
0.0
 11
25.0823955992
 21
4.8563883918
 31
0.0
 40
0.621011288
 41
7.528212686
 42
7.5539418084
  0
ELLIPSE
  5
39A
100
AcDbEntity
  8
0
100
AcDbEllipse
 62
7
  6
BYLAYER
 10
44.9041459335
 20
61.5320028996
 30
0.0
 11
25.3679778441
 21
3.4993896667
 31
0.0
 40
0.6026731265
 41
1.2403760062
 42
1.2667091019
  0
ELLIPSE
  5
39B
100
AcDbEntity
  8
0
100
AcDbEllipse
 62
7
  6
BYLAYER
 10
44.8158201311
 20
62.0430445355
 30
0.0
 11
25.5602112624
 21
2.2394956401
 31
0.0
 40
0.5824427335
 41
1.2303337638
 42
1.2579614716
  0
ELLIPSE
  5
39C
100
AcDbEntity
  8
0
100
AcDbEllipse
 62
7
  6
BYLAYER
 10
44.7625543243
 20
62.5409831382
 30
0.0
 11
25.6693976586
 21
1.074728493
 31
0.0
 40
0.5607003361
 41
1.2164194471
 42
1.2448131678
  0
ELLIPSE
  5
39D
100
AcDbEntity
  8
0
100
AcDbEllipse
 62
7
  6
BYLAYER
 10
44.744753898
 20
63.0220290943
 30
0.0
 11
25.7041710666
 21
0.000086921
 31
0.0
 40
0.5377539929
 41
1.1982675425
 42
1.2276384485
  0
ELLIPSE
  5
39E
100
AcDbEntity
  8
0
100
AcDbEllipse
 62
7
  6
BYLAYER
 10
44.7625543243
 20
63.4825213536
 30
0.0
 11
25.6714220041
 21
-0.990796206
 31
0.0
 40
0.5138422122
 41
1.1774546168
 42
1.2068255228
  0
ELLIPSE
  5
39F
100
AcDbEntity
  8
0
100
AcDbEllipse
 62
7
  6
BYLAYER
 10
44.8158201311
 20
63.918955292
 30
0.0
 11
25.5765102646
 21
-1.9046128171
 31
0.0
 40
0.4891411839
 41
1.1533697171
 42
1.1827406231
  0
ELLIPSE
  5
3A0
100
AcDbEntity
  8
0
100
AcDbEllipse
 62
7
  6
BYLAYER
 10
44.9041459335
 20
64.3280093836
 30
0.0
 11
25.4235744323
 21
-2.7478070601
 31
0.0
 40
0.4637735253
 41
1.1263386505
 42
1.1557095565
  0
ELLIPSE
  5
3A1
100
AcDbEntity
  8
0
100
AcDbEllipse
 62
7
  6
BYLAYER
 10
45.0268595188
 20
64.7065704798
 30
0.0
 11
25.2158380038
 21
-3.526315637
 31
0.0
 40
0.4378168535
 41
1.0966392795
 42
1.1260101855
  0
ELLIPSE
  5
3A2
100
AcDbEntity
  8
0
100
AcDbEllipse
 62
7
  6
BYLAYER
 10
45.1830269625
 20
65.0517575022
 30
0.0
 11
24.9558704224
 21
-4.2454987115
 31
0.0
 40
0.4113114298
 41
1.0645001417
 42
1.0938710477
  0
ELLIPSE
  5
3A3
100
AcDbEntity
  8
0
100
AcDbEllipse
 62
7
  6
BYLAYER
 10
45.371459736
 20
65.3609433689
 30
0.0
 11
24.6457923828
 21
-4.9101776717
 31
0.0
 40
0.3842666715
 41
1.0301020743
 42
1.0594729803
  0
ELLIPSE
  5
3A4
100
AcDbEntity
  8
0
100
AcDbEllipse
 62
7
  6
BYLAYER
 10
45.5907237523
 20
65.631774989
 30
0.0
 11
24.2874286681
 21
-5.5247273254
 31
0.0
 40
0.3566666052
 41
0.9935809255
 42
1.0229518315
  0
ELLIPSE
  5
3A5
100
AcDbEntity
  8
0
100
AcDbEllipse
 62
7
  6
BYLAYER
 10
45.8391502797
 20
65.8621911701
 30
0.0
 11
23.8824165252
 21
-6.0931919811
 31
0.0
 40
0.3284744764
 41
0.9550302356
 42
0.9844011416
  0
ELLIPSE
  5
3A6
100
AcDbEntity
  8
0
100
AcDbEllipse
 62
7
  6
BYLAYER
 10
46.1148486423
 20
66.0504383062
 30
0.0
 11
23.4322780087
 21
-6.6194089738
 31
0.0
 40
0.2996367937
 41
0.9145032477
 42
0.9438741537
  0
ELLIPSE
  5
3A7
100
AcDbEntity
  8
0
100
AcDbEllipse
 62
7
  6
BYLAYER
 10
46.4157206092
 20
66.1950837227
 30
0.0
 11
22.9384634115
 21
-7.1071318569
 31
0.0
 40
0.2700871321
 41
0.8720138726
 42
0.9013847787
  0
ELLIPSE
  5
3A8
100
AcDbEntity
  8
0
100
AcDbEllipse
 62
7
  6
BYLAYER
 10
46.739476363
 20
66.2950265807
 30
0.0
 11
22.4023710467
 21
-7.5601506281
 31
0.0
 40
0.2397500614
 41
0.8275363612
 42
0.8569072672
  0
ELLIPSE
  5
3A9
100
AcDbEntity
  8
0
100
AcDbEllipse
 62
7
  6
BYLAYER
 10
47.0836519269
 20
66.3495062548
 30
0.0
 11
21.8253467446
 21
-7.9824093347
 31
0.0
 40
0.2085456475
 41
0.7810034854
 42
0.8103743914
  0
ELLIPSE
  5
3AA
100
AcDbEntity
  8
0
100
AcDbEllipse
 62
7
  6
BYLAYER
 10
47.4456279171
 20
66.3581081217
 30
0.0
 11
21.2086646264
 21
-8.3781229955
 31
0.0
 40
0.1763950854
 41
0.7323030402
 42
0.7616739462
  0
ELLIPSE
  5
3AB
100
AcDbEntity
  8
0
100
AcDbEllipse
 62
7
  6
BYLAYER
 10
47.8226494777
 20
66.3207667161
 30
0.0
 11
20.5534890178
 21
-8.7518963634
 31
0.0
 40
0.1432282066
 41
0.6812724776
 42
0.7106433836
  0
ELLIPSE
  5
3AC
100
AcDbEntity
  8
0
100
AcDbEllipse
 62
7
  6
BYLAYER
 10
48.211847247
 20
66.2377662284
 30
0.0
 11
19.8608157951
 21
-9.1088465383
 31
0.0
 40
0.1089938613
 41
0.6276915302
 42
0.6570624363
  0
ELLIPSE
  5
3AD
100
AcDbEntity
  8
0
100
AcDbEllipse
 62
7
  6
BYLAYER
 10
48.6102591949
 20
66.1097383427
 30
0.0
 11
19.1313901816
 21
-9.4547292795
 31
0.0
 40
0.0736745289
 41
0.5712728325
 42
0.6006437385
  0
ELLIPSE
  5
3AE
100
AcDbEntity
  8
0
100
AcDbEllipse
 62
7
  6
BYLAYER
 10
49.014853166
 20
65.9376574284
 30
0.0
 11
18.3655976129
 21
-9.7960637338
 31
0.0
 40
0.0373069534
 41
0.5116509495
 42
0.5410218555
  0
ELLIPSE
  5
3AF
100
AcDbEntity
  8
0
100
AcDbEllipse
 62
7
  6
BYLAYER
 10
52.1056235486
 20
63.1969501465
 30
0.0
 11
-10.7787513254
 21
13.3562331417
 31
0.0
 40
0.23683038
 41
-3.0226316266
 42
-2.9932607206
  0
ELLIPSE
  5
3B0
100
AcDbEntity
  8
0
100
AcDbEllipse
 62
7
  6
BYLAYER
 10
55.2852668965
 20
63.2340038808
 30
0.0
 11
-9.5653680899
 21
13.9574572952
 31
0.0
 40
0.2434716519
 41
-3.5520294281
 42
-3.5222602842
  0
ELLIPSE
  5
3B1
100
AcDbEntity
  8
0
100
AcDbEllipse
 62
7
  6
BYLAYER
 10
55.5148624382
 20
62.8980200243
 30
0.0
 11
-10.6755039299
 21
13.3249240986
 31
0.0
 40
0.2296980766
 41
-3.6587878954
 42
-3.6290187515
  0
ELLIPSE
  5
3B2
100
AcDbEntity
  8
0
100
AcDbEllipse
 62
7
  6
BYLAYER
 10
55.7589389499
 20
62.5775561616
 30
0.0
 11
-11.7477287345
 21
12.7241207549
 31
0.0
 40
0.2080881539
 41
-3.7608170031
 42
-3.7310478592
  0
ELLIPSE
  5
3B3
100
AcDbEntity
  8
0
100
AcDbEllipse
 62
7
  6
BYLAYER
 10
56.0156388619
 20
62.2750512164
 30
0.0
 11
12.7728995674
 21
-12.1637800007
 31
0.0
 40
0.1802679208
 41
-0.7152556095
 42
-0.6854864656
  0
ELLIPSE
  5
3B4
100
AcDbEntity
  8
0
100
AcDbEllipse
 62
7
  6
BYLAYER
 10
56.2830085331
 20
61.9928074338
 30
0.0
 11
13.7482720826
 21
-11.6467418337
 31
0.0
 40
0.1479435082
 41
-0.8048242028
 42
-0.7750550589
  0
ELLIPSE
  5
3B5
100
AcDbEntity
  8
0
100
AcDbEllipse
 62
7
  6
BYLAYER
 10
56.5590131186
 20
61.7329728595
 30
0.0
 11
14.6749845951
 21
-11.1707553666
 31
0.0
 40
0.1126524607
 41
-0.8880574594
 42
-0.8582883155
  0
ELLIPSE
  5
3B6
100
AcDbEntity
  8
0
100
AcDbEllipse
 62
7
  6
BYLAYER
 10
56.8415520571
 20
61.4975249916
 30
0.0
 11
15.555815755
 21
-10.7301881851
 31
0.0
 40
0.075645413
 41
-0.9654261992
 42
-0.9356570553
  0
ELLIPSE
  5
3B7
100
AcDbEntity
  8
0
100
AcDbEllipse
 62
7
  6
BYLAYER
 10
57.1284750564
 20
61.2882557304
 30
0.0
 11
16.3937576474
 21
-10.3176993668
 31
0.0
 40
0.0378667741
 41
-1.0375468103
 42
-1.0077776664
  0
ELLIPSE
  5
3B8
100
AcDbEntity
  8
0
100
AcDbEllipse
 62
7
  6
BYLAYER
 10
47.4456279171
 20
56.5673199358
 30
0.0
 11
17.8081045105
 21
18.2305988052
 31
0.0
 40
0.6370087165
 41
-1.2699697786
 42
-1.2447644781
  0
ELLIPSE
  5
3B9
100
AcDbEntity
  8
0
100
AcDbEllipse
 62
7
  6
BYLAYER
 10
47.8226494777
 20
56.1693241911
 30
0.0
 11
16.7468455804
 21
19.2939077364
 31
0.0
 40
0.6210078725
 41
-1.2707561777
 42
-1.2450269221
  0
ELLIPSE
  5
3BA
100
AcDbEntity
  8
0
100
AcDbEllipse
 62
7
  6
BYLAYER
 10
48.211847247
 20
55.8029279718
 30
0.0
 11
15.71445288
 21
20.2197073913
 31
0.0
 40
0.6026692941
 41
-1.2667078272
 42
-1.2403744802
  0
ELLIPSE
  5
3BB
100
AcDbEntity
  8
0
100
AcDbEllipse
 62
7
  6
BYLAYER
 10
48.6102591949
 20
55.4709197741
 30
0.0
 11
14.719481364
 21
21.0161139063
 31
0.0
 40
0.5824385664
 41
-1.257959292
 42
-1.2303313439
  0
ELLIPSE
  5
3BC
100
AcDbEntity
  8
0
100
AcDbEllipse
 62
7
  6
BYLAYER
 10
49.014853166
 20
55.1758263811
 30
0.0
 11
13.7653683003
 21
21.6930379501
 31
0.0
 40
0.5606959025
 41
-1.2448101526
 42
-1.2164162369
  0
ELLIPSE
  5
3BD
100
AcDbEntity
  8
0
100
AcDbEllipse
 62
7
  6
BYLAYER
 10
49.4225499558
 20
54.9198936316
 30
0.0
 11
12.8520989679
 21
22.2604573694
 31
0.0
 40
0.5377493467
 41
-1.2276346747
 42
-1.1982637687
  0
ELLIPSE
  5
3BE
100
AcDbEntity
  8
0
100
AcDbEllipse
 62
7
  6
BYLAYER
 10
49.8302467457
 20
54.7050693283
 30
0.0
 11
11.9776042824
 21
22.7275228925
 31
0.0
 40
0.5138373942
 41
-1.206821066
 42
-1.17745016
  0
ELLIPSE
  5
3BF
100
AcDbEntity
  8
0
100
AcDbEllipse
 62
7
  6
BYLAYER
 10
50.2348407168
 20
54.532988414
 30
0.0
 11
11.1387686691
 21
23.1022219776
 31
0.0
 40
0.4891362233
 41
-1.1827355521
 42
-1.1533646461
  0
ELLIPSE
  5
3C0
100
AcDbEntity
  8
0
100
AcDbEllipse
 62
7
  6
BYLAYER
 10
50.6332526647
 20
54.4049605283
 30
0.0
 11
10.3320806258
 21
23.3913606125
 31
0.0
 40
0.4637684418
 41
-1.1557039313
 42
-1.1263330252
  0
ELLIPSE
  5
3C1
100
AcDbEntity
  8
0
100
AcDbEllipse
 62
7
  6
BYLAYER
 10
51.022450434
 20
54.3219600406
 30
0.0
 11
9.5540106162
 21
23.6006986072
 31
0.0
 40
0.4378116585
 41
-1.1260040561
 42
-1.0966331501
  0
ELLIPSE
  5
3C2
100
AcDbEntity
  8
0
100
AcDbEllipse
 62
7
  6
BYLAYER
 10
51.3994719946
 20
54.284618635
 30
0.0
 11
8.8012013936
 21
23.7351411148
 31
0.0
 40
0.4113061279
 41
-1.0938644546
 42
-1.0644935486
  0
ELLIPSE
  5
3C3
100
AcDbEntity
  8
0
100
AcDbEllipse
 62
7
  6
BYLAYER
 10
51.7614479847
 20
54.2932205019
 30
0.0
 11
8.070537932
 21
23.798935309
 31
0.0
 40
0.384261262
 41
-1.0594659548
 42
-1.0300950488
  0
ELLIPSE
  5
3C4
100
AcDbEntity
  8
0
100
AcDbEllipse
 62
7
  6
BYLAYER
 10
52.1056235486
 20
54.347700176
 30
0.0
 11
7.3591439915
 21
23.7958488382
 31
0.0
 40
0.3566610828
 41
-1.0229443962
 42
-0.9935734902
  0
ELLIPSE
  5
3C5
100
AcDbEntity
  8
0
100
AcDbEllipse
 62
7
  6
BYLAYER
 10
52.4293793024
 20
54.447643034
 30
0.0
 11
6.6643357711
 21
23.7293217161
 31
0.0
 40
0.3284688319
 41
-0.984393311
 42
-0.955022405
  0
ELLIPSE
  5
3C6
100
AcDbEntity
  8
0
100
AcDbEllipse
 62
7
  6
BYLAYER
 10
52.7302512693
 20
54.5922884505
 30
0.0
 11
5.9835511014
 21
23.6025907318
 31
0.0
 40
0.2996310152
 41
-0.9438659345
 42
-0.9144950285
  0
ELLIPSE
  5
3C7
100
AcDbEntity
  8
0
100
AcDbEllipse
 62
7
  6
BYLAYER
 10
53.005949632
 20
54.7805355866
 30
0.0
 11
5.3142644707
 21
23.4187886534
 31
0.0
 40
0.2700812053
 41
-0.9013761696
 42
-0.8720052636
  0
ELLIPSE
  5
3C8
100
AcDbEntity
  8
0
100
AcDbEllipse
 62
7
  6
BYLAYER
 10
53.2543761593
 20
55.0109517677
 30
0.0
 11
4.6538927957
 21
23.1810214688
 31
0.0
 40
0.2397439709
 41
-0.8568982592
 42
-0.8275273532
  0
ELLIPSE
  5
3C9
100
AcDbEntity
  8
0
100
AcDbEllipse
 62
7
  6
BYLAYER
 10
53.4736401756
 20
55.2817833878
 30
0.0
 11
3.9996933207
 21
22.8924267498
 31
0.0
 40
0.2085393773
 41
-0.8103649669
 42
-0.7809940609
  0
ELLIPSE
  5
3CA
100
AcDbEntity
  8
0
100
AcDbEllipse
 62
7
  6
BYLAYER
 10
53.6620729492
 20
55.5909692546
 30
0.0
 11
3.3486527442
 21
22.5562154605
 31
0.0
 40
0.1763886204
 41
-0.7616640781
 42
-0.7322931721
  0
ELLIPSE
  5
3CB
100
AcDbEntity
  8
0
100
AcDbEllipse
 62
7
  6
BYLAYER
 10
53.8182403929
 20
55.9361562769
 30
0.0
 11
2.6973653227
 21
22.1756983519
 31
0.0
 40
0.1432215345
 41
-0.7106330344
 42
-0.6812621283
  0
ELLIPSE
  5
3CC
100
AcDbEntity
  8
0
100
AcDbEllipse
 62
7
  6
BYLAYER
 10
53.9409539782
 20
56.3147173731
 30
0.0
 11
2.0418973541
 21
21.7542964701
 31
0.0
 40
0.1089869747
 41
-0.6570515559
 42
-0.6276806499
  0
ELLIPSE
  5
3CD
100
AcDbEntity
  8
0
100
AcDbEllipse
 62
7
  6
BYLAYER
 10
54.0292797806
 20
56.7237714647
 30
0.0
 11
1.3776366849
 21
21.2955331191
 31
0.0
 40
0.0736674289
 41
-0.6006322628
 42
-0.5712613568
  0
ELLIPSE
  5
3CE
100
AcDbEntity
  8
0
100
AcDbEllipse
 62
7
  6
BYLAYER
 10
54.0825455874
 20
57.1602054031
 30
0.0
 11
0.6991301214
 21
20.8030017059
 31
0.0
 40
0.0372996543
 41
-0.5410097036
 42
-0.5116387976
  0
ELLIPSE
  5
3CF
100
AcDbEntity
  8
0
100
AcDbEllipse
 62
7
  6
BYLAYER
 10
54.1129028406
 20
66.5113510274
 30
0.0
 11
-0.738560584
 21
19.3561636224
 31
0.0
 40
0.0378742831
 41
1.0077638622
 42
1.0375330061
  0
ELLIPSE
  5
3D0
100
AcDbEntity
  8
0
100
AcDbEllipse
 62
7
  6
BYLAYER
 10
54.1506769701
 20
66.1582314863
 30
0.0
 11
-1.5147682668
 21
18.8367283507
 31
0.0
 40
0.0756528438
 41
0.9356422756
 42
0.9654114195
  0
ELLIPSE
  5
3D1
100
AcDbEntity
  8
0
100
AcDbEllipse
 62
7
  6
BYLAYER
 10
54.2133143447
 20
65.7958197614
 30
0.0
 11
-2.3367388861
 21
18.2941895852
 31
0.0
 40
0.1126596549
 41
0.8582724333
 42
0.8880415772
  0
ELLIPSE
  5
3D2
100
AcDbEntity
  8
0
100
AcDbEllipse
 62
7
  6
BYLAYER
 10
54.3003382563
 20
65.4268740245
 30
0.0
 11
-3.2123257538
 21
17.7296264656
 31
0.0
 40
0.1479502491
 41
0.7750379612
 42
0.804807105
  0
ELLIPSE
  5
3D3
100
AcDbEntity
  8
0
100
AcDbEllipse
 62
7
  6
BYLAYER
 10
54.4110864002
 20
65.0542021757
 30
0.0
 11
-4.1477955022
 21
17.1434487386
 31
0.0
 40
0.1802739303
 41
0.6854680855
 42
0.7152372294
  0
ELLIPSE
  5
3D4
100
AcDbEntity
  8
0
100
AcDbEllipse
 62
7
  6
BYLAYER
 10
54.5447159164
 20
64.6806404727
 30
0.0
 11
-5.1456656161
 21
16.5357960789
 31
0.0
 40
0.2080931049
 41
0.5894355681
 42
0.6192047119
  0
ELLIPSE
  5
3D5
100
AcDbEntity
  8
0
100
AcDbEllipse
 62
7
  6
BYLAYER
 10
54.7002098033
 20
64.3090319455
 30
0.0
 11
-6.2021029088
 21
15.9076254626
 31
0.0
 40
0.2297016288
 41
0.4874053696
 42
0.5171745135
  0
ELLIPSE
  5
3D6
100
AcDbEntity
  8
0
100
AcDbEllipse
 62
7
  6
BYLAYER
 10
54.8763846587
 20
63.9422047596
 30
0.0
 11
-7.3049714108
 21
15.2624891818
 31
0.0
 40
0.2434735135
 41
0.3806461485
 42
0.4065815183
  0
ELLIPSE
  5
3D7
100
AcDbEntity
  8
0
100
AcDbEllipse
 62
7
  6
BYLAYER
 10
56.2830085331
 20
69.1918329887
 30
0.0
 11
9.2949651699
 21
22.7068268769
 31
0.0
 40
0.4525326233
 41
-1.7649662711
 42
-1.7351971272
  0
ELLIPSE
  5
3D8
100
AcDbEntity
  8
0
100
AcDbEllipse
 62
7
  6
BYLAYER
 10
56.0156388619
 20
69.2183141251
 30
0.0
 11
8.5894470919
 21
22.8388025077
 31
0.0
 40
0.4249108978
 41
-1.7315422176
 42
-1.7017730738
  0
ELLIPSE
  5
3D9
100
AcDbEntity
  8
0
100
AcDbEllipse
 62
7
  6
BYLAYER
 10
55.7589389499
 20
69.2122140009
 30
0.0
 11
7.9024553998
 21
22.9069205658
 31
0.0
 40
0.3966858117
 41
-1.6959030448
 42
-1.6661339009
  0
ELLIPSE
  5
3DA
100
AcDbEntity
  8
0
100
AcDbEllipse
 62
7
  6
BYLAYER
 10
55.5148624382
 20
69.1735790419
 30
0.0
 11
7.2306756799
 21
22.9148275608
 31
0.0
 40
0.3678497859
 41
-1.6581944826
 42
-1.6284253387
  0
ELLIPSE
  5
3DB
100
AcDbEntity
  8
0
100
AcDbEllipse
 62
7
  6
BYLAYER
 10
55.2852668965
 20
69.1027032834
 30
0.0
 11
6.5710751754
 21
22.8657625
 31
0.0
 40
0.3383778468
 41
-1.6185174929
 42
-1.5887483491
  0
ELLIPSE
  5
3DC
100
AcDbEntity
  8
0
100
AcDbEllipse
 62
7
  6
BYLAYER
 10
55.0718996856
 20
69.0001261326
 30
0.0
 11
5.9208257354
 21
22.7626851509
 31
0.0
 40
0.3082317889
 41
-1.5769309902
 42
-1.5471618463
  0
ELLIPSE
  5
3DD
100
AcDbEntity
  8
0
100
AcDbEllipse
 62
7
  6
BYLAYER
 10
54.8763846587
 20
68.8666282638
 30
0.0
 11
5.277216253
 21
22.6083774188
 31
0.0
 40
0.2773641221
 41
-1.5334533421
 42
-1.5036841982
  0
ELLIPSE
  5
3DE
100
AcDbEntity
  8
0
100
AcDbEllipse
 62
7
  6
BYLAYER
 10
54.7002098033
 20
68.7032256762
 30
0.0
 11
4.6375585468
 21
22.4055220844
 31
0.0
 40
0.2457221809
 41
-1.4880624903
 42
-1.4582933464
  0
ELLIPSE
  5
3DF
100
AcDbEntity
  8
0
100
AcDbEllipse
 62
7
  6
BYLAYER
 10
54.5447159164
 20
68.5111619622
 30
0.0
 11
3.9990874935
 21
22.1567625074
 31
0.0
 40
0.2132528315
 41
-1.4406945771
 42
-1.4109254332
  0
ELLIPSE
  5
3E0
100
AcDbEntity
  8
0
100
AcDbEllipse
 62
7
  6
BYLAYER
 10
54.4110864002
 20
68.2918988426
 30
0.0
 11
3.358854402
 21
21.8647458064
 31
0.0
 40
0.1799083165
 41
-1.3912409812
 42
-1.3614718373
  0
ELLIPSE
  5
3E1
100
AcDbEntity
  8
0
100
AcDbEllipse
 62
7
  6
BYLAYER
 10
54.3003382563
 20
68.0471050422
 30
0.0
 11
2.7136118285
 21
21.5321506385
 31
0.0
 40
0.1456539223
 41
-1.3395436911
 42
-1.3097745472
  0
ELLIPSE
  5
3E2
100
AcDbEntity
  8
0
100
AcDbEllipse
 62
7
  6
BYLAYER
 10
54.2133143447
 20
67.7786435897
 30
0.0
 11
2.0596883802
 21
21.1616989884
 31
0.0
 40
0.1104783762
 41
-1.2853890178
 42
-1.2556198739
  0
ELLIPSE
  5
3E3
100
AcDbEntity
  8
0
100
AcDbEllipse
 62
7
  6
BYLAYER
 10
54.1506769701
 20
67.4885576387
 30
0.0
 11
1.3928541488
 21
20.7561492695
 31
0.0
 40
0.0744081482
 41
-1.2284998547
 42
-1.1987307108
  0
ELLIPSE
  5
3E4
100
AcDbEntity
  8
0
100
AcDbEllipse
 62
7
  6
BYLAYER
 10
54.1129028406
 20
67.1790549185
 30
0.0
 11
0.7081826227
 21
20.3182655047
 31
0.0
 40
0.0375271535
 41
-1.1685271495
 42
-1.1387580056
  0
ELLIPSE
  5
3E5
100
AcDbEntity
  8
0
100
AcDbEllipse
 62
7
  6
BYLAYER
 10
45.371459736
 20
59.9594736221
 30
0.0
 11
24.1865506121
 21
7.8402871916
 31
0.0
 40
0.6501853522
 41
1.2395947691
 42
1.2644926549
  0
ELLIPSE
  5
3E6
100
AcDbEntity
  8
0
100
AcDbEllipse
 62
7
  6
BYLAYER
 10
59.5499300224
 20
66.6405545809
 30
0.0
 11
20.1909098344
 21
13.7266466844
 31
0.0
 40
0.6890476962
 41
-1.8713782242
 42
-1.8579087761
  0
ELLIPSE
  5
3E7
100
AcDbEntity
  8
0
100
AcDbEllipse
 62
7
  6
BYLAYER
 10
46.739476363
 20
57.4457766102
 30
0.0
 11
19.9492334654
 21
15.6850161551
 31
0.0
 40
0.6600413929
 41
-1.254871012
 42
-1.225500106
  0
ELLIPSE
  5
3E8
100
AcDbEntity
  8
0
100
AcDbEllipse
 62
7
  6
BYLAYER
 10
59.3203344808
 20
66.9765384374
 30
0.0
 11
19.1819169606
 21
15.154894765
 31
0.0
 40
0.6826966015
 41
-1.9016022161
 42
-1.8718330722
  0
ELLIPSE
  5
3E9
100
AcDbEntity
  8
0
100
AcDbEllipse
 62
7
  6
BYLAYER
 10
59.0762579691
 20
67.2970023
 30
0.0
 11
18.1406319092
 21
16.4575787867
 31
0.0
 40
0.6724694506
 41
-1.9120043757
 42
-1.8822352318
  0
ELLIPSE
  5
3EA
100
AcDbEntity
  8
0
100
AcDbEllipse
 62
7
  6
BYLAYER
 10
58.819558057
 20
67.5995072453
 30
0.0
 11
17.0970456043
 21
17.6195982925
 31
0.0
 40
0.658822818
 41
-1.9178047807
 42
-1.8880356368
  0
ELLIPSE
  5
3EB
100
AcDbEntity
  8
0
100
AcDbEllipse
 62
7
  6
BYLAYER
 10
58.5521883859
 20
67.8817510278
 30
0.0
 11
16.0740002066
 21
18.6382543117
 31
0.0
 40
0.6422712193
 41
-1.918470146
 42
-1.8887010022
  0
ELLIPSE
  5
3EC
100
AcDbEntity
  8
0
100
AcDbEllipse
 62
7
  6
BYLAYER
 10
58.2761838003
 20
68.1415856021
 30
0.0
 11
15.0860420609
 21
19.5192824082
 31
0.0
 40
0.6233201663
 41
-1.9139153407
 42
-1.8841461968
  0
ELLIPSE
  5
3ED
100
AcDbEntity
  8
0
100
AcDbEllipse
 62
7
  6
BYLAYER
 10
57.9936448619
 20
68.3770334701
 30
0.0
 11
14.1404275877
 21
20.2728289326
 31
0.0
 40
0.6024229982
 41
-1.9043570977
 42
-1.8745879538
  0
ELLIPSE
  5
3EE
100
AcDbEntity
  8
0
100
AcDbEllipse
 62
7
  6
BYLAYER
 10
57.7067218625
 20
68.5863027313
 30
0.0
 11
13.2390488645
 21
20.9104611346
 31
0.0
 40
0.5799606162
 41
-1.8901776123
 42
-1.8604084684
  0
ELLIPSE
  5
3EF
100
AcDbEntity
  8
0
100
AcDbEllipse
 62
7
  6
BYLAYER
 10
57.4175984595
 20
68.7678007203
 30
0.0
 11
12.380371053
 21
21.4433867095
 31
0.0
 40
0.5562374973
 41
-1.8718232704
 42
-1.8420541266
  0
ELLIPSE
  5
3F0
100
AcDbEntity
  8
0
100
AcDbEllipse
 62
7
  6
BYLAYER
 10
47.0836519269
 20
56.9938862178
 30
0.0
 11
18.8830383564
 21
17.0261783987
 31
0.0
 40
0.6501830562
 41
-1.2644941753
 42
-1.2395961221
  0
ELLIPSE
  5
3F1
100
AcDbEntity
  8
0
100
AcDbEllipse
 62
7
  6
BYLAYER
 10
57.1284750564
 20
68.9201461279
 30
0.0
 11
11.5609645157
 21
21.8816127571
 31
0.0
 40
0.5314869125
 41
-1.8497404071
 42
-1.8199712632
  0
ELLIPSE
  5
3F2
100
AcDbEntity
  8
0
100
AcDbEllipse
 62
7
  6
BYLAYER
 10
56.8415520571
 20
69.0421795135
 30
0.0
 11
10.7765541815
 21
22.2336922154
 31
0.0
 40
0.5058801257
 41
-1.8243399288
 42
-1.7945707849
  0
ELLIPSE
  5
3F3
100
AcDbEntity
  8
0
100
AcDbEllipse
 62
7
  6
BYLAYER
 10
57.7067218625
 20
60.9544123337
 30
0.0
 11
17.9503226148
 21
-9.5458470099
 31
0.0
 40
0.0375345275
 41
1.1387702134
 42
1.1685393573
  0
ELLIPSE
  5
3F4
100
AcDbEntity
  8
0
100
AcDbEllipse
 62
7
  6
BYLAYER
 10
57.9936448619
 20
60.8323789482
 30
0.0
 11
18.6718714293
 21
-9.1718501484
 31
0.0
 40
0.074415375
 41
1.1987422684
 42
1.2285114123
  0
ELLIPSE
  5
3F5
100
AcDbEntity
  8
0
100
AcDbEllipse
 62
7
  6
BYLAYER
 10
58.2761838003
 20
60.7415863324
 30
0.0
 11
19.3564995502
 21
-8.7971324392
 31
0.0
 40
0.1104854318
 41
1.2556308579
 42
1.2854000018
  0
ELLIPSE
  5
3F6
100
AcDbEntity
  8
0
100
AcDbEllipse
 62
7
  6
BYLAYER
 10
58.5521883859
 20
60.6827254729
 30
0.0
 11
20.0042764695
 21
-8.4160455158
 31
0.0
 40
0.1456607967
 41
1.3097850194
 42
1.3395541633
  0
ELLIPSE
  5
3F7
100
AcDbEntity
  8
0
100
AcDbEllipse
 62
7
  6
BYLAYER
 10
58.819558057
 20
60.6562443366
 30
0.0
 11
20.6149282535
 21
-8.0235470724
 31
0.0
 40
0.1799150085
 41
1.3614818461
 42
1.3912509899
  0
ELLIPSE
  5
3F8
100
AcDbEntity
  8
0
100
AcDbEllipse
 62
7
  6
BYLAYER
 10
59.0762579691
 20
60.6623444607
 30
0.0
 11
21.1879332732
 21
-7.6150966827
 31
0.0
 40
0.2132593463
 41
1.410935015
 42
1.4407041589
  0
ELLIPSE
  5
3F9
100
AcDbEntity
  8
0
100
AcDbEllipse
 62
7
  6
BYLAYER
 10
59.3203344808
 20
60.7009794198
 30
0.0
 11
21.7225954581
 21
-7.1865427116
 31
0.0
 40
0.2457285267
 41
1.4583025276
 42
1.4880716714
  0
ELLIPSE
  5
3FA
100
AcDbEntity
  8
0
100
AcDbEllipse
 62
7
  6
BYLAYER
 10
59.5499300224
 20
60.7718551783
 30
0.0
 11
22.2180966816
 21
-6.7340079971
 31
0.0
 40
0.2773703094
 41
1.5036929955
 42
1.5334621394
  0
ELLIPSE
  5
3FB
100
AcDbEntity
  8
0
100
AcDbEllipse
 62
7
  6
BYLAYER
 10
59.7632972334
 20
60.874432329
 30
0.0
 11
22.6735302925
 21
-6.2537762083
 31
0.0
 40
0.3082378281
 41
1.5471702683
 42
1.5769394122
  0
ELLIPSE
  5
3FC
100
AcDbEntity
  8
0
100
AcDbEllipse
 62
7
  6
BYLAYER
 10
59.9588122602
 20
61.0079301979
 30
0.0
 11
23.0879170304
 21
-5.7421779141
 31
0.0
 40
0.3383837481
 41
1.5887563961
 42
1.61852554
  0
ELLIPSE
  5
3FD
100
AcDbEntity
  8
0
100
AcDbEllipse
 62
7
  6
BYLAYER
 10
60.1349871157
 20
61.1713327855
 30
0.0
 11
23.4602032511
 21
-5.1954742436
 31
0.0
 40
0.3678555579
 41
1.6284330032
 42
1.6582021471
  0
ELLIPSE
  5
3FE
100
AcDbEntity
  8
0
100
AcDbEllipse
 62
7
  6
BYLAYER
 10
60.2904810026
 20
61.3633964995
 30
0.0
 11
23.7892397943
 21
-4.6097360067
 31
0.0
 40
0.3966914607
 41
1.666141167
 42
1.6959103109
  0
ELLIPSE
  5
3FF
100
AcDbEntity
  8
0
100
AcDbEllipse
 62
7
  6
BYLAYER
 10
60.4241105187
 20
61.582659619
 30
0.0
 11
24.0737379637
 21
-3.9807171728
 31
0.0
 40
0.4249164272
 41
1.7017799172
 42
1.7315490611
  0
ELLIPSE
  5
400
100
AcDbEntity
  8
0
100
AcDbEllipse
 62
7
  6
BYLAYER
 10
60.5348586627
 20
61.8274534194
 30
0.0
 11
24.3121969692
 21
-3.3037240113
 31
0.0
 40
0.4525380327
 41
1.7352035145
 42
1.7649726584
  0
ELLIPSE
  5
401
100
AcDbEntity
  8
0
100
AcDbEllipse
 62
7
  6
BYLAYER
 10
60.6218825742
 20
62.095914872
 30
0.0
 11
24.502794857
 21
-2.5734857904
 31
0.0
 40
0.4795417348
 41
1.7662177942
 42
1.7959869381
  0
ELLIPSE
  5
402
100
AcDbEntity
  8
0
100
AcDbEllipse
 62
7
  6
BYLAYER
 10
60.6845199489
 20
62.386000823
 30
0.0
 11
24.6432328068
 21
-1.7840411968
 31
0.0
 40
0.5058852725
 41
1.7945761185
 42
1.8243452623
  0
ELLIPSE
  5
403
100
AcDbEntity
  8
0
100
AcDbEllipse
 62
7
  6
BYLAYER
 10
60.7222940784
 20
62.6955035432
 30
0.0
 11
24.7305217616
 21
-0.9286688719
 31
0.0
 40
0.5314919031
 41
1.8199759772
 42
1.8497451211
  0
ELLIPSE
  5
404
100
AcDbEntity
  8
0
100
AcDbEllipse
 62
7
  6
BYLAYER
 10
60.7349174788
 20
63.0220675299
 30
0.0
 11
24.7607031609
 21
0.0000861829
 31
0.0
 40
0.5562423032
 41
1.8420581444
 42
1.8718272883
  0
ELLIPSE
  5
405
100
AcDbEntity
  8
0
100
AcDbEllipse
 62
7
  6
BYLAYER
 10
60.7222940784
 20
63.3632074342
 30
0.0
 11
24.7285072235
 21
1.0102028488
 31
0.0
 40
0.5799651978
 41
1.8604117045
 42
1.8901808484
  0
ELLIPSE
  5
406
100
AcDbEntity
  8
0
100
AcDbEllipse
 62
7
  6
BYLAYER
 10
60.6845199489
 20
63.7163269753
 30
0.0
 11
24.6269820389
 21
2.1096547814
 31
0.0
 40
0.6024273025
 41
1.8745903182
 42
1.904359462
  0
ELLIPSE
  5
407
100
AcDbEntity
  8
0
100
AcDbEllipse
 62
7
  6
BYLAYER
 10
60.6218825742
 20
64.0787387003
 30
0.0
 11
24.4471885025
 21
3.3053747312
 31
0.0
 40
0.6233241255
 41
1.8841476047
 42
1.9139167486
  0
ELLIPSE
  5
408
100
AcDbEntity
  8
0
100
AcDbEllipse
 62
7
  6
BYLAYER
 10
60.5348586627
 20
64.4476844371
 30
0.0
 11
24.1781626933
 21
4.6015070124
 31
0.0
 40
0.6422747504
 41
1.8887013903
 42
1.9184705342
  0
ELLIPSE
  5
409
100
AcDbEntity
  8
0
100
AcDbEllipse
 62
7
  6
BYLAYER
 10
60.4241105187
 20
64.8203562859
 30
0.0
 11
23.8074892293
 21
5.9968392568
 31
0.0
 40
0.658825825
 41
1.8880349872
 42
1.9178041311
  0
ELLIPSE
  5
40A
100
AcDbEntity
  8
0
100
AcDbEllipse
 62
7
  6
BYLAYER
 10
60.2904810026
 20
65.193917989
 30
0.0
 11
23.322928028
 21
7.4816398014
 31
0.0
 40
0.6724718307
 41
1.8822336013
 42
1.9120027452
  0
ELLIPSE
  5
40B
100
AcDbEntity
  8
0
100
AcDbEllipse
 62
7
  6
BYLAYER
 10
60.1349871157
 20
65.5655265161
 30
0.0
 11
22.7153962807
 21
9.0347748667
 31
0.0
 40
0.6826982561
 41
1.8718306187
 42
1.9015997626
  0
ELLIPSE
  5
40C
100
AcDbEntity
  8
0
100
AcDbEllipse
 62
7
  6
BYLAYER
 10
59.9588122602
 20
65.9323537021
 30
0.0
 11
21.9829775565
 21
10.6227189975
 31
0.0
 40
0.6890485459
 41
1.8579057684
 42
1.8717762897
  0
ELLIPSE
  5
40D
100
AcDbEntity
  8
0
100
AcDbEllipse
 62
7
  6
BYLAYER
 10
56.5590131186
 20
69.1329721293
 30
0.0
 11
10.0226631519
 21
22.5067805604
 31
0.0
 40
0.479536451
 41
-1.7959810505
 42
-1.7662119067
  0
ENDSEC
  0
SECTION
  2
OBJECTS
  0
DICTIONARY
  5
C
100
AcDbDictionary
280
0
281
1
  3
ACAD_GROUP
350
D
  3
ACAD_MLINESTYLE
350
17
  3
ACAD_LAYOUT
350
1A
  3
ACAD_PLOTSETTINGS
350
19
  3
ACAD_PLOTSTYLENAME
350
E
  0
DICTIONARY
  5
D
102
{ACAD_REACTORS
330
C
102
}
100
AcDbDictionary
280
0
281
1
  0
ACDBDICTIONARYWDFLT
  5
E
102
{ACAD_REACTORS
330
C
102
}
100
AcDbDictionary
281
1
  3
Normal
350
F
100
AcDbDictionaryWithDefault
340
F
  0
DICTIONARY
  5
17
102
{ACAD_REACTORS
330
C
102
}
100
AcDbDictionary
280
0
281
1
  3
Standard
350
18
  0
DICTIONARY
  5
19
102
{ACAD_REACTORS
330
C
102
}
100
AcDbDictionary
281
1
  0
DICTIONARY
  5
1A
102
{ACAD_REACTORS
330
C
102
}
100
AcDbDictionary
281
1
  3
Model
350
40E
  3
Layout1
350
40F
  0
ACDBPLACEHOLDER
  5
F
102
{ACAD_REACTORS
330
E
102
}
  0
MLINESTYLE
  5
18
102
{ACAD_REACTORS
330
17
102
}
100
AcDbMlineStyle
  2
STANDARD
 70
0
  3

 62
256
 51
90.0
 52
90.0
 71
2
 49
0.5
 62
256
  6
BYLAYER
 49
-0.5
 62
256
  6
BYLAYER
  0
LAYOUT
  5
40E
102
{ACAD_REACTORS
330
1A
102
}
100
AcDbPlotSettings
  1

  2
none_device
  4

  6

 40
0.0
 41
0.0
 42
0.0
 43
0.0
 44
210.0
 45
297.0
 46
0.0
 47
0.0
 48
0.0
 49
0.0
140
0.0
141
0.0
142
1.0
143
1.0
 70
1024
 72
1
 73
0
 74
0
  7

 75
0
147
1.0
148
0.0
149
0.0
100
AcDbLayout
  1
Model
 70
0
 71
0
 10
0.0
 20
0.0
 11
210.0
 21
297.0
 12
0.0
 22
0.0
 32
0.0
 14
0.0
 24
0.0
 34
0.0
 15
0.0
 25
0.0
 35
0.0
146
0.0
 13
0.0
 23
0.0
 33
0.0
 16
1.0
 26
0.0
 36
0.0
 17
0.0
 27
1.0
 37
0.0
 76
0
330
210
345
0
346
0
  0
LAYOUT
  5
40F
102
{ACAD_REACTORS
330
1A
102
}
100
AcDbPlotSettings
  1

  2
none_device
  4

  6

 40
0.0
 41
0.0
 42
0.0
 43
0.0
 44
210.0
 45
297.0
 46
0.0
 47
0.0
 48
0.0
 49
0.0
140
0.0
141
0.0
142
1.0
143
1.0
 70
0
 72
1
 73
0
 74
0
  7

 75
0
147
1.0
148
0.0
149
0.0
100
AcDbLayout
  1
Layout1
 70
0
 71
1
 10
0.0
 20
0.0
 11
210.0
 21
297.0
 12
0.0
 22
0.0
 32
0.0
 14
0.0
 24
0.0
 34
0.0
 15
0.0
 25
0.0
 35
0.0
146
0.0
 13
0.0
 23
0.0
 33
0.0
 16
1.0
 26
0.0
 36
0.0
 17
0.0
 27
1.0
 37
0.0
 76
0
330
211
345
0
346
0
  0
ENDSEC
  0
EOF
