999
DXF file: C:\Users\sesa63760\Dev\_Creo\CAD\MCADID0000575_3D-CAD\drw0001_3.dxf
999
Pro/ENGINEER 2019471 by Parametric Technology Corporation
  0
SECTION
  2
HEADER
  9
$ACADVER
  1
AC1024
  9
$DWGCODEPAGE
  3
ANSI_1252
  9
$EXTMAX
 10
287.2026129729
 20
406.1865526331
 30
0.0
  9
$EXTMIN
 10
0.0
 20
0.0
 30
0.0
  9
$LIMMIN
 10
0.0
 20
0.0
  9
$LIMMAX
 10
287.2026129729
 20
406.1865526331
  9
$VIEWCTR
 10
143.6013064865
 20
203.0932763166
  9
$VIEWSIZE
 40
406.1865526331
  9
$CLAYER
  8
0
  9
$LTSCALE
 40
26.4773456531
  9
$CELTYPE
  6
BYLAYER
  9
$DIMSCALE
 40
1.0
  9
$DIMASZ
 40
3.4190787259
  9
$DIMEXO
 40
1.0
  9
$DIMDLI
 40
18.2934388149
  9
$DIMEXE
 40
1.0
  9
$DIMCEN
 40
4.3326565614
  9
$DIMLFAC
 40
1.0
  9
$DIMBLK
  1
_FILLED
  9
$DIMALT
 70
0
  9
$DIMALTF
 40
0.0393700787
  9
$DIMTXT
 40
4.7867102162
  9
$DIMTOL
 70
1
  9
$DIMLIM
 70
0
  9
$DIMTFAC
 40
1.0
  9
$DIMTP
 40
0.01
  9
$DIMTM
 40
0.01
  9
$DIMGAP
 40
0.625
  9
$DIMDSEP
 70
46
  9
$AUNITS
 70
0
  9
$PDMODE
 70
3
  9
$PDSIZE
 40
0.3125
  9
$HANDSEED
  5
3F1
  9
$TILEMODE
 70
1
  9
$MEASUREMENT
 70
1
  9
$INSUNITS
 70
4
  0
ENDSEC
  0
SECTION
  2
CLASSES
  0
CLASS
  1
ACDBDICTIONARYWDFLT
  2
AcDbDictionaryWithDefault
  3
AutoCAD 2000
 90
0
 91
1
280
0
281
0
  0
CLASS
  1
ACDBPLACEHOLDER
  2
AcDbPlaceHolder
  3
AutoCAD 2000
 90
0
 91
1
280
0
281
0
  0
CLASS
  1
LAYOUT
  2
AcDbLayout
  3
AutoCAD 2000
 90
0
 91
0
280
0
281
0
  0
ENDSEC
  0
SECTION
  2
TABLES
  0
TABLE
  2
VPORT
  5
8
100
AcDbSymbolTable
 70
2
  0
VPORT
  5
1F4
100
AcDbSymbolTableRecord
100
AcDbViewportTableRecord
  2
*ACTIVE
 70
0
 10
0.0
 20
0.0
 11
1.0
 21
1.0
 12
143.6013064865
 22
203.0932763166
 13
0.0
 23
0.0
 14
1.0
 24
1.0
 15
0.0
 25
0.0
 16
0.0
 26
0.0
 36
1.0
 17
0.0
 27
0.0
 37
0.0
 40
406.1865526331
 41
0.7070707071
 42
50.0
 43
0.0
 44
0.0
 50
0.0
 51
0.0
 71
0
 72
100
 73
1
 74
1
 75
0
 76
0
 77
0
 78
0
  0
ENDTAB
  0
TABLE
  2
LTYPE
  5
5
100
AcDbSymbolTable
 70
6
  0
LTYPE
  5
14
100
AcDbSymbolTableRecord
100
AcDbLinetypeTableRecord
  2
BYBLOCK
 70
0
  3

 72
65
 73
0
 40
0.0
  0
LTYPE
  5
15
100
AcDbSymbolTableRecord
100
AcDbLinetypeTableRecord
  2
BYLAYER
 70
0
  3

 72
65
 73
0
 40
0.0
  0
LTYPE
  5
16
100
AcDbSymbolTableRecord
100
AcDbLinetypeTableRecord
  2
CONTINUOUS
 70
64
  3
Solid line
 72
65
 73
0
 40
0.0
  0
LTYPE
  5
1F5
100
AcDbSymbolTableRecord
100
AcDbLinetypeTableRecord
  2
CENTER
 70
64
  3
____ _ ____ _ ____ _ ____ _ ____ _ ____ _ ____
 72
65
 73
4
 40
0.6
 49
0.375
 74
0
 49
-0.075
 74
0
 49
0.075
 74
0
 49
-0.075
 74
0
  0
LTYPE
  5
1F6
100
AcDbSymbolTableRecord
100
AcDbLinetypeTableRecord
  2
HIDDEN
 70
64
  3
- - - - - - - - - - - - - - - - - - - -
 72
65
 73
2
 40
0.2
 49
0.1
 74
0
 49
-0.1
 74
0
  0
LTYPE
  5
1F7
100
AcDbSymbolTableRecord
100
AcDbLinetypeTableRecord
  2
PHANTOM
 70
64
  3
_____ _ _ _____ _ _ _____ _ _ _____
 72
65
 73
6
 40
0.8
 49
0.45
 74
0
 49
-0.05
 74
0
 49
0.1
 74
0
 49
-0.05
 74
0
 49
0.1
 74
0
 49
-0.05
 74
0
  0
LTYPE
  5
1F8
100
AcDbSymbolTableRecord
100
AcDbLinetypeTableRecord
  2
DOT
 70
64
  3
. . . . . . . . . . . . . . . . . . . .
 72
65
 73
2
 40
0.2
 49
0.1
 74
0
 49
-0.1
 74
0
  0
LTYPE
  5
1F9
100
AcDbSymbolTableRecord
100
AcDbLinetypeTableRecord
  2
DASHED
 70
64
  3
- - - - - - - - - - - - - - - - - - - -
 72
65
 73
2
 40
0.2
 49
0.1
 74
0
 49
-0.1
 74
0
  0
ENDTAB
  0
TABLE
  2
LAYER
  5
2
100
AcDbSymbolTable
 70
36
  0
LAYER
  5
10
100
AcDbSymbolTableRecord
100
AcDbLayerTableRecord
  2
0
 70
0
 62
7
  6
CONTINUOUS
370
-3
390
F
  0
LAYER
  5
1FA
100
AcDbSymbolTableRecord
100
AcDbLayerTableRecord
  2
DEFAULT_1
 70
0
 62
7
  6
CENTER
370
-3
390
F
  0
LAYER
  5
1FB
100
AcDbSymbolTableRecord
100
AcDbLayerTableRecord
  2
DEFAULT_2
 70
0
 62
8
  6
HIDDEN
370
-3
390
F
  0
LAYER
  5
1FC
100
AcDbSymbolTableRecord
100
AcDbLayerTableRecord
  2
DEFAULT_3
 70
0
 62
7
  6
PHANTOM
370
-3
390
F
  0
LAYER
  5
1FD
100
AcDbSymbolTableRecord
100
AcDbLayerTableRecord
  2
00_COMPONENTS
 70
0
 62
7
  6
CONTINUOUS
370
-3
390
F
  0
LAYER
  5
1FE
100
AcDbSymbolTableRecord
100
AcDbLayerTableRecord
  2
01_1_DEFAULT_DATUMS
 70
0
 62
7
  6
CONTINUOUS
370
-3
390
F
  0
LAYER
  5
1FF
100
AcDbSymbolTableRecord
100
AcDbLayerTableRecord
  2
01_PLANES
 70
0
 62
7
  6
CONTINUOUS
370
-3
390
F
  0
LAYER
  5
200
100
AcDbSymbolTableRecord
100
AcDbLayerTableRecord
  2
02_COORD_SYS
 70
0
 62
7
  6
CONTINUOUS
370
-3
390
F
  0
LAYER
  5
201
100
AcDbSymbolTableRecord
100
AcDbLayerTableRecord
  2
03_AXES
 70
0
 62
7
  6
CONTINUOUS
370
-3
390
F
  0
LAYER
  5
202
100
AcDbSymbolTableRecord
100
AcDbLayerTableRecord
  2
04_POINTS
 70
0
 62
7
  6
CONTINUOUS
370
-3
390
F
  0
LAYER
  5
203
100
AcDbSymbolTableRecord
100
AcDbLayerTableRecord
  2
05_CURVES
 70
0
 62
7
  6
CONTINUOUS
370
-3
390
F
  0
LAYER
  5
204
100
AcDbSymbolTableRecord
100
AcDbLayerTableRecord
  2
06_SURFS
 70
0
 62
7
  6
CONTINUOUS
370
-3
390
F
  0
LAYER
  5
205
100
AcDbSymbolTableRecord
100
AcDbLayerTableRecord
  2
07_COSMETICS
 70
0
 62
7
  6
CONTINUOUS
370
-3
390
F
  0
LAYER
  5
206
100
AcDbSymbolTableRecord
100
AcDbLayerTableRecord
  2
10_NOTES
 70
0
 62
7
  6
CONTINUOUS
370
-3
390
F
  0
LAYER
  5
207
100
AcDbSymbolTableRecord
100
AcDbLayerTableRecord
  2
11_NOTES_PUB
 70
0
 62
7
  6
CONTINUOUS
370
-3
390
F
  0
LAYER
  5
208
100
AcDbSymbolTableRecord
100
AcDbLayerTableRecord
  2
13_REF_GTOL
 70
0
 62
7
  6
CONTINUOUS
370
-3
390
F
  0
LAYER
  5
209
100
AcDbSymbolTableRecord
100
AcDbLayerTableRecord
  2
16_MISC
 70
0
 62
7
  6
CONTINUOUS
370
-3
390
F
  0
LAYER
  5
20A
100
AcDbSymbolTableRecord
100
AcDbLayerTableRecord
  2
17_NO_PRINT
 70
0
 62
7
  6
CONTINUOUS
370
-3
390
F
  0
LAYER
  5
20B
100
AcDbSymbolTableRecord
100
AcDbLayerTableRecord
  2
18_DATUM_CAMS_JOINTS
 70
0
 62
7
  6
CONTINUOUS
370
-3
390
F
  0
LAYER
  5
20C
100
AcDbSymbolTableRecord
100
AcDbLayerTableRecord
  2
19_DATUM_FUNCTIONAL
 70
0
 62
7
  6
CONTINUOUS
370
-3
390
F
  0
LAYER
  5
20D
100
AcDbSymbolTableRecord
100
AcDbLayerTableRecord
  2
20_DATUM_KINEMATIC_SCHEME
 70
0
 62
7
  6
CONTINUOUS
370
-3
390
F
  0
ENDTAB
  0
TABLE
  2
STYLE
  5
3
100
AcDbSymbolTable
 70
1
  0
STYLE
  5
11
100
AcDbSymbolTableRecord
100
AcDbTextStyleTableRecord
  2
STANDARD
 70
0
 40
0.0
 41
0.8
 50
0.0
 71
0
 42
0.2
  3
txt
  4

  0
STYLE
  5
20E
100
AcDbSymbolTableRecord
100
AcDbTextStyleTableRecord
  2
TEXTSTYLE_1
 70
0
 40
0.0
 41
0.8
 50
0.0
 71
0
 42
0.2
  3
gdt
  4

  0
ENDTAB
  0
TABLE
  2
VIEW
  5
6
100
AcDbSymbolTable
 70
0
  0
ENDTAB
  0
TABLE
  2
UCS
  5
7
100
AcDbSymbolTable
 70
0
  0
ENDTAB
  0
TABLE
  2
APPID
  5
9
100
AcDbSymbolTable
 70
1
  0
APPID
  5
20F
100
AcDbSymbolTableRecord
100
AcDbRegAppTableRecord
  2
ACAD
 70
0
  0
ENDTAB
  0
TABLE
  2
BLOCK_RECORD
  5
1
100
AcDbSymbolTable
 70
0
  0
BLOCK_RECORD
  5
210
100
AcDbSymbolTableRecord
100
AcDbBlockTableRecord
  2
*Model_Space
  0
BLOCK_RECORD
  5
211
100
AcDbSymbolTableRecord
100
AcDbBlockTableRecord
  2
*Paper_Space
  0
BLOCK_RECORD
  5
212
100
AcDbSymbolTableRecord
100
AcDbBlockTableRecord
  2
_FILLED
  0
ENDTAB
  0
TABLE
  2
DIMSTYLE
  5
A
100
AcDbSymbolTable
 70
1
100
AcDbDimStyleTable
 71
0
  0
DIMSTYLE
105
213
100
AcDbSymbolTableRecord
100
AcDbDimStyleTableRecord
  2
STANDARD
 70
0
  3

  4

 40
1.0
 41
3.4190787259
 42
1.0
 43
0.38
 44
1.0
 45
0.0
 46
0.0
 47
0.01
 48
0.01
140
4.7867102162
141
0.09
142
0.0
143
25.4
144
1.0
145
0.0
146
1.0
147
0.625
 71
1
 72
0
 73
0
 74
0
 75
0
 76
0
 77
1
 78
8
 79
2
170
0
171
1
172
0
173
0
174
0
175
0
176
0
177
0
178
0
270
2
179
2
271
2
272
2
273
2
274
2
275
0
280
0
281
0
282
0
283
1
284
8
285
0
286
0
287
3
288
0
340
11
278
46
341
212
342
212
343
212
344
212
  0
ENDTAB
  0
ENDSEC
  0
SECTION
  2
BLOCKS
  0
BLOCK
  5
20
100
AcDbEntity
  8
0
100
AcDbBlockBegin
  2
*Model_Space
 70
0
 10
0.0
 20
0.0
 30
0.0
  3
*Model_Space
  1

  0
ENDBLK
  5
21
100
AcDbEntity
  8
0
100
AcDbBlockEnd
  0
BLOCK
  5
1C
100
AcDbEntity
  8
0
100
AcDbBlockBegin
  2
*Paper_Space
 70
0
 10
0.0
 20
0.0
 30
0.0
  3
*Paper_Space
  1

  0
ENDBLK
  5
1D
100
AcDbEntity
  8
0
100
AcDbBlockEnd
  0
BLOCK
  5
214
100
AcDbEntity
  8
0
100
AcDbBlockBegin
  2
_FILLED
 70
64
 10
0.0
 20
0.0
  3
_FILLED
  1

  0
SOLID
  5
215
100
AcDbEntity
  8
0
  6
BYBLOCK
 62
0
100
AcDbTrace
 10
0.0
 20
0.0
 11
-1.0
 21
0.25
 12
-1.0
 22
-0.25
 13
-1.0
 23
-0.25
  0
ENDBLK
  5
216
100
AcDbEntity
  8
0
  6
BYBLOCK
 62
0
100
AcDbBlockEnd
  0
ENDSEC
  0
SECTION
  2
ENTITIES
  0
LINE
  5
217
100
AcDbEntity
  8
0
100
AcDbLine
 62
7
  6
CONTINUOUS
 10
33.9718588816
 20
235.7376130427
 11
33.9718588816
 21
178.5376130427
  0
LINE
  5
218
100
AcDbEntity
  8
0
100
AcDbLine
 62
7
  6
CONTINUOUS
 10
37.0840181066
 20
181.5376130427
 11
37.084014825
 21
232.753958773
  0
LINE
  5
219
100
AcDbEntity
  8
0
100
AcDbLine
 62
7
  6
CONTINUOUS
 10
41.4718588816
 20
235.7376130427
 11
41.4718588816
 21
178.5376130427
  0
LINE
  5
21A
100
AcDbEntity
  8
0
100
AcDbLine
 62
7
  6
CONTINUOUS
 10
50.4218588816
 20
237.7376130427
 11
50.4218588816
 21
235.7376130427
  0
LINE
  5
21B
100
AcDbEntity
  8
0
100
AcDbLine
 62
7
  6
CONTINUOUS
 10
55.2218588816
 20
235.7376130427
 11
55.2218588816
 21
237.7376130427
  0
LINE
  5
21C
100
AcDbEntity
  8
0
100
AcDbLine
 62
7
  6
CONTINUOUS
 10
56.7218588816
 20
239.2376130427
 11
56.7218588816
 21
237.7376130427
  0
LINE
  5
21D
100
AcDbEntity
  8
0
100
AcDbLine
 62
7
  6
CONTINUOUS
 10
57.2218588816
 20
241.2376130427
 11
57.2218588816
 21
239.2376130427
  0
LINE
  5
21E
100
AcDbEntity
  8
0
100
AcDbLine
 62
7
  6
CONTINUOUS
 10
59.9718588816
 20
238.1679137545
 11
59.9718588816
 21
235.7376130427
  0
LINE
  5
21F
100
AcDbEntity
  8
0
100
AcDbLine
 62
7
  6
CONTINUOUS
 10
59.9718588816
 20
178.5376130427
 11
59.9718588816
 21
176.1073123309
  0
LINE
  5
220
100
AcDbEntity
  8
0
100
AcDbLine
 62
7
  6
CONTINUOUS
 10
64.2218588816
 20
239.2376130427
 11
64.2218588816
 21
241.2376130427
  0
LINE
  5
221
100
AcDbEntity
  8
0
100
AcDbLine
 62
7
  6
CONTINUOUS
 10
64.6643322409
 20
189.0987465451
 11
64.6643322409
 21
225.1764795403
  0
LINE
  5
222
100
AcDbEntity
  8
0
100
AcDbLine
 62
7
  6
CONTINUOUS
 10
64.7218588816
 20
238.7224056945
 11
64.7218588816
 21
239.2376130427
  0
LINE
  5
223
100
AcDbEntity
  8
0
100
AcDbLine
 62
7
  6
CONTINUOUS
 10
65.1557693333
 20
191.1376130427
 11
65.1557693333
 21
223.1376130427
  0
LINE
  5
224
100
AcDbEntity
  8
0
100
AcDbLine
 62
7
  6
CONTINUOUS
 10
69.4718588816
 20
241.2376130427
 11
69.2218588816
 21
239.8197925878
  0
LINE
  5
225
100
AcDbEntity
  8
0
100
AcDbLine
 62
7
  6
CONTINUOUS
 10
69.2218588816
 20
239.1493565064
 11
69.2218588816
 21
239.8197925878
  0
LINE
  5
226
100
AcDbEntity
  8
0
100
AcDbLine
 62
7
  6
CONTINUOUS
 10
82.9718588816
 20
241.2376130427
 11
82.7493961362
 21
239.9759641197
  0
LINE
  5
227
100
AcDbEntity
  8
0
100
AcDbLine
 62
7
  6
CONTINUOUS
 10
79.2136191293
 20
239.8665225452
 11
78.9718588816
 21
241.2376130427
  0
LINE
  5
228
100
AcDbEntity
  8
0
100
AcDbLine
 62
7
  6
CONTINUOUS
 10
93.9718588816
 20
174.1376130427
 11
93.9718588816
 21
240.1376130427
  0
LINE
  5
229
100
AcDbEntity
  8
0
100
AcDbLine
 62
7
  6
CONTINUOUS
 10
92.6658185603
 20
240.1376130427
 11
92.4718588816
 21
241.2376130427
  0
LINE
  5
22A
100
AcDbEntity
  8
0
100
AcDbLine
 62
7
  6
CONTINUOUS
 10
137.871573348
 20
239.6739542438
 11
137.5718588816
 21
239.3608684276
  0
LINE
  5
22B
100
AcDbEntity
  8
0
100
AcDbLine
 62
7
  6
CONTINUOUS
 10
231.4713894252
 20
166.9376130427
 11
196.0723283379
 21
166.9376130427
  0
LINE
  5
22C
100
AcDbEntity
  8
0
100
AcDbLine
 62
7
  6
CONTINUOUS
 10
231.7718588816
 20
167.2376130427
 11
195.7718588816
 21
167.2376130427
  0
LINE
  5
22D
100
AcDbEntity
  8
0
100
AcDbLine
 62
7
  6
CONTINUOUS
 10
252.8715212675
 20
170.4376130427
 11
242.6721964956
 21
170.4376130427
  0
LINE
  5
22E
100
AcDbEntity
  8
0
100
AcDbLine
 62
7
  6
CONTINUOUS
 10
240.3714197475
 20
170.4376130427
 11
188.1291182928
 21
170.4376130427
  0
LINE
  5
22F
100
AcDbEntity
  8
0
100
AcDbLine
 62
7
  6
CONTINUOUS
 10
184.8715212675
 20
170.4376130427
 11
174.6721964956
 21
170.4376130427
  0
LINE
  5
230
100
AcDbEntity
  8
0
100
AcDbLine
 62
7
  6
CONTINUOUS
 10
253.2718588816
 20
170.8376130427
 11
242.2718588816
 21
170.8376130427
  0
LINE
  5
231
100
AcDbEntity
  8
0
100
AcDbLine
 62
7
  6
CONTINUOUS
 10
240.7718588816
 20
170.8376130427
 11
187.8490333855
 21
170.8376130427
  0
LINE
  5
232
100
AcDbEntity
  8
0
100
AcDbLine
 62
7
  6
CONTINUOUS
 10
185.2718588816
 20
170.8376130427
 11
174.2718588816
 21
170.8376130427
  0
LINE
  5
233
100
AcDbEntity
  8
0
100
AcDbLine
 62
7
  6
CONTINUOUS
 10
242.2718588816
 20
171.9376130427
 11
171.071880108
 21
171.9376130427
  0
LINE
  5
234
100
AcDbEntity
  8
0
100
AcDbLine
 62
7
  6
CONTINUOUS
 10
119.5718588816
 20
174.6376338753
 11
119.5718588816
 21
239.6375922101
  0
LINE
  5
235
100
AcDbEntity
  8
0
100
AcDbLine
 62
7
  6
CONTINUOUS
 10
169.4718588816
 20
174.2238761075
 11
153.0718588816
 21
173.9376130427
  0
LINE
  5
236
100
AcDbEntity
  8
0
100
AcDbLine
 62
7
  6
CONTINUOUS
 10
158.5718588816
 20
173.6876130427
 11
152.0718588816
 21
173.6876130427
  0
LINE
  5
237
100
AcDbEntity
  8
0
100
AcDbLine
 62
7
  6
CONTINUOUS
 10
87.9718588816
 20
174.1376130427
 11
93.9718588816
 21
174.1376130427
  0
LINE
  5
238
100
AcDbEntity
  8
0
100
AcDbLine
 62
7
  6
CONTINUOUS
 10
169.7718588816
 20
174.2376130427
 11
193.5571529992
 21
174.2376130427
  0
LINE
  5
239
100
AcDbEntity
  8
0
100
AcDbLine
 62
7
  6
CONTINUOUS
 10
169.4718588816
 20
174.5376130427
 11
169.7718588816
 21
174.5376130427
  0
LINE
  5
23A
100
AcDbEntity
  8
0
100
AcDbLine
 62
7
  6
CONTINUOUS
 10
93.9718588816
 20
174.6376130427
 11
137.5718588816
 21
174.6376130427
  0
LINE
  5
23B
100
AcDbEntity
  8
0
100
AcDbLine
 62
7
  6
CONTINUOUS
 10
153.0718588816
 20
175.8376130427
 11
151.0718588816
 21
175.8376130427
  0
LINE
  5
23C
100
AcDbEntity
  8
0
100
AcDbLine
 62
7
  6
CONTINUOUS
 10
185.0718588816
 20
176.2376130427
 11
253.9718588816
 21
176.2376130427
  0
LINE
  5
23D
100
AcDbEntity
  8
0
100
AcDbLine
 62
7
  6
CONTINUOUS
 10
255.0718588816
 20
176.2376130427
 11
258.4718588816
 21
176.2376130427
  0
LINE
  5
23E
100
AcDbEntity
  8
0
100
AcDbLine
 62
7
  6
CONTINUOUS
 10
260.2718588816
 20
176.9845647155
 11
258.7718588816
 21
176.9845647155
  0
LINE
  5
23F
100
AcDbEntity
  8
0
100
AcDbLine
 62
7
  6
CONTINUOUS
 10
150.3782858751
 20
177.3718023693
 11
137.5718588816
 21
177.3718023693
  0
LINE
  5
240
100
AcDbEntity
  8
0
100
AcDbLine
 62
7
  6
CONTINUOUS
 10
93.9718588816
 20
177.815688887
 11
62.753809445
 21
177.815688887
  0
LINE
  5
241
100
AcDbEntity
  8
0
100
AcDbLine
 62
7
  6
CONTINUOUS
 10
137.5718588816
 20
177.9561873462
 11
119.5718588816
 21
177.9561873462
  0
LINE
  5
242
100
AcDbEntity
  8
0
100
AcDbLine
 62
7
  6
CONTINUOUS
 10
119.5718588816
 20
177.9687005998
 11
93.9718588816
 21
177.9687005998
  0
LINE
  5
243
100
AcDbEntity
  8
0
100
AcDbLine
 62
7
  6
CONTINUOUS
 10
258.4718588816
 20
178.2376130427
 11
255.0718588816
 21
178.2376130427
  0
LINE
  5
244
100
AcDbEntity
  8
0
100
AcDbLine
 62
7
  6
CONTINUOUS
 10
33.9718652623
 20
178.5376130427
 11
62.3338828915
 21
178.5376130427
  0
LINE
  5
245
100
AcDbEntity
  8
0
100
AcDbLine
 62
7
  6
CONTINUOUS
 10
150.1737337105
 20
178.6208478302
 11
150.1339846351
 21
178.6208478302
  0
LINE
  5
246
100
AcDbEntity
  8
0
100
AcDbLine
 62
7
  6
CONTINUOUS
 10
150.1130366903
 20
178.6487875966
 11
150.1943294086
 21
178.6487875966
  0
LINE
  5
247
100
AcDbEntity
  8
0
100
AcDbLine
 62
7
  6
CONTINUOUS
 10
184.4718588816
 20
178.7401146072
 11
169.7718588816
 21
178.7401146072
  0
LINE
  5
248
100
AcDbEntity
  8
0
100
AcDbLine
 62
7
  6
CONTINUOUS
 10
261.0680458744
 20
179.5466869412
 11
261.1520677591
 21
179.5466869412
  0
LINE
  5
249
100
AcDbEntity
  8
0
100
AcDbLine
 62
7
  6
CONTINUOUS
 10
261.1791475926
 20
179.6198429209
 11
261.0677948052
 21
179.6198429209
  0
LINE
  5
24A
100
AcDbEntity
  8
0
100
AcDbLine
 62
7
  6
CONTINUOUS
 10
261.0696284938
 20
179.6897075988
 11
261.1520677572
 21
179.6897075988
  0
LINE
  5
24B
100
AcDbEntity
  8
0
100
AcDbLine
 62
7
  6
CONTINUOUS
 10
261.1602927499
 20
180.0755499523
 11
261.1095317999
 21
180.0755499523
  0
LINE
  5
24C
100
AcDbEntity
  8
0
100
AcDbLine
 62
7
  6
CONTINUOUS
 10
254.7718588816
 20
180.2376130427
 11
254.2718588816
 21
180.2376130427
  0
LINE
  5
24D
100
AcDbEntity
  8
0
100
AcDbLine
 62
7
  6
CONTINUOUS
 10
253.9718588816
 20
180.2376130427
 11
242.4718588816
 21
180.2376130427
  0
LINE
  5
24E
100
AcDbEntity
  8
0
100
AcDbLine
 62
7
  6
CONTINUOUS
 10
150.1130366903
 20
181.0264384888
 11
150.1940100541
 21
181.0264384888
  0
LINE
  5
24F
100
AcDbEntity
  8
0
100
AcDbLine
 62
7
  6
CONTINUOUS
 10
169.7718588816
 20
181.0376130427
 11
169.4718588816
 21
181.0376130427
  0
LINE
  5
250
100
AcDbEntity
  8
0
100
AcDbLine
 62
7
  6
CONTINUOUS
 10
150.1737520517
 20
181.0543782903
 11
150.1339846514
 21
181.0543782903
  0
LINE
  5
251
100
AcDbEntity
  8
0
100
AcDbLine
 62
7
  6
CONTINUOUS
 10
261.0960207237
 20
181.1275853836
 11
261.1520677591
 21
181.1275853836
  0
LINE
  5
252
100
AcDbEntity
  8
0
100
AcDbLine
 62
7
  6
CONTINUOUS
 10
137.871573348
 20
174.6012718416
 11
153.0718588816
 21
173.9376130427
  0
LINE
  5
253
100
AcDbEntity
  8
0
100
AcDbLine
 62
7
  6
CONTINUOUS
 10
137.5718588816
 20
174.9143576578
 11
137.871573348
 21
174.6012718416
  0
LINE
  5
254
100
AcDbEntity
  8
0
100
AcDbLine
 62
7
  6
CONTINUOUS
 10
62.7472471665
 20
181.5376130427
 11
37.0840181066
 21
181.5376130427
  0
LINE
  5
255
100
AcDbEntity
  8
0
100
AcDbLine
 62
7
  6
CONTINUOUS
 10
261.0762129275
 20
181.6495778014
 11
261.1520677572
 21
181.6495778014
  0
LINE
  5
256
100
AcDbEntity
  8
0
100
AcDbLine
 62
7
  6
CONTINUOUS
 10
62.9632675343
 20
182.2698997175
 11
93.9718588816
 21
182.2698997175
  0
LINE
  5
257
100
AcDbEntity
  8
0
100
AcDbLine
 62
7
  6
CONTINUOUS
 10
261.1791475926
 20
182.3492865101
 11
261.1520677623
 21
182.3492865101
  0
LINE
  5
258
100
AcDbEntity
  8
0
100
AcDbLine
 62
7
  6
CONTINUOUS
 10
93.9718588816
 20
182.4229114303
 11
119.5718588816
 21
182.4229114303
  0
LINE
  5
259
100
AcDbEntity
  8
0
100
AcDbLine
 62
7
  6
CONTINUOUS
 10
119.5718588816
 20
182.4538605271
 11
150.4246617493
 21
182.4522198349
  0
LINE
  5
25A
100
AcDbEntity
  8
0
100
AcDbLine
 62
7
  6
CONTINUOUS
 10
261.1072617208
 20
182.5623099443
 11
261.1520677572
 21
182.5623099443
  0
LINE
  5
25B
100
AcDbEntity
  8
0
100
AcDbLine
 62
7
  6
CONTINUOUS
 10
153.0718588816
 20
183.8376130427
 11
151.0718588816
 21
183.8376130427
  0
LINE
  5
25C
100
AcDbEntity
  8
0
100
AcDbLine
 62
7
  6
CONTINUOUS
 10
153.0718588816
 20
184.3813468453
 11
137.5718588816
 21
184.3813468453
  0
LINE
  5
25D
100
AcDbEntity
  8
0
100
AcDbLine
 62
7
  6
CONTINUOUS
 10
93.9718588816
 20
184.6601017774
 11
63.3301719652
 21
184.6601017774
  0
LINE
  5
25E
100
AcDbEntity
  8
0
100
AcDbLine
 62
7
  6
CONTINUOUS
 10
260.2718588816
 20
184.9845647155
 11
258.7718588816
 21
184.9845647155
  0
LINE
  5
25F
100
AcDbEntity
  8
0
100
AcDbLine
 62
7
  6
CONTINUOUS
 10
119.5718588816
 20
185.1361137686
 11
93.9718588816
 21
185.1361137686
  0
LINE
  5
260
100
AcDbEntity
  8
0
100
AcDbLine
 62
7
  6
CONTINUOUS
 10
137.5718588816
 20
185.1561137686
 11
119.5718588816
 21
185.1561137686
  0
LINE
  5
261
100
AcDbEntity
  8
0
100
AcDbLine
 62
7
  6
CONTINUOUS
 10
64.0717109027
 20
186.0918859362
 11
93.9718588816
 21
186.0918859362
  0
LINE
  5
262
100
AcDbEntity
  8
0
100
AcDbLine
 62
7
  6
CONTINUOUS
 10
137.5718588816
 20
186.4403170672
 11
153.0718588816
 21
186.4403170672
  0
LINE
  5
263
100
AcDbEntity
  8
0
100
AcDbLine
 62
7
  6
CONTINUOUS
 10
93.9718588816
 20
186.5678979274
 11
119.5718588816
 21
186.5678979274
  0
LINE
  5
264
100
AcDbEntity
  8
0
100
AcDbLine
 62
7
  6
CONTINUOUS
 10
119.5718588816
 20
186.5878979274
 11
137.5718588816
 21
186.5878979274
  0
LINE
  5
265
100
AcDbEntity
  8
0
100
AcDbLine
 62
7
  6
CONTINUOUS
 10
173.2718588816
 20
188.7376130427
 11
181.2718588816
 21
188.7376130427
  0
LINE
  5
266
100
AcDbEntity
  8
0
100
AcDbLine
 62
7
  6
CONTINUOUS
 10
243.8218588816
 20
188.7376130427
 11
251.8218588816
 21
188.7376130427
  0
LINE
  5
267
100
AcDbEntity
  8
0
100
AcDbLine
 62
7
  6
CONTINUOUS
 10
137.5718588816
 20
174.6380760792
 11
137.5718588816
 21
239.6371511193
  0
LINE
  5
268
100
AcDbEntity
  8
0
100
AcDbLine
 62
7
  6
CONTINUOUS
 10
137.871573348
 20
225.3567357558
 11
137.871573348
 21
188.9184903296
  0
LINE
  5
269
100
AcDbEntity
  8
0
100
AcDbLine
 62
7
  6
CONTINUOUS
 10
240.2524978541
 20
213.7754217197
 11
240.3818509688
 21
213.8019499596
  0
LINE
  5
26A
100
AcDbEntity
  8
0
100
AcDbLine
 62
7
  6
CONTINUOUS
 10
229.717631198
 20
213.7754217197
 11
229.8469843127
 21
213.8019499596
  0
LINE
  5
26B
100
AcDbEntity
  8
0
100
AcDbLine
 62
7
  6
CONTINUOUS
 10
119.5718588816
 20
191.1376130427
 11
65.1557693333
 21
191.1376130427
  0
LINE
  5
26C
100
AcDbEntity
  8
0
100
AcDbLine
 62
7
  6
CONTINUOUS
 10
137.5718588816
 20
191.5953344153
 11
119.5718588816
 21
191.5953344153
  0
LINE
  5
26D
100
AcDbEntity
  8
0
100
AcDbLine
 62
7
  6
CONTINUOUS
 10
251.8218588816
 20
194.2376130427
 11
243.8218588816
 21
194.2376130427
  0
LINE
  5
26E
100
AcDbEntity
  8
0
100
AcDbLine
 62
7
  6
CONTINUOUS
 10
181.2718588816
 20
194.2376130427
 11
173.2718588816
 21
194.2376130427
  0
LINE
  5
26F
100
AcDbEntity
  8
0
100
AcDbLine
 62
7
  6
CONTINUOUS
 10
150.1339846351
 20
178.6208478302
 11
150.1737337105
 21
178.5751130427
  0
LINE
  5
270
100
AcDbEntity
  8
0
100
AcDbLine
 62
7
  6
CONTINUOUS
 10
150.1129650925
 20
178.6487875965
 11
150.1339846351
 21
178.6208478302
  0
LINE
  5
271
100
AcDbEntity
  8
0
100
AcDbLine
 62
7
  6
CONTINUOUS
 10
147.9458588816
 20
240.5876130427
 11
147.9458588816
 21
240.1138070494
  0
LINE
  5
272
100
AcDbEntity
  8
0
100
AcDbLine
 62
7
  6
CONTINUOUS
 10
195.6260865651
 20
213.7754217197
 11
195.7554396797
 21
213.8019499596
  0
LINE
  5
273
100
AcDbEntity
  8
0
100
AcDbLine
 62
7
  6
CONTINUOUS
 10
260.2718588816
 20
197.4906613699
 11
258.7718588816
 21
197.4906613699
  0
LINE
  5
274
100
AcDbEntity
  8
0
100
AcDbLine
 62
7
  6
CONTINUOUS
 10
261.0680458744
 20
200.0527835956
 11
261.1520677591
 21
200.0527835956
  0
LINE
  5
275
100
AcDbEntity
  8
0
100
AcDbLine
 62
7
  6
CONTINUOUS
 10
261.1791475926
 20
200.1259395753
 11
261.0677948052
 21
200.1259395753
  0
LINE
  5
276
100
AcDbEntity
  8
0
100
AcDbLine
 62
7
  6
CONTINUOUS
 10
261.0696284938
 20
200.1958042532
 11
261.1520677572
 21
200.1958042532
  0
LINE
  5
277
100
AcDbEntity
  8
0
100
AcDbLine
 62
7
  6
CONTINUOUS
 10
261.1602927499
 20
200.5816466067
 11
261.1095317999
 21
200.5816466067
  0
LINE
  5
278
100
AcDbEntity
  8
0
100
AcDbLine
 62
7
  6
CONTINUOUS
 10
261.0960207237
 20
201.633682038
 11
261.1520677591
 21
201.633682038
  0
LINE
  5
279
100
AcDbEntity
  8
0
100
AcDbLine
 62
7
  6
CONTINUOUS
 10
261.0762129275
 20
202.1556744558
 11
261.1520677572
 21
202.1556744558
  0
LINE
  5
27A
100
AcDbEntity
  8
0
100
AcDbLine
 62
7
  6
CONTINUOUS
 10
254.7718588816
 20
202.2376130427
 11
254.2718588816
 21
202.2376130427
  0
LINE
  5
27B
100
AcDbEntity
  8
0
100
AcDbLine
 62
7
  6
CONTINUOUS
 10
242.4718588816
 20
202.2376130427
 11
253.9718588816
 21
202.2376130427
  0
LINE
  5
27C
100
AcDbEntity
  8
0
100
AcDbLine
 62
7
  6
CONTINUOUS
 10
261.1791475926
 20
202.8553831646
 11
261.1520677623
 21
202.8553831646
  0
LINE
  5
27D
100
AcDbEntity
  8
0
100
AcDbLine
 62
7
  6
CONTINUOUS
 10
261.1072617208
 20
203.0684065987
 11
261.1520677572
 21
203.0684065987
  0
LINE
  5
27E
100
AcDbEntity
  8
0
100
AcDbLine
 62
7
  6
CONTINUOUS
 10
255.0718588816
 20
204.2376130427
 11
258.4718588816
 21
204.2376130427
  0
LINE
  5
27F
100
AcDbEntity
  8
0
100
AcDbLine
 62
7
  6
CONTINUOUS
 10
174.6718588816
 20
170.4376130427
 11
174.2718588816
 21
170.8376130427
  0
LINE
  5
280
100
AcDbEntity
  8
0
100
AcDbLine
 62
7
  6
CONTINUOUS
 10
150.2252879768
 20
177.8626130427
 11
150.1339846498
 21
178.3506446197
  0
LINE
  5
281
100
AcDbEntity
  8
0
100
AcDbLine
 62
7
  6
CONTINUOUS
 10
149.1458588816
 20
240.1662001808
 11
149.1458588816
 21
240.5876130427
  0
LINE
  5
282
100
AcDbEntity
  8
0
100
AcDbLine
 62
7
  6
CONTINUOUS
 10
151.0718588816
 20
175.8376130427
 11
151.0718588816
 21
183.8376130427
  0
LINE
  5
283
100
AcDbEntity
  8
0
100
AcDbLine
 62
7
  6
CONTINUOUS
 10
152.0718588816
 20
173.9812739856
 11
152.0718588816
 21
173.6876130427
  0
LINE
  5
284
100
AcDbEntity
  8
0
100
AcDbLine
 62
7
  6
CONTINUOUS
 10
152.2458588816
 20
240.5876130427
 11
152.2458588816
 21
240.3015491039
  0
LINE
  5
285
100
AcDbEntity
  8
0
100
AcDbLine
 62
7
  6
CONTINUOUS
 10
152.5718588816
 20
173.6876130427
 11
152.5718588816
 21
173.9594435142
  0
LINE
  5
286
100
AcDbEntity
  8
0
100
AcDbLine
 62
7
  6
CONTINUOUS
 10
153.0718588816
 20
173.9376130427
 11
153.0718588816
 21
222.7376130427
  0
LINE
  5
287
100
AcDbEntity
  8
0
100
AcDbLine
 62
7
  6
CONTINUOUS
 10
153.4458588816
 20
240.3310848484
 11
153.4458588816
 21
240.5876130427
  0
LINE
  5
288
100
AcDbEntity
  8
0
100
AcDbLine
 62
7
  6
CONTINUOUS
 10
153.5718588816
 20
173.9463405752
 11
153.5718588816
 21
173.6876130427
  0
LINE
  5
289
100
AcDbEntity
  8
0
100
AcDbLine
 62
7
  6
CONTINUOUS
 10
154.7718588816
 20
173.6876130427
 11
154.7718588816
 21
173.9672866531
  0
LINE
  5
28A
100
AcDbEntity
  8
0
100
AcDbLine
 62
7
  6
CONTINUOUS
 10
156.0718588816
 20
240.2852478479
 11
156.0718588816
 21
212.5028864754
  0
LINE
  5
28B
100
AcDbEntity
  8
0
100
AcDbLine
 62
7
  6
CONTINUOUS
 10
150.1339846576
 20
181.3245815076
 11
150.2252879768
 21
181.8126130427
  0
LINE
  5
28C
100
AcDbEntity
  8
0
100
AcDbLine
 62
7
  6
CONTINUOUS
 10
185.091219909
 20
213.7754217197
 11
185.2205730236
 21
213.8019499596
  0
LINE
  5
28D
100
AcDbEntity
  8
0
100
AcDbLine
 62
7
  6
CONTINUOUS
 10
260.2718588816
 20
205.4906613699
 11
258.7718588816
 21
205.4906613699
  0
LINE
  5
28E
100
AcDbEntity
  8
0
100
AcDbLine
 62
7
  6
CONTINUOUS
 10
258.4718588816
 20
206.2376130427
 11
255.0718588816
 21
206.2376130427
  0
LINE
  5
28F
100
AcDbEntity
  8
0
100
AcDbLine
 62
7
  6
CONTINUOUS
 10
253.9718588816
 20
206.2376130427
 11
185.0718588816
 21
206.2376130427
  0
LINE
  5
290
100
AcDbEntity
  8
0
100
AcDbLine
 62
7
  6
CONTINUOUS
 10
185.0718588816
 20
206.5376130427
 11
194.2887852923
 21
206.5376130427
  0
LINE
  5
291
100
AcDbEntity
  8
0
100
AcDbLine
 62
7
  6
CONTINUOUS
 10
199.2271147986
 20
206.5376130427
 11
228.7488488136
 21
206.5376130427
  0
LINE
  5
292
100
AcDbEntity
  8
0
100
AcDbLine
 62
7
  6
CONTINUOUS
 10
233.8549324709
 20
206.5376130427
 11
242.7718588816
 21
206.5376130427
  0
LINE
  5
293
100
AcDbEntity
  8
0
100
AcDbLine
 62
7
  6
CONTINUOUS
 10
181.0718588816
 20
206.614178418
 11
184.4718588816
 21
206.614178418
  0
LINE
  5
294
100
AcDbEntity
  8
0
100
AcDbLine
 62
7
  6
CONTINUOUS
 10
245.4717380142
 20
206.7376130427
 11
233.4889035304
 21
206.7376130427
  0
LINE
  5
295
100
AcDbEntity
  8
0
100
AcDbLine
 62
7
  6
CONTINUOUS
 10
231.723153003
 20
206.7376130427
 11
185.0718588816
 21
206.7376130427
  0
LINE
  5
296
100
AcDbEntity
  8
0
100
AcDbLine
 62
7
  6
CONTINUOUS
 10
245.7718588816
 20
207.0376130427
 11
185.0718588816
 21
207.0376130427
  0
LINE
  5
297
100
AcDbEntity
  8
0
100
AcDbLine
 62
7
  6
CONTINUOUS
 10
185.0718588816
 20
207.5606130427
 11
181.0718588816
 21
207.5606130427
  0
LINE
  5
298
100
AcDbEntity
  8
0
100
AcDbLine
 62
7
  6
CONTINUOUS
 10
183.0718588816
 20
208.5606130427
 11
181.0718588816
 21
208.5606130427
  0
LINE
  5
299
100
AcDbEntity
  8
0
100
AcDbLine
 62
7
  6
CONTINUOUS
 10
185.0718588816
 20
211.0376130427
 11
245.7718588816
 21
211.0376130427
  0
LINE
  5
29A
100
AcDbEntity
  8
0
100
AcDbLine
 62
7
  6
CONTINUOUS
 10
169.4718588816
 20
211.3376130427
 11
169.7718588816
 21
211.3376130427
  0
LINE
  5
29B
100
AcDbEntity
  8
0
100
AcDbLine
 62
7
  6
CONTINUOUS
 10
185.0718588816
 20
211.3376130427
 11
245.4718248905
 21
211.3376130427
  0
LINE
  5
29C
100
AcDbEntity
  8
0
100
AcDbLine
 62
7
  6
CONTINUOUS
 10
183.9145016086
 20
211.3438478152
 11
183.9520677591
 21
211.3438478152
  0
LINE
  5
29D
100
AcDbEntity
  8
0
100
AcDbLine
 62
7
  6
CONTINUOUS
 10
183.9718750811
 20
211.3717875966
 11
183.9145016086
 21
211.3717875966
  0
LINE
  5
29E
100
AcDbEntity
  8
0
100
AcDbLine
 62
7
  6
CONTINUOUS
 10
244.6520969749
 20
211.5376130427
 11
239.3218588816
 21
211.5376130427
  0
LINE
  5
29F
100
AcDbEntity
  8
0
100
AcDbLine
 62
7
  6
CONTINUOUS
 10
234.1172303188
 20
211.5376130427
 11
228.1180320772
 21
211.5376130427
  0
LINE
  5
2A0
100
AcDbEntity
  8
0
100
AcDbLine
 62
7
  6
CONTINUOUS
 10
200.0256856859
 20
211.5376130427
 11
194.0264874443
 21
211.5376130427
  0
LINE
  5
2A1
100
AcDbEntity
  8
0
100
AcDbLine
 62
7
  6
CONTINUOUS
 10
188.2218588816
 20
211.5376130427
 11
185.491219909
 21
211.5376130427
  0
LINE
  5
2A2
100
AcDbEntity
  8
0
100
AcDbLine
 62
7
  6
CONTINUOUS
 10
185.0718588816
 20
212.4735262761
 11
183.9722791968
 21
212.4735262761
  0
LINE
  5
2A3
100
AcDbEntity
  8
0
100
AcDbLine
 62
7
  6
CONTINUOUS
 10
188.1091361667
 20
170.5879863378
 11
188.1490333855
 21
170.5497133851
  0
LINE
  5
2A4
100
AcDbEntity
  8
0
100
AcDbLine
 62
7
  6
CONTINUOUS
 10
196.0718588816
 20
166.9376130427
 11
195.7718588816
 21
167.2376130427
  0
LINE
  5
2A5
100
AcDbEntity
  8
0
100
AcDbLine
 62
7
  6
CONTINUOUS
 10
157.3718588816
 20
174.0126698219
 11
157.3718588816
 21
173.6876130427
  0
LINE
  5
2A6
100
AcDbEntity
  8
0
100
AcDbLine
 62
7
  6
CONTINUOUS
 10
158.5718588816
 20
173.6876130427
 11
158.5718588816
 21
174.0336158998
  0
LINE
  5
2A7
100
AcDbEntity
  8
0
100
AcDbLine
 62
7
  6
CONTINUOUS
 10
150.1339846514
 20
181.0543782903
 11
150.1129899026
 21
181.0264384888
  0
LINE
  5
2A8
100
AcDbEntity
  8
0
100
AcDbLine
 62
7
  6
CONTINUOUS
 10
185.0718588816
 20
213.1376130427
 11
189.491219909
 21
213.1376130427
  0
LINE
  5
2A9
100
AcDbEntity
  8
0
100
AcDbLine
 62
7
  6
CONTINUOUS
 10
194.0260865651
 20
213.1376130427
 11
200.0260865651
 21
213.1376130427
  0
LINE
  5
2AA
100
AcDbEntity
  8
0
100
AcDbLine
 62
7
  6
CONTINUOUS
 10
228.117631198
 20
213.1376130427
 11
234.117631198
 21
213.1376130427
  0
LINE
  5
2AB
100
AcDbEntity
  8
0
100
AcDbLine
 62
7
  6
CONTINUOUS
 10
238.6524978541
 20
213.1376130427
 11
244.6524978541
 21
213.1376130427
  0
LINE
  5
2AC
100
AcDbEntity
  8
0
100
AcDbLine
 62
7
  6
CONTINUOUS
 10
169.7718588816
 20
213.6581114782
 11
181.0718588816
 21
213.6581114782
  0
LINE
  5
2AD
100
AcDbEntity
  8
0
100
AcDbLine
 62
7
  6
CONTINUOUS
 10
183.9718750811
 20
213.7494384888
 11
183.9144784897
 21
213.7494384888
  0
LINE
  5
2AE
100
AcDbEntity
  8
0
100
AcDbLine
 62
7
  6
CONTINUOUS
 10
183.9144784897
 20
213.7773782903
 11
183.9520677503
 21
213.7773782903
  0
LINE
  5
2AF
100
AcDbEntity
  8
0
100
AcDbLine
 62
7
  6
CONTINUOUS
 10
183.1042840173
 20
216.4954477493
 11
185.0718588816
 21
216.4954477493
  0
LINE
  5
2B0
100
AcDbEntity
  8
0
100
AcDbLine
 62
7
  6
CONTINUOUS
 10
183.0718588816
 20
216.5606130427
 11
181.0718588816
 21
216.5606130427
  0
LINE
  5
2B1
100
AcDbEntity
  8
0
100
AcDbLine
 62
7
  6
CONTINUOUS
 10
194.0218855198
 20
217.3376130427
 11
233.5218322433
 21
217.3376130427
  0
LINE
  5
2B2
100
AcDbEntity
  8
0
100
AcDbLine
 62
7
  6
CONTINUOUS
 10
169.7718588816
 20
218.1376130427
 11
169.4718588816
 21
218.1376130427
  0
LINE
  5
2B3
100
AcDbEntity
  8
0
100
AcDbLine
 62
7
  6
CONTINUOUS
 10
185.0718588816
 20
218.4606130427
 11
169.7718588816
 21
218.4606130427
  0
LINE
  5
2B4
100
AcDbEntity
  8
0
100
AcDbLine
 62
7
  6
CONTINUOUS
 10
169.4718588816
 20
218.4606130427
 11
156.0718588816
 21
218.4606130427
  0
LINE
  5
2B5
100
AcDbEntity
  8
0
100
AcDbLine
 62
7
  6
CONTINUOUS
 10
169.4718588816
 20
226.6374184015
 11
169.4718588816
 21
174.2238761075
  0
LINE
  5
2B6
100
AcDbEntity
  8
0
100
AcDbLine
 62
7
  6
CONTINUOUS
 10
169.7718588816
 20
174.2376130427
 11
169.7718588816
 21
226.6374184015
  0
LINE
  5
2B7
100
AcDbEntity
  8
0
100
AcDbLine
 62
7
  6
CONTINUOUS
 10
171.0718588816
 20
174.2376130427
 11
171.0718588816
 21
171.9376130427
  0
LINE
  5
2B8
100
AcDbEntity
  8
0
100
AcDbLine
 62
7
  6
CONTINUOUS
 10
171.9718588816
 20
192.9376130427
 11
171.9718588816
 21
190.0376130427
  0
LINE
  5
2B9
100
AcDbEntity
  8
0
100
AcDbLine
 62
7
  6
CONTINUOUS
 10
183.9145016086
 20
211.2981130427
 11
183.9520677591
 21
211.3438478152
  0
LINE
  5
2BA
100
AcDbEntity
  8
0
100
AcDbLine
 62
7
  6
CONTINUOUS
 10
150.1737520517
 20
181.1001130427
 11
150.1339846514
 21
181.0543782903
  0
LINE
  5
2BB
100
AcDbEntity
  8
0
100
AcDbLine
 62
7
  6
CONTINUOUS
 10
194.0218588816
 20
217.3376130427
 11
188.0218588816
 21
211.3376130427
  0
LINE
  5
2BC
100
AcDbEntity
  8
0
100
AcDbLine
 62
7
  6
CONTINUOUS
 10
169.7718588816
 20
221.6376130427
 11
169.4718588816
 21
221.6376130427
  0
LINE
  5
2BD
100
AcDbEntity
  8
0
100
AcDbLine
 62
7
  6
CONTINUOUS
 10
182.9528936031
 20
221.8376130427
 11
169.7718588816
 21
221.8376130427
  0
LINE
  5
2BE
100
AcDbEntity
  8
0
100
AcDbLine
 62
7
  6
CONTINUOUS
 10
169.4718588816
 20
221.8376130427
 11
156.0718588816
 21
221.8376130427
  0
LINE
  5
2BF
100
AcDbEntity
  8
0
100
AcDbLine
 62
7
  6
CONTINUOUS
 10
178.7324039164
 20
222.1352352042
 11
174.0718588816
 21
222.1352352042
  0
LINE
  5
2C0
100
AcDbEntity
  8
0
100
AcDbLine
 62
7
  6
CONTINUOUS
 10
176.9718750811
 20
222.8264384888
 11
176.9144784896
 21
222.8264384888
  0
LINE
  5
2C1
100
AcDbEntity
  8
0
100
AcDbLine
 62
7
  6
CONTINUOUS
 10
176.9144784896
 20
222.8543783028
 11
176.9520677448
 21
222.8543783028
  0
LINE
  5
2C2
100
AcDbEntity
  8
0
100
AcDbLine
 62
7
  6
CONTINUOUS
 10
65.1557693333
 20
223.1376130427
 11
119.5718588816
 21
223.1376130427
  0
LINE
  5
2C3
100
AcDbEntity
  8
0
100
AcDbLine
 62
7
  6
CONTINUOUS
 10
119.5718588816
 20
223.5553344153
 11
137.5718588816
 21
223.5553344153
  0
LINE
  5
2C4
100
AcDbEntity
  8
0
100
AcDbLine
 62
7
  6
CONTINUOUS
 10
169.7718588816
 20
224.0123498848
 11
169.4718588816
 21
224.0123498848
  0
LINE
  5
2C5
100
AcDbEntity
  8
0
100
AcDbLine
 62
7
  6
CONTINUOUS
 10
156.0718588816
 20
224.1886334509
 11
169.4718588816
 21
224.1886334509
  0
LINE
  5
2C6
100
AcDbEntity
  8
0
100
AcDbLine
 62
7
  6
CONTINUOUS
 10
169.7718588816
 20
224.1886334509
 11
174.0718588816
 21
224.1886334509
  0
LINE
  5
2C7
100
AcDbEntity
  8
0
100
AcDbLine
 62
7
  6
CONTINUOUS
 10
176.0718588816
 20
225.6376130427
 11
174.0718588816
 21
225.6376130427
  0
LINE
  5
2C8
100
AcDbEntity
  8
0
100
AcDbLine
 62
7
  6
CONTINUOUS
 10
169.4718588816
 20
226.3376130427
 11
169.7718588816
 21
226.3376130427
  0
LINE
  5
2C9
100
AcDbEntity
  8
0
100
AcDbLine
 62
7
  6
CONTINUOUS
 10
174.0718588816
 20
226.6376130427
 11
169.7718588816
 21
226.6376130427
  0
LINE
  5
2CA
100
AcDbEntity
  8
0
100
AcDbLine
 62
7
  6
CONTINUOUS
 10
169.4718588816
 20
226.6376130427
 11
156.0718588816
 21
226.6376130427
  0
LINE
  5
2CB
100
AcDbEntity
  8
0
100
AcDbLine
 62
7
  6
CONTINUOUS
 10
137.5718588816
 20
227.687328158
 11
119.5718588816
 21
227.687328158
  0
LINE
  5
2CC
100
AcDbEntity
  8
0
100
AcDbLine
 62
7
  6
CONTINUOUS
 10
119.5718588816
 20
227.707328158
 11
93.9718588816
 21
227.707328158
  0
LINE
  5
2CD
100
AcDbEntity
  8
0
100
AcDbLine
 62
7
  6
CONTINUOUS
 10
156.0718588816
 20
227.8349090182
 11
137.5718588816
 21
227.8349090182
  0
LINE
  5
2CE
100
AcDbEntity
  8
0
100
AcDbLine
 62
7
  6
CONTINUOUS
 10
93.9718588816
 20
228.1833401492
 11
64.0717109027
 21
228.1833401492
  0
LINE
  5
2CF
100
AcDbEntity
  8
0
100
AcDbLine
 62
7
  6
CONTINUOUS
 10
187.7618667944
 20
213.8019499596
 11
187.891219909
 21
213.7754217197
  0
LINE
  5
2D0
100
AcDbEntity
  8
0
100
AcDbLine
 62
7
  6
CONTINUOUS
 10
198.2967334505
 20
213.8019499596
 11
198.4260865651
 21
213.7754217197
  0
LINE
  5
2D1
100
AcDbEntity
  8
0
100
AcDbLine
 62
7
  6
CONTINUOUS
 10
261.1520677531
 20
181.8972968618
 11
261.1375361655
 21
181.9033818508
  0
LINE
  5
2D2
100
AcDbEntity
  8
0
100
AcDbLine
 62
7
  6
CONTINUOUS
 10
174.0718588816
 20
226.6374184015
 11
174.0718588816
 21
222.1352352042
  0
LINE
  5
2D3
100
AcDbEntity
  8
0
100
AcDbLine
 62
7
  6
CONTINUOUS
 10
174.2718588816
 20
171.9376130427
 11
174.2718588816
 21
170.8376130427
  0
LINE
  5
2D4
100
AcDbEntity
  8
0
100
AcDbLine
 62
7
  6
CONTINUOUS
 10
176.0718588816
 20
225.6376130427
 11
176.0718588816
 21
222.1352352042
  0
LINE
  5
2D5
100
AcDbEntity
  8
0
100
AcDbLine
 62
7
  6
CONTINUOUS
 10
178.0718588816
 20
171.9376130427
 11
178.0718588816
 21
174.2376130427
  0
LINE
  5
2D6
100
AcDbEntity
  8
0
100
AcDbLine
 62
7
  6
CONTINUOUS
 10
185.6938570785
 20
213.8019499596
 11
185.6912199116
 21
213.7957616859
  0
LINE
  5
2D7
100
AcDbEntity
  8
0
100
AcDbLine
 62
7
  6
CONTINUOUS
 10
185.6938570785
 20
213.8019499596
 11
185.7037069068
 21
213.8227420405
  0
LINE
  5
2D8
100
AcDbEntity
  8
0
100
AcDbLine
 62
7
  6
CONTINUOUS
 10
183.9520677591
 20
211.3438478152
 11
183.9719442025
 21
211.3717875966
  0
LINE
  5
2D9
100
AcDbEntity
  8
0
100
AcDbLine
 62
7
  6
CONTINUOUS
 10
119.5718588816
 20
229.1191123168
 11
137.5718588816
 21
229.1191123168
  0
LINE
  5
2DA
100
AcDbEntity
  8
0
100
AcDbLine
 62
7
  6
CONTINUOUS
 10
93.9718588816
 20
229.1391123168
 11
119.5718588816
 21
229.1391123168
  0
LINE
  5
2DB
100
AcDbEntity
  8
0
100
AcDbLine
 62
7
  6
CONTINUOUS
 10
63.3301719652
 20
229.615124308
 11
93.9718588816
 21
229.615124308
  0
LINE
  5
2DC
100
AcDbEntity
  8
0
100
AcDbLine
 62
7
  6
CONTINUOUS
 10
137.5718588816
 20
229.8938792401
 11
156.0718588816
 21
229.8938792401
  0
LINE
  5
2DD
100
AcDbEntity
  8
0
100
AcDbLine
 62
7
  6
CONTINUOUS
 10
156.0718588816
 20
231.8230062505
 11
119.5718588816
 21
231.8213655583
  0
LINE
  5
2DE
100
AcDbEntity
  8
0
100
AcDbLine
 62
7
  6
CONTINUOUS
 10
119.5718588816
 20
231.8523146551
 11
93.9718588816
 21
231.8523146551
  0
LINE
  5
2DF
100
AcDbEntity
  8
0
100
AcDbLine
 62
7
  6
CONTINUOUS
 10
93.9718588816
 20
232.0053263679
 11
62.9632675343
 21
232.0053263679
  0
LINE
  5
2E0
100
AcDbEntity
  8
0
100
AcDbLine
 62
7
  6
CONTINUOUS
 10
37.0840181066
 20
232.7376130427
 11
62.7472471665
 21
232.7376130427
  0
LINE
  5
2E1
100
AcDbEntity
  8
0
100
AcDbLine
 62
7
  6
CONTINUOUS
 10
33.9718652623
 20
235.7376130427
 11
62.3338828915
 21
235.7376130427
  0
LINE
  5
2E2
100
AcDbEntity
  8
0
100
AcDbLine
 62
7
  6
CONTINUOUS
 10
93.9718588816
 20
236.3065254856
 11
119.5718588816
 21
236.3065254856
  0
LINE
  5
2E3
100
AcDbEntity
  8
0
100
AcDbLine
 62
7
  6
CONTINUOUS
 10
119.5718588816
 20
236.3190387392
 11
137.5718588816
 21
236.3190387392
  0
LINE
  5
2E4
100
AcDbEntity
  8
0
100
AcDbLine
 62
7
  6
CONTINUOUS
 10
62.753809445
 20
236.4595371984
 11
93.9718588816
 21
236.4595371984
  0
LINE
  5
2E5
100
AcDbEntity
  8
0
100
AcDbLine
 62
7
  6
CONTINUOUS
 10
137.5718588816
 20
236.9034237161
 11
156.0718588816
 21
236.9034237161
  0
LINE
  5
2E6
100
AcDbEntity
  8
0
100
AcDbLine
 62
7
  6
CONTINUOUS
 10
232.3882780834
 20
213.8019499596
 11
232.517631198
 21
213.7754217197
  0
LINE
  5
2E7
100
AcDbEntity
  8
0
100
AcDbLine
 62
7
  6
CONTINUOUS
 10
242.9231447395
 20
213.8019499596
 11
243.0524978541
 21
213.7754217197
  0
LINE
  5
2E8
100
AcDbEntity
  8
0
100
AcDbLine
 62
7
  6
CONTINUOUS
 10
261.1605050353
 20
181.8935794803
 11
261.1520677531
 21
181.8972968618
  0
LINE
  5
2E9
100
AcDbEntity
  8
0
100
AcDbLine
 62
7
  6
CONTINUOUS
 10
176.8658036241
 20
223.6126130427
 11
176.9520677572
 21
223.1245814347
  0
LINE
  5
2EA
100
AcDbEntity
  8
0
100
AcDbLine
 62
7
  6
CONTINUOUS
 10
181.0718588816
 20
218.4606130427
 11
181.0718588816
 21
206.614178418
  0
LINE
  5
2EB
100
AcDbEntity
  8
0
100
AcDbLine
 62
7
  6
CONTINUOUS
 10
182.5718588816
 20
190.0376130427
 11
182.5718588816
 21
192.9376130427
  0
LINE
  5
2EC
100
AcDbEntity
  8
0
100
AcDbLine
 62
7
  6
CONTINUOUS
 10
183.0718588816
 20
216.5606130427
 11
183.0718588816
 21
208.5606130427
  0
LINE
  5
2ED
100
AcDbEntity
  8
0
100
AcDbLine
 62
7
  6
CONTINUOUS
 10
184.4718588816
 20
206.614178418
 11
184.4718588816
 21
178.7401146072
  0
LINE
  5
2EE
100
AcDbEntity
  8
0
100
AcDbLine
 62
7
  6
CONTINUOUS
 10
184.7070649332
 20
174.2376130427
 11
184.7070649332
 21
171.9376130427
  0
LINE
  5
2EF
100
AcDbEntity
  8
0
100
AcDbLine
 62
7
  6
CONTINUOUS
 10
185.0718588816
 20
174.2376130427
 11
185.0718588816
 21
220.9184955208
  0
LINE
  5
2F0
100
AcDbEntity
  8
0
100
AcDbLine
 62
7
  6
CONTINUOUS
 10
185.2718588816
 20
171.9376130427
 11
185.2718588816
 21
170.8376130427
  0
LINE
  5
2F1
100
AcDbEntity
  8
0
100
AcDbLine
 62
7
  6
CONTINUOUS
 10
185.491219909
 20
211.5376130427
 11
185.491219909
 21
211.3376130427
  0
LINE
  5
2F2
100
AcDbEntity
  8
0
100
AcDbLine
 62
7
  6
CONTINUOUS
 10
185.7719859944
 20
174.2376130427
 11
185.7719859944
 21
171.9376130427
  0
LINE
  5
2F3
100
AcDbEntity
  8
0
100
AcDbLine
 62
7
  6
CONTINUOUS
 10
187.491219909
 20
211.5376130427
 11
187.491219909
 21
211.3376130427
  0
LINE
  5
2F4
100
AcDbEntity
  8
0
100
AcDbLine
 62
7
  6
CONTINUOUS
 10
187.8490333855
 20
171.9376130427
 11
187.8490333855
 21
170.8376130427
  0
LINE
  5
2F5
100
AcDbEntity
  8
0
100
AcDbLine
 62
7
  6
CONTINUOUS
 10
188.1091380335
 20
170.5879882837
 11
188.1091380335
 21
170.5497133851
  0
LINE
  5
2F6
100
AcDbEntity
  8
0
100
AcDbLine
 62
7
  6
CONTINUOUS
 10
183.9520677522
 20
211.0736446222
 11
183.8658036241
 21
210.5856130427
  0
LINE
  5
2F7
100
AcDbEntity
  8
0
100
AcDbLine
 62
7
  6
CONTINUOUS
 10
196.2287237346
 20
213.8019499596
 11
196.2385735628
 21
213.8227420405
  0
LINE
  5
2F8
100
AcDbEntity
  8
0
100
AcDbLine
 62
7
  6
CONTINUOUS
 10
137.871573348
 20
239.6739542438
 11
153.0718588816
 21
240.3376130427
  0
LINE
  5
2F9
100
AcDbEntity
  8
0
100
AcDbLine
 62
7
  6
CONTINUOUS
 10
50.4218588816
 20
237.7376130427
 11
59.9718588816
 21
237.7376130427
  0
LINE
  5
2FA
100
AcDbEntity
  8
0
100
AcDbLine
 62
7
  6
CONTINUOUS
 10
56.7218588816
 20
239.2376130427
 11
64.7218588816
 21
239.2376130427
  0
LINE
  5
2FB
100
AcDbEntity
  8
0
100
AcDbLine
 62
7
  6
CONTINUOUS
 10
137.5718588816
 20
239.6376130427
 11
93.9718588816
 21
239.6376130427
  0
LINE
  5
2FC
100
AcDbEntity
  8
0
100
AcDbLine
 62
7
  6
CONTINUOUS
 10
93.9718588816
 20
240.1376130427
 11
87.9718588816
 21
240.1376130427
  0
LINE
  5
2FD
100
AcDbEntity
  8
0
100
AcDbLine
 62
7
  6
CONTINUOUS
 10
147.9458588816
 20
240.5876130427
 11
153.4458588816
 21
240.5876130427
  0
LINE
  5
2FE
100
AcDbEntity
  8
0
100
AcDbLine
 62
7
  6
CONTINUOUS
 10
57.2218588816
 20
241.2376130427
 11
64.2218588816
 21
241.2376130427
  0
LINE
  5
2FF
100
AcDbEntity
  8
0
100
AcDbLine
 62
7
  6
CONTINUOUS
 10
69.4718588816
 20
241.2376130427
 11
78.9718588816
 21
241.2376130427
  0
LINE
  5
300
100
AcDbEntity
  8
0
100
AcDbLine
 62
7
  6
CONTINUOUS
 10
82.9718588816
 20
241.2376130427
 11
92.4718588816
 21
241.2376130427
  0
LINE
  5
301
100
AcDbEntity
  8
0
100
AcDbLine
 62
7
  6
CONTINUOUS
 10
156.0718588816
 20
240.2852478479
 11
153.0718588816
 21
240.3376130427
  0
LINE
  5
302
100
AcDbEntity
  8
0
100
AcDbLine
 62
7
  6
CONTINUOUS
 10
183.9520677503
 20
213.7773782903
 11
183.9144784897
 21
213.8231130427
  0
LINE
  5
303
100
AcDbEntity
  8
0
100
AcDbLine
 62
7
  6
CONTINUOUS
 10
176.9520677448
 20
222.8543783028
 11
176.9144784896
 21
222.9001130427
  0
LINE
  5
304
100
AcDbEntity
  8
0
100
AcDbLine
 62
7
  6
CONTINUOUS
 10
176.9719203347
 20
222.8264384888
 11
176.9520677448
 21
222.8543783028
  0
LINE
  5
305
100
AcDbEntity
  8
0
100
AcDbLine
 62
7
  6
CONTINUOUS
 10
183.9719203348
 20
213.7494384888
 11
183.9520677503
 21
213.7773782903
  0
LINE
  5
306
100
AcDbEntity
  8
0
100
AcDbLine
 62
7
  6
CONTINUOUS
 10
187.2787329112
 20
213.8227388693
 11
187.2885827395
 21
213.8019499596
  0
LINE
  5
307
100
AcDbEntity
  8
0
100
AcDbLine
 62
7
  6
CONTINUOUS
 10
187.2912199065
 20
213.7957631104
 11
187.2885827395
 21
213.8019499596
  0
LINE
  5
308
100
AcDbEntity
  8
0
100
AcDbLine
 62
7
  6
CONTINUOUS
 10
183.8658036241
 20
214.5356130427
 11
183.9520677572
 21
214.0475814347
  0
LINE
  5
309
100
AcDbEntity
  8
0
100
AcDbLine
 62
7
  6
CONTINUOUS
 10
189.491219909
 20
213.1376130427
 11
189.491219909
 21
212.8069740701
  0
LINE
  5
30A
100
AcDbEntity
  8
0
100
AcDbLine
 62
7
  6
CONTINUOUS
 10
193.5571529992
 20
174.2376130427
 11
193.5571529992
 21
176.2376130427
  0
LINE
  5
30B
100
AcDbEntity
  8
0
100
AcDbLine
 62
7
  6
CONTINUOUS
 10
194.0260865651
 20
213.1376130427
 11
194.0260865651
 21
211.5376130427
  0
LINE
  5
30C
100
AcDbEntity
  8
0
100
AcDbLine
 62
7
  6
CONTINUOUS
 10
195.7718588816
 20
170.4376130427
 11
195.7718588816
 21
167.2376130427
  0
LINE
  5
30D
100
AcDbEntity
  8
0
100
AcDbLine
 62
7
  6
CONTINUOUS
 10
196.0260865651
 20
211.5376130427
 11
196.0260865651
 21
211.3376130427
  0
LINE
  5
30E
100
AcDbEntity
  8
0
100
AcDbLine
 62
7
  6
CONTINUOUS
 10
194.2922763052
 20
206.7376130427
 11
194.2835487728
 21
206.2376130427
  0
LINE
  5
30F
100
AcDbEntity
  8
0
100
AcDbLine
 62
7
  6
CONTINUOUS
 10
196.2287237346
 20
213.8019499596
 11
196.2260865676
 21
213.7957616859
  0
LINE
  5
310
100
AcDbEntity
  8
0
100
AcDbLine
 62
7
  6
CONTINUOUS
 10
261.1520677531
 20
202.4033935163
 11
261.1375361655
 21
202.4094785053
  0
LINE
  5
311
100
AcDbEntity
  8
0
100
AcDbLine
 62
7
  6
CONTINUOUS
 10
261.1605050353
 20
202.3996761347
 11
261.1520677531
 21
202.4033935163
  0
LINE
  5
312
100
AcDbEntity
  8
0
100
AcDbLine
 62
7
  6
CONTINUOUS
 10
242.6718588816
 20
170.4376130427
 11
242.2718588816
 21
170.8376130427
  0
LINE
  5
313
100
AcDbEntity
  8
0
100
AcDbLine
 62
7
  6
CONTINUOUS
 10
199.2316735089
 20
206.2376130427
 11
199.2271147986
 21
206.5376130427
  0
LINE
  5
314
100
AcDbEntity
  8
0
100
AcDbLine
 62
7
  6
CONTINUOUS
 10
198.0260865651
 20
211.5376130427
 11
198.0260865651
 21
211.3376130427
  0
LINE
  5
315
100
AcDbEntity
  8
0
100
AcDbLine
 62
7
  6
CONTINUOUS
 10
200.0260865651
 20
213.1376130427
 11
200.0260865651
 21
211.5376130427
  0
LINE
  5
316
100
AcDbEntity
  8
0
100
AcDbLine
 62
7
  6
CONTINUOUS
 10
184.8718588816
 20
170.4376130427
 11
185.2718588816
 21
170.8376130427
  0
LINE
  5
317
100
AcDbEntity
  8
0
100
AcDbLine
 62
7
  6
CONTINUOUS
 10
254.7718588816
 20
176.5376130427
 11
255.0718588816
 21
176.2376130427
  0
LINE
  5
318
100
AcDbEntity
  8
0
100
AcDbLine
 62
7
  6
CONTINUOUS
 10
197.8135995673
 20
213.8227388693
 11
197.8234493955
 21
213.8019499596
  0
LINE
  5
319
100
AcDbEntity
  8
0
100
AcDbLine
 62
7
  6
CONTINUOUS
 10
197.8260865626
 20
213.7957631104
 11
197.8234493955
 21
213.8019499596
  0
LINE
  5
31A
100
AcDbEntity
  8
0
100
AcDbLine
 62
7
  6
CONTINUOUS
 10
258.7718588816
 20
177.9376130427
 11
258.4718588816
 21
178.2376130427
  0
LINE
  5
31B
100
AcDbEntity
  8
0
100
AcDbLine
 62
7
  6
CONTINUOUS
 10
230.3202683676
 20
213.8019499596
 11
230.3176312006
 21
213.7957616859
  0
LINE
  5
31C
100
AcDbEntity
  8
0
100
AcDbLine
 62
7
  6
CONTINUOUS
 10
230.3202683676
 20
213.8019499596
 11
230.3301181958
 21
213.8227420405
  0
LINE
  5
31D
100
AcDbEntity
  8
0
100
AcDbLine
 62
7
  6
CONTINUOUS
 10
245.4718588816
 20
206.7376130427
 11
245.7718588816
 21
207.0376130427
  0
LINE
  5
31E
100
AcDbEntity
  8
0
100
AcDbLine
 62
7
  6
CONTINUOUS
 10
242.5718588816
 20
206.7376130427
 11
242.7718588816
 21
206.5376130427
  0
LINE
  5
31F
100
AcDbEntity
  8
0
100
AcDbLine
 62
7
  6
CONTINUOUS
 10
233.5218588816
 20
217.3376130427
 11
239.5218588816
 21
211.3376130427
  0
LINE
  5
320
100
AcDbEntity
  8
0
100
AcDbLine
 62
7
  6
CONTINUOUS
 10
228.117631198
 20
213.1376130427
 11
228.117631198
 21
211.5376130427
  0
LINE
  5
321
100
AcDbEntity
  8
0
100
AcDbLine
 62
7
  6
CONTINUOUS
 10
240.8551350237
 20
213.8019499596
 11
240.8649848519
 21
213.8227420405
  0
LINE
  5
322
100
AcDbEntity
  8
0
100
AcDbLine
 62
7
  6
CONTINUOUS
 10
255.0718588816
 20
206.2376130427
 11
254.7718588816
 21
205.9376130427
  0
LINE
  5
323
100
AcDbEntity
  8
0
100
AcDbLine
 62
7
  6
CONTINUOUS
 10
258.4718588816
 20
204.2376130427
 11
258.7718588816
 21
204.5376130427
  0
LINE
  5
324
100
AcDbEntity
  8
0
100
AcDbLine
 62
7
  6
CONTINUOUS
 10
245.4718588816
 20
211.3376130427
 11
245.7718588816
 21
211.0376130427
  0
LINE
  5
325
100
AcDbEntity
  8
0
100
AcDbLine
 62
7
  6
CONTINUOUS
 10
254.7718588816
 20
204.5376130427
 11
255.0718588816
 21
204.2376130427
  0
LINE
  5
326
100
AcDbEntity
  8
0
100
AcDbLine
 62
7
  6
CONTINUOUS
 10
254.2718588816
 20
205.9376130427
 11
253.9718588816
 21
206.2376130427
  0
LINE
  5
327
100
AcDbEntity
  8
0
100
AcDbLine
 62
7
  6
CONTINUOUS
 10
258.7718588816
 20
205.9376130427
 11
258.4718588816
 21
206.2376130427
  0
LINE
  5
328
100
AcDbEntity
  8
0
100
AcDbLine
 62
7
  6
CONTINUOUS
 10
231.9051442003
 20
213.8227388693
 11
231.9149940285
 21
213.8019499596
  0
LINE
  5
329
100
AcDbEntity
  8
0
100
AcDbLine
 62
7
  6
CONTINUOUS
 10
233.8514414579
 20
206.7376130427
 11
233.8601689904
 21
206.2376130427
  0
LINE
  5
32A
100
AcDbEntity
  8
0
100
AcDbLine
 62
7
  6
CONTINUOUS
 10
230.117631198
 20
211.5376130427
 11
230.117631198
 21
211.3376130427
  0
LINE
  5
32B
100
AcDbEntity
  8
0
100
AcDbLine
 62
7
  6
CONTINUOUS
 10
231.7718588816
 20
170.4376130427
 11
231.7718588816
 21
167.2376130427
  0
LINE
  5
32C
100
AcDbEntity
  8
0
100
AcDbLine
 62
7
  6
CONTINUOUS
 10
232.117631198
 20
211.5376130427
 11
232.117631198
 21
211.3376130427
  0
LINE
  5
32D
100
AcDbEntity
  8
0
100
AcDbLine
 62
7
  6
CONTINUOUS
 10
234.117631198
 20
213.1376130427
 11
234.117631198
 21
211.5376130427
  0
LINE
  5
32E
100
AcDbEntity
  8
0
100
AcDbLine
 62
7
  6
CONTINUOUS
 10
228.744363739
 20
206.2376130427
 11
228.7488488136
 21
206.5376130427
  0
LINE
  5
32F
100
AcDbEntity
  8
0
100
AcDbLine
 62
7
  6
CONTINUOUS
 10
240.8551350237
 20
213.8019499596
 11
240.8524978567
 21
213.7957616859
  0
LINE
  5
330
100
AcDbEntity
  8
0
100
AcDbLine
 62
7
  6
CONTINUOUS
 10
231.4718588816
 20
166.9376130427
 11
231.7718588816
 21
167.2376130427
  0
LINE
  5
331
100
AcDbEntity
  8
0
100
AcDbLine
 62
7
  6
CONTINUOUS
 10
231.9176311955
 20
213.7957631104
 11
231.9149940285
 21
213.8019499596
  0
LINE
  5
332
100
AcDbEntity
  8
0
100
AcDbLine
 62
7
  6
CONTINUOUS
 10
238.6524978541
 20
213.1376130427
 11
238.6524978541
 21
212.2069740701
  0
LINE
  5
333
100
AcDbEntity
  8
0
100
AcDbLine
 62
7
  6
CONTINUOUS
 10
240.6524978541
 20
211.5376130427
 11
240.6524978541
 21
211.3376130427
  0
LINE
  5
334
100
AcDbEntity
  8
0
100
AcDbLine
 62
7
  6
CONTINUOUS
 10
240.7718588816
 20
171.9376130427
 11
240.7718588816
 21
170.8376130427
  0
LINE
  5
335
100
AcDbEntity
  8
0
100
AcDbLine
 62
7
  6
CONTINUOUS
 10
242.2718588816
 20
176.2376130427
 11
242.2718588816
 21
170.8376130427
  0
LINE
  5
336
100
AcDbEntity
  8
0
100
AcDbLine
 62
7
  6
CONTINUOUS
 10
242.4718588816
 20
176.2376130427
 11
242.4718588816
 21
206.2376130427
  0
LINE
  5
337
100
AcDbEntity
  8
0
100
AcDbLine
 62
7
  6
CONTINUOUS
 10
242.5218588816
 20
192.9376130427
 11
242.5218588816
 21
190.0376130427
  0
LINE
  5
338
100
AcDbEntity
  8
0
100
AcDbLine
 62
7
  6
CONTINUOUS
 10
242.6524978541
 20
211.5376130427
 11
242.6524978541
 21
211.3376130427
  0
LINE
  5
339
100
AcDbEntity
  8
0
100
AcDbLine
 62
7
  6
CONTINUOUS
 10
242.7718588816
 20
206.2376130427
 11
242.7718588816
 21
206.5376130427
  0
LINE
  5
33A
100
AcDbEntity
  8
0
100
AcDbLine
 62
7
  6
CONTINUOUS
 10
240.3718588816
 20
170.4376130427
 11
240.7718588816
 21
170.8376130427
  0
LINE
  5
33B
100
AcDbEntity
  8
0
100
AcDbLine
 62
7
  6
CONTINUOUS
 10
255.0718588816
 20
178.2376130427
 11
254.7718588816
 21
177.9376130427
  0
LINE
  5
33C
100
AcDbEntity
  8
0
100
AcDbLine
 62
7
  6
CONTINUOUS
 10
253.9718588816
 20
176.2376130427
 11
254.2718588816
 21
176.5376130427
  0
LINE
  5
33D
100
AcDbEntity
  8
0
100
AcDbLine
 62
7
  6
CONTINUOUS
 10
242.4400108564
 20
213.8227388693
 11
242.4498606846
 21
213.8019499596
  0
LINE
  5
33E
100
AcDbEntity
  8
0
100
AcDbLine
 62
7
  6
CONTINUOUS
 10
242.4524978516
 20
213.7957631104
 11
242.4498606846
 21
213.8019499596
  0
LINE
  5
33F
100
AcDbEntity
  8
0
100
AcDbLine
 62
7
  6
CONTINUOUS
 10
244.386308114
 20
206.7376130427
 11
244.3950356464
 21
206.2376130427
  0
LINE
  5
340
100
AcDbEntity
  8
0
100
AcDbLine
 62
7
  6
CONTINUOUS
 10
244.6524978541
 20
213.1376130427
 11
244.6524978541
 21
211.5376130427
  0
LINE
  5
341
100
AcDbEntity
  8
0
100
AcDbLine
 62
7
  6
CONTINUOUS
 10
245.7718588816
 20
211.0376130427
 11
245.7718588816
 21
207.0376130427
  0
LINE
  5
342
100
AcDbEntity
  8
0
100
AcDbLine
 62
7
  6
CONTINUOUS
 10
258.4718588816
 20
176.2376130427
 11
258.7718588816
 21
176.5376130427
  0
LINE
  5
343
100
AcDbEntity
  8
0
100
AcDbLine
 62
7
  6
CONTINUOUS
 10
252.8718588816
 20
170.4376130427
 11
253.2718588816
 21
170.8376130427
  0
LINE
  5
344
100
AcDbEntity
  8
0
100
AcDbLine
 62
7
  6
CONTINUOUS
 10
261.1103422083
 20
182.7690215384
 11
261.0691153821
 21
182.911009018
  0
LINE
  5
345
100
AcDbEntity
  8
0
100
AcDbLine
 62
7
  6
CONTINUOUS
 10
253.1218588816
 20
190.0376130427
 11
253.1218588816
 21
192.9376130427
  0
LINE
  5
346
100
AcDbEntity
  8
0
100
AcDbLine
 62
7
  6
CONTINUOUS
 10
253.2718588816
 20
176.2376130427
 11
253.2718588816
 21
170.8376130427
  0
LINE
  5
347
100
AcDbEntity
  8
0
100
AcDbLine
 62
7
  6
CONTINUOUS
 10
253.9718588816
 20
202.2376130427
 11
253.9718588816
 21
180.2376130427
  0
LINE
  5
348
100
AcDbEntity
  8
0
100
AcDbLine
 62
7
  6
CONTINUOUS
 10
254.2718588816
 20
205.9376130427
 11
254.2718588816
 21
176.5376130427
  0
LINE
  5
349
100
AcDbEntity
  8
0
100
AcDbLine
 62
7
  6
CONTINUOUS
 10
254.7718588816
 20
176.5376130427
 11
254.7718588816
 21
205.9376130427
  0
LINE
  5
34A
100
AcDbEntity
  8
0
100
AcDbLine
 62
7
  6
CONTINUOUS
 10
255.0718588816
 20
204.2376130427
 11
255.0718588816
 21
178.2376130427
  0
LINE
  5
34B
100
AcDbEntity
  8
0
100
AcDbLine
 62
7
  6
CONTINUOUS
 10
258.4718588816
 20
204.2376130427
 11
258.4718588816
 21
178.2376130427
  0
LINE
  5
34C
100
AcDbEntity
  8
0
100
AcDbLine
 62
7
  6
CONTINUOUS
 10
258.7718588816
 20
205.9376130427
 11
258.7718588816
 21
176.5376130427
  0
LINE
  5
34D
100
AcDbEntity
  8
0
100
AcDbLine
 62
7
  6
CONTINUOUS
 10
260.2718588816
 20
205.4906613699
 11
260.2718588816
 21
197.4906613699
  0
LINE
  5
34E
100
AcDbEntity
  8
0
100
AcDbLine
 62
7
  6
CONTINUOUS
 10
260.2718588816
 20
184.9845647155
 11
260.2718588816
 21
176.9845647155
  0
LINE
  5
34F
100
AcDbEntity
  8
0
100
AcDbLine
 62
7
  6
CONTINUOUS
 10
261.1520677591
 20
200.0527835956
 11
261.1790956893
 21
200.1259395753
  0
LINE
  5
350
100
AcDbEntity
  8
0
100
AcDbLine
 62
7
  6
CONTINUOUS
 10
261.1520677591
 20
179.5466869412
 11
261.1790956893
 21
179.6198429208
  0
LINE
  5
351
100
AcDbEntity
  8
0
100
AcDbLine
 62
7
  6
CONTINUOUS
 10
261.1103422083
 20
203.2751181928
 11
261.0691153821
 21
203.4171056724
  0
ARC
  5
352
100
AcDbEntity
  8
0
100
AcDbCircle
 62
7
  6
CONTINUOUS
 10
87.9718588816
 20
40.1376130427
 40
200.0
100
AcDbArc
 50
90.0
 51
98.0478429158
  0
ARC
  5
353
100
AcDbEntity
  8
0
100
AcDbCircle
 62
7
  6
CONTINUOUS
 10
157.7948588816
 20
179.8376130427
 40
7.8229616514
100
AcDbArc
 50
194.6224691924
 51
210.7514811307
  0
ARC
  5
354
100
AcDbEntity
  8
0
100
AcDbCircle
 62
7
  6
CONTINUOUS
 10
157.7948588816
 20
179.8376130427
 40
7.8229616514
100
AcDbArc
 50
149.2485188693
 51
165.3775302345
  0
ARC
  5
355
100
AcDbEntity
  8
0
100
AcDbCircle
 62
7
  6
CONTINUOUS
 10
173.2718588816
 20
192.9376130427
 40
1.3
100
AcDbArc
 50
90.0
 51
180.0
  0
ARC
  5
356
100
AcDbEntity
  8
0
100
AcDbCircle
 62
7
  6
CONTINUOUS
 10
173.2718588816
 20
190.0376130427
 40
1.3
100
AcDbArc
 50
180.0
 51
270.0
  0
ARC
  5
357
100
AcDbEntity
  8
0
100
AcDbCircle
 62
7
  6
CONTINUOUS
 10
87.9718588816
 20
374.1376130427
 40
200.0
100
AcDbArc
 50
261.9521537527
 51
270.0
  0
ARC
  5
358
100
AcDbEntity
  8
0
100
AcDbCircle
 62
7
  6
CONTINUOUS
 10
168.8488588816
 20
221.6376130427
 40
8.2566172855
100
AcDbArc
 50
13.8387192259
 51
28.9770927103
  0
ARC
  5
359
100
AcDbEntity
  8
0
100
AcDbCircle
 62
7
  6
CONTINUOUS
 10
175.8488588816
 20
212.5606130427
 40
8.2566172855
100
AcDbArc
 50
13.838719226
 51
28.9770927103
  0
ARC
  5
35A
100
AcDbEntity
  8
0
100
AcDbCircle
 62
7
  6
CONTINUOUS
 10
175.8488588816
 20
212.5606130427
 40
8.2566172855
100
AcDbArc
 50
331.0229072897
 51
346.1612810427
  0
ARC
  5
35B
100
AcDbEntity
  8
0
100
AcDbCircle
 62
7
  6
CONTINUOUS
 10
274.0209467133
 20
177.4161330645
 40
13.068174576
100
AcDbArc
 50
169.9808120052
 51
170.2615559691
  0
ARC
  5
35C
100
AcDbEntity
  8
0
100
AcDbCircle
 62
7
  6
CONTINUOUS
 10
274.0209467134
 20
197.9222297189
 40
13.0681745761
100
AcDbArc
 50
169.9808120052
 51
170.2615559691
  0
ARC
  5
35D
100
AcDbEntity
  8
0
100
AcDbCircle
 62
7
  6
CONTINUOUS
 10
253.0488588816
 20
201.4906613699
 40
8.2566172855
100
AcDbArc
 50
13.5077715657
 51
28.9770927103
  0
ARC
  5
35E
100
AcDbEntity
  8
0
100
AcDbCircle
 62
7
  6
CONTINUOUS
 10
253.0488588816
 20
201.4906613699
 40
8.2566172855
100
AcDbArc
 50
331.0229072897
 51
347.5187339846
  0
ARC
  5
35F
100
AcDbEntity
  8
0
100
AcDbCircle
 62
7
  6
CONTINUOUS
 10
253.0488588816
 20
180.9845647155
 40
8.2566172855
100
AcDbArc
 50
13.5077715657
 51
28.9770927103
  0
ARC
  5
360
100
AcDbEntity
  8
0
100
AcDbCircle
 62
7
  6
CONTINUOUS
 10
253.0488588816
 20
180.9845647155
 40
8.2566172855
100
AcDbArc
 50
331.0229072897
 51
347.5187339846
  0
ARC
  5
361
100
AcDbEntity
  8
0
100
AcDbCircle
 62
7
  6
CONTINUOUS
 10
253.1401995495
 20
201.4138179693
 40
8.1512415297
100
AcDbArc
 50
348.3428912593
 51
349.3894878901
  0
ARC
  5
362
100
AcDbEntity
  8
0
100
AcDbCircle
 62
7
  6
CONTINUOUS
 10
253.1401995501
 20
180.9077213147
 40
8.1512415291
100
AcDbArc
 50
348.3428912593
 51
349.3894878901
  0
ARC
  5
363
100
AcDbEntity
  8
0
100
AcDbCircle
 62
7
  6
CONTINUOUS
 10
256.2638479958
 20
200.7751558834
 40
4.9629792576
100
AcDbArc
 50
347.561884039
 51
348.2775829763
  0
ARC
  5
364
100
AcDbEntity
  8
0
100
AcDbCircle
 62
7
  6
CONTINUOUS
 10
256.2638479977
 20
180.2690592286
 40
4.9629792557
100
AcDbArc
 50
347.5618840388
 51
348.2775829764
  0
ARC
  5
365
100
AcDbEntity
  8
0
100
AcDbCircle
 62
7
  6
CONTINUOUS
 10
181.2718588816
 20
192.9376130427
 40
1.3
100
AcDbArc
 50
0.0
 51
90.0
  0
ARC
  5
366
100
AcDbEntity
  8
0
100
AcDbCircle
 62
7
  6
CONTINUOUS
 10
181.2718588816
 20
190.0376130427
 40
1.3
100
AcDbArc
 50
270.0
 51
360.0
  0
ARC
  5
367
100
AcDbEntity
  8
0
100
AcDbCircle
 62
7
  6
CONTINUOUS
 10
243.8218588816
 20
190.0376130427
 40
1.3
100
AcDbArc
 50
180.0
 51
270.0
  0
ARC
  5
368
100
AcDbEntity
  8
0
100
AcDbCircle
 62
7
  6
CONTINUOUS
 10
251.8218588816
 20
190.0376130427
 40
1.3
100
AcDbArc
 50
270.0
 51
360.0
  0
ARC
  5
369
100
AcDbEntity
  8
0
100
AcDbCircle
 62
7
  6
CONTINUOUS
 10
251.8218588816
 20
192.9376130427
 40
1.3
100
AcDbArc
 50
0.0
 51
90.0
  0
ARC
  5
36A
100
AcDbEntity
  8
0
100
AcDbCircle
 62
7
  6
CONTINUOUS
 10
243.8218588816
 20
192.9376130427
 40
1.3
100
AcDbArc
 50
90.0
 51
180.0
  0
ARC
  5
36B
100
AcDbEntity
  8
0
100
AcDbCircle
 62
7
  6
CONTINUOUS
 10
184.4718588816
 20
174.8376130427
 40
0.6
100
AcDbArc
 50
270.0
 51
360.0
  0
ARC
  5
36C
100
AcDbEntity
  8
0
100
AcDbCircle
 62
7
  6
CONTINUOUS
 10
186.491219909
 20
207.9376130427
 40
6.0033324079
100
AcDbArc
 50
60.0183606312
 51
76.5142737946
  0
ARC
  5
36D
100
AcDbEntity
  8
0
100
AcDbCircle
 62
7
  6
CONTINUOUS
 10
197.0260865651
 20
207.9376130427
 40
6.0033324079
100
AcDbArc
 50
103.4857262149
 51
119.9816393688
  0
ARC
  5
36E
100
AcDbEntity
  8
0
100
AcDbCircle
 62
7
  6
CONTINUOUS
 10
197.0260865651
 20
207.9376130427
 40
6.0033324079
100
AcDbArc
 50
60.0183606312
 51
76.5142737946
  0
ARC
  5
36F
100
AcDbEntity
  8
0
100
AcDbCircle
 62
7
  6
CONTINUOUS
 10
231.117631198
 20
207.9376130427
 40
6.0033324079
100
AcDbArc
 50
103.4857262149
 51
119.9816393688
  0
ARC
  5
370
100
AcDbEntity
  8
0
100
AcDbCircle
 62
7
  6
CONTINUOUS
 10
231.117631198
 20
207.9376130427
 40
6.0033324079
100
AcDbArc
 50
60.0183606312
 51
76.5142737946
  0
ARC
  5
371
100
AcDbEntity
  8
0
100
AcDbCircle
 62
7
  6
CONTINUOUS
 10
241.6524978541
 20
207.9376130427
 40
6.0033324079
100
AcDbArc
 50
103.4857262149
 51
119.9816393688
  0
ARC
  5
372
100
AcDbEntity
  8
0
100
AcDbCircle
 62
7
  6
CONTINUOUS
 10
241.6524978541
 20
207.9376130427
 40
6.0033324079
100
AcDbArc
 50
60.0183606312
 51
76.5142737946
  0
ARC
  5
373
100
AcDbEntity
  8
0
100
AcDbCircle
 62
7
  6
CONTINUOUS
 10
195.185936489
 20
208.8951854609
 40
4.6785969945
100
AcDbArc
 50
329.7412525245
 51
332.5381438008
  0
ARC
  5
374
100
AcDbEntity
  8
0
100
AcDbCircle
 62
7
  6
CONTINUOUS
 10
232.5330924287
 20
208.3794794874
 40
4.2086781498
100
AcDbArc
 50
202.9616251861
 51
205.9538061161
  0
SPLINE
  5
375
100
AcDbEntity
  8
0
100
AcDbSpline
 62
7
  6
CONTINUOUS
 70
0
 71
3
 72
15
 73
11
 74
0
 42
0.0000001
 43
0.0000001
 44
0.0000000001
 40
0.0
 40
0.0
 40
0.0
 40
0.0
 40
0.3750545255
 40
0.692776372
 40
0.8151677767
 40
0.8653155215
 40
0.9076286644
 40
0.9419232369
 40
0.9682472185
 40
1.0
 40
1.0
 40
1.0
 40
1.0
 10
37.084014825
 20
232.753958773
 30
0.0
 10
37.0837120937
 20
233.1366805348
 30
0.0
 10
37.063768636
 20
233.8436460131
 30
0.0
 10
36.9915269647
 20
234.6733681698
 30
0.0
 10
36.9097352988
 20
235.1671710043
 30
0.0
 10
36.859986074
 20
235.3809728456
 30
0.0
 10
36.8242171465
 20
235.5049101202
 30
0.0
 10
36.7862284486
 20
235.6043342809
 30
0.0
 10
36.7451757105
 20
235.6853231735
 30
0.0
 10
36.6963564265
 20
235.7376130427
 30
0.0
 10
36.663954513
 20
235.7376130427
 30
0.0
  0
SPLINE
  5
376
100
AcDbEntity
  8
0
100
AcDbSpline
 62
7
  6
CONTINUOUS
 70
0
 71
3
 72
15
 73
11
 74
0
 42
0.0000001
 43
0.0000001
 44
0.0000000001
 40
0.0
 40
0.0
 40
0.0
 40
0.0
 40
0.031731541
 40
0.0580758356
 40
0.0924079472
 40
0.1347695588
 40
0.1849731672
 40
0.3074781109
 40
0.6253085846
 40
1.0
 40
1.0
 40
1.0
 40
1.0
 10
36.663954513
 20
178.5376130427
 30
0.0
 10
36.6965073198
 20
178.5376130427
 30
0.0
 10
36.7454932104
 20
178.5903355681
 30
0.0
 10
36.7866516303
 20
178.6718228413
 30
0.0
 10
36.8247581481
 20
178.7719368154
 30
0.0
 10
36.8606258449
 20
178.89670794
 30
0.0
 10
36.9104927754
 20
179.1119144541
 30
0.0
 10
36.9923878312
 20
179.608689925
 30
0.0
 10
37.0644643737
 20
180.4427362033
 30
0.0
 10
37.0840181066
 20
181.153223982
 30
0.0
 10
37.0840181066
 20
181.5376130427
 30
0.0
  0
SPLINE
  5
377
100
AcDbEntity
  8
0
100
AcDbSpline
 62
7
  6
CONTINUOUS
 70
0
 71
3
 72
15
 73
11
 74
0
 42
0.0000001
 43
0.0000001
 44
0.0000000001
 40
0.0
 40
0.0
 40
0.0
 40
0.0
 40
0.1281190672
 40
0.2533811868
 40
0.3755010332
 40
0.4959058103
 40
0.6175860012
 40
0.7423313154
 40
0.8700331635
 40
1.0
 40
1.0
 40
1.0
 40
1.0
 10
72.414619666
 20
239.4591930779
 30
0.0
 10
72.3612621939
 20
239.5143872506
 30
0.0
 10
72.2494988014
 20
239.6178960739
 30
0.0
 10
72.0608315276
 20
239.742964274
 30
0.0
 10
71.8508995797
 20
239.8192072332
 30
0.0
 10
71.6285531674
 20
239.8254082475
 30
0.0
 10
71.415532256
 20
239.7592331266
 30
0.0
 10
71.2234112159
 20
239.6406783596
 30
0.0
 10
71.0513071491
 20
239.4882924972
 30
0.0
 10
70.9484451468
 20
239.3727712089
 30
0.0
 10
70.899130816
 20
239.312499058
 30
0.0
  0
SPLINE
  5
378
100
AcDbEntity
  8
0
100
AcDbSpline
 62
7
  6
CONTINUOUS
 70
0
 71
3
 72
12
 73
8
 74
0
 42
0.0000001
 43
0.0000001
 44
0.0000000001
 40
0.0
 40
0.0
 40
0.0
 40
0.0
 40
0.3298007409
 40
0.6153090387
 40
0.8418868784
 40
0.9298881676
 40
1.0
 40
1.0
 40
1.0
 40
1.0
 10
62.9632675343
 20
182.2698997175
 30
0.0
 10
62.9760379472
 20
182.5365497661
 30
0.0
 10
63.0089016602
 20
183.0337525545
 30
0.0
 10
63.0865497569
 20
183.7109094592
 30
0.0
 10
63.1734143279
 20
184.1897880422
 30
0.0
 10
63.2587641116
 20
184.4894355322
 30
0.0
 10
63.3051345387
 20
184.6091716066
 30
0.0
 10
63.3301719652
 20
184.6601017774
 30
0.0
  0
SPLINE
  5
379
100
AcDbEntity
  8
0
100
AcDbSpline
 62
7
  6
CONTINUOUS
 70
0
 71
3
 72
8
 73
4
 74
0
 42
0.0000001
 43
0.0000001
 44
0.0000000001
 40
0.0
 40
0.0
 40
0.0
 40
0.0
 40
1.0
 40
1.0
 40
1.0
 40
1.0
 10
62.753809445
 20
177.815688887
 30
0.0
 10
62.8223449116
 20
179.300485649
 30
0.0
 10
62.892163384
 20
180.7852237479
 30
0.0
 10
62.9632675343
 20
182.2698997175
 30
0.0
  0
SPLINE
  5
37A
100
AcDbEntity
  8
0
100
AcDbSpline
 62
7
  6
CONTINUOUS
 70
0
 71
3
 72
9
 73
5
 74
0
 42
0.0000001
 43
0.0000001
 44
0.0000000001
 40
0.0
 40
0.0
 40
0.0
 40
0.0
 40
0.4660866004
 40
1.0
 40
1.0
 40
1.0
 40
1.0
 10
62.5795089934
 20
175.7552668835
 30
0.0
 10
62.6222409883
 20
176.0737388431
 30
0.0
 10
62.6934591871
 20
176.7597816622
 30
0.0
 10
62.7368417303
 20
177.4479835966
 30
0.0
 10
62.7538138586
 20
177.815678783
 30
0.0
  0
SPLINE
  5
37B
100
AcDbEntity
  8
0
100
AcDbSpline
 62
7
  6
CONTINUOUS
 70
0
 71
3
 72
9
 73
5
 74
0
 42
0.0000001
 43
0.0000001
 44
0.0000000001
 40
0.0
 40
0.0
 40
0.0
 40
0.0
 40
0.5339166968
 40
1.0
 40
1.0
 40
1.0
 40
1.0
 10
62.7538127554
 20
236.4595447897
 30
0.0
 10
62.736847048
 20
236.8271009442
 30
0.0
 10
62.6934987305
 20
237.5150393428
 30
0.0
 10
62.6223133537
 20
238.2008194289
 30
0.0
 10
62.5795972159
 20
238.5191666344
 30
0.0
  0
SPLINE
  5
37C
100
AcDbEntity
  8
0
100
AcDbSpline
 62
7
  6
CONTINUOUS
 70
0
 71
3
 72
8
 73
4
 74
0
 42
0.0000001
 43
0.0000001
 44
0.0000000001
 40
0.0
 40
0.0
 40
0.0
 40
0.0
 40
1.0
 40
1.0
 40
1.0
 40
1.0
 10
62.9632675343
 20
232.0053263679
 30
0.0
 10
62.892163384
 20
233.4900023375
 30
0.0
 10
62.8223448978
 20
234.9747404357
 30
0.0
 10
62.753809445
 20
236.4595371984
 30
0.0
  0
SPLINE
  5
37D
100
AcDbEntity
  8
0
100
AcDbSpline
 62
7
  6
CONTINUOUS
 70
0
 71
3
 72
12
 73
8
 74
0
 42
0.0000001
 43
0.0000001
 44
0.0000000001
 40
0.0
 40
0.0
 40
0.0
 40
0.0
 40
0.0701118334
 40
0.1581131246
 40
0.3846909676
 40
0.6701992638
 40
1.0
 40
1.0
 40
1.0
 40
1.0
 10
63.3301719652
 20
229.615124308
 30
0.0
 10
63.3051345383
 20
229.6660544795
 30
0.0
 10
63.2587641112
 20
229.7857905565
 30
0.0
 10
63.1734143257
 20
230.0854380512
 30
0.0
 10
63.0865497555
 20
230.5643166375
 30
0.0
 10
63.0089016594
 20
231.2414735397
 30
0.0
 10
62.976037947
 20
231.7386763231
 30
0.0
 10
62.9632675343
 20
232.0053263679
 30
0.0
  0
SPLINE
  5
37E
100
AcDbEntity
  8
0
100
AcDbSpline
 62
7
  6
CONTINUOUS
 70
0
 71
3
 72
12
 73
8
 74
0
 42
0.0000001
 43
0.0000001
 44
0.0000000001
 40
0.0
 40
0.0
 40
0.0
 40
0.0
 40
0.3285795274
 40
0.6117337161
 40
0.8379646954
 40
0.9273013505
 40
1.0
 40
1.0
 40
1.0
 40
1.0
 10
64.6643322409
 20
225.1764795403
 30
0.0
 10
64.6380593879
 20
225.5127137916
 30
0.0
 10
64.5755728167
 20
226.1378613417
 30
0.0
 10
64.4426342519
 20
226.9879324366
 30
0.0
 10
64.3036264208
 20
227.5878720309
 30
0.0
 10
64.1751902649
 20
227.9654092181
 30
0.0
 10
64.1073837621
 20
228.1178004943
 30
0.0
 10
64.0717109027
 20
228.1833401492
 30
0.0
  0
SPLINE
  5
37F
100
AcDbEntity
  8
0
100
AcDbSpline
 62
7
  6
CONTINUOUS
 70
0
 71
3
 72
12
 73
8
 74
0
 42
0.0000001
 43
0.0000001
 44
0.0000000001
 40
0.0
 40
0.0
 40
0.0
 40
0.0
 40
0.0726986601
 40
0.1620353356
 40
0.388266353
 40
0.6714205218
 40
1.0
 40
1.0
 40
1.0
 40
1.0
 10
64.0717109027
 20
186.0918859362
 30
0.0
 10
64.1073837673
 20
186.1574256006
 30
0.0
 10
64.175190276
 20
186.3098169093
 30
0.0
 10
64.3036264609
 20
186.6873541612
 30
0.0
 10
64.4426342782
 20
187.2872938006
 30
0.0
 10
64.5755728392
 20
188.1373648631
 30
0.0
 10
64.6380593919
 20
188.7625123441
 30
0.0
 10
64.6643322409
 20
189.0987465451
 30
0.0
  0
SPLINE
  5
380
100
AcDbEntity
  8
0
100
AcDbSpline
 62
7
  6
CONTINUOUS
 70
0
 71
3
 72
10
 73
6
 74
0
 42
0.0000001
 43
0.0000001
 44
0.0000000001
 40
0.0
 40
0.0
 40
0.0
 40
0.0
 40
0.241397597
 40
0.4904003274
 40
1.0
 40
1.0
 40
1.0
 40
1.0
 10
64.6643322409
 20
189.0987465451
 30
0.0
 10
64.6775006051
 20
189.2672724025
 30
0.0
 10
64.7306320178
 20
189.6075034854
 30
0.0
 10
64.8939772302
 20
190.2886549779
 30
0.0
 10
65.0509948475
 20
190.7964920311
 30
0.0
 10
65.1557693333
 20
191.1376130427
 30
0.0
  0
SPLINE
  5
381
100
AcDbEntity
  8
0
100
AcDbSpline
 62
7
  6
CONTINUOUS
 70
0
 71
3
 72
10
 73
6
 74
0
 42
0.0000001
 43
0.0000001
 44
0.0000000001
 40
0.0
 40
0.0
 40
0.0
 40
0.0
 40
0.5095997687
 40
0.7586024333
 40
1.0
 40
1.0
 40
1.0
 40
1.0
 10
65.1557693333
 20
223.1376130427
 30
0.0
 10
65.050994828
 20
223.4787341179
 30
0.0
 10
64.8939771321
 20
223.9865711748
 30
0.0
 10
64.7306321099
 20
224.667722706
 30
0.0
 10
64.6775006034
 20
225.0079537044
 30
0.0
 10
64.6643322409
 20
225.1764795403
 30
0.0
  0
SPLINE
  5
382
100
AcDbEntity
  8
0
100
AcDbSpline
 62
7
  6
CONTINUOUS
 70
0
 71
3
 72
9
 73
5
 74
0
 42
0.0000001
 43
0.0000001
 44
0.0000000001
 40
0.0
 40
0.0
 40
0.0
 40
0.0
 40
0.1876406167
 40
1.0
 40
1.0
 40
1.0
 40
1.0
 10
185.7036969276
 20
213.8227044078
 30
0.0
 10
185.7036999095
 20
213.8253681093
 30
0.0
 10
185.6995205449
 20
213.8397964112
 30
0.0
 10
185.6825541431
 20
213.8444074196
 30
0.0
 10
185.6713245574
 20
213.8470313438
 30
0.0
  0
SPLINE
  5
383
100
AcDbEntity
  8
0
100
AcDbSpline
 62
7
  6
CONTINUOUS
 70
0
 71
3
 72
10
 73
6
 74
0
 42
0.0000001
 43
0.0000001
 44
0.0000000001
 40
0.0
 40
0.0
 40
0.0
 40
0.0
 40
0.1505979467
 40
0.3755815683
 40
1.0
 40
1.0
 40
1.0
 40
1.0
 10
185.6713245574
 20
213.8470313438
 30
0.0
 10
185.6490955273
 20
213.8522254171
 30
0.0
 10
185.5915548149
 20
213.8541167895
 30
0.0
 10
185.4405716486
 20
213.8436627309
 30
0.0
 10
185.3133015598
 20
213.8209246954
 30
0.0
 10
185.2205730236
 20
213.8019499596
 30
0.0
  0
SPLINE
  5
384
100
AcDbEntity
  8
0
100
AcDbSpline
 62
7
  6
CONTINUOUS
 70
0
 71
3
 72
9
 73
5
 74
0
 42
0.0000001
 43
0.0000001
 44
0.0000000001
 40
0.0
 40
0.0
 40
0.0
 40
0.0
 40
0.4692952133
 40
1.0
 40
1.0
 40
1.0
 40
1.0
 10
185.6912686408
 20
213.7959446248
 30
0.0
 10
185.6912768506
 20
213.7950408568
 30
0.0
 10
185.6917389796
 20
213.7931019352
 30
0.0
 10
185.6929097382
 20
213.7915216142
 30
0.0
 10
185.693611833
 20
213.7907788521
 30
0.0
  0
SPLINE
  5
385
100
AcDbEntity
  8
0
100
AcDbSpline
 62
7
  6
CONTINUOUS
 70
0
 71
3
 72
10
 73
6
 74
0
 42
0.0000001
 43
0.0000001
 44
0.0000000001
 40
0.0
 40
0.0
 40
0.0
 40
0.0
 40
0.1256213644
 40
0.3427010841
 40
1.0
 40
1.0
 40
1.0
 40
1.0
 10
185.693611833
 20
213.7907788521
 30
0.0
 10
185.6977524919
 20
213.7863983543
 30
0.0
 10
185.7144034137
 20
213.781035416
 30
0.0
 10
185.7611483439
 20
213.7741891947
 30
0.0
 10
185.8037934969
 20
213.7750142975
 30
0.0
 10
185.835292665
 20
213.7766089742
 30
0.0
  0
SPLINE
  5
386
100
AcDbEntity
  8
0
100
AcDbSpline
 62
7
  6
CONTINUOUS
 70
0
 71
3
 72
9
 73
5
 74
0
 42
0.0000001
 43
0.0000001
 44
0.0000000001
 40
0.0
 40
0.0
 40
0.0
 40
0.0
 40
0.2608681969
 40
1.0
 40
1.0
 40
1.0
 40
1.0
 10
185.835292665
 20
213.7766089742
 30
0.0
 10
185.8513179609
 20
213.7774202708
 30
0.0
 10
185.9126381457
 20
213.7820733047
 30
0.0
 10
185.9738033038
 20
213.7910299906
 30
0.0
 10
186.0179358541
 20
213.8019499596
 30
0.0
  0
SPLINE
  5
387
100
AcDbEntity
  8
0
100
AcDbSpline
 62
7
  6
CONTINUOUS
 70
0
 71
3
 72
9
 73
5
 74
0
 42
0.0000001
 43
0.0000001
 44
0.0000000001
 40
0.0
 40
0.0
 40
0.0
 40
0.0
 40
0.1876406167
 40
1.0
 40
1.0
 40
1.0
 40
1.0
 10
196.2385635836
 20
213.8227044078
 30
0.0
 10
196.2385665656
 20
213.8253681093
 30
0.0
 10
196.2343872009
 20
213.8397964112
 30
0.0
 10
196.2174207992
 20
213.8444074196
 30
0.0
 10
196.2061912135
 20
213.8470313438
 30
0.0
  0
SPLINE
  5
388
100
AcDbEntity
  8
0
100
AcDbSpline
 62
7
  6
CONTINUOUS
 70
0
 71
3
 72
10
 73
6
 74
0
 42
0.0000001
 43
0.0000001
 44
0.0000000001
 40
0.0
 40
0.0
 40
0.0
 40
0.0
 40
0.1505979467
 40
0.3755815683
 40
1.0
 40
1.0
 40
1.0
 40
1.0
 10
196.2061912135
 20
213.8470313438
 30
0.0
 10
196.1839621834
 20
213.8522254171
 30
0.0
 10
196.126421471
 20
213.8541167895
 30
0.0
 10
195.9754383047
 20
213.8436627309
 30
0.0
 10
195.8481682158
 20
213.8209246954
 30
0.0
 10
195.7554396797
 20
213.8019499596
 30
0.0
  0
SPLINE
  5
389
100
AcDbEntity
  8
0
100
AcDbSpline
 62
7
  6
CONTINUOUS
 70
0
 71
3
 72
9
 73
5
 74
0
 42
0.0000001
 43
0.0000001
 44
0.0000000001
 40
0.0
 40
0.0
 40
0.0
 40
0.0
 40
0.4692952133
 40
1.0
 40
1.0
 40
1.0
 40
1.0
 10
196.2261352969
 20
213.7959446248
 30
0.0
 10
196.2261435066
 20
213.7950408568
 30
0.0
 10
196.2266056356
 20
213.7931019352
 30
0.0
 10
196.2277763943
 20
213.7915216142
 30
0.0
 10
196.2284784891
 20
213.7907788521
 30
0.0
  0
SPLINE
  5
38A
100
AcDbEntity
  8
0
100
AcDbSpline
 62
7
  6
CONTINUOUS
 70
0
 71
3
 72
10
 73
6
 74
0
 42
0.0000001
 43
0.0000001
 44
0.0000000001
 40
0.0
 40
0.0
 40
0.0
 40
0.0
 40
0.1256213644
 40
0.3427010841
 40
1.0
 40
1.0
 40
1.0
 40
1.0
 10
196.2284784891
 20
213.7907788521
 30
0.0
 10
196.2326191479
 20
213.7863983543
 30
0.0
 10
196.2492700697
 20
213.781035416
 30
0.0
 10
196.2960149999
 20
213.7741891947
 30
0.0
 10
196.338660153
 20
213.7750142975
 30
0.0
 10
196.3701593211
 20
213.7766089742
 30
0.0
  0
SPLINE
  5
38B
100
AcDbEntity
  8
0
100
AcDbSpline
 62
7
  6
CONTINUOUS
 70
0
 71
3
 72
9
 73
5
 74
0
 42
0.0000001
 43
0.0000001
 44
0.0000000001
 40
0.0
 40
0.0
 40
0.0
 40
0.0
 40
0.2608681969
 40
1.0
 40
1.0
 40
1.0
 40
1.0
 10
196.3701593211
 20
213.7766089742
 30
0.0
 10
196.386184617
 20
213.7774202708
 30
0.0
 10
196.4475048018
 20
213.7820733047
 30
0.0
 10
196.5086699599
 20
213.7910299906
 30
0.0
 10
196.5528025102
 20
213.8019499596
 30
0.0
  0
SPLINE
  5
38C
100
AcDbEntity
  8
0
100
AcDbSpline
 62
7
  6
CONTINUOUS
 70
0
 71
3
 72
9
 73
5
 74
0
 42
0.0000001
 43
0.0000001
 44
0.0000000001
 40
0.0
 40
0.0
 40
0.0
 40
0.0
 40
0.1876406167
 40
1.0
 40
1.0
 40
1.0
 40
1.0
 10
230.3301082166
 20
213.8227044078
 30
0.0
 10
230.3301111985
 20
213.8253681093
 30
0.0
 10
230.3259318339
 20
213.8397964112
 30
0.0
 10
230.3089654321
 20
213.8444074196
 30
0.0
 10
230.2977358464
 20
213.8470313438
 30
0.0
  0
SPLINE
  5
38D
100
AcDbEntity
  8
0
100
AcDbSpline
 62
7
  6
CONTINUOUS
 70
0
 71
3
 72
10
 73
6
 74
0
 42
0.0000001
 43
0.0000001
 44
0.0000000001
 40
0.0
 40
0.0
 40
0.0
 40
0.0
 40
0.1505979467
 40
0.3755815683
 40
1.0
 40
1.0
 40
1.0
 40
1.0
 10
230.2977358464
 20
213.8470313438
 30
0.0
 10
230.2755068164
 20
213.8522254171
 30
0.0
 10
230.217966104
 20
213.8541167895
 30
0.0
 10
230.0669829376
 20
213.8436627309
 30
0.0
 10
229.9397128488
 20
213.8209246954
 30
0.0
 10
229.8469843127
 20
213.8019499596
 30
0.0
  0
SPLINE
  5
38E
100
AcDbEntity
  8
0
100
AcDbSpline
 62
7
  6
CONTINUOUS
 70
0
 71
3
 72
9
 73
5
 74
0
 42
0.0000001
 43
0.0000001
 44
0.0000000001
 40
0.0
 40
0.0
 40
0.0
 40
0.0
 40
0.4692952133
 40
1.0
 40
1.0
 40
1.0
 40
1.0
 10
230.3176799299
 20
213.7959446248
 30
0.0
 10
230.3176881396
 20
213.7950408568
 30
0.0
 10
230.3181502686
 20
213.7931019352
 30
0.0
 10
230.3193210273
 20
213.7915216142
 30
0.0
 10
230.320023122
 20
213.7907788521
 30
0.0
  0
SPLINE
  5
38F
100
AcDbEntity
  8
0
100
AcDbSpline
 62
7
  6
CONTINUOUS
 70
0
 71
3
 72
10
 73
6
 74
0
 42
0.0000001
 43
0.0000001
 44
0.0000000001
 40
0.0
 40
0.0
 40
0.0
 40
0.0
 40
0.1256213644
 40
0.3427010841
 40
1.0
 40
1.0
 40
1.0
 40
1.0
 10
230.320023122
 20
213.7907788521
 30
0.0
 10
230.3241637809
 20
213.7863983543
 30
0.0
 10
230.3408147027
 20
213.781035416
 30
0.0
 10
230.3875596329
 20
213.7741891947
 30
0.0
 10
230.4302047859
 20
213.7750142975
 30
0.0
 10
230.4617039541
 20
213.7766089742
 30
0.0
  0
SPLINE
  5
390
100
AcDbEntity
  8
0
100
AcDbSpline
 62
7
  6
CONTINUOUS
 70
0
 71
3
 72
9
 73
5
 74
0
 42
0.0000001
 43
0.0000001
 44
0.0000000001
 40
0.0
 40
0.0
 40
0.0
 40
0.0
 40
0.2608681969
 40
1.0
 40
1.0
 40
1.0
 40
1.0
 10
230.4617039541
 20
213.7766089742
 30
0.0
 10
230.47772925
 20
213.7774202708
 30
0.0
 10
230.5390494348
 20
213.7820733047
 30
0.0
 10
230.6002145929
 20
213.7910299906
 30
0.0
 10
230.6443471431
 20
213.8019499596
 30
0.0
  0
SPLINE
  5
391
100
AcDbEntity
  8
0
100
AcDbSpline
 62
7
  6
CONTINUOUS
 70
0
 71
3
 72
9
 73
5
 74
0
 42
0.0000001
 43
0.0000001
 44
0.0000000001
 40
0.0
 40
0.0
 40
0.0
 40
0.0
 40
0.1876406167
 40
1.0
 40
1.0
 40
1.0
 40
1.0
 10
240.8649748727
 20
213.8227044078
 30
0.0
 10
240.8649778546
 20
213.8253681093
 30
0.0
 10
240.86079849
 20
213.8397964112
 30
0.0
 10
240.8438320882
 20
213.8444074196
 30
0.0
 10
240.8326025025
 20
213.8470313438
 30
0.0
  0
SPLINE
  5
392
100
AcDbEntity
  8
0
100
AcDbSpline
 62
7
  6
CONTINUOUS
 70
0
 71
3
 72
10
 73
6
 74
0
 42
0.0000001
 43
0.0000001
 44
0.0000000001
 40
0.0
 40
0.0
 40
0.0
 40
0.0
 40
0.1505979467
 40
0.3755815683
 40
1.0
 40
1.0
 40
1.0
 40
1.0
 10
240.8326025025
 20
213.8470313438
 30
0.0
 10
240.8103734725
 20
213.8522254171
 30
0.0
 10
240.75283276
 20
213.8541167895
 30
0.0
 10
240.6018495937
 20
213.8436627309
 30
0.0
 10
240.4745795049
 20
213.8209246954
 30
0.0
 10
240.3818509688
 20
213.8019499596
 30
0.0
  0
SPLINE
  5
393
100
AcDbEntity
  8
0
100
AcDbSpline
 62
7
  6
CONTINUOUS
 70
0
 71
3
 72
9
 73
5
 74
0
 42
0.0000001
 43
0.0000001
 44
0.0000000001
 40
0.0
 40
0.0
 40
0.0
 40
0.0
 40
0.4692952133
 40
1.0
 40
1.0
 40
1.0
 40
1.0
 10
240.852546586
 20
213.7959446248
 30
0.0
 10
240.8525547957
 20
213.7950408568
 30
0.0
 10
240.8530169247
 20
213.7931019352
 30
0.0
 10
240.8541876833
 20
213.7915216142
 30
0.0
 10
240.8548897781
 20
213.7907788521
 30
0.0
  0
SPLINE
  5
394
100
AcDbEntity
  8
0
100
AcDbSpline
 62
7
  6
CONTINUOUS
 70
0
 71
3
 72
10
 73
6
 74
0
 42
0.0000001
 43
0.0000001
 44
0.0000000001
 40
0.0
 40
0.0
 40
0.0
 40
0.0
 40
0.1256213644
 40
0.3427010841
 40
1.0
 40
1.0
 40
1.0
 40
1.0
 10
240.8548897781
 20
213.7907788521
 30
0.0
 10
240.859030437
 20
213.7863983543
 30
0.0
 10
240.8756813588
 20
213.781035416
 30
0.0
 10
240.922426289
 20
213.7741891947
 30
0.0
 10
240.965071442
 20
213.7750142975
 30
0.0
 10
240.9965706102
 20
213.7766089742
 30
0.0
  0
SPLINE
  5
395
100
AcDbEntity
  8
0
100
AcDbSpline
 62
7
  6
CONTINUOUS
 70
0
 71
3
 72
9
 73
5
 74
0
 42
0.0000001
 43
0.0000001
 44
0.0000000001
 40
0.0
 40
0.0
 40
0.0
 40
0.0
 40
0.2608681969
 40
1.0
 40
1.0
 40
1.0
 40
1.0
 10
240.9965706102
 20
213.7766089742
 30
0.0
 10
241.0125959061
 20
213.7774202708
 30
0.0
 10
241.0739160908
 20
213.7820733047
 30
0.0
 10
241.135081249
 20
213.7910299906
 30
0.0
 10
241.1792137992
 20
213.8019499596
 30
0.0
  0
SPLINE
  5
396
100
AcDbEntity
  8
0
100
AcDbSpline
 62
7
  6
CONTINUOUS
 70
0
 71
3
 72
9
 73
5
 74
0
 42
0.0000001
 43
0.0000001
 44
0.0000000001
 40
0.0
 40
0.0
 40
0.0
 40
0.0
 40
0.2402173856
 40
1.0
 40
1.0
 40
1.0
 40
1.0
 10
182.9528936031
 20
221.8376130427
 30
0.0
 10
183.0430026746
 20
221.8376130427
 30
0.0
 10
183.4181103416
 20
221.8273895314
 30
0.0
 10
183.7916575395
 20
221.7791333704
 30
0.0
 10
184.0718588816
 20
221.727023739
 30
0.0
  0
SPLINE
  5
397
100
AcDbEntity
  8
0
100
AcDbSpline
 62
7
  6
CONTINUOUS
 70
0
 71
3
 72
9
 73
5
 74
0
 42
0.0000001
 43
0.0000001
 44
0.0000000001
 40
0.0
 40
0.0
 40
0.0
 40
0.0
 40
0.2728279565
 40
1.0
 40
1.0
 40
1.0
 40
1.0
 10
178.7324039164
 20
222.1352352042
 30
0.0
 10
178.7408118892
 20
222.1192387872
 30
0.0
 10
178.7729419205
 20
222.0613434954
 30
0.0
 10
178.8107752032
 20
222.0063375369
 30
0.0
 10
178.8425105861
 20
221.9701042457
 30
0.0
  0
SPLINE
  5
398
100
AcDbEntity
  8
0
100
AcDbSpline
 62
7
  6
CONTINUOUS
 70
0
 71
3
 72
9
 73
5
 74
0
 42
0.0000001
 43
0.0000001
 44
0.0000000001
 40
0.0
 40
0.0
 40
0.0
 40
0.0
 40
0.5355558368
 40
1.0
 40
1.0
 40
1.0
 40
1.0
 10
178.8425105861
 20
221.9701042457
 30
0.0
 10
178.8770584235
 20
221.9306598863
 30
0.0
 10
178.9519755357
 20
221.8633976429
 30
0.0
 10
179.0511909806
 20
221.8376130427
 30
0.0
 10
179.0966634511
 20
221.8376130427
 30
0.0
  0
SPLINE
  5
399
100
AcDbEntity
  8
0
100
AcDbSpline
 62
7
  6
CONTINUOUS
 70
0
 71
3
 72
11
 73
7
 74
0
 42
0.0000001
 43
0.0000001
 44
0.0000000001
 40
0.0
 40
0.0
 40
0.0
 40
0.0
 40
0.3231745541
 40
0.5788248911
 40
0.7904503611
 40
1.0
 40
1.0
 40
1.0
 40
1.0
 10
184.0718588816
 20
221.727023739
 30
0.0
 10
184.2204179908
 20
221.6993958898
 30
0.0
 10
184.4843418987
 20
221.6347245901
 30
0.0
 10
184.8206409758
 20
221.4680813493
 30
0.0
 10
185.0340996486
 20
221.2186177147
 30
0.0
 10
185.0718588816
 20
221.0164743543
 30
0.0
 10
185.0718588816
 20
220.9184955208
 30
0.0
  0
SPLINE
  5
39A
100
AcDbEntity
  8
0
100
AcDbSpline
 62
7
  6
CONTINUOUS
 70
0
 71
3
 72
9
 73
5
 74
0
 42
0.0000001
 43
0.0000001
 44
0.0000000001
 40
0.0
 40
0.0
 40
0.0
 40
0.0
 40
0.5791601431
 40
1.0
 40
1.0
 40
1.0
 40
1.0
 10
176.9520677572
 20
223.1245814347
 30
0.0
 10
176.9606361721
 20
223.0758574663
 30
0.0
 10
176.9733247803
 20
222.9914302627
 30
0.0
 10
176.9817458412
 20
222.9061614488
 30
0.0
 10
176.9816158299
 20
222.8702137052
 30
0.0
  0
SPLINE
  5
39B
100
AcDbEntity
  8
0
100
AcDbSpline
 62
7
  6
CONTINUOUS
 70
0
 71
3
 72
9
 73
5
 74
0
 42
0.0000001
 43
0.0000001
 44
0.0000000001
 40
0.0
 40
0.0
 40
0.0
 40
0.0
 40
0.7118988907
 40
1.0
 40
1.0
 40
1.0
 40
1.0
 10
176.9816158299
 20
222.8702137052
 30
0.0
 10
176.9815763693
 20
222.8593029771
 30
0.0
 10
176.981970276
 20
222.8470045475
 30
0.0
 10
176.9762719782
 20
222.8263982092
 30
0.0
 10
176.971856855
 20
222.8264583994
 30
0.0
  0
SPLINE
  5
39C
100
AcDbEntity
  8
0
100
AcDbSpline
 62
7
  6
CONTINUOUS
 70
0
 71
3
 72
8
 73
4
 74
0
 42
0.0000001
 43
0.0000001
 44
0.0000000001
 40
0.0
 40
0.0
 40
0.0
 40
0.0
 40
1.0
 40
1.0
 40
1.0
 40
1.0
 10
261.1379218606
 20
181.9033027888
 30
0.0
 10
261.1336923122
 20
181.9032784593
 30
0.0
 10
261.129416431
 20
181.9013345584
 30
0.0
 10
261.1260873207
 20
181.8987255937
 30
0.0
  0
SPLINE
  5
39D
100
AcDbEntity
  8
0
100
AcDbSpline
 62
7
  6
CONTINUOUS
 70
0
 71
3
 72
9
 73
5
 74
0
 42
0.0000001
 43
0.0000001
 44
0.0000000001
 40
0.0
 40
0.0
 40
0.0
 40
0.0
 40
0.7092022353
 40
1.0
 40
1.0
 40
1.0
 40
1.0
 10
261.1260873207
 20
181.8987255937
 30
0.0
 10
261.1221854462
 20
181.8956677639
 30
0.0
 10
261.1177322368
 20
181.890055314
 30
0.0
 10
261.114157795
 20
181.8840681105
 30
0.0
 10
261.1131722981
 20
181.8822903167
 30
0.0
  0
SPLINE
  5
39E
100
AcDbEntity
  8
0
100
AcDbSpline
 62
7
  6
CONTINUOUS
 70
0
 71
3
 72
14
 73
10
 74
0
 42
0.0000001
 43
0.0000001
 44
0.0000000001
 40
0.0
 40
0.0
 40
0.0
 40
0.0
 40
0.0710972779
 40
0.1818266203
 40
0.3233975718
 40
0.4827245611
 40
0.7926599936
 40
0.9146562223
 40
1.0
 40
1.0
 40
1.0
 40
1.0
 10
261.1131722981
 20
181.8822903167
 30
0.0
 10
261.1010583278
 20
181.8604372359
 30
0.0
 10
261.0855827837
 20
181.7971655845
 30
0.0
 10
261.0710734257
 20
181.6848942564
 30
0.0
 10
261.0646140211
 20
181.5400013669
 30
0.0
 10
261.0674489877
 20
181.325451441
 30
0.0
 10
261.0846288418
 20
181.1175707452
 30
0.0
 10
261.1185296035
 20
180.9391084728
 30
0.0
 10
261.1391457149
 20
180.8686104584
 30
0.0
 10
261.1520677591
 20
180.8415440474
 30
0.0
  0
SPLINE
  5
39F
100
AcDbEntity
  8
0
100
AcDbSpline
 62
7
  6
CONTINUOUS
 70
0
 71
3
 72
13
 73
9
 74
0
 42
0.0000001
 43
0.0000001
 44
0.0000000001
 40
0.0
 40
0.0
 40
0.0
 40
0.0
 40
0.0198148827
 40
0.0718728286
 40
0.1577273466
 40
0.2753841045
 40
0.5955880108
 40
1.0
 40
1.0
 40
1.0
 40
1.0
 10
261.1791507274
 20
179.6198175345
 30
0.0
 10
261.1805760581
 20
179.6198055761
 30
0.0
 10
261.1818404024
 20
179.6125914735
 30
0.0
 10
261.1815694637
 20
179.603087655
 30
0.0
 10
261.180280134
 20
179.5837280735
 30
0.0
 10
261.175839604
 20
179.5468986294
 30
0.0
 10
261.1666051982
 20
179.4865873009
 30
0.0
 10
261.1574362595
 20
179.4354111345
 30
0.0
 10
261.1520677515
 20
179.4068194561
 30
0.0
  0
SPLINE
  5
3A0
100
AcDbEntity
  8
0
100
AcDbSpline
 62
7
  6
CONTINUOUS
 70
0
 71
3
 72
9
 73
5
 74
0
 42
0.0000001
 43
0.0000001
 44
0.0000000001
 40
0.0
 40
0.0
 40
0.0
 40
0.0
 40
0.3028959591
 40
1.0
 40
1.0
 40
1.0
 40
1.0
 10
261.1141068728
 20
181.0027761653
 30
0.0
 10
261.116877739
 20
181.0156654453
 30
0.0
 10
261.1268190371
 20
181.0579782713
 30
0.0
 10
261.1389953139
 20
181.1002039438
 30
0.0
 10
261.1520677591
 20
181.1275853836
 30
0.0
  0
SPLINE
  5
3A1
100
AcDbEntity
  8
0
100
AcDbSpline
 62
7
  6
CONTINUOUS
 70
0
 71
3
 72
9
 73
5
 74
0
 42
0.0000001
 43
0.0000001
 44
0.0000000001
 40
0.0
 40
0.0
 40
0.0
 40
0.0
 40
0.2685702687
 40
1.0
 40
1.0
 40
1.0
 40
1.0
 10
261.1090375574
 20
181.8854478368
 30
0.0
 10
261.1122172993
 20
181.8642179443
 30
0.0
 10
261.1246640438
 20
181.7852660862
 30
0.0
 10
261.1393229888
 20
181.7066345672
 30
0.0
 10
261.1520677572
 20
181.6495778014
 30
0.0
  0
SPLINE
  5
3A2
100
AcDbEntity
  8
0
100
AcDbSpline
 62
7
  6
CONTINUOUS
 70
0
 71
3
 72
9
 73
5
 74
0
 42
0.0000001
 43
0.0000001
 44
0.0000000001
 40
0.0
 40
0.0
 40
0.0
 40
0.0
 40
0.1053524138
 40
1.0
 40
1.0
 40
1.0
 40
1.0
 10
261.1791507274
 20
182.3493118965
 30
0.0
 10
261.1795980026
 20
182.3493156491
 30
0.0
 10
261.1829521594
 20
182.3528682878
 30
0.0
 10
261.1816413138
 20
182.3575922462
 30
0.0
 10
261.18161583
 20
182.361390534
 30
0.0
  0
SPLINE
  5
3A3
100
AcDbEntity
  8
0
100
AcDbSpline
 62
7
  6
CONTINUOUS
 70
0
 71
3
 72
9
 73
5
 74
0
 42
0.0000001
 43
0.0000001
 44
0.0000000001
 40
0.0
 40
0.0
 40
0.0
 40
0.0
 40
0.3690526085
 40
1.0
 40
1.0
 40
1.0
 40
1.0
 10
261.18161583
 20
182.361390534
 30
0.0
 10
261.1814481434
 20
182.3863836969
 30
0.0
 10
261.170937502
 20
182.4536361712
 30
0.0
 10
261.1599531988
 20
182.5203135434
 30
0.0
 10
261.1520677572
 20
182.5623099443
 30
0.0
  0
SPLINE
  5
3A4
100
AcDbEntity
  8
0
100
AcDbSpline
 62
7
  6
CONTINUOUS
 70
0
 71
3
 72
16
 73
12
 74
0
 42
0.0000001
 43
0.0000001
 44
0.0000000001
 40
0.0
 40
0.0
 40
0.0
 40
0.0
 40
0.0060750272
 40
0.021247514
 40
0.046112069
 40
0.0804975658
 40
0.1765200437
 40
0.3045629069
 40
0.4584161234
 40
0.6310187055
 40
1.0
 40
1.0
 40
1.0
 40
1.0
 10
261.0691157006
 20
182.9110063807
 30
0.0
 10
261.0678224235
 20
182.9110140799
 30
0.0
 10
261.0660300232
 20
182.9051030647
 30
0.0
 10
261.0658192296
 20
182.8965922106
 30
0.0
 10
261.0658479087
 20
182.8800319917
 30
0.0
 10
261.0679962517
 20
182.8474530196
 30
0.0
 10
261.073488184
 20
182.7923977749
 30
0.0
 10
261.0834786366
 20
182.7126977998
 30
0.0
 10
261.0969565179
 20
182.6168328649
 30
0.0
 10
261.1193094769
 20
182.4704972588
 30
0.0
 10
261.1384000747
 20
182.3567752689
 30
0.0
 10
261.1520677623
 20
182.2794218037
 30
0.0
  0
SPLINE
  5
3A5
100
AcDbEntity
  8
0
100
AcDbSpline
 62
7
  6
CONTINUOUS
 70
0
 71
3
 72
8
 73
4
 74
0
 42
0.0000001
 43
0.0000001
 44
0.0000000001
 40
0.0
 40
0.0
 40
0.0
 40
0.0
 40
1.0
 40
1.0
 40
1.0
 40
1.0
 10
261.1379218606
 20
202.4093994432
 30
0.0
 10
261.1336923122
 20
202.4093751137
 30
0.0
 10
261.129416431
 20
202.4074312128
 30
0.0
 10
261.1260873207
 20
202.4048222481
 30
0.0
  0
SPLINE
  5
3A6
100
AcDbEntity
  8
0
100
AcDbSpline
 62
7
  6
CONTINUOUS
 70
0
 71
3
 72
9
 73
5
 74
0
 42
0.0000001
 43
0.0000001
 44
0.0000000001
 40
0.0
 40
0.0
 40
0.0
 40
0.0
 40
0.7092022353
 40
1.0
 40
1.0
 40
1.0
 40
1.0
 10
261.1260873207
 20
202.4048222481
 30
0.0
 10
261.1221854462
 20
202.4017644183
 30
0.0
 10
261.1177322368
 20
202.3961519684
 30
0.0
 10
261.114157795
 20
202.3901647649
 30
0.0
 10
261.1131722981
 20
202.3883869711
 30
0.0
  0
SPLINE
  5
3A7
100
AcDbEntity
  8
0
100
AcDbSpline
 62
7
  6
CONTINUOUS
 70
0
 71
3
 72
14
 73
10
 74
0
 42
0.0000001
 43
0.0000001
 44
0.0000000001
 40
0.0
 40
0.0
 40
0.0
 40
0.0
 40
0.0710972779
 40
0.1818266203
 40
0.3233975718
 40
0.4827245611
 40
0.7926599936
 40
0.9146562223
 40
1.0
 40
1.0
 40
1.0
 40
1.0
 10
261.1131722981
 20
202.3883869711
 30
0.0
 10
261.1010583278
 20
202.3665338903
 30
0.0
 10
261.0855827837
 20
202.3032622389
 30
0.0
 10
261.0710734257
 20
202.1909909108
 30
0.0
 10
261.0646140211
 20
202.0460980213
 30
0.0
 10
261.0674489877
 20
201.8315480954
 30
0.0
 10
261.0846288418
 20
201.6236673997
 30
0.0
 10
261.1185296035
 20
201.4452051272
 30
0.0
 10
261.1391457149
 20
201.3747071128
 30
0.0
 10
261.1520677591
 20
201.3476407018
 30
0.0
  0
SPLINE
  5
3A8
100
AcDbEntity
  8
0
100
AcDbSpline
 62
7
  6
CONTINUOUS
 70
0
 71
3
 72
13
 73
9
 74
0
 42
0.0000001
 43
0.0000001
 44
0.0000000001
 40
0.0
 40
0.0
 40
0.0
 40
0.0
 40
0.0198148827
 40
0.0718728286
 40
0.1577273466
 40
0.2753841045
 40
0.5955880108
 40
1.0
 40
1.0
 40
1.0
 40
1.0
 10
261.1791507274
 20
200.1259141889
 30
0.0
 10
261.1805760581
 20
200.1259022305
 30
0.0
 10
261.1818404024
 20
200.1186881279
 30
0.0
 10
261.1815694637
 20
200.1091843094
 30
0.0
 10
261.180280134
 20
200.0898247279
 30
0.0
 10
261.175839604
 20
200.0529952838
 30
0.0
 10
261.1666051982
 20
199.9926839553
 30
0.0
 10
261.1574362595
 20
199.9415077889
 30
0.0
 10
261.1520677515
 20
199.9129161105
 30
0.0
  0
SPLINE
  5
3A9
100
AcDbEntity
  8
0
100
AcDbSpline
 62
7
  6
CONTINUOUS
 70
0
 71
3
 72
9
 73
5
 74
0
 42
0.0000001
 43
0.0000001
 44
0.0000000001
 40
0.0
 40
0.0
 40
0.0
 40
0.0
 40
0.3028959591
 40
1.0
 40
1.0
 40
1.0
 40
1.0
 10
261.1141068728
 20
201.5088728197
 30
0.0
 10
261.116877739
 20
201.5217620997
 30
0.0
 10
261.1268190371
 20
201.5640749257
 30
0.0
 10
261.1389953139
 20
201.6063005982
 30
0.0
 10
261.1520677591
 20
201.633682038
 30
0.0
  0
SPLINE
  5
3AA
100
AcDbEntity
  8
0
100
AcDbSpline
 62
7
  6
CONTINUOUS
 70
0
 71
3
 72
9
 73
5
 74
0
 42
0.0000001
 43
0.0000001
 44
0.0000000001
 40
0.0
 40
0.0
 40
0.0
 40
0.0
 40
0.2685702687
 40
1.0
 40
1.0
 40
1.0
 40
1.0
 10
261.1090375574
 20
202.3915444912
 30
0.0
 10
261.1122172993
 20
202.3703145988
 30
0.0
 10
261.1246640438
 20
202.2913627407
 30
0.0
 10
261.1393229888
 20
202.2127312216
 30
0.0
 10
261.1520677572
 20
202.1556744558
 30
0.0
  0
SPLINE
  5
3AB
100
AcDbEntity
  8
0
100
AcDbSpline
 62
7
  6
CONTINUOUS
 70
0
 71
3
 72
9
 73
5
 74
0
 42
0.0000001
 43
0.0000001
 44
0.0000000001
 40
0.0
 40
0.0
 40
0.0
 40
0.0
 40
0.1053524138
 40
1.0
 40
1.0
 40
1.0
 40
1.0
 10
261.1791507274
 20
202.855408551
 30
0.0
 10
261.1795980026
 20
202.8554123035
 30
0.0
 10
261.1829521594
 20
202.8589649422
 30
0.0
 10
261.1816413138
 20
202.8636889006
 30
0.0
 10
261.18161583
 20
202.8674871884
 30
0.0
  0
SPLINE
  5
3AC
100
AcDbEntity
  8
0
100
AcDbSpline
 62
7
  6
CONTINUOUS
 70
0
 71
3
 72
9
 73
5
 74
0
 42
0.0000001
 43
0.0000001
 44
0.0000000001
 40
0.0
 40
0.0
 40
0.0
 40
0.0
 40
0.3690526085
 40
1.0
 40
1.0
 40
1.0
 40
1.0
 10
261.18161583
 20
202.8674871884
 30
0.0
 10
261.1814481434
 20
202.8924803513
 30
0.0
 10
261.170937502
 20
202.9597328256
 30
0.0
 10
261.1599531988
 20
203.0264101978
 30
0.0
 10
261.1520677572
 20
203.0684065987
 30
0.0
  0
SPLINE
  5
3AD
100
AcDbEntity
  8
0
100
AcDbSpline
 62
7
  6
CONTINUOUS
 70
0
 71
3
 72
16
 73
12
 74
0
 42
0.0000001
 43
0.0000001
 44
0.0000000001
 40
0.0
 40
0.0
 40
0.0
 40
0.0
 40
0.0060750272
 40
0.021247514
 40
0.046112069
 40
0.0804975658
 40
0.1765200437
 40
0.3045629069
 40
0.4584161234
 40
0.6310187055
 40
1.0
 40
1.0
 40
1.0
 40
1.0
 10
261.0691157006
 20
203.4171030351
 30
0.0
 10
261.0678224235
 20
203.4171107343
 30
0.0
 10
261.0660300232
 20
203.4111997191
 30
0.0
 10
261.0658192296
 20
203.402688865
 30
0.0
 10
261.0658479087
 20
203.3861286461
 30
0.0
 10
261.0679962517
 20
203.353549674
 30
0.0
 10
261.073488184
 20
203.2984944293
 30
0.0
 10
261.0834786366
 20
203.2187944542
 30
0.0
 10
261.0969565179
 20
203.1229295193
 30
0.0
 10
261.1193094769
 20
202.9765939132
 30
0.0
 10
261.1384000747
 20
202.8628719233
 30
0.0
 10
261.1520677623
 20
202.7855184581
 30
0.0
  0
SPLINE
  5
3AE
100
AcDbEntity
  8
0
100
AcDbSpline
 62
7
  6
CONTINUOUS
 70
0
 71
3
 72
13
 73
9
 74
0
 42
0.0000001
 43
0.0000001
 44
0.0000000001
 40
0.0
 40
0.0
 40
0.0
 40
0.0
 40
0.2761457509
 40
0.6135807058
 40
0.7656692958
 40
0.8862633845
 40
0.9648727044
 40
1.0
 40
1.0
 40
1.0
 40
1.0
 10
183.9520677635
 20
212.2904099039
 30
0.0
 10
183.925849842
 20
212.2012259045
 30
0.0
 10
183.8911704416
 20
211.9968686146
 30
0.0
 10
183.8680120536
 20
211.7391847311
 30
0.0
 10
183.8639568743
 20
211.5354146106
 30
0.0
 10
183.8724132276
 20
211.4136313502
 30
0.0
 10
183.8810692778
 20
211.3427360428
 30
0.0
 10
183.9026878143
 20
211.2980538696
 30
0.0
 10
183.9145124206
 20
211.2981150427
 30
0.0
  0
SPLINE
  5
3AF
100
AcDbEntity
  8
0
100
AcDbSpline
 62
7
  6
CONTINUOUS
 70
0
 71
3
 72
11
 73
7
 74
0
 42
0.0000001
 43
0.0000001
 44
0.0000000001
 40
0.0
 40
0.0
 40
0.0
 40
0.0
 40
0.2208645624
 40
0.5000935122
 40
0.7792617366
 40
1.0
 40
1.0
 40
1.0
 40
1.0
 10
183.9520677572
 20
212.830816203
 30
0.0
 10
183.9633792659
 20
212.7923384894
 30
0.0
 10
183.9772557685
 20
212.7020239676
 30
0.0
 10
183.9840706001
 20
212.5605734033
 30
0.0
 10
183.977197173
 20
212.4191544941
 30
0.0
 10
183.9633728015
 20
212.3288656151
 30
0.0
 10
183.9520677635
 20
212.2904099039
 30
0.0
  0
SPLINE
  5
3B0
100
AcDbEntity
  8
0
100
AcDbSpline
 62
7
  6
CONTINUOUS
 70
0
 71
3
 72
9
 73
5
 74
0
 42
0.0000001
 43
0.0000001
 44
0.0000000001
 40
0.0
 40
0.0
 40
0.0
 40
0.0
 40
0.5791601348
 40
1.0
 40
1.0
 40
1.0
 40
1.0
 10
183.9520677572
 20
214.0475814347
 30
0.0
 10
183.9606361717
 20
213.9988574685
 30
0.0
 10
183.9733247797
 20
213.9144302675
 30
0.0
 10
183.9817458405
 20
213.8291614563
 30
0.0
 10
183.9816158299
 20
213.7932137132
 30
0.0
  0
SPLINE
  5
3B1
100
AcDbEntity
  8
0
100
AcDbSpline
 62
7
  6
CONTINUOUS
 70
0
 71
3
 72
9
 73
5
 74
0
 42
0.0000001
 43
0.0000001
 44
0.0000000001
 40
0.0
 40
0.0
 40
0.0
 40
0.0
 40
0.7118988973
 40
1.0
 40
1.0
 40
1.0
 40
1.0
 10
183.9816158299
 20
213.7932137132
 30
0.0
 10
183.9815763696
 20
213.7823029831
 30
0.0
 10
183.9819702764
 20
213.7700045519
 30
0.0
 10
183.9762719789
 20
213.7493982092
 30
0.0
 10
183.971856855
 20
213.7494583994
 30
0.0
  0
SPLINE
  5
3B2
100
AcDbEntity
  8
0
100
AcDbSpline
 62
7
  6
CONTINUOUS
 70
0
 71
3
 72
14
 73
10
 74
0
 42
0.0000001
 43
0.0000001
 44
0.0000000001
 40
0.0
 40
0.0
 40
0.0
 40
0.0
 40
0.0359505969
 40
0.0697233487
 40
0.1147486803
 40
0.2352002584
 40
0.3871037912
 40
0.7240671833
 40
1.0
 40
1.0
 40
1.0
 40
1.0
 10
150.173719725
 20
178.5751155058
 30
0.0
 10
150.1858466906
 20
178.5750552778
 30
0.0
 10
150.2006047909
 20
178.6024629426
 30
0.0
 10
150.2096593651
 20
178.6372673682
 30
0.0
 10
150.2210046572
 20
178.7049710113
 30
0.0
 10
150.226395925
 20
178.8112265056
 30
0.0
 10
150.2235394003
 20
179.0173089771
 30
0.0
 10
150.1982099893
 20
179.2739658072
 30
0.0
 10
150.1616224101
 20
179.4785280481
 30
0.0
 10
150.1339846519
 20
179.5674098573
 30
0.0
  0
SPLINE
  5
3B3
100
AcDbEntity
  8
0
100
AcDbSpline
 62
7
  6
CONTINUOUS
 70
0
 71
3
 72
9
 73
5
 74
0
 42
0.0000001
 43
0.0000001
 44
0.0000000001
 40
0.0
 40
0.0
 40
0.0
 40
0.0
 40
0.278705879
 40
1.0
 40
1.0
 40
1.0
 40
1.0
 10
150.1130559437
 20
181.0264584951
 30
0.0
 10
150.1065929415
 20
181.0263752788
 30
0.0
 10
150.1016890506
 20
181.05979667
 30
0.0
 10
150.1025294163
 20
181.0772253673
 30
0.0
 10
150.1032965162
 20
181.0939354818
 30
0.0
  0
SPLINE
  5
3B4
100
AcDbEntity
  8
0
100
AcDbSpline
 62
7
  6
CONTINUOUS
 70
0
 71
3
 72
9
 73
5
 74
0
 42
0.0000001
 43
0.0000001
 44
0.0000000001
 40
0.0
 40
0.0
 40
0.0
 40
0.0
 40
0.2006498204
 40
1.0
 40
1.0
 40
1.0
 40
1.0
 10
150.1032965162
 20
181.0939354818
 30
0.0
 10
150.1040104748
 20
181.1094879917
 30
0.0
 10
150.1102454911
 20
181.18686449
 30
0.0
 10
150.122642222
 20
181.2636039913
 30
0.0
 10
150.1339846576
 20
181.3245815076
 30
0.0
  0
SPLINE
  5
3B5
100
AcDbEntity
  8
0
100
AcDbSpline
 62
7
  6
CONTINUOUS
 70
0
 71
3
 72
13
 73
9
 74
0
 42
0.0000001
 43
0.0000001
 44
0.0000000001
 40
0.0
 40
0.0
 40
0.0
 40
0.0
 40
0.0351558711
 40
0.1138157072
 40
0.2344574857
 40
0.386585206
 40
0.7239684313
 40
1.0
 40
1.0
 40
1.0
 40
1.0
 10
183.9145159614
 20
213.8231052703
 30
0.0
 10
183.9026818847
 20
213.8231821286
 30
0.0
 10
183.881059538
 20
213.778425488
 30
0.0
 10
183.8724030677
 20
213.7075237293
 30
0.0
 10
183.8639488267
 20
213.5856774026
 30
0.0
 10
183.8680299737
 20
213.3819045736
 30
0.0
 10
183.8911757764
 20
213.1242602687
 30
0.0
 10
183.9258608063
 20
212.9199628929
 30
0.0
 10
183.9520677572
 20
212.830816203
 30
0.0
  0
SPLINE
  5
3B6
100
AcDbEntity
  8
0
100
AcDbSpline
 62
7
  6
CONTINUOUS
 70
0
 71
3
 72
9
 73
5
 74
0
 42
0.0000001
 43
0.0000001
 44
0.0000000001
 40
0.0
 40
0.0
 40
0.0
 40
0.0
 40
0.276324088
 40
1.0
 40
1.0
 40
1.0
 40
1.0
 10
183.9718829495
 20
211.3717569799
 30
0.0
 10
183.9783231648
 20
211.3718618217
 30
0.0
 10
183.9822938844
 20
211.3377560948
 30
0.0
 10
183.9818029502
 20
211.3205573263
 30
0.0
 10
183.9810476248
 20
211.3037054798
 30
0.0
  0
SPLINE
  5
3B7
100
AcDbEntity
  8
0
100
AcDbSpline
 62
7
  6
CONTINUOUS
 70
0
 71
3
 72
9
 73
5
 74
0
 42
0.0000001
 43
0.0000001
 44
0.0000000001
 40
0.0
 40
0.0
 40
0.0
 40
0.0
 40
0.2010647863
 40
1.0
 40
1.0
 40
1.0
 40
1.0
 10
183.9810476248
 20
211.3037054798
 30
0.0
 10
183.9803515002
 20
211.2881744464
 30
0.0
 10
183.9744080598
 20
211.2110518317
 30
0.0
 10
183.9627670662
 20
211.1344858653
 30
0.0
 10
183.9520677522
 20
211.0736446222
 30
0.0
  0
SPLINE
  5
3B8
100
AcDbEntity
  8
0
100
AcDbSpline
 62
7
  6
CONTINUOUS
 70
0
 71
3
 72
13
 73
9
 74
0
 42
0.0000001
 43
0.0000001
 44
0.0000000001
 40
0.0
 40
0.0
 40
0.0
 40
0.0
 40
0.0323177954
 40
0.0979643856
 40
0.1996669012
 40
0.3326599939
 40
0.6596826314
 40
1.0
 40
1.0
 40
1.0
 40
1.0
 10
176.9145159614
 20
222.9001052703
 30
0.0
 10
176.906037305
 20
222.9001603363
 30
0.0
 10
176.8875708398
 20
222.8743870956
 30
0.0
 10
176.878304996
 20
222.8256985824
 30
0.0
 10
176.8679745411
 20
222.7460566692
 30
0.0
 10
176.86376642
 20
222.5993205405
 30
0.0
 10
176.8725729685
 20
222.3888900307
 30
0.0
 10
176.892142495
 20
222.21483095
 30
0.0
 10
176.9059446558
 20
222.1266191912
 30
0.0
  0
SPLINE
  5
3B9
100
AcDbEntity
  8
0
100
AcDbSpline
 62
7
  6
CONTINUOUS
 70
0
 71
3
 72
12
 73
8
 74
0
 42
0.0000001
 43
0.0000001
 44
0.0000000001
 40
0.0
 40
0.0
 40
0.0
 40
0.0
 40
0.290998874
 40
0.6076435379
 40
0.8653159785
 40
0.9500024347
 40
1.0
 40
1.0
 40
1.0
 40
1.0
 10
186.9645039639
 20
213.8019499596
 30
0.0
 10
186.9954373968
 20
213.7942959236
 30
0.0
 10
187.0612412969
 20
213.7829859478
 30
0.0
 10
187.1554455031
 20
213.7749048588
 30
0.0
 10
187.2284350954
 20
213.7748229594
 30
0.0
 10
187.2703190045
 20
213.7815978882
 30
0.0
 10
187.2850382474
 20
213.7867824033
 30
0.0
 10
187.288807832
 20
213.7907531172
 30
0.0
  0
SPLINE
  5
3BA
100
AcDbEntity
  8
0
100
AcDbSpline
 62
7
  6
CONTINUOUS
 70
0
 71
3
 72
9
 73
5
 74
0
 42
0.0000001
 43
0.0000001
 44
0.0000000001
 40
0.0
 40
0.0
 40
0.0
 40
0.0
 40
0.5309303826
 40
1.0
 40
1.0
 40
1.0
 40
1.0
 10
187.288807832
 20
213.7907531172
 30
0.0
 10
187.2895156808
 20
213.7914987339
 30
0.0
 10
187.2906964272
 20
213.7930852568
 30
0.0
 10
187.2911630507
 20
213.7950348242
 30
0.0
 10
187.2911712672
 20
213.795943101
 30
0.0
  0
SPLINE
  5
3BB
100
AcDbEntity
  8
0
100
AcDbSpline
 62
7
  6
CONTINUOUS
 70
0
 71
3
 72
13
 73
9
 74
0
 42
0.0000001
 43
0.0000001
 44
0.0000000001
 40
0.0
 40
0.0
 40
0.0
 40
0.0
 40
0.3998484554
 40
0.5700036189
 40
0.7146172857
 40
0.8304359696
 40
0.9155146013
 40
1.0
 40
1.0
 40
1.0
 40
1.0
 10
187.7618667944
 20
213.8019499596
 30
0.0
 10
187.6971980072
 20
213.8151829211
 30
0.0
 10
187.6046410305
 20
213.8319689745
 30
0.0
 10
187.4873263455
 20
213.8468232056
 30
0.0
 10
187.41703468
 20
213.8527523477
 30
0.0
 10
187.3583227153
 20
213.8528185315
 30
0.0
 10
187.315551443
 20
213.8504698147
 30
0.0
 10
187.27872895
 20
213.8366932675
 30
0.0
 10
187.278745361
 20
213.8227460411
 30
0.0
  0
SPLINE
  5
3BC
100
AcDbEntity
  8
0
100
AcDbSpline
 62
7
  6
CONTINUOUS
 70
0
 71
3
 72
9
 73
5
 74
0
 42
0.0000001
 43
0.0000001
 44
0.0000000001
 40
0.0
 40
0.0
 40
0.0
 40
0.0
 40
0.4999899985
 40
1.0
 40
1.0
 40
1.0
 40
1.0
 10
186.9645039639
 20
213.8019499596
 30
0.0
 10
186.8104824793
 20
213.8400603756
 30
0.0
 10
186.4912232086
 20
213.8655533188
 30
0.0
 10
186.1719635006
 20
213.8400619003
 30
0.0
 10
186.0179358541
 20
213.8019499596
 30
0.0
  0
SPLINE
  5
3BD
100
AcDbEntity
  8
0
100
AcDbSpline
 62
7
  6
CONTINUOUS
 70
0
 71
3
 72
12
 73
8
 74
0
 42
0.0000001
 43
0.0000001
 44
0.0000000001
 40
0.0
 40
0.0
 40
0.0
 40
0.0
 40
0.290998874
 40
0.6076435379
 40
0.8653159785
 40
0.9500024347
 40
1.0
 40
1.0
 40
1.0
 40
1.0
 10
197.49937062
 20
213.8019499596
 30
0.0
 10
197.5303040529
 20
213.7942959236
 30
0.0
 10
197.596107953
 20
213.7829859478
 30
0.0
 10
197.6903121592
 20
213.7749048588
 30
0.0
 10
197.7633017515
 20
213.7748229594
 30
0.0
 10
197.8051856606
 20
213.7815978882
 30
0.0
 10
197.8199049034
 20
213.7867824033
 30
0.0
 10
197.8236744881
 20
213.7907531172
 30
0.0
  0
SPLINE
  5
3BE
100
AcDbEntity
  8
0
100
AcDbSpline
 62
7
  6
CONTINUOUS
 70
0
 71
3
 72
9
 73
5
 74
0
 42
0.0000001
 43
0.0000001
 44
0.0000000001
 40
0.0
 40
0.0
 40
0.0
 40
0.0
 40
0.5309303826
 40
1.0
 40
1.0
 40
1.0
 40
1.0
 10
197.8236744881
 20
213.7907531172
 30
0.0
 10
197.8243823369
 20
213.7914987339
 30
0.0
 10
197.8255630833
 20
213.7930852568
 30
0.0
 10
197.8260297068
 20
213.7950348242
 30
0.0
 10
197.8260379233
 20
213.795943101
 30
0.0
  0
SPLINE
  5
3BF
100
AcDbEntity
  8
0
100
AcDbSpline
 62
7
  6
CONTINUOUS
 70
0
 71
3
 72
13
 73
9
 74
0
 42
0.0000001
 43
0.0000001
 44
0.0000000001
 40
0.0
 40
0.0
 40
0.0
 40
0.0
 40
0.3998484554
 40
0.5700036189
 40
0.7146172857
 40
0.8304359696
 40
0.9155146013
 40
1.0
 40
1.0
 40
1.0
 40
1.0
 10
198.2967334505
 20
213.8019499596
 30
0.0
 10
198.2320646633
 20
213.8151829211
 30
0.0
 10
198.1395076866
 20
213.8319689745
 30
0.0
 10
198.0221930016
 20
213.8468232056
 30
0.0
 10
197.9519013361
 20
213.8527523477
 30
0.0
 10
197.8931893714
 20
213.8528185315
 30
0.0
 10
197.8504180991
 20
213.8504698147
 30
0.0
 10
197.8135956061
 20
213.8366932675
 30
0.0
 10
197.813612017
 20
213.8227460411
 30
0.0
  0
SPLINE
  5
3C0
100
AcDbEntity
  8
0
100
AcDbSpline
 62
7
  6
CONTINUOUS
 70
0
 71
3
 72
9
 73
5
 74
0
 42
0.0000001
 43
0.0000001
 44
0.0000000001
 40
0.0
 40
0.0
 40
0.0
 40
0.0
 40
0.4999899985
 40
1.0
 40
1.0
 40
1.0
 40
1.0
 10
197.49937062
 20
213.8019499596
 30
0.0
 10
197.3453491354
 20
213.8400603756
 30
0.0
 10
197.0260898647
 20
213.8655533188
 30
0.0
 10
196.7068301567
 20
213.8400619003
 30
0.0
 10
196.5528025102
 20
213.8019499596
 30
0.0
  0
SPLINE
  5
3C1
100
AcDbEntity
  8
0
100
AcDbSpline
 62
7
  6
CONTINUOUS
 70
0
 71
3
 72
12
 73
8
 74
0
 42
0.0000001
 43
0.0000001
 44
0.0000000001
 40
0.0
 40
0.0
 40
0.0
 40
0.0
 40
0.290998874
 40
0.6076435379
 40
0.8653159785
 40
0.9500024347
 40
1.0
 40
1.0
 40
1.0
 40
1.0
 10
231.590915253
 20
213.8019499596
 30
0.0
 10
231.6218486858
 20
213.7942959236
 30
0.0
 10
231.687652586
 20
213.7829859478
 30
0.0
 10
231.7818567922
 20
213.7749048588
 30
0.0
 10
231.8548463844
 20
213.7748229594
 30
0.0
 10
231.8967302935
 20
213.7815978882
 30
0.0
 10
231.9114495364
 20
213.7867824033
 30
0.0
 10
231.9152191211
 20
213.7907531172
 30
0.0
  0
SPLINE
  5
3C2
100
AcDbEntity
  8
0
100
AcDbSpline
 62
7
  6
CONTINUOUS
 70
0
 71
3
 72
9
 73
5
 74
0
 42
0.0000001
 43
0.0000001
 44
0.0000000001
 40
0.0
 40
0.0
 40
0.0
 40
0.0
 40
0.5309303826
 40
1.0
 40
1.0
 40
1.0
 40
1.0
 10
231.9152191211
 20
213.7907531172
 30
0.0
 10
231.9159269698
 20
213.7914987339
 30
0.0
 10
231.9171077162
 20
213.7930852568
 30
0.0
 10
231.9175743397
 20
213.7950348242
 30
0.0
 10
231.9175825562
 20
213.795943101
 30
0.0
  0
SPLINE
  5
3C3
100
AcDbEntity
  8
0
100
AcDbSpline
 62
7
  6
CONTINUOUS
 70
0
 71
3
 72
13
 73
9
 74
0
 42
0.0000001
 43
0.0000001
 44
0.0000000001
 40
0.0
 40
0.0
 40
0.0
 40
0.0
 40
0.3998484554
 40
0.5700036189
 40
0.7146172857
 40
0.8304359696
 40
0.9155146013
 40
1.0
 40
1.0
 40
1.0
 40
1.0
 10
232.3882780834
 20
213.8019499596
 30
0.0
 10
232.3236092962
 20
213.8151829211
 30
0.0
 10
232.2310523196
 20
213.8319689745
 30
0.0
 10
232.1137376345
 20
213.8468232056
 30
0.0
 10
232.043445969
 20
213.8527523477
 30
0.0
 10
231.9847340043
 20
213.8528185315
 30
0.0
 10
231.941962732
 20
213.8504698147
 30
0.0
 10
231.905140239
 20
213.8366932675
 30
0.0
 10
231.90515665
 20
213.8227460411
 30
0.0
  0
SPLINE
  5
3C4
100
AcDbEntity
  8
0
100
AcDbSpline
 62
7
  6
CONTINUOUS
 70
0
 71
3
 72
9
 73
5
 74
0
 42
0.0000001
 43
0.0000001
 44
0.0000000001
 40
0.0
 40
0.0
 40
0.0
 40
0.0
 40
0.4999899985
 40
1.0
 40
1.0
 40
1.0
 40
1.0
 10
231.590915253
 20
213.8019499596
 30
0.0
 10
231.4368937683
 20
213.8400603756
 30
0.0
 10
231.1176344976
 20
213.8655533188
 30
0.0
 10
230.7983747897
 20
213.8400619003
 30
0.0
 10
230.6443471431
 20
213.8019499596
 30
0.0
  0
SPLINE
  5
3C5
100
AcDbEntity
  8
0
100
AcDbSpline
 62
7
  6
CONTINUOUS
 70
0
 71
3
 72
12
 73
8
 74
0
 42
0.0000001
 43
0.0000001
 44
0.0000000001
 40
0.0
 40
0.0
 40
0.0
 40
0.0
 40
0.290998874
 40
0.6076435379
 40
0.8653159785
 40
0.9500024347
 40
1.0
 40
1.0
 40
1.0
 40
1.0
 10
242.125781909
 20
213.8019499596
 30
0.0
 10
242.1567153419
 20
213.7942959236
 30
0.0
 10
242.222519242
 20
213.7829859478
 30
0.0
 10
242.3167234482
 20
213.7749048588
 30
0.0
 10
242.3897130405
 20
213.7748229594
 30
0.0
 10
242.4315969496
 20
213.7815978882
 30
0.0
 10
242.4463161925
 20
213.7867824033
 30
0.0
 10
242.4500857771
 20
213.7907531172
 30
0.0
  0
SPLINE
  5
3C6
100
AcDbEntity
  8
0
100
AcDbSpline
 62
7
  6
CONTINUOUS
 70
0
 71
3
 72
9
 73
5
 74
0
 42
0.0000001
 43
0.0000001
 44
0.0000000001
 40
0.0
 40
0.0
 40
0.0
 40
0.0
 40
0.5309303826
 40
1.0
 40
1.0
 40
1.0
 40
1.0
 10
242.4500857771
 20
213.7907531172
 30
0.0
 10
242.4507936259
 20
213.7914987339
 30
0.0
 10
242.4519743723
 20
213.7930852568
 30
0.0
 10
242.4524409958
 20
213.7950348242
 30
0.0
 10
242.4524492123
 20
213.795943101
 30
0.0
  0
SPLINE
  5
3C7
100
AcDbEntity
  8
0
100
AcDbSpline
 62
7
  6
CONTINUOUS
 70
0
 71
3
 72
13
 73
9
 74
0
 42
0.0000001
 43
0.0000001
 44
0.0000000001
 40
0.0
 40
0.0
 40
0.0
 40
0.0
 40
0.3998484554
 40
0.5700036189
 40
0.7146172857
 40
0.8304359696
 40
0.9155146013
 40
1.0
 40
1.0
 40
1.0
 40
1.0
 10
242.9231447395
 20
213.8019499596
 30
0.0
 10
242.8584759523
 20
213.8151829211
 30
0.0
 10
242.7659189756
 20
213.8319689745
 30
0.0
 10
242.6486042906
 20
213.8468232056
 30
0.0
 10
242.5783126251
 20
213.8527523477
 30
0.0
 10
242.5196006604
 20
213.8528185315
 30
0.0
 10
242.4768293881
 20
213.8504698147
 30
0.0
 10
242.4400068951
 20
213.8366932675
 30
0.0
 10
242.4400233061
 20
213.8227460411
 30
0.0
  0
SPLINE
  5
3C8
100
AcDbEntity
  8
0
100
AcDbSpline
 62
7
  6
CONTINUOUS
 70
0
 71
3
 72
9
 73
5
 74
0
 42
0.0000001
 43
0.0000001
 44
0.0000000001
 40
0.0
 40
0.0
 40
0.0
 40
0.0
 40
0.4999899985
 40
1.0
 40
1.0
 40
1.0
 40
1.0
 10
242.125781909
 20
213.8019499596
 30
0.0
 10
241.9717604244
 20
213.8400603756
 30
0.0
 10
241.6525011537
 20
213.8655533188
 30
0.0
 10
241.3332414457
 20
213.8400619003
 30
0.0
 10
241.1792137992
 20
213.8019499596
 30
0.0
  0
SPLINE
  5
3C9
100
AcDbEntity
  8
0
100
AcDbSpline
 62
7
  6
CONTINUOUS
 70
0
 71
3
 72
14
 73
10
 74
0
 42
0.0000001
 43
0.0000001
 44
0.0000000001
 40
0.0
 40
0.0
 40
0.0
 40
0.0
 40
0.2758388605
 40
0.6127562069
 40
0.7646922152
 40
0.8851832309
 40
0.9302396722
 40
0.9640241875
 40
1.0
 40
1.0
 40
1.0
 40
1.0
 10
150.1339846441
 20
180.107816203
 30
0.0
 10
150.1616129296
 20
180.1966675385
 30
0.0
 10
150.1982080679
 20
180.4011799807
 30
0.0
 10
150.2235195504
 20
180.6577995299
 30
0.0
 10
150.2264064564
 20
180.8638922082
 30
0.0
 10
150.2210082498
 20
180.970177703
 30
0.0
 10
150.2096754734
 20
181.0379166493
 30
0.0
 10
150.2006093137
 20
181.072732035
 30
0.0
 10
150.1858507152
 20
181.1001779074
 30
0.0
 10
150.1737153353
 20
181.1001060502
 30
0.0
  0
SPLINE
  5
3CA
100
AcDbEntity
  8
0
100
AcDbSpline
 62
7
  6
CONTINUOUS
 70
0
 71
3
 72
11
 73
7
 74
0
 42
0.0000001
 43
0.0000001
 44
0.0000000001
 40
0.0
 40
0.0
 40
0.0
 40
0.0
 40
0.2208340998
 40
0.4999103514
 40
0.7790439701
 40
1.0
 40
1.0
 40
1.0
 40
1.0
 10
150.1339846519
 20
179.5674098573
 30
0.0
 10
150.1220666326
 20
179.6057376664
 30
0.0
 10
150.1074072039
 20
179.6960434185
 30
0.0
 10
150.1001438862
 20
179.837574876
 30
0.0
 10
150.1073455615
 20
179.9791382297
 30
0.0
 10
150.1220600473
 20
180.0694672309
 30
0.0
 10
150.1339846441
 20
180.107816203
 30
0.0
  0
SPLINE
  5
3CB
100
AcDbEntity
  8
0
100
AcDbSpline
 62
7
  6
CONTINUOUS
 70
0
 71
3
 72
9
 73
5
 74
0
 42
0.0000001
 43
0.0000001
 44
0.0000000001
 40
0.0
 40
0.0
 40
0.0
 40
0.0
 40
0.5765409889
 40
1.0
 40
1.0
 40
1.0
 40
1.0
 10
150.1339846498
 20
178.3506446197
 30
0.0
 10
150.125056164
 20
178.398644622
 30
0.0
 10
150.1117590844
 20
178.4822390182
 30
0.0
 10
150.1028650347
 20
178.5667171582
 30
0.0
 10
150.1027371737
 20
178.6025767941
 30
0.0
  0
SPLINE
  5
3CC
100
AcDbEntity
  8
0
100
AcDbSpline
 62
7
  6
CONTINUOUS
 70
0
 71
3
 72
9
 73
5
 74
0
 42
0.0000001
 43
0.0000001
 44
0.0000000001
 40
0.0
 40
0.0
 40
0.0
 40
0.0
 40
0.7105996498
 40
1.0
 40
1.0
 40
1.0
 40
1.0
 10
150.1027371737
 20
178.6025767941
 30
0.0
 10
150.1026961262
 20
178.6140889099
 30
0.0
 10
150.1020442566
 20
178.6271908228
 30
0.0
 10
150.1083403626
 20
178.6488290457
 30
0.0
 10
150.1130282933
 20
178.6487573437
 30
0.0
  0
SPLINE
  5
3CD
100
AcDbEntity
  8
0
100
AcDbSpline
 62
7
  6
CONTINUOUS
 70
0
 71
3
 72
9
 73
5
 74
0
 42
0.0000001
 43
0.0000001
 44
0.0000000001
 40
0.0
 40
0.0
 40
0.0
 40
0.0
 40
0.2773487976
 40
1.0
 40
1.0
 40
1.0
 40
1.0
 10
261.1520677572
 20
203.0684065987
 30
0.0
 10
261.1484699206
 20
203.08756801
 30
0.0
 10
261.1352930203
 20
203.1566161906
 30
0.0
 10
261.1213206616
 20
203.2255198571
 30
0.0
 10
261.1103422083
 20
203.2751181928
 30
0.0
  0
SPLINE
  5
3CE
100
AcDbEntity
  8
0
100
AcDbSpline
 62
7
  6
CONTINUOUS
 70
0
 71
3
 72
10
 73
6
 74
0
 42
0.0000001
 43
0.0000001
 44
0.0000000001
 40
0.0
 40
0.0
 40
0.0
 40
0.0
 40
0.1730030349
 40
0.4343823388
 40
1.0
 40
1.0
 40
1.0
 40
1.0
 10
261.1520677591
 20
201.633682038
 30
0.0
 10
261.1651442293
 20
201.6610719128
 30
0.0
 10
261.177795097
 20
201.7379230521
 30
0.0
 10
261.1860409237
 20
201.9122473085
 30
0.0
 10
261.1736998275
 20
202.0588303294
 30
0.0
 10
261.1520677572
 20
202.1556744558
 30
0.0
  0
SPLINE
  5
3CF
100
AcDbEntity
  8
0
100
AcDbSpline
 62
7
  6
CONTINUOUS
 70
0
 71
3
 72
12
 73
8
 74
0
 42
0.0000001
 43
0.0000001
 44
0.0000000001
 40
0.0
 40
0.0
 40
0.0
 40
0.0
 40
0.3652338893
 40
0.6876819208
 40
0.9077814106
 40
0.9684211319
 40
1.0
 40
1.0
 40
1.0
 40
1.0
 10
261.1520677572
 20
200.1958042532
 30
0.0
 10
261.1604025744
 20
200.2429758759
 30
0.0
 10
261.1731611554
 20
200.3324506627
 30
0.0
 10
261.1831424345
 20
200.450727791
 30
0.0
 10
261.1807887408
 20
200.5310425365
 30
0.0
 10
261.1739281323
 20
200.5705059216
 30
0.0
 10
261.1644217536
 20
200.5815474461
 30
0.0
 10
261.1602801851
 20
200.5815841802
 30
0.0
  0
SPLINE
  5
3D0
100
AcDbEntity
  8
0
100
AcDbSpline
 62
7
  6
CONTINUOUS
 70
0
 71
3
 72
14
 73
10
 74
0
 42
0.0000001
 43
0.0000001
 44
0.0000000001
 40
0.0
 40
0.0
 40
0.0
 40
0.0
 40
0.3132914616
 40
0.4839942449
 40
0.6469665458
 40
0.7892869921
 40
0.8997098738
 40
0.9701396965
 40
1.0
 40
1.0
 40
1.0
 40
1.0
 10
261.1520677572
 20
200.825648284
 30
0.0
 10
261.1314641857
 20
200.7334086204
 30
0.0
 10
261.1072337732
 20
200.5891528502
 30
0.0
 10
261.0833521898
 20
200.3956080256
 30
0.0
 10
261.0710309425
 20
200.2520283914
 30
0.0
 10
261.064564403
 20
200.1281934911
 30
0.0
 10
261.0671628839
 20
200.0268626307
 30
0.0
 10
261.0711789946
 20
199.9708043976
 30
0.0
 10
261.0853609904
 20
199.9330269956
 30
0.0
 10
261.0943691489
 20
199.9330332891
 30
0.0
  0
SPLINE
  5
3D1
100
AcDbEntity
  8
0
100
AcDbSpline
 62
7
  6
CONTINUOUS
 70
0
 71
3
 72
10
 73
6
 74
0
 42
0.0000001
 43
0.0000001
 44
0.0000000001
 40
0.0
 40
0.0
 40
0.0
 40
0.0
 40
0.1730030349
 40
0.4343823388
 40
1.0
 40
1.0
 40
1.0
 40
1.0
 10
261.1520677591
 20
201.3476407018
 30
0.0
 10
261.1651442293
 20
201.320250827
 30
0.0
 10
261.177795097
 20
201.2433996877
 30
0.0
 10
261.1860409237
 20
201.0690754314
 30
0.0
 10
261.1736998275
 20
200.9224924104
 30
0.0
 10
261.1520677572
 20
200.825648284
 30
0.0
  0
SPLINE
  5
3D2
100
AcDbEntity
  8
0
100
AcDbSpline
 62
7
  6
CONTINUOUS
 70
0
 71
3
 72
12
 73
8
 74
0
 42
0.0000001
 43
0.0000001
 44
0.0000000001
 40
0.0
 40
0.0
 40
0.0
 40
0.0
 40
0.3652338962
 40
0.6876819259
 40
0.9077814116
 40
0.9684211316
 40
1.0
 40
1.0
 40
1.0
 40
1.0
 10
261.1520677623
 20
202.7855184581
 30
0.0
 10
261.1604025784
 20
202.7383468378
 30
0.0
 10
261.1731611576
 20
202.6488720568
 30
0.0
 10
261.1831424347
 20
202.5305949369
 30
0.0
 10
261.1807887404
 20
202.4502801985
 30
0.0
 10
261.1739281316
 20
202.4108168168
 30
0.0
 10
261.1644217534
 20
202.3997752936
 30
0.0
 10
261.1602801851
 20
202.3997385596
 30
0.0
  0
SPLINE
  5
3D3
100
AcDbEntity
  8
0
100
AcDbSpline
 62
7
  6
CONTINUOUS
 70
0
 71
3
 72
9
 73
5
 74
0
 42
0.0000001
 43
0.0000001
 44
0.0000000001
 40
0.0
 40
0.0
 40
0.0
 40
0.0
 40
0.2773487976
 40
1.0
 40
1.0
 40
1.0
 40
1.0
 10
261.1520677572
 20
182.5623099443
 30
0.0
 10
261.1484699206
 20
182.5814713556
 30
0.0
 10
261.1352930203
 20
182.6505195361
 30
0.0
 10
261.1213206616
 20
182.7194232027
 30
0.0
 10
261.1103422083
 20
182.7690215384
 30
0.0
  0
SPLINE
  5
3D4
100
AcDbEntity
  8
0
100
AcDbSpline
 62
7
  6
CONTINUOUS
 70
0
 71
3
 72
10
 73
6
 74
0
 42
0.0000001
 43
0.0000001
 44
0.0000000001
 40
0.0
 40
0.0
 40
0.0
 40
0.0
 40
0.1730030349
 40
0.4343823388
 40
1.0
 40
1.0
 40
1.0
 40
1.0
 10
261.1520677591
 20
181.1275853836
 30
0.0
 10
261.1651442293
 20
181.1549752584
 30
0.0
 10
261.177795097
 20
181.2318263977
 30
0.0
 10
261.1860409237
 20
181.4061506541
 30
0.0
 10
261.1736998275
 20
181.552733675
 30
0.0
 10
261.1520677572
 20
181.6495778014
 30
0.0
  0
SPLINE
  5
3D5
100
AcDbEntity
  8
0
100
AcDbSpline
 62
7
  6
CONTINUOUS
 70
0
 71
3
 72
12
 73
8
 74
0
 42
0.0000001
 43
0.0000001
 44
0.0000000001
 40
0.0
 40
0.0
 40
0.0
 40
0.0
 40
0.3652338893
 40
0.6876819208
 40
0.9077814106
 40
0.9684211319
 40
1.0
 40
1.0
 40
1.0
 40
1.0
 10
261.1520677572
 20
179.6897075988
 30
0.0
 10
261.1604025744
 20
179.7368792215
 30
0.0
 10
261.1731611554
 20
179.8263540083
 30
0.0
 10
261.1831424345
 20
179.9446311366
 30
0.0
 10
261.1807887408
 20
180.0249458821
 30
0.0
 10
261.1739281323
 20
180.0644092672
 30
0.0
 10
261.1644217536
 20
180.0754507917
 30
0.0
 10
261.1602801851
 20
180.0754875258
 30
0.0
  0
SPLINE
  5
3D6
100
AcDbEntity
  8
0
100
AcDbSpline
 62
7
  6
CONTINUOUS
 70
0
 71
3
 72
14
 73
10
 74
0
 42
0.0000001
 43
0.0000001
 44
0.0000000001
 40
0.0
 40
0.0
 40
0.0
 40
0.0
 40
0.3132914616
 40
0.4839942449
 40
0.6469665458
 40
0.7892869921
 40
0.8997098738
 40
0.9701396965
 40
1.0
 40
1.0
 40
1.0
 40
1.0
 10
261.1520677572
 20
180.3195516296
 30
0.0
 10
261.1314641857
 20
180.227311966
 30
0.0
 10
261.1072337732
 20
180.0830561958
 30
0.0
 10
261.0833521898
 20
179.8895113712
 30
0.0
 10
261.0710309425
 20
179.745931737
 30
0.0
 10
261.064564403
 20
179.6220968367
 30
0.0
 10
261.0671628839
 20
179.5207659763
 30
0.0
 10
261.0711789946
 20
179.4647077432
 30
0.0
 10
261.0853609904
 20
179.4269303412
 30
0.0
 10
261.0943691489
 20
179.4269366347
 30
0.0
  0
SPLINE
  5
3D7
100
AcDbEntity
  8
0
100
AcDbSpline
 62
7
  6
CONTINUOUS
 70
0
 71
3
 72
10
 73
6
 74
0
 42
0.0000001
 43
0.0000001
 44
0.0000000001
 40
0.0
 40
0.0
 40
0.0
 40
0.0
 40
0.1730030349
 40
0.4343823388
 40
1.0
 40
1.0
 40
1.0
 40
1.0
 10
261.1520677591
 20
180.8415440474
 30
0.0
 10
261.1651442293
 20
180.8141541726
 30
0.0
 10
261.177795097
 20
180.7373030333
 30
0.0
 10
261.1860409237
 20
180.5629787769
 30
0.0
 10
261.1736998275
 20
180.416395756
 30
0.0
 10
261.1520677572
 20
180.3195516296
 30
0.0
  0
SPLINE
  5
3D8
100
AcDbEntity
  8
0
100
AcDbSpline
 62
7
  6
CONTINUOUS
 70
0
 71
3
 72
12
 73
8
 74
0
 42
0.0000001
 43
0.0000001
 44
0.0000000001
 40
0.0
 40
0.0
 40
0.0
 40
0.0
 40
0.3652338962
 40
0.6876819259
 40
0.9077814116
 40
0.9684211316
 40
1.0
 40
1.0
 40
1.0
 40
1.0
 10
261.1520677623
 20
182.2794218037
 30
0.0
 10
261.1604025784
 20
182.2322501834
 30
0.0
 10
261.1731611576
 20
182.1427754024
 30
0.0
 10
261.1831424347
 20
182.0244982825
 30
0.0
 10
261.1807887404
 20
181.944183544
 30
0.0
 10
261.1739281316
 20
181.9047201624
 30
0.0
 10
261.1644217534
 20
181.8936786392
 30
0.0
 10
261.1602801851
 20
181.8936419052
 30
0.0
  0
LINE
  5
3D9
100
AcDbEntity
  8
0
100
AcDbLine
 62
7
  6
CONTINUOUS
 10
187.8490333855
 20
170.8376130427
 11
188.1091361667
 21
170.5879863378
  0
SPLINE
  5
3DA
100
AcDbEntity
  8
0
100
AcDbSpline
 62
7
  6
CONTINUOUS
 70
0
 71
3
 72
9
 73
5
 74
0
 42
0.0000001
 43
0.0000001
 44
0.0000000001
 40
0.0
 40
0.0
 40
0.0
 40
0.0
 40
0.3005602003
 40
1.0
 40
1.0
 40
1.0
 40
1.0
 10
188.1291182928
 20
170.4376130427
 30
0.0
 10
188.1260658013
 20
170.4445542116
 30
0.0
 10
188.1166274892
 20
170.4678301958
 30
0.0
 10
188.1091354514
 20
170.4927365063
 30
0.0
 10
188.109139202
 20
170.5103823919
 30
0.0
  0
SPLINE
  5
3DB
100
AcDbEntity
  8
0
100
AcDbSpline
 62
7
  6
CONTINUOUS
 70
0
 71
3
 72
9
 73
5
 74
0
 42
0.0000001
 43
0.0000001
 44
0.0000000001
 40
0.0
 40
0.0
 40
0.0
 40
0.0
 40
0.1714482338
 40
1.0
 40
1.0
 40
1.0
 40
1.0
 10
261.0943691489
 20
179.4269366347
 30
0.0
 10
261.0959370069
 20
179.4269377301
 30
0.0
 10
261.1050065145
 20
179.4297377534
 30
0.0
 10
261.1102137692
 20
179.4384977185
 30
0.0
 10
261.1141068717
 20
179.4449980006
 30
0.0
  0
SPLINE
  5
3DC
100
AcDbEntity
  8
0
100
AcDbSpline
 62
7
  6
CONTINUOUS
 70
0
 71
3
 72
9
 73
5
 74
0
 42
0.0000001
 43
0.0000001
 44
0.0000000001
 40
0.0
 40
0.0
 40
0.0
 40
0.0
 40
0.1809452556
 40
1.0
 40
1.0
 40
1.0
 40
1.0
 10
261.1141068717
 20
179.4449980006
 30
0.0
 10
261.1174758427
 20
179.4506231445
 30
0.0
 10
261.1335319974
 20
179.483203191
 30
0.0
 10
261.1440518139
 20
179.5181101377
 30
0.0
 10
261.1520677591
 20
179.5466869412
 30
0.0
  0
SPLINE
  5
3DD
100
AcDbEntity
  8
0
100
AcDbSpline
 62
7
  6
CONTINUOUS
 70
0
 71
3
 72
9
 73
5
 74
0
 42
0.0000001
 43
0.0000001
 44
0.0000000001
 40
0.0
 40
0.0
 40
0.0
 40
0.0
 40
0.1714482338
 40
1.0
 40
1.0
 40
1.0
 40
1.0
 10
261.0943691489
 20
199.9330332891
 30
0.0
 10
261.0959370069
 20
199.9330343845
 30
0.0
 10
261.1050065145
 20
199.9358344078
 30
0.0
 10
261.1102137692
 20
199.944594373
 30
0.0
 10
261.1141068717
 20
199.951094655
 30
0.0
  0
SPLINE
  5
3DE
100
AcDbEntity
  8
0
100
AcDbSpline
 62
7
  6
CONTINUOUS
 70
0
 71
3
 72
9
 73
5
 74
0
 42
0.0000001
 43
0.0000001
 44
0.0000000001
 40
0.0
 40
0.0
 40
0.0
 40
0.0
 40
0.1809452556
 40
1.0
 40
1.0
 40
1.0
 40
1.0
 10
261.1141068717
 20
199.951094655
 30
0.0
 10
261.1174758427
 20
199.9567197989
 30
0.0
 10
261.1335319974
 20
199.9892998454
 30
0.0
 10
261.1440518139
 20
200.0242067921
 30
0.0
 10
261.1520677591
 20
200.0527835956
 30
0.0
  0
SPLINE
  5
3DF
100
AcDbEntity
  8
0
100
AcDbSpline
 62
7
  6
CONTINUOUS
 70
0
 71
3
 72
10
 73
6
 74
0
 42
0.0000001
 43
0.0000001
 44
0.0000000001
 40
0.0
 40
0.0
 40
0.0
 40
0.0
 40
0.5654300012
 40
0.8056683537
 40
1.0
 40
1.0
 40
1.0
 40
1.0
 10
184.4718588816
 20
206.614178418
 30
0.0
 10
184.6427501546
 20
206.614178418
 30
0.0
 10
184.8692853819
 20
206.7925119231
 30
0.0
 10
185.0297977779
 20
207.041995015
 30
0.0
 10
185.0718588816
 20
207.1722090294
 30
0.0
 10
185.0718588816
 20
207.2309423516
 30
0.0
  0
SPLINE
  5
3E0
100
AcDbEntity
  8
0
100
AcDbSpline
 62
7
  6
CONTINUOUS
 70
0
 71
3
 72
13
 73
9
 74
0
 42
0.0000001
 43
0.0000001
 44
0.0000000001
 40
0.0
 40
0.0
 40
0.0
 40
0.0
 40
0.238120705
 40
0.4846728841
 40
0.6109163081
 40
0.7389839365
 40
0.8689179184
 40
1.0
 40
1.0
 40
1.0
 40
1.0
 10
185.0718588816
 20
177.3567847418
 30
0.0
 10
185.0718588816
 20
177.4827246078
 30
0.0
 10
185.0455219191
 20
177.7390915853
 30
0.0
 10
184.967320114
 20
178.0538502928
 30
0.0
 10
184.8734552928
 20
178.3016021265
 30
0.0
 10
184.7842404026
 20
178.4854816174
 30
0.0
 10
184.6710361104
 20
178.6549021771
 30
0.0
 10
184.5411869972
 20
178.7401146072
 30
0.0
 10
184.4718588816
 20
178.7401146072
 30
0.0
  0
SPLINE
  5
3E1
100
AcDbEntity
  8
0
100
AcDbSpline
 62
7
  6
CONTINUOUS
 70
0
 71
3
 72
11
 73
7
 74
0
 42
0.0000001
 43
0.0000001
 44
0.0000000001
 40
0.0
 40
0.0
 40
0.0
 40
0.0
 40
0.1967763576
 40
0.429883906
 40
0.7011274549
 40
1.0
 40
1.0
 40
1.0
 40
1.0
 10
233.4889035304
 20
206.7376130427
 30
0.0
 10
233.3917083383
 20
206.8078839236
 30
0.0
 10
233.1466241177
 20
206.9175545075
 30
0.0
 10
232.7168327658
 20
206.9626965471
 30
0.0
 10
232.227911438
 20
206.902071869
 30
0.0
 10
231.893800206
 20
206.8013615102
 30
0.0
 10
231.723153003
 20
206.7376130427
 30
0.0
  0
SPLINE
  5
3E2
100
AcDbEntity
  8
0
100
AcDbSpline
 62
7
  6
CONTINUOUS
 70
0
 71
3
 72
9
 73
5
 74
0
 42
0.0000001
 43
0.0000001
 44
0.0000000001
 40
0.0
 40
0.0
 40
0.0
 40
0.0
 40
0.2847593141
 40
1.0
 40
1.0
 40
1.0
 40
1.0
 10
188.109139202
 20
170.5103823919
 30
0.0
 10
188.1091397773
 20
170.5130890346
 30
0.0
 10
188.1096152903
 20
170.5225375316
 30
0.0
 10
188.1128429877
 20
170.5321971036
 30
0.0
 10
188.1171740402
 20
170.5374373237
 30
0.0
  0
SPLINE
  5
3E3
100
AcDbEntity
  8
0
100
AcDbSpline
 62
7
  6
CONTINUOUS
 70
0
 71
3
 72
9
 73
5
 74
0
 42
0.0000001
 43
0.0000001
 44
0.0000000001
 40
0.0
 40
0.0
 40
0.0
 40
0.0
 40
0.2221317074
 40
1.0
 40
1.0
 40
1.0
 40
1.0
 10
188.1171740402
 20
170.5374373237
 30
0.0
 10
188.1188172902
 20
170.539425522
 30
0.0
 10
188.1275023258
 20
170.5473936246
 30
0.0
 10
188.1400013942
 20
170.549611948
 30
0.0
 10
188.1490333855
 20
170.5497133851
 30
0.0
  0
ELLIPSE
  5
3E4
100
AcDbEntity
  8
0
100
AcDbEllipse
 62
7
  6
CONTINUOUS
 10
333.9718588816
 20
243.3625953591
 30
0.0
 11
274.0
 21
0.0
 31
0.0
 40
0.3214450805
 41
-2.984865268
 42
-2.9683851004
  0
ELLIPSE
  5
3E5
100
AcDbEntity
  8
0
100
AcDbEllipse
 62
7
  6
CONTINUOUS
 10
333.9718588816
 20
170.9126307263
 30
0.0
 11
274.0
 21
0.0
 31
0.0
 40
0.3214450805
 41
2.9683851004
 42
2.984865268
  0
ELLIPSE
  5
3E6
100
AcDbEntity
  8
0
100
AcDbEllipse
 62
7
  6
CONTINUOUS
 10
27.1011483652
 20
222.7376130427
 30
0.0
 11
125.9707105164
 21
0.0
 31
0.0
 40
0.0436609429
 41
0.0
 42
0.4963328891
  0
ELLIPSE
  5
3E7
100
AcDbEntity
  8
0
100
AcDbEllipse
 62
7
  6
CONTINUOUS
 10
133.2417838535
 20
222.7376130427
 30
0.0
 11
0.0
 21
5.5
 31
0.0
 40
0.9572917423
 41
-1.0744634377
 42
-0.9656345423
  0
ELLIPSE
  5
3E8
100
AcDbEntity
  8
0
100
AcDbEllipse
 62
7
  6
CONTINUOUS
 10
27.1011483652
 20
191.5376130427
 30
0.0
 11
125.9707105164
 21
0.0
 31
0.0
 40
0.0436609429
 41
-0.4963328891
 42
-0.0
  0
ELLIPSE
  5
3E9
100
AcDbEntity
  8
0
100
AcDbEllipse
 62
7
  6
CONTINUOUS
 10
133.2417838535
 20
191.5376130427
 30
0.0
 11
0.0
 21
5.5
 31
0.0
 40
0.9572917423
 41
-2.1759581113
 42
-2.0671292159
  0
ELLIPSE
  5
3EA
100
AcDbEntity
  8
0
100
AcDbEllipse
 62
7
  6
CONTINUOUS
 10
257.9718588816
 20
202.2376130427
 30
0.0
 11
0.0
 21
4.0
 31
0.0
 40
1.0
 41
1.181035594
 42
1.5707963268
  0
ELLIPSE
  5
3EB
100
AcDbEntity
  8
0
100
AcDbEllipse
 62
7
  6
CONTINUOUS
 10
257.9718588816
 20
180.2376130427
 30
0.0
 11
0.0
 21
4.0
 31
0.0
 40
1.0
 41
1.5707963268
 42
1.9605570596
  0
ELLIPSE
  5
3EC
100
AcDbEntity
  8
0
100
AcDbEllipse
 62
7
  6
CONTINUOUS
 10
542.6435979707
 20
211.6606130427
 30
0.0
 11
389.5717390891
 21
-0.0
 31
0.0
 40
0.0174550649
 41
2.8504011785
 42
3.0174099824
  0
ELLIPSE
  5
3ED
100
AcDbEntity
  8
0
100
AcDbEllipse
 62
7
  6
CONTINUOUS
 10
468.1666478507
 20
222.7376130427
 30
0.0
 11
315.0947889692
 21
0.0
 31
0.0
 40
0.0174550649
 41
3.0034905823
 42
3.1415926536
  0
ELLIPSE
  5
3EE
100
AcDbEntity
  8
0
100
AcDbEllipse
 62
7
  6
CONTINUOUS
 10
542.6435979707
 20
180.7376130427
 30
0.0
 11
389.5717390891
 21
-0.0
 31
0.0
 40
0.0174550649
 41
-3.1415926536
 42
-2.8504011785
  0
ENDSEC
  0
SECTION
  2
OBJECTS
  0
DICTIONARY
  5
C
100
AcDbDictionary
280
0
281
1
  3
ACAD_GROUP
350
D
  3
ACAD_MLINESTYLE
350
17
  3
ACAD_LAYOUT
350
1A
  3
ACAD_PLOTSETTINGS
350
19
  3
ACAD_PLOTSTYLENAME
350
E
  0
DICTIONARY
  5
D
102
{ACAD_REACTORS
330
C
102
}
100
AcDbDictionary
280
0
281
1
  0
ACDBDICTIONARYWDFLT
  5
E
102
{ACAD_REACTORS
330
C
102
}
100
AcDbDictionary
281
1
  3
Normal
350
F
100
AcDbDictionaryWithDefault
340
F
  0
DICTIONARY
  5
17
102
{ACAD_REACTORS
330
C
102
}
100
AcDbDictionary
280
0
281
1
  3
Standard
350
18
  0
DICTIONARY
  5
19
102
{ACAD_REACTORS
330
C
102
}
100
AcDbDictionary
281
1
  0
DICTIONARY
  5
1A
102
{ACAD_REACTORS
330
C
102
}
100
AcDbDictionary
281
1
  3
Model
350
3EF
  3
Layout1
350
3F0
  0
ACDBPLACEHOLDER
  5
F
102
{ACAD_REACTORS
330
E
102
}
  0
MLINESTYLE
  5
18
102
{ACAD_REACTORS
330
17
102
}
100
AcDbMlineStyle
  2
STANDARD
 70
0
  3

 62
256
 51
90.0
 52
90.0
 71
2
 49
0.5
 62
256
  6
BYLAYER
 49
-0.5
 62
256
  6
BYLAYER
  0
LAYOUT
  5
3EF
102
{ACAD_REACTORS
330
1A
102
}
100
AcDbPlotSettings
  1

  2
none_device
  4

  6

 40
0.0
 41
0.0
 42
0.0
 43
0.0
 44
210.0
 45
297.0
 46
0.0
 47
0.0
 48
0.0
 49
0.0
140
0.0
141
0.0
142
1.0
143
1.0
 70
1024
 72
1
 73
0
 74
0
  7

 75
0
147
1.0
148
0.0
149
0.0
100
AcDbLayout
  1
Model
 70
0
 71
0
 10
0.0
 20
0.0
 11
210.0
 21
297.0
 12
0.0
 22
0.0
 32
0.0
 14
0.0
 24
0.0
 34
0.0
 15
0.0
 25
0.0
 35
0.0
146
0.0
 13
0.0
 23
0.0
 33
0.0
 16
1.0
 26
0.0
 36
0.0
 17
0.0
 27
1.0
 37
0.0
 76
0
330
210
345
0
346
0
  0
LAYOUT
  5
3F0
102
{ACAD_REACTORS
330
1A
102
}
100
AcDbPlotSettings
  1

  2
none_device
  4

  6

 40
0.0
 41
0.0
 42
0.0
 43
0.0
 44
210.0
 45
297.0
 46
0.0
 47
0.0
 48
0.0
 49
0.0
140
0.0
141
0.0
142
1.0
143
1.0
 70
0
 72
1
 73
0
 74
0
  7

 75
0
147
1.0
148
0.0
149
0.0
100
AcDbLayout
  1
Layout1
 70
0
 71
1
 10
0.0
 20
0.0
 11
210.0
 21
297.0
 12
0.0
 22
0.0
 32
0.0
 14
0.0
 24
0.0
 34
0.0
 15
0.0
 25
0.0
 35
0.0
146
0.0
 13
0.0
 23
0.0
 33
0.0
 16
1.0
 26
0.0
 36
0.0
 17
0.0
 27
1.0
 37
0.0
 76
0
330
211
345
0
346
0
  0
ENDSEC
  0
EOF
