999
DXF file: C:\Users\sesa63760\Dev\_Creo\CAD\MCADID0004165_3D-CAD\drw0001_1.dxf
999
Pro/ENGINEER 2019471 by Parametric Technology Corporation
  0
SECTION
  2
HEADER
  9
$ACADVER
  1
AC1024
  9
$DWGCODEPAGE
  3
ANSI_1252
  9
$EXTMAX
 10
653.6449699264
 20
924.4407431816
 30
0.0
  9
$EXTMIN
 10
0.0
 20
0.0
 30
0.0
  9
$LIMMIN
 10
0.0
 20
0.0
  9
$LIMMAX
 10
653.6449699264
 20
924.4407431816
  9
$VIEWCTR
 10
326.8224849632
 20
462.2203715908
  9
$VIEWSIZE
 40
924.4407431816
  9
$CLAYER
  8
0
  9
$LTSCALE
 40
60.259841037
  9
$CELTYPE
  6
BYLAYER
  9
$DIMSCALE
 40
1.0
  9
$DIMASZ
 40
7.7814877372
  9
$DIMEXO
 40
1.0
  9
$DIMDLI
 40
41.6340719892
  9
$DIMEXE
 40
1.0
  9
$DIMCEN
 40
9.8607012606
  9
$DIMLFAC
 40
1.0
  9
$DIMBLK
  1
_FILLED
  9
$DIMALT
 70
0
  9
$DIMALTF
 40
0.0393700787
  9
$DIMTXT
 40
10.8940828321
  9
$DIMTOL
 70
1
  9
$DIMLIM
 70
0
  9
$DIMTFAC
 40
1.0
  9
$DIMTP
 40
0.01
  9
$DIMTM
 40
0.01
  9
$DIMGAP
 40
0.625
  9
$DIMDSEP
 70
46
  9
$AUNITS
 70
0
  9
$PDMODE
 70
3
  9
$PDSIZE
 40
0.3125
  9
$HANDSEED
  5
396
  9
$TILEMODE
 70
1
  9
$MEASUREMENT
 70
1
  9
$INSUNITS
 70
4
  0
ENDSEC
  0
SECTION
  2
CLASSES
  0
CLASS
  1
ACDBDICTIONARYWDFLT
  2
AcDbDictionaryWithDefault
  3
AutoCAD 2000
 90
0
 91
1
280
0
281
0
  0
CLASS
  1
ACDBPLACEHOLDER
  2
AcDbPlaceHolder
  3
AutoCAD 2000
 90
0
 91
1
280
0
281
0
  0
CLASS
  1
LAYOUT
  2
AcDbLayout
  3
AutoCAD 2000
 90
0
 91
0
280
0
281
0
  0
ENDSEC
  0
SECTION
  2
TABLES
  0
TABLE
  2
VPORT
  5
8
100
AcDbSymbolTable
 70
2
  0
VPORT
  5
1F4
100
AcDbSymbolTableRecord
100
AcDbViewportTableRecord
  2
*ACTIVE
 70
0
 10
0.0
 20
0.0
 11
1.0
 21
1.0
 12
326.8224849632
 22
462.2203715908
 13
0.0
 23
0.0
 14
1.0
 24
1.0
 15
0.0
 25
0.0
 16
0.0
 26
0.0
 36
1.0
 17
0.0
 27
0.0
 37
0.0
 40
924.4407431816
 41
0.7070707071
 42
50.0
 43
0.0
 44
0.0
 50
0.0
 51
0.0
 71
0
 72
100
 73
1
 74
1
 75
0
 76
0
 77
0
 78
0
  0
ENDTAB
  0
TABLE
  2
LTYPE
  5
5
100
AcDbSymbolTable
 70
6
  0
LTYPE
  5
14
100
AcDbSymbolTableRecord
100
AcDbLinetypeTableRecord
  2
BYBLOCK
 70
0
  3

 72
65
 73
0
 40
0.0
  0
LTYPE
  5
15
100
AcDbSymbolTableRecord
100
AcDbLinetypeTableRecord
  2
BYLAYER
 70
0
  3

 72
65
 73
0
 40
0.0
  0
LTYPE
  5
16
100
AcDbSymbolTableRecord
100
AcDbLinetypeTableRecord
  2
CONTINUOUS
 70
64
  3
Solid line
 72
65
 73
0
 40
0.0
  0
LTYPE
  5
1F5
100
AcDbSymbolTableRecord
100
AcDbLinetypeTableRecord
  2
CENTER
 70
64
  3
____ _ ____ _ ____ _ ____ _ ____ _ ____ _ ____
 72
65
 73
4
 40
0.6
 49
0.375
 74
0
 49
-0.075
 74
0
 49
0.075
 74
0
 49
-0.075
 74
0
  0
LTYPE
  5
1F6
100
AcDbSymbolTableRecord
100
AcDbLinetypeTableRecord
  2
HIDDEN
 70
64
  3
- - - - - - - - - - - - - - - - - - - -
 72
65
 73
2
 40
0.2
 49
0.1
 74
0
 49
-0.1
 74
0
  0
LTYPE
  5
1F7
100
AcDbSymbolTableRecord
100
AcDbLinetypeTableRecord
  2
PHANTOM
 70
64
  3
_____ _ _ _____ _ _ _____ _ _ _____
 72
65
 73
6
 40
0.8
 49
0.45
 74
0
 49
-0.05
 74
0
 49
0.1
 74
0
 49
-0.05
 74
0
 49
0.1
 74
0
 49
-0.05
 74
0
  0
LTYPE
  5
1F8
100
AcDbSymbolTableRecord
100
AcDbLinetypeTableRecord
  2
DOT
 70
64
  3
. . . . . . . . . . . . . . . . . . . .
 72
65
 73
2
 40
0.2
 49
0.1
 74
0
 49
-0.1
 74
0
  0
LTYPE
  5
1F9
100
AcDbSymbolTableRecord
100
AcDbLinetypeTableRecord
  2
DASHED
 70
64
  3
- - - - - - - - - - - - - - - - - - - -
 72
65
 73
2
 40
0.2
 49
0.1
 74
0
 49
-0.1
 74
0
  0
ENDTAB
  0
TABLE
  2
LAYER
  5
2
100
AcDbSymbolTable
 70
36
  0
LAYER
  5
10
100
AcDbSymbolTableRecord
100
AcDbLayerTableRecord
  2
0
 70
0
 62
7
  6
CONTINUOUS
370
-3
390
F
  0
LAYER
  5
1FA
100
AcDbSymbolTableRecord
100
AcDbLayerTableRecord
  2
DEFAULT_1
 70
0
 62
7
  6
CENTER
370
-3
390
F
  0
LAYER
  5
1FB
100
AcDbSymbolTableRecord
100
AcDbLayerTableRecord
  2
DEFAULT_2
 70
0
 62
7
  6
HIDDEN
370
-3
390
F
  0
LAYER
  5
1FC
100
AcDbSymbolTableRecord
100
AcDbLayerTableRecord
  2
DEFAULT_3
 70
0
 62
7
  6
PHANTOM
370
-3
390
F
  0
LAYER
  5
1FD
100
AcDbSymbolTableRecord
100
AcDbLayerTableRecord
  2
00_COMPONENTS
 70
0
 62
7
  6
CONTINUOUS
370
-3
390
F
  0
LAYER
  5
1FE
100
AcDbSymbolTableRecord
100
AcDbLayerTableRecord
  2
01_1_DEFAULT_DATUMS
 70
0
 62
7
  6
CONTINUOUS
370
-3
390
F
  0
LAYER
  5
1FF
100
AcDbSymbolTableRecord
100
AcDbLayerTableRecord
  2
01_PLANES
 70
0
 62
7
  6
CONTINUOUS
370
-3
390
F
  0
LAYER
  5
200
100
AcDbSymbolTableRecord
100
AcDbLayerTableRecord
  2
02_COORD_SYS
 70
0
 62
7
  6
CONTINUOUS
370
-3
390
F
  0
LAYER
  5
201
100
AcDbSymbolTableRecord
100
AcDbLayerTableRecord
  2
03_AXES
 70
0
 62
7
  6
CONTINUOUS
370
-3
390
F
  0
LAYER
  5
202
100
AcDbSymbolTableRecord
100
AcDbLayerTableRecord
  2
04_POINTS
 70
0
 62
7
  6
CONTINUOUS
370
-3
390
F
  0
LAYER
  5
203
100
AcDbSymbolTableRecord
100
AcDbLayerTableRecord
  2
05_CURVES
 70
0
 62
7
  6
CONTINUOUS
370
-3
390
F
  0
LAYER
  5
204
100
AcDbSymbolTableRecord
100
AcDbLayerTableRecord
  2
06_SURFS
 70
0
 62
7
  6
CONTINUOUS
370
-3
390
F
  0
LAYER
  5
205
100
AcDbSymbolTableRecord
100
AcDbLayerTableRecord
  2
07_COSMETICS
 70
0
 62
7
  6
CONTINUOUS
370
-3
390
F
  0
LAYER
  5
206
100
AcDbSymbolTableRecord
100
AcDbLayerTableRecord
  2
10_NOTES
 70
0
 62
7
  6
CONTINUOUS
370
-3
390
F
  0
LAYER
  5
207
100
AcDbSymbolTableRecord
100
AcDbLayerTableRecord
  2
11_NOTES_PUB
 70
0
 62
7
  6
CONTINUOUS
370
-3
390
F
  0
LAYER
  5
208
100
AcDbSymbolTableRecord
100
AcDbLayerTableRecord
  2
13_REF_GTOL
 70
0
 62
7
  6
CONTINUOUS
370
-3
390
F
  0
LAYER
  5
209
100
AcDbSymbolTableRecord
100
AcDbLayerTableRecord
  2
16_MISC
 70
0
 62
7
  6
CONTINUOUS
370
-3
390
F
  0
LAYER
  5
20A
100
AcDbSymbolTableRecord
100
AcDbLayerTableRecord
  2
17_NO_PRINT
 70
0
 62
7
  6
CONTINUOUS
370
-3
390
F
  0
LAYER
  5
20B
100
AcDbSymbolTableRecord
100
AcDbLayerTableRecord
  2
18_DATUM_CAMS_JOINTS
 70
0
 62
7
  6
CONTINUOUS
370
-3
390
F
  0
LAYER
  5
20C
100
AcDbSymbolTableRecord
100
AcDbLayerTableRecord
  2
19_DATUM_FUNCTIONAL
 70
0
 62
7
  6
CONTINUOUS
370
-3
390
F
  0
LAYER
  5
20D
100
AcDbSymbolTableRecord
100
AcDbLayerTableRecord
  2
20_DATUM_KINEMATIC_SCHEME
 70
0
 62
7
  6
CONTINUOUS
370
-3
390
F
  0
ENDTAB
  0
TABLE
  2
STYLE
  5
3
100
AcDbSymbolTable
 70
1
  0
STYLE
  5
11
100
AcDbSymbolTableRecord
100
AcDbTextStyleTableRecord
  2
STANDARD
 70
0
 40
0.0
 41
1.0
 50
0.0
 71
0
 42
0.2
  3
ARIAL.TTF
  4

  0
STYLE
  5
20E
100
AcDbSymbolTableRecord
100
AcDbTextStyleTableRecord
  2
TEXTSTYLE_1
 70
0
 40
0.0
 41
0.8
 50
0.0
 71
0
 42
0.2
  3
gdt
  4

  0
ENDTAB
  0
TABLE
  2
VIEW
  5
6
100
AcDbSymbolTable
 70
0
  0
ENDTAB
  0
TABLE
  2
UCS
  5
7
100
AcDbSymbolTable
 70
0
  0
ENDTAB
  0
TABLE
  2
APPID
  5
9
100
AcDbSymbolTable
 70
1
  0
APPID
  5
20F
100
AcDbSymbolTableRecord
100
AcDbRegAppTableRecord
  2
ACAD
 70
0
  0
ENDTAB
  0
TABLE
  2
BLOCK_RECORD
  5
1
100
AcDbSymbolTable
 70
0
  0
BLOCK_RECORD
  5
210
100
AcDbSymbolTableRecord
100
AcDbBlockTableRecord
  2
*Model_Space
  0
BLOCK_RECORD
  5
211
100
AcDbSymbolTableRecord
100
AcDbBlockTableRecord
  2
*Paper_Space
  0
BLOCK_RECORD
  5
212
100
AcDbSymbolTableRecord
100
AcDbBlockTableRecord
  2
_FILLED
  0
ENDTAB
  0
TABLE
  2
DIMSTYLE
  5
A
100
AcDbSymbolTable
 70
1
100
AcDbDimStyleTable
 71
0
  0
DIMSTYLE
105
213
100
AcDbSymbolTableRecord
100
AcDbDimStyleTableRecord
  2
STANDARD
 70
0
  3

  4

 40
1.0
 41
7.7814877372
 42
1.0
 43
0.38
 44
1.0
 45
0.0
 46
0.0
 47
0.01
 48
0.01
140
10.8940828321
141
0.09
142
0.0
143
25.4
144
1.0
145
0.0
146
1.0
147
0.625
 71
1
 72
0
 73
0
 74
0
 75
0
 76
0
 77
1
 78
8
 79
2
170
0
171
1
172
0
173
0
174
0
175
0
176
0
177
0
178
0
270
2
179
2
271
2
272
2
273
2
274
2
275
0
280
0
281
0
282
0
283
1
284
8
285
0
286
0
287
3
288
0
340
11
278
46
341
212
342
212
343
212
344
212
  0
ENDTAB
  0
ENDSEC
  0
SECTION
  2
BLOCKS
  0
BLOCK
  5
20
100
AcDbEntity
  8
0
100
AcDbBlockBegin
  2
*Model_Space
 70
0
 10
0.0
 20
0.0
 30
0.0
  3
*Model_Space
  1

  0
ENDBLK
  5
21
100
AcDbEntity
  8
0
100
AcDbBlockEnd
  0
BLOCK
  5
1C
100
AcDbEntity
  8
0
100
AcDbBlockBegin
  2
*Paper_Space
 70
0
 10
0.0
 20
0.0
 30
0.0
  3
*Paper_Space
  1

  0
ENDBLK
  5
1D
100
AcDbEntity
  8
0
100
AcDbBlockEnd
  0
BLOCK
  5
214
100
AcDbEntity
  8
0
100
AcDbBlockBegin
  2
_FILLED
 70
64
 10
0.0
 20
0.0
  3
_FILLED
  1

  0
SOLID
  5
215
100
AcDbEntity
  8
0
  6
BYBLOCK
 62
0
100
AcDbTrace
 10
0.0
 20
0.0
 11
-1.0
 21
0.25
 12
-1.0
 22
-0.25
 13
-1.0
 23
-0.25
  0
ENDBLK
  5
216
100
AcDbEntity
  8
0
  6
BYBLOCK
 62
0
100
AcDbBlockEnd
  0
ENDSEC
  0
SECTION
  2
ENTITIES
  0
LINE
  5
217
100
AcDbEntity
  8
0
100
AcDbLine
 62
7
  6
BYLAYER
 10
348.7721585158
 20
853.2675326938
 11
345.5282368364
 21
851.3946648185
  0
LINE
  5
218
100
AcDbEntity
  8
0
100
AcDbLine
 62
7
  6
BYLAYER
 10
300.682846047
 20
825.5033209248
 11
304.4683852981
 21
827.6888899844
  0
LINE
  5
219
100
AcDbEntity
  8
0
100
AcDbLine
 62
7
  6
BYLAYER
 10
305.8840914929
 20
826.8732668426
 11
302.0970654973
 21
824.6868394158
  0
LINE
  5
21A
100
AcDbEntity
  8
0
100
AcDbLine
 62
7
  6
BYLAYER
 10
346.9795734152
 20
850.5996127657
 11
350.1863779661
 21
852.4510511848
  0
LINE
  5
21B
100
AcDbEntity
  8
0
100
AcDbLine
 62
7
  6
BYLAYER
 10
353.0148168666
 20
850.8180881667
 11
349.532846893
 21
848.807783865
  0
LINE
  5
21C
100
AcDbEntity
  8
0
100
AcDbLine
 62
7
  6
BYLAYER
 10
304.9255043978
 20
823.0538763977
 11
308.7125303935
 21
825.2403038245
  0
LINE
  5
21D
100
AcDbEntity
  8
0
100
AcDbLine
 62
7
  6
BYLAYER
 10
310.1252630993
 20
824.4229639482
 11
306.3397238481
 21
822.2373948886
  0
LINE
  5
21E
100
AcDbEntity
  8
0
100
AcDbLine
 62
7
  6
BYLAYER
 10
350.6531906091
 20
847.8216341345
 11
354.4290363169
 21
850.0016066576
  0
LINE
  5
21F
100
AcDbEntity
  8
0
100
AcDbLine
 62
7
  6
BYLAYER
 10
310.1252630989
 20
817.0744421938
 11
306.3397238481
 21
814.8888731345
  0
LINE
  5
220
100
AcDbEntity
  8
0
100
AcDbLine
 62
7
  6
BYLAYER
 10
366.3836980878
 20
845.473130239
 11
352.2416213435
 21
837.3082471616
  0
LINE
  5
221
100
AcDbEntity
  8
0
100
AcDbLine
 62
7
  6
BYLAYER
 10
367.7979175381
 20
844.65664873
 11
353.6558407938
 21
836.4917656525
  0
LINE
  5
222
100
AcDbEntity
  8
0
100
AcDbLine
 62
7
  6
BYLAYER
 10
353.6558407938
 20
71.3494533328
 11
352.2416213435
 21
72.1659348419
  0
LINE
  5
223
100
AcDbEntity
  8
0
100
AcDbLine
 62
7
  6
BYLAYER
 10
304.339732175
 20
100.1716139229
 11
302.9255127247
 21
100.988095432
  0
LINE
  5
224
100
AcDbEntity
  8
0
100
AcDbLine
 62
7
  6
BYLAYER
 10
300.0970738241
 20
102.6210584501
 11
298.6828543738
 21
103.4375399591
  0
LINE
  5
225
100
AcDbEntity
  8
0
100
AcDbLine
 62
7
  6
BYLAYER
 10
297.5050485851
 20
104.4798525523
 11
297.5052290826
 21
104.4797483601
  0
LINE
  5
226
100
AcDbEntity
  8
0
100
AcDbLine
 62
7
  6
BYLAYER
 10
303.5113084993
 20
102.0027437298
 11
302.097089049
 21
102.8192252388
  0
LINE
  5
227
100
AcDbEntity
  8
0
100
AcDbLine
 62
7
  6
BYLAYER
 10
299.2686501484
 20
104.4521882569
 11
297.8544306981
 21
105.268669766
  0
LINE
  5
228
100
AcDbEntity
  8
0
100
AcDbLine
 62
7
  6
BYLAYER
 10
297.8544306981
 20
106.0851721831
 11
299.2686501484
 21
105.2686906741
  0
LINE
  5
229
100
AcDbEntity
  8
0
100
AcDbLine
 62
7
  6
BYLAYER
 10
302.097089049
 20
103.635727656
 11
303.5113084993
 21
102.8192461469
  0
LINE
  5
22A
100
AcDbEntity
  8
0
100
AcDbLine
 62
7
  6
BYLAYER
 10
306.3397238481
 20
107.7182324309
 11
304.9255043978
 21
108.53471394
  0
LINE
  5
22B
100
AcDbEntity
  8
0
100
AcDbLine
 62
7
  6
BYLAYER
 10
302.0970654973
 20
110.1676769581
 11
300.682846047
 21
110.9841584671
  0
LINE
  5
22C
100
AcDbEntity
  8
0
100
AcDbLine
 62
7
  6
BYLAYER
 10
358.6055676543
 20
79.9226793298
 11
357.191348204
 21
80.7391608389
  0
LINE
  5
22D
100
AcDbEntity
  8
0
100
AcDbLine
 62
7
  6
BYLAYER
 10
302.2549679917
 20
112.7071404183
 11
302.2547874941
 21
112.7072446104
  0
LINE
  5
22E
100
AcDbEntity
  8
0
100
AcDbLine
 62
7
  6
BYLAYER
 10
361.4339712273
 20
83.1886257621
 11
362.8481906776
 21
82.372144253
  0
LINE
  5
22F
100
AcDbEntity
  8
0
100
AcDbLine
 62
7
  6
BYLAYER
 10
352.2416335625
 20
814.4461583179
 11
350.8274018932
 21
813.6296561567
  0
LINE
  5
230
100
AcDbEntity
  8
0
100
AcDbLine
 62
7
  6
BYLAYER
 10
367.7979175381
 20
821.7945810503
 11
353.6558407938
 21
813.6296979729
  0
LINE
  5
231
100
AcDbEntity
  8
0
100
AcDbLine
 62
7
  6
BYLAYER
 10
352.82741022
 20
811.7985641835
 11
366.9694869643
 21
819.9634472609
  0
LINE
  5
232
100
AcDbEntity
  8
0
100
AcDbLine
 62
7
  6
BYLAYER
 10
350.8274018932
 20
97.4774888648
 11
339.7544084366
 21
103.8703399921
  0
LINE
  5
233
100
AcDbEntity
  8
0
100
AcDbLine
 62
7
  6
BYLAYER
 10
350.8274018932
 20
99.110493699
 11
339.7544084367
 21
105.5033448263
  0
LINE
  5
234
100
AcDbEntity
  8
0
100
AcDbLine
 62
7
  6
BYLAYER
 10
364.9694786375
 20
107.2753767765
 11
353.6788944253
 21
113.7938511431
  0
LINE
  5
235
100
AcDbEntity
  8
0
100
AcDbLine
 62
7
  6
BYLAYER
 10
356.0493001024
 20
132.795052237
 11
354.9062865396
 21
133.4549564961
  0
LINE
  5
236
100
AcDbEntity
  8
0
100
AcDbLine
 62
7
  6
BYLAYER
 10
353.0148168666
 20
136.298925709
 11
354.4290363169
 21
135.4824442
  0
LINE
  5
237
100
AcDbEntity
  8
0
100
AcDbLine
 62
7
  6
BYLAYER
 10
356.4290279901
 20
135.6805409538
 11
355.0148085398
 21
136.4970224628
  0
LINE
  5
238
100
AcDbEntity
  8
0
100
AcDbLine
 62
7
  6
BYLAYER
 10
321.5406359109
 20
852.5927445019
 11
319.3589173315
 21
847.8917832207
  0
LINE
  5
239
100
AcDbEntity
  8
0
100
AcDbLine
 62
7
  6
BYLAYER
 10
322.3073866669
 20
852.6859204282
 11
320.4063128135
 21
848.5896659147
  0
LINE
  5
23A
100
AcDbEntity
  8
0
100
AcDbLine
 62
7
  6
BYLAYER
 10
332.6952520337
 20
846.6886192392
 11
334.596325887
 21
850.7848737524
  0
LINE
  5
23B
100
AcDbEntity
  8
0
100
AcDbLine
 62
7
  6
BYLAYER
 10
333.5117520141
 20
845.4007210033
 11
335.7116797144
 21
850.1409175796
  0
LINE
  5
23C
100
AcDbEntity
  8
0
100
AcDbLine
 62
7
  6
BYLAYER
 10
335.7116797143
 20
841.1593909912
 11
333.511752014
 21
836.4191944148
  0
LINE
  5
23D
100
AcDbEntity
  8
0
100
AcDbLine
 62
7
  6
BYLAYER
 10
319.3590136382
 20
847.8916977178
 11
319.2909589857
 21
847.6006172534
  0
LINE
  5
23E
100
AcDbEntity
  8
0
100
AcDbLine
 62
7
  6
BYLAYER
 10
304.6147833636
 20
827.8930103671
 11
304.6133144425
 21
827.8705481594
  0
LINE
  5
23F
100
AcDbEntity
  8
0
100
AcDbLine
 62
7
  6
BYLAYER
 10
297.8544306981
 20
105.268669766
 11
297.8544306981
 21
106.0851721831
  0
LINE
  5
240
100
AcDbEntity
  8
0
100
AcDbLine
 62
7
  6
BYLAYER
 10
297.8544306981
 20
819.7878322237
 11
297.8544306981
 21
820.6043346408
  0
LINE
  5
241
100
AcDbEntity
  8
0
100
AcDbLine
 62
7
  6
BYLAYER
 10
299.053864065
 20
837.7524637914
 11
299.053864065
 21
830.4039420373
  0
LINE
  5
242
100
AcDbEntity
  8
0
100
AcDbLine
 62
7
  6
BYLAYER
 10
299.053864065
 20
123.2333013337
 11
299.053864065
 21
115.8847795796
  0
LINE
  5
243
100
AcDbEntity
  8
0
100
AcDbLine
 62
7
  6
BYLAYER
 10
299.2686501484
 20
819.7878531318
 11
299.2686501484
 21
818.9713507146
  0
LINE
  5
244
100
AcDbEntity
  8
0
100
AcDbLine
 62
7
  6
BYLAYER
 10
299.2686501484
 20
105.2686906741
 11
299.2686501484
 21
104.4521882569
  0
LINE
  5
245
100
AcDbEntity
  8
0
100
AcDbLine
 62
7
  6
BYLAYER
 10
299.5559411823
 20
123.6985605257
 11
299.5559411823
 21
124.5150629429
  0
LINE
  5
246
100
AcDbEntity
  8
0
100
AcDbLine
 62
7
  6
BYLAYER
 10
299.5559411823
 20
838.135602595
 11
299.5559411823
 21
838.9521050121
  0
LINE
  5
247
100
AcDbEntity
  8
0
100
AcDbLine
 62
7
  6
BYLAYER
 10
302.097089049
 20
102.8192252388
 11
302.097089049
 21
103.635727656
  0
LINE
  5
248
100
AcDbEntity
  8
0
100
AcDbLine
 62
7
  6
BYLAYER
 10
302.097089049
 20
817.3383876965
 11
302.097089049
 21
818.1548901137
  0
LINE
  5
249
100
AcDbEntity
  8
0
100
AcDbLine
 62
7
  6
BYLAYER
 10
302.5559411823
 20
125.3315653648
 11
302.5559411823
 21
815.9325670954
  0
LINE
  5
24A
100
AcDbEntity
  8
0
100
AcDbLine
 62
7
  6
BYLAYER
 10
303.5113084993
 20
817.3384086046
 11
303.5113084993
 21
816.5219061875
  0
LINE
  5
24B
100
AcDbEntity
  8
0
100
AcDbLine
 62
7
  6
BYLAYER
 10
303.5113084993
 20
102.8192461469
 11
303.5113084993
 21
102.0027437298
  0
LINE
  5
24C
100
AcDbEntity
  8
0
100
AcDbLine
 62
7
  6
BYLAYER
 10
304.518958572
 20
113.206773745
 11
304.518958572
 21
113.5438263057
  0
LINE
  5
24D
100
AcDbEntity
  8
0
100
AcDbLine
 62
7
  6
BYLAYER
 10
304.518958572
 20
827.7259362027
 11
304.518958572
 21
828.0629887634
  0
LINE
  5
24E
100
AcDbEntity
  8
0
100
AcDbLine
 62
7
  6
BYLAYER
 10
305.8840914929
 20
826.8732668426
 11
305.8840914929
 21
823.6073136115
  0
LINE
  5
24F
100
AcDbEntity
  8
0
100
AcDbLine
 62
7
  6
BYLAYER
 10
305.8840914929
 20
112.3541043849
 11
305.8840914929
 21
109.0881511538
  0
LINE
  5
250
100
AcDbEntity
  8
0
100
AcDbLine
 62
7
  6
BYLAYER
 10
306.61631718
 20
827.4170232386
 11
306.61631718
 21
824.0300617856
  0
LINE
  5
251
100
AcDbEntity
  8
0
100
AcDbLine
 62
7
  6
BYLAYER
 10
306.61631718
 20
112.9799811694
 11
306.61631718
 21
109.5108993279
  0
LINE
  5
252
100
AcDbEntity
  8
0
100
AcDbLine
 62
7
  6
BYLAYER
 10
310.1252630993
 20
824.4229639482
 11
310.1252630993
 21
817.0744421941
  0
LINE
  5
253
100
AcDbEntity
  8
0
100
AcDbLine
 62
7
  6
BYLAYER
 10
310.1252630993
 20
109.9038014905
 11
310.1252630993
 21
102.5552797364
  0
LINE
  5
254
100
AcDbEntity
  8
0
100
AcDbLine
 62
7
  6
BYLAYER
 10
310.7732300337
 20
824.4521651392
 11
310.7732300337
 21
817.103643385
  0
LINE
  5
255
100
AcDbEntity
  8
0
100
AcDbLine
 62
7
  6
BYLAYER
 10
310.7732300337
 20
109.9330026815
 11
310.7732300337
 21
102.5844809273
  0
LINE
  5
256
100
AcDbEntity
  8
0
100
AcDbLine
 62
7
  6
BYLAYER
 10
319.2909589861
 20
838.6190906649
 11
319.2909589861
 21
847.6006172533
  0
LINE
  5
257
100
AcDbEntity
  8
0
100
AcDbLine
 62
7
  6
BYLAYER
 10
323.0559411823
 20
98.536916079
 11
323.0559411823
 21
75.0146785185
  0
LINE
  5
258
100
AcDbEntity
  8
0
100
AcDbLine
 62
7
  6
BYLAYER
 10
325.3013916495
 20
835.1490442515
 11
325.3013916495
 21
844.13057084
  0
LINE
  5
259
100
AcDbEntity
  8
0
100
AcDbLine
 62
7
  6
BYLAYER
 10
332.0559411823
 20
98.6384520871
 11
332.0559411823
 21
75.0146785185
  0
LINE
  5
25A
100
AcDbEntity
  8
0
100
AcDbLine
 62
7
  6
BYLAYER
 10
333.5117520142
 20
836.4191944146
 11
333.5117520142
 21
845.400721003
  0
LINE
  5
25B
100
AcDbEntity
  8
0
100
AcDbLine
 62
7
  6
BYLAYER
 10
304.6147833636
 20
113.3738479094
 11
304.6133144424
 21
113.3513857016
  0
LINE
  5
25C
100
AcDbEntity
  8
0
100
AcDbLine
 62
7
  6
BYLAYER
 10
335.7116797144
 20
841.1593909912
 11
335.7116797144
 21
850.1409175796
  0
LINE
  5
25D
100
AcDbEntity
  8
0
100
AcDbLine
 62
7
  6
BYLAYER
 10
339.7544084367
 20
103.870339992
 11
339.7544084367
 21
105.5033448263
  0
LINE
  5
25E
100
AcDbEntity
  8
0
100
AcDbLine
 62
7
  6
BYLAYER
 10
339.7544084367
 20
818.3895024497
 11
339.7544084367
 21
820.022507284
  0
LINE
  5
25F
100
AcDbEntity
  8
0
100
AcDbLine
 62
7
  6
BYLAYER
 10
352.2416213435
 20
72.1659348419
 11
352.2416213435
 21
95.0280025215
  0
LINE
  5
260
100
AcDbEntity
  8
0
100
AcDbLine
 62
7
  6
BYLAYER
 10
352.2416213435
 20
814.446179482
 11
352.2416213435
 21
837.3082471616
  0
LINE
  5
261
100
AcDbEntity
  8
0
100
AcDbLine
 62
7
  6
BYLAYER
 10
352.5559411823
 20
125.3315653552
 11
352.5559411823
 21
811.7985641835
  0
LINE
  5
262
100
AcDbEntity
  8
0
100
AcDbLine
 62
7
  6
BYLAYER
 10
353.6558407938
 20
836.4917656525
 11
353.6558407938
 21
813.6296979729
  0
LINE
  5
263
100
AcDbEntity
  8
0
100
AcDbLine
 62
7
  6
BYLAYER
 10
353.6558407938
 20
94.2115210124
 11
353.6558407938
 21
71.3494533328
  0
LINE
  5
264
100
AcDbEntity
  8
0
100
AcDbLine
 62
7
  6
BYLAYER
 10
355.5559411823
 20
123.6985605257
 11
355.5559411823
 21
124.5150629429
  0
LINE
  5
265
100
AcDbEntity
  8
0
100
AcDbLine
 62
7
  6
BYLAYER
 10
356.0580182996
 20
115.8847795796
 11
356.0580182996
 21
123.2333013337
  0
LINE
  5
266
100
AcDbEntity
  8
0
100
AcDbLine
 62
7
  6
BYLAYER
 10
357.2574516658
 20
133.0329087298
 11
357.2574516658
 21
133.8494111469
  0
LINE
  5
267
100
AcDbEntity
  8
0
100
AcDbLine
 62
7
  6
BYLAYER
 10
357.2574516658
 20
847.5520711875
 11
357.2574516658
 21
848.3685736046
  0
LINE
  5
268
100
AcDbEntity
  8
0
100
AcDbLine
 62
7
  6
BYLAYER
 10
358.2520157357
 20
826.8978163958
 11
358.2520157357
 21
831.7968308985
  0
LINE
  5
269
100
AcDbEntity
  8
0
100
AcDbLine
 62
7
  6
BYLAYER
 10
361.7875231459
 20
830.5720069819
 11
361.7875231459
 21
835.4710214847
  0
LINE
  5
26A
100
AcDbEntity
  8
0
100
AcDbLine
 62
7
  6
BYLAYER
 10
363.2017425962
 20
834.6545399756
 11
363.2017425962
 21
829.7555254729
  0
LINE
  5
26B
100
AcDbEntity
  8
0
100
AcDbLine
 62
7
  6
BYLAYER
 10
367.7979175381
 20
79.5143364102
 11
367.7979175381
 21
102.3764040899
  0
LINE
  5
26C
100
AcDbEntity
  8
0
100
AcDbLine
 62
7
  6
BYLAYER
 10
367.7979175381
 20
821.7945810503
 11
367.7979175381
 21
844.65664873
  0
LINE
  5
26D
100
AcDbEntity
  8
0
100
AcDbLine
 62
7
  6
BYLAYER
 10
304.4683852983
 20
113.1697275268
 11
300.682846047
 21
110.9841584671
  0
LINE
  5
26E
100
AcDbEntity
  8
0
100
AcDbLine
 62
7
  6
BYLAYER
 10
302.0970654973
 20
110.1676769581
 11
305.8840914929
 21
112.3541043849
  0
LINE
  5
26F
100
AcDbEntity
  8
0
100
AcDbLine
 62
7
  6
BYLAYER
 10
304.339732175
 20
814.6907763806
 11
302.9255127247
 21
815.5072578897
  0
LINE
  5
270
100
AcDbEntity
  8
0
100
AcDbLine
 62
7
  6
BYLAYER
 10
300.0970738241
 20
817.1402209078
 11
298.6828543738
 21
817.9567024168
  0
LINE
  5
271
100
AcDbEntity
  8
0
100
AcDbLine
 62
7
  6
BYLAYER
 10
298.0674315648
 20
818.6743303906
 11
297.5050485851
 21
818.99901501
  0
LINE
  5
272
100
AcDbEntity
  8
0
100
AcDbLine
 62
7
  6
BYLAYER
 10
303.5113084993
 20
816.5219061875
 11
302.097089049
 21
817.3383876965
  0
LINE
  5
273
100
AcDbEntity
  8
0
100
AcDbLine
 62
7
  6
BYLAYER
 10
299.2686501484
 20
818.9713507146
 11
297.8544306981
 21
819.7878322237
  0
LINE
  5
274
100
AcDbEntity
  8
0
100
AcDbLine
 62
7
  6
BYLAYER
 10
353.0148168666
 20
136.298925709
 11
352.5559411823
 21
136.0339952905
  0
LINE
  5
275
100
AcDbEntity
  8
0
100
AcDbLine
 62
7
  6
BYLAYER
 10
308.7125303935
 20
110.7211413668
 11
304.9255043978
 21
108.53471394
  0
LINE
  5
276
100
AcDbEntity
  8
0
100
AcDbLine
 62
7
  6
BYLAYER
 10
306.3397238481
 20
107.7182324309
 11
310.1252630994
 21
109.9038014906
  0
LINE
  5
277
100
AcDbEntity
  8
0
100
AcDbLine
 62
7
  6
BYLAYER
 10
352.5559411823
 20
134.401018675
 11
354.4290363169
 21
135.4824442
  0
LINE
  5
278
100
AcDbEntity
  8
0
100
AcDbLine
 62
7
  6
BYLAYER
 10
306.3397238481
 20
100.3697106768
 11
310.1252630993
 21
102.5552797364
  0
LINE
  5
279
100
AcDbEntity
  8
0
100
AcDbLine
 62
7
  6
BYLAYER
 10
297.8544306981
 20
820.6043346408
 11
299.2686501484
 21
819.7878531318
  0
LINE
  5
27A
100
AcDbEntity
  8
0
100
AcDbLine
 62
7
  6
BYLAYER
 10
302.097089049
 20
818.1548901137
 11
303.5113084993
 21
817.3384086046
  0
LINE
  5
27B
100
AcDbEntity
  8
0
100
AcDbLine
 62
7
  6
BYLAYER
 10
307.0057392403
 20
816.2563111228
 11
305.8624736262
 21
816.9163608387
  0
LINE
  5
27C
100
AcDbEntity
  8
0
100
AcDbLine
 62
7
  6
BYLAYER
 10
302.2314863596
 20
819.0126648898
 11
301.6198152594
 21
819.365805375
  0
LINE
  5
27D
100
AcDbEntity
  8
0
100
AcDbLine
 62
7
  6
BYLAYER
 10
309.3804468463
 20
820.3701005392
 11
308.2374332835
 21
821.0300047983
  0
LINE
  5
27E
100
AcDbEntity
  8
0
100
AcDbLine
 62
7
  6
BYLAYER
 10
304.8447662831
 20
822.9887176922
 11
303.9947749485
 21
823.4794493162
  0
LINE
  5
27F
100
AcDbEntity
  8
0
100
AcDbLine
 62
7
  6
BYLAYER
 10
306.3397238481
 20
822.2373948886
 11
304.9255043978
 21
823.0538763977
  0
LINE
  5
280
100
AcDbEntity
  8
0
100
AcDbLine
 62
7
  6
BYLAYER
 10
302.0970654973
 20
824.6868394158
 11
300.682846047
 21
825.5033209248
  0
LINE
  5
281
100
AcDbEntity
  8
0
100
AcDbLine
 62
7
  6
BYLAYER
 10
302.8427529507
 20
826.8869527488
 11
302.2549679917
 21
827.226302876
  0
LINE
  5
282
100
AcDbEntity
  8
0
100
AcDbLine
 62
7
  6
BYLAYER
 10
339.7544084367
 20
818.3895024497
 11
350.8274018932
 21
811.9966513225
  0
LINE
  5
283
100
AcDbEntity
  8
0
100
AcDbLine
 62
7
  6
BYLAYER
 10
339.7544084365
 20
820.0225072841
 11
350.8274018932
 21
813.6296561567
  0
LINE
  5
284
100
AcDbEntity
  8
0
100
AcDbLine
 62
7
  6
BYLAYER
 10
364.9694786375
 20
107.2753767765
 11
350.8274018932
 21
99.110493699
  0
LINE
  5
285
100
AcDbEntity
  8
0
100
AcDbLine
 62
7
  6
BYLAYER
 10
353.6558407938
 20
94.2115210124
 11
367.7979175381
 21
102.3764040899
  0
LINE
  5
286
100
AcDbEntity
  8
0
100
AcDbLine
 62
7
  6
BYLAYER
 10
358.6055676543
 20
85.6381962497
 11
362.8481906776
 21
88.087661173
  0
LINE
  5
287
100
AcDbEntity
  8
0
100
AcDbLine
 62
7
  6
BYLAYER
 10
357.191348204
 20
80.7391608389
 11
361.4339712273
 21
83.1886257621
  0
LINE
  5
288
100
AcDbEntity
  8
0
100
AcDbLine
 62
7
  6
BYLAYER
 10
325.3013916491
 20
835.1490442517
 11
319.2909589857
 21
838.619090665
  0
LINE
  5
289
100
AcDbEntity
  8
0
100
AcDbLine
 62
7
  6
BYLAYER
 10
319.2909589857
 20
847.6006172534
 11
325.3013916495
 21
844.13057084
  0
LINE
  5
28A
100
AcDbEntity
  8
0
100
AcDbLine
 62
7
  6
BYLAYER
 10
325.6002454965
 20
845.5910153205
 11
320.4063128135
 21
848.5896659147
  0
LINE
  5
28B
100
AcDbEntity
  8
0
100
AcDbLine
 62
7
  6
BYLAYER
 10
363.2017425962
 20
829.7555254729
 11
361.7875231459
 21
830.5720069819
  0
LINE
  5
28C
100
AcDbEntity
  8
0
100
AcDbLine
 62
7
  6
BYLAYER
 10
352.2416213435
 20
837.3082471616
 11
353.6558407938
 21
836.4917656525
  0
LINE
  5
28D
100
AcDbEntity
  8
0
100
AcDbLine
 62
7
  6
BYLAYER
 10
329.4023932035
 20
853.7835243468
 11
334.596325887
 21
850.7848737524
  0
LINE
  5
28E
100
AcDbEntity
  8
0
100
AcDbLine
 62
7
  6
BYLAYER
 10
335.3850001417
 20
850.6677343507
 11
329.6137147853
 21
853.9997121254
  0
LINE
  5
28F
100
AcDbEntity
  8
0
100
AcDbLine
 62
7
  6
BYLAYER
 10
361.7875231459
 20
835.4710214847
 11
363.2017425962
 21
834.6545399756
  0
LINE
  5
290
100
AcDbEntity
  8
0
100
AcDbLine
 62
7
  6
BYLAYER
 10
362.8481906776
 20
82.372144253
 11
358.6055676543
 21
79.9226793298
  0
LINE
  5
291
100
AcDbEntity
  8
0
100
AcDbLine
 62
7
  6
BYLAYER
 10
353.6558407938
 20
71.3494533328
 11
367.7979175381
 21
79.5143364102
  0
LINE
  5
292
100
AcDbEntity
  8
0
100
AcDbLine
 62
7
  6
BYLAYER
 10
321.7300339941
 20
852.7800995873
 11
321.8251445186
 21
852.8067101489
  0
LINE
  5
293
100
AcDbEntity
  8
0
100
AcDbLine
 62
7
  6
BYLAYER
 10
333.511752014
 20
836.4191944148
 11
325.3013916491
 21
835.1490442517
  0
LINE
  5
294
100
AcDbEntity
  8
0
100
AcDbLine
 62
7
  6
BYLAYER
 10
325.3013916495
 20
844.13057084
 11
333.5117520142
 21
845.400721003
  0
LINE
  5
295
100
AcDbEntity
  8
0
100
AcDbLine
 62
7
  6
BYLAYER
 10
325.6002454965
 20
845.5910153205
 11
332.6952520337
 21
846.6886192392
  0
LINE
  5
296
100
AcDbEntity
  8
0
100
AcDbLine
 62
7
  6
BYLAYER
 10
329.4023932035
 20
853.7835243468
 11
322.3073866669
 21
852.6859204282
  0
LINE
  5
297
100
AcDbEntity
  8
0
100
AcDbLine
 62
7
  6
BYLAYER
 10
329.5789209938
 20
854.0062263723
 11
321.8250942732
 21
852.8067023762
  0
LINE
  5
298
100
AcDbEntity
  8
0
100
AcDbLine
 62
7
  6
BYLAYER
 10
329.6137147853
 20
853.9997121254
 11
329.5789772013
 21
854.0061986611
  0
LINE
  5
299
100
AcDbEntity
  8
0
100
AcDbLine
 62
7
  6
BYLAYER
 10
348.7721585158
 20
853.2675326938
 11
350.1863779661
 21
852.4510511848
  0
LINE
  5
29A
100
AcDbEntity
  8
0
100
AcDbLine
 62
7
  6
BYLAYER
 10
353.0148168666
 20
850.8180881667
 11
354.4290363169
 21
850.0016066576
  0
LINE
  5
29B
100
AcDbEntity
  8
0
100
AcDbLine
 62
7
  6
BYLAYER
 10
348.9238212478
 20
854.1704170315
 11
348.9236407502
 21
854.1705212236
  0
LINE
  5
29C
100
AcDbEntity
  8
0
100
AcDbLine
 62
7
  6
BYLAYER
 10
356.4290279901
 20
850.1997034115
 11
355.0148085398
 21
851.0161849205
  0
LINE
  5
29D
100
AcDbEntity
  8
0
100
AcDbLine
 62
7
  6
BYLAYER
 10
352.1863696392
 20
852.6491479386
 11
350.772150189
 21
853.4656294477
  0
LINE
  5
29E
100
AcDbEntity
  8
0
100
AcDbLine
 62
7
  6
BYLAYER
 10
367.7979175381
 20
844.65664873
 11
366.3836980878
 21
845.473130239
  0
ARC
  5
29F
100
AcDbEntity
  8
0
100
AcDbCircle
 62
7
  6
BYLAYER
 10
327.5524692297
 20
147.6765801396
 40
48.3085861
100
AcDbArc
 50
266.8614693608
 51
269.3548641704
  0
ARC
  5
2A0
100
AcDbEntity
  8
0
100
AcDbCircle
 62
7
  6
BYLAYER
 10
327.7570454856
 20
145.4995056115
 40
46.1220092407
100
AcDbArc
 50
276.2233431463
 51
279.1490610699
  0
ARC
  5
2A1
100
AcDbEntity
  8
0
100
AcDbCircle
 62
7
  6
BYLAYER
 10
327.7709742349
 20
859.8635737547
 40
46.047879246
100
AcDbArc
 50
277.3156311107
 51
277.8070918465
  0
ARC
  5
2A2
100
AcDbEntity
  8
0
100
AcDbCircle
 62
7
  6
BYLAYER
 10
326.8161850123
 20
142.3633634498
 40
42.9396601905
100
AcDbArc
 50
256.8258970313
 51
259.9793586762
  0
ARC
  5
2A3
100
AcDbEntity
  8
0
100
AcDbCircle
 62
7
  6
BYLAYER
 10
326.7868774787
 20
856.6911957359
 40
42.8267067571
100
AcDbArc
 50
257.7293448957
 51
258.22042213
  0
ARC
  5
2A4
100
AcDbEntity
  8
0
100
AcDbCircle
 62
7
  6
BYLAYER
 10
329.7606164598
 20
851.3517071268
 40
37.295262209
100
AcDbArc
 50
287.0803141775
 51
289.248274551
  0
ARC
  5
2A5
100
AcDbEntity
  8
0
100
AcDbCircle
 62
7
  6
BYLAYER
 10
330.3624348759
 20
849.6049841477
 40
35.4477869155
100
AcDbArc
 50
289.2606435035
 51
290.8833279447
  0
ARC
  5
2A6
100
AcDbEntity
  8
0
100
AcDbCircle
 62
7
  6
BYLAYER
 10
330.5949919601
 20
134.5444776419
 40
34.7823812958
100
AcDbArc
 50
290.5285705922
 51
290.7370607084
  0
ARC
  5
2A7
100
AcDbEntity
  8
0
100
AcDbCircle
 62
7
  6
BYLAYER
 10
323.7433225426
 20
847.0324171729
 40
32.6852909831
100
AcDbArc
 50
246.435580348
 51
248.1726415991
  0
ARC
  5
2A8
100
AcDbEntity
  8
0
100
AcDbCircle
 62
7
  6
BYLAYER
 10
323.3677014929
 20
846.1673502676
 40
31.742195289
100
AcDbArc
 50
245.8505086019
 51
246.4328043634
  0
ARC
  5
2A9
100
AcDbEntity
  8
0
100
AcDbCircle
 62
7
  6
BYLAYER
 10
331.7554046783
 20
855.1011673187
 40
31.6939694866
100
AcDbArc
 50
292.4215214662
 51
295.8499627788
  0
ARC
  5
2AA
100
AcDbEntity
  8
0
100
AcDbCircle
 62
7
  6
BYLAYER
 10
323.0646741803
 20
139.2233019287
 40
31.0050000008
100
AcDbArc
 50
245.2622112924
 51
245.4338373455
  0
ARC
  5
2AB
100
AcDbEntity
  8
0
100
AcDbCircle
 62
7
  6
BYLAYER
 10
322.9928490776
 20
853.5042417148
 40
30.8331666555
100
AcDbArc
 50
244.9440965275
 51
245.3824701039
  0
ARC
  5
2AC
100
AcDbEntity
  8
0
100
AcDbCircle
 62
7
  6
BYLAYER
 10
332.7714124309
 20
852.9580861639
 40
29.3223385958
100
AcDbArc
 50
295.8891850369
 51
297.5065232459
  0
ARC
  5
2AD
100
AcDbEntity
  8
0
100
AcDbCircle
 62
7
  6
BYLAYER
 10
332.93792593
 20
138.193882003
 40
28.955257207
100
AcDbArc
 50
296.5223093879
 51
297.4406032361
  0
ARC
  5
2AE
100
AcDbEntity
  8
0
100
AcDbCircle
 62
7
  6
BYLAYER
 10
333.2549832983
 20
852.0194166955
 40
28.2664413269
100
AcDbArc
 50
297.515881742
 51
298.0148725112
  0
ARC
  5
2AF
100
AcDbEntity
  8
0
100
AcDbCircle
 62
7
  6
BYLAYER
 10
333.5543049726
 20
137.0133766068
 40
27.6235265426
100
AcDbArc
 50
297.4343419014
 51
299.9735269371
  0
ARC
  5
2B0
100
AcDbEntity
  8
0
100
AcDbCircle
 62
7
  6
BYLAYER
 10
333.6977642812
 20
851.1917466665
 40
27.3277784836
100
AcDbArc
 50
298.0103832256
 51
299.9839260364
  0
ARC
  5
2B1
100
AcDbEntity
  8
0
100
AcDbCircle
 62
7
  6
BYLAYER
 10
333.1290647495
 20
137.7690786507
 40
27.0763965343
100
AcDbArc
 50
296.5499447394
 51
299.9527081432
  0
ARC
  5
2B2
100
AcDbEntity
  8
0
100
AcDbCircle
 62
7
  6
BYLAYER
 10
320.8689261086
 20
829.301217972
 40
24.8132643456
100
AcDbArc
 50
119.995508282
 51
121.9256889427
  0
ARC
  5
2B3
100
AcDbEntity
  8
0
100
AcDbCircle
 62
7
  6
BYLAYER
 10
334.3368128134
 20
829.4556935496
 40
24.6325304602
100
AcDbArc
 50
58.0992539445
 51
60.0130813396
  0
ARC
  5
2B4
100
AcDbEntity
  8
0
100
AcDbCircle
 62
7
  6
BYLAYER
 10
337.2045832465
 20
845.8177764792
 40
20.9044754486
100
AcDbArc
 50
307.2796804461
 51
308.2926237965
  0
ARC
  5
2B5
100
AcDbEntity
  8
0
100
AcDbCircle
 62
7
  6
BYLAYER
 10
336.7202829625
 20
846.5712475341
 40
20.3874590228
100
AcDbArc
 50
307.2828334459
 51
307.4833088917
  0
ARC
  5
2B6
100
AcDbEntity
  8
0
100
AcDbCircle
 62
7
  6
BYLAYER
 10
339.0585872864
 20
835.6810699862
 40
16.8020297141
100
AcDbArc
 50
45.2821096347
 51
45.8976747036
  0
ARC
  5
2B7
100
AcDbEntity
  8
0
100
AcDbCircle
 62
7
  6
BYLAYER
 10
344.3656879642
 20
838.3899359193
 40
11.282986737
100
AcDbArc
 50
22.6695480563
 51
28.0742181841
  0
ARC
  5
2B8
100
AcDbEntity
  8
0
100
AcDbCircle
 62
7
  6
BYLAYER
 10
309.9805087689
 20
116.2594278022
 40
10.9807744492
100
AcDbArc
 50
200.5748067298
 51
203.1012506733
  0
ARC
  5
2B9
100
AcDbEntity
  8
0
100
AcDbCircle
 62
7
  6
BYLAYER
 10
346.1246677498
 20
838.9479144942
 40
9.4313451503
100
AcDbArc
 50
1.5364648117
 51
11.2865120827
  0
ARC
  5
2BA
100
AcDbEntity
  8
0
100
AcDbCircle
 62
7
  6
BYLAYER
 10
346.1890835636
 20
124.5161150086
 40
9.3668435822
100
AcDbArc
 50
355.0253660483
 51
359.9935646498
  0
ARC
  5
2BB
100
AcDbEntity
  8
0
100
AcDbCircle
 62
7
  6
BYLAYER
 10
308.9093884896
 20
124.5153295693
 40
9.3534332154
100
AcDbArc
 50
180.0016332587
 51
184.9166168211
  0
ARC
  5
2BC
100
AcDbEntity
  8
0
100
AcDbCircle
 62
7
  6
BYLAYER
 10
308.9093884896
 20
838.9523716385
 40
9.3534332154
100
AcDbArc
 50
180.0016332587
 51
184.9166168211
  0
ARC
  5
2BD
100
AcDbEntity
  8
0
100
AcDbCircle
 62
7
  6
BYLAYER
 10
311.0888734126
 20
125.3521185245
 40
8.534096154
100
AcDbArc
 50
187.1598942859
 51
190.5842194439
  0
ARC
  5
2BE
100
AcDbEntity
  8
0
100
AcDbCircle
 62
7
  6
BYLAYER
 10
310.9407881825
 20
125.3332369427
 40
8.3848122925
100
AcDbArc
 50
180.0114223632
 51
187.1580001722
  0
ARC
  5
2BF
100
AcDbEntity
  8
0
100
AcDbCircle
 62
7
  6
BYLAYER
 10
347.4902908061
 20
851.7135712781
 40
2.845708543
100
AcDbArc
 50
40.9753672632
 51
48.8546030788
  0
ARC
  5
2C0
100
AcDbEntity
  8
0
100
AcDbCircle
 62
7
  6
BYLAYER
 10
300.8384734563
 20
110.2682445945
 40
2.8209825192
100
AcDbArc
 50
44.5321311243
 51
48.8752834099
  0
ARC
  5
2C1
100
AcDbEntity
  8
0
100
AcDbCircle
 62
7
  6
BYLAYER
 10
300.8493105924
 20
110.2802317462
 40
2.8048252674
100
AcDbArc
 50
48.8809917381
 51
51.5295903867
  0
ARC
  5
2C2
100
AcDbEntity
  8
0
100
AcDbCircle
 62
7
  6
BYLAYER
 10
347.5181638487
 20
851.7435083596
 40
2.8048252671
100
AcDbArc
 50
48.880991738
 51
51.5295903868
  0
ARC
  5
2C3
100
AcDbEntity
  8
0
100
AcDbCircle
 62
7
  6
BYLAYER
 10
354.1301024162
 20
131.7106938389
 40
2.4110911724
100
AcDbArc
 50
355.8720888195
 51
359.9314733293
  0
ARC
  5
2C4
100
AcDbEntity
  8
0
100
AcDbCircle
 62
7
  6
BYLAYER
 10
302.0498398103
 20
825.5135434301
 40
1.5858587508
100
AcDbArc
 50
55.4694150627
 51
60.0007851139
  0
SPLINE
  5
2C5
100
AcDbEntity
  8
0
100
AcDbSpline
 62
7
  6
BYLAYER
 70
0
 71
3
 72
11
 73
7
 74
0
 42
0.0000001
 43
0.0000001
 44
0.0000000001
 40
0.0
 40
0.0
 40
0.0
 40
0.0
 40
0.2898090606
 40
0.5490460843
 40
0.782228951
 40
1.0
 40
1.0
 40
1.0
 40
1.0
 10
356.5411918641
 20
131.7078101359
 30
0.0
 10
356.5411918641
 20
131.8281929243
 30
0.0
 10
356.5230166771
 20
132.0570484175
 30
0.0
 10
356.4302212811
 20
132.3714529371
 30
0.0
 10
356.2742674167
 20
132.6266136944
 30
0.0
 10
356.1276372865
 20
132.7498178865
 30
0.0
 10
356.0492969084
 20
132.7950467047
 30
0.0
  0
SPLINE
  5
2C6
100
AcDbEntity
  8
0
100
AcDbSpline
 62
7
  6
BYLAYER
 70
0
 71
3
 72
9
 73
5
 74
0
 42
0.0000001
 43
0.0000001
 44
0.0000000001
 40
0.0
 40
0.0
 40
0.0
 40
0.0
 40
0.245332883
 40
1.0
 40
1.0
 40
1.0
 40
1.0
 10
354.8618202507
 20
128.7990370298
 30
0.0
 10
354.8761068189
 20
128.8072853345
 30
0.0
 10
354.933965581
 20
128.8415525561
 30
0.0
 10
354.9903323636
 20
128.8783260618
 30
0.0
 10
355.0320033396
 20
128.9072850137
 30
0.0
  0
SPLINE
  5
2C7
100
AcDbEntity
  8
0
100
AcDbSpline
 62
7
  6
BYLAYER
 70
0
 71
3
 72
9
 73
5
 74
0
 42
0.0000001
 43
0.0000001
 44
0.0000000001
 40
0.0
 40
0.0
 40
0.0
 40
0.0
 40
0.2366864248
 40
1.0
 40
1.0
 40
1.0
 40
1.0
 10
354.4265173646
 20
128.6139938475
 30
0.0
 10
354.4626278599
 20
128.6236511744
 30
0.0
 10
354.6136126167
 20
128.6703393968
 30
0.0
 10
354.757421536
 20
128.7387627635
 30
0.0
 10
354.8618202507
 20
128.7990370298
 30
0.0
  0
SPLINE
  5
2C8
100
AcDbEntity
  8
0
100
AcDbSpline
 62
7
  6
BYLAYER
 70
0
 71
3
 72
11
 73
7
 74
0
 42
0.0000001
 43
0.0000001
 44
0.0000000001
 40
0.0
 40
0.0
 40
0.0
 40
0.0
 40
0.2290580995
 40
0.4810889498
 40
0.7430338455
 40
1.0
 40
1.0
 40
1.0
 40
1.0
 10
354.8618202507
 20
132.6774235112
 30
0.0
 10
354.6860920698
 20
132.5759674042
 30
0.0
 10
354.3449705104
 20
132.3134988618
 30
0.0
 10
353.9082836989
 20
131.8167842697
 30
0.0
 10
353.5488595098
 20
131.2324695293
 30
0.0
 10
353.3754868726
 20
130.8037001821
 30
0.0
 10
353.3105732607
 20
130.5855162168
 30
0.0
  0
SPLINE
  5
2C9
100
AcDbEntity
  8
0
100
AcDbSpline
 62
7
  6
BYLAYER
 70
0
 71
3
 72
14
 73
10
 74
0
 42
0.0000001
 43
0.0000001
 44
0.0000000001
 40
0.0
 40
0.0
 40
0.0
 40
0.0
 40
0.2415526144
 40
0.3741436821
 40
0.5094525042
 40
0.6433659524
 40
0.7718970159
 40
0.8915939876
 40
1.0
 40
1.0
 40
1.0
 40
1.0
 10
355.1976973702
 20
128.9929623513
 30
0.0
 10
355.407111304
 20
129.1141687201
 30
0.0
 10
355.6961106047
 20
129.3649155049
 30
0.0
 10
356.0121068714
 20
129.7660153884
 30
0.0
 10
356.2208318168
 20
130.1116087434
 30
0.0
 10
356.3839049948
 20
130.476193443
 30
0.0
 10
356.4942892218
 20
130.8440010119
 30
0.0
 10
356.5470511247
 20
131.1986133864
 30
0.0
 10
356.5417522451
 20
131.4287536146
 30
0.0
 10
356.527042922
 20
131.5363420937
 30
0.0
  0
SPLINE
  5
2CA
100
AcDbEntity
  8
0
100
AcDbSpline
 62
7
  6
BYLAYER
 70
0
 71
3
 72
15
 73
11
 74
0
 42
0.0000001
 43
0.0000001
 44
0.0000000001
 40
0.0
 40
0.0
 40
0.0
 40
0.0
 40
0.1366112896
 40
0.2601138957
 40
0.3739378607
 40
0.4837567887
 40
0.5963545491
 40
0.7177337022
 40
0.8517774746
 40
1.0
 40
1.0
 40
1.0
 40
1.0
 10
356.527042922
 20
131.5363420937
 30
0.0
 10
356.5160750611
 20
131.6165643754
 30
0.0
 10
356.4821578254
 20
131.7681420439
 30
0.0
 10
356.386904443
 20
131.9706107894
 30
0.0
 10
356.2511203032
 20
132.1290781156
 30
0.0
 10
356.0787174997
 20
132.2355215265
 30
0.0
 10
355.8778297584
 20
132.2846381278
 30
0.0
 10
355.6575425414
 20
132.2762610054
 30
0.0
 10
355.4251428718
 20
132.2129392792
 30
0.0
 10
355.2738371158
 20
132.1394923334
 30
0.0
 10
355.1976973702
 20
132.0956694729
 30
0.0
  0
SPLINE
  5
2CB
100
AcDbEntity
  8
0
100
AcDbSpline
 62
7
  6
BYLAYER
 70
0
 71
3
 72
11
 73
7
 74
0
 42
0.0000001
 43
0.0000001
 44
0.0000000001
 40
0.0
 40
0.0
 40
0.0
 40
0.0
 40
0.2250927607
 40
0.4632449367
 40
0.7203818482
 40
1.0
 40
1.0
 40
1.0
 40
1.0
 10
354.3241231598
 20
128.8613345492
 30
0.0
 10
354.3742748154
 20
128.840723176
 30
0.0
 10
354.4832939285
 20
128.811425345
 30
0.0
 10
354.6580176308
 20
128.8060767749
 30
0.0
 10
354.8430614637
 20
128.8375333389
 30
0.0
 10
354.9656175864
 20
128.880597674
 30
0.0
 10
355.0274827462
 20
128.9072357045
 30
0.0
  0
SPLINE
  5
2CC
100
AcDbEntity
  8
0
100
AcDbSpline
 62
7
  6
BYLAYER
 70
0
 71
3
 72
9
 73
5
 74
0
 42
0.0000001
 43
0.0000001
 44
0.0000000001
 40
0.0
 40
0.0
 40
0.0
 40
0.0
 40
0.2439544713
 40
1.0
 40
1.0
 40
1.0
 40
1.0
 10
355.0274827462
 20
128.9072357045
 30
0.0
 10
355.0417217243
 20
128.9133667536
 30
0.0
 10
355.0996900834
 20
128.9394206547
 30
0.0
 10
355.1560572619
 20
128.9689946813
 30
0.0
 10
355.1976973702
 20
128.9929623513
 30
0.0
  0
SPLINE
  5
2CD
100
AcDbEntity
  8
0
100
AcDbSpline
 62
7
  6
BYLAYER
 70
0
 71
3
 72
11
 73
7
 74
0
 42
0.0000001
 43
0.0000001
 44
0.0000000001
 40
0.0
 40
0.0
 40
0.0
 40
0.0
 40
0.237217931
 40
0.4999983721
 40
0.7627796989
 40
1.0
 40
1.0
 40
1.0
 40
1.0
 10
355.1976973702
 20
132.0956694729
 30
0.0
 10
355.0071205993
 20
131.9853062134
 30
0.0
 10
354.6459428788
 20
131.6819019581
 30
0.0
 10
354.2247935837
 20
131.1060368753
 30
0.0
 10
353.9366568267
 20
130.4533747888
 30
0.0
 10
353.8544907637
 20
129.9888806895
 30
0.0
 10
353.854200973
 20
129.7686525356
 30
0.0
  0
SPLINE
  5
2CE
100
AcDbEntity
  8
0
100
AcDbSpline
 62
7
  6
BYLAYER
 70
0
 71
3
 72
11
 73
7
 74
0
 42
0.0000001
 43
0.0000001
 44
0.0000000001
 40
0.0
 40
0.0
 40
0.0
 40
0.0
 40
0.2177718234
 40
0.4509610103
 40
0.7101994045
 40
1.0
 40
1.0
 40
1.0
 40
1.0
 10
356.0490448119
 20
132.7951921878
 30
0.0
 10
355.9707087496
 20
132.8403801736
 30
0.0
 10
355.79072257
 20
132.9056851816
 30
0.0
 10
355.4918494813
 20
132.9131047287
 30
0.0
 10
355.1732647176
 20
132.8362593934
 30
0.0
 10
354.9660437143
 20
132.7375965967
 30
0.0
 10
354.8618202507
 20
132.6774235112
 30
0.0
  0
SPLINE
  5
2CF
100
AcDbEntity
  8
0
100
AcDbSpline
 62
7
  6
BYLAYER
 70
0
 71
3
 72
15
 73
11
 74
0
 42
0.0000001
 43
0.0000001
 44
0.0000000001
 40
0.0
 40
0.0
 40
0.0
 40
0.0
 40
0.1026853138
 40
0.2185159439
 40
0.3454557245
 40
0.4798734458
 40
0.6172353311
 40
0.7526791601
 40
0.8815594899
 40
1.0
 40
1.0
 40
1.0
 40
1.0
 10
299.2021598142
 20
111.9855777948
 30
0.0
 10
299.0362391139
 20
111.9450450059
 30
0.0
 10
298.6951892951
 20
111.8077361635
 30
0.0
 10
298.2152323101
 20
111.4866876649
 30
0.0
 10
297.7567751113
 20
111.054637249
 30
0.0
 10
297.3431958365
 20
110.5335482136
 30
0.0
 10
296.9953119504
 20
109.9500745214
 30
0.0
 10
296.731167171
 20
109.3340913382
 30
0.0
 10
296.5639846658
 20
108.717528421
 30
0.0
 10
296.5214738087
 20
108.3057070379
 30
0.0
 10
296.521255763
 20
108.1087011841
 30
0.0
  0
SPLINE
  5
2D0
100
AcDbEntity
  8
0
100
AcDbSpline
 62
7
  6
BYLAYER
 70
0
 71
3
 72
9
 73
5
 74
0
 42
0.0000001
 43
0.0000001
 44
0.0000000001
 40
0.0
 40
0.0
 40
0.0
 40
0.0
 40
0.2645184219
 40
1.0
 40
1.0
 40
1.0
 40
1.0
 10
296.521255763
 20
108.1087011841
 30
0.0
 10
296.5212893624
 20
108.0538428892
 30
0.0
 10
296.527427842
 20
107.8465963625
 30
0.0
 10
296.5590303088
 20
107.6393829792
 30
0.0
 10
296.601055221
 20
107.4927554637
 30
0.0
  0
SPLINE
  5
2D1
100
AcDbEntity
  8
0
100
AcDbSpline
 62
7
  6
BYLAYER
 70
0
 71
3
 72
12
 73
8
 74
0
 42
0.0000001
 43
0.0000001
 44
0.0000000001
 40
0.0
 40
0.0
 40
0.0
 40
0.0
 40
0.2895892814
 40
0.5486316003
 40
0.7816364084
 40
0.8918375437
 40
1.0
 40
1.0
 40
1.0
 40
1.0
 10
296.5212650616
 20
106.6543367544
 30
0.0
 10
296.5212650616
 20
106.4135711236
 30
0.0
 10
296.557738118
 20
105.9558004445
 30
0.0
 10
296.7428512087
 20
105.3272220967
 30
0.0
 10
297.0088155615
 20
104.8935106331
 30
0.0
 10
297.2774438941
 20
104.6293302009
 30
0.0
 10
297.427169032
 20
104.5248145653
 30
0.0
 10
297.5050502878
 20
104.4798555017
 30
0.0
  0
SPLINE
  5
2D2
100
AcDbEntity
  8
0
100
AcDbSpline
 62
7
  6
BYLAYER
 70
0
 71
3
 72
19
 73
15
 74
0
 42
0.0000001
 43
0.0000001
 44
0.0000000001
 40
0.0
 40
0.0
 40
0.0
 40
0.0
 40
0.0428410712
 40
0.0874515415
 40
0.1352653554
 40
0.1872082393
 40
0.2436912559
 40
0.3046877651
 40
0.3698270883
 40
0.4384784104
 40
0.5827602719
 40
0.7298493508
 40
0.8713778875
 40
1.0
 40
1.0
 40
1.0
 40
1.0
 10
302.2547857868
 20
112.7072416527
 30
0.0
 10
302.1376702306
 20
112.7748292316
 30
0.0
 10
301.8795241735
 20
112.8820922901
 30
0.0
 10
301.4534012741
 20
112.9444885398
 30
0.0
 10
300.9958236707
 20
112.9107618179
 30
0.0
 10
300.5169446751
 20
112.7834876237
 30
0.0
 10
300.0261652432
 20
112.5665491833
 30
0.0
 10
299.5332660983
 20
112.2649589257
 30
0.0
 10
299.0482080916
 20
111.88520269
 30
0.0
 10
298.4152367417
 20
111.2754164846
 30
0.0
 10
297.7119010268
 20
110.3746811967
 30
0.0
 10
297.0587090057
 20
109.1674233538
 30
0.0
 10
296.6348411019
 20
107.9139374658
 30
0.0
 10
296.5212650616
 20
107.0603054236
 30
0.0
 10
296.5212650616
 20
106.6543367544
 30
0.0
  0
SPLINE
  5
2D3
100
AcDbEntity
  8
0
100
AcDbSpline
 62
7
  6
BYLAYER
 70
0
 71
3
 72
11
 73
7
 74
0
 42
0.0000001
 43
0.0000001
 44
0.0000000001
 40
0.0
 40
0.0
 40
0.0
 40
0.0
 40
0.2140798096
 40
0.4554292477
 40
0.7198857463
 40
1.0
 40
1.0
 40
1.0
 40
1.0
 10
345.8710130703
 20
853.448854408
 30
0.0
 10
345.7061222421
 20
853.4085732067
 30
0.0
 10
345.3672153855
 20
853.2724676278
 30
0.0
 10
344.8899054929
 20
852.9543722561
 30
0.0
 10
344.43363107
 20
852.526388783
 30
0.0
 10
344.1632738363
 20
852.1877031654
 30
0.0
 10
344.036375647
 20
852.0054287252
 30
0.0
  0
SPLINE
  5
2D4
100
AcDbEntity
  8
0
100
AcDbSpline
 62
7
  6
BYLAYER
 70
0
 71
3
 72
15
 73
11
 74
0
 42
0.0000001
 43
0.0000001
 44
0.0000000001
 40
0.0
 40
0.0
 40
0.0
 40
0.0
 40
0.0922393121
 40
0.1902308781
 40
0.2981425088
 40
0.4179939595
 40
0.5498992144
 40
0.6925359909
 40
0.8435709255
 40
1.0
 40
1.0
 40
1.0
 40
1.0
 10
348.9236390429
 20
854.1705182659
 30
0.0
 10
348.7774709341
 20
854.2548721205
 30
0.0
 10
348.4453997735
 20
854.3800458756
 30
0.0
 10
347.8940539143
 20
854.41117046
 30
0.0
 10
347.3043793029
 20
854.2942673735
 30
0.0
 10
346.6946781334
 20
854.037250614
 30
0.0
 10
346.0825483752
 20
853.6500688162
 30
0.0
 10
345.4866824265
 20
853.1454781699
 30
0.0
 10
344.9259965142
 20
852.539938301
 30
0.0
 10
344.5909878322
 20
852.0864272127
 30
0.0
 10
344.4332384671
 20
851.8476213677
 30
0.0
  0
SPLINE
  5
2D5
100
AcDbEntity
  8
0
100
AcDbSpline
 62
7
  6
BYLAYER
 70
0
 71
3
 72
9
 73
5
 74
0
 42
0.0000001
 43
0.0000001
 44
0.0000000001
 40
0.0
 40
0.0
 40
0.0
 40
0.0
 40
0.2636775657
 40
1.0
 40
1.0
 40
1.0
 40
1.0
 10
354.8618202507
 20
843.3181994875
 30
0.0
 10
354.8257612681
 20
843.2973809484
 30
0.0
 10
354.6868763005
 20
843.222297165
 30
0.0
 10
354.5388423191
 20
843.1631962922
 30
0.0
 10
354.4265173646
 20
843.1331563052
 30
0.0
  0
SPLINE
  5
2D6
100
AcDbEntity
  8
0
100
AcDbSpline
 62
7
  6
BYLAYER
 70
0
 71
3
 72
13
 73
9
 74
0
 42
0.0000001
 43
0.0000001
 44
0.0000000001
 40
0.0
 40
0.0
 40
0.0
 40
0.0
 40
0.1142602578
 40
0.2375377868
 40
0.500001607
 40
0.7624645475
 40
0.8857410495
 40
1.0
 40
1.0
 40
1.0
 40
1.0
 10
356.5411918641
 20
846.2269725936
 30
0.0
 10
356.5411918641
 20
846.0942162811
 30
0.0
 10
356.5168968875
 20
845.8179453715
 30
0.0
 10
356.384821527
 20
845.2507877508
 30
0.0
 10
356.0781538206
 20
844.5551239301
 30
0.0
 10
355.6290289611
 20
843.9417085058
 30
0.0
 10
355.2038974411
 20
843.5437505241
 30
0.0
 10
354.976789446
 20
843.3845765871
 30
0.0
 10
354.8618202507
 20
843.3181994875
 30
0.0
  0
SPLINE
  5
2D7
100
AcDbEntity
  8
0
100
AcDbSpline
 62
7
  6
BYLAYER
 70
0
 71
3
 72
11
 73
7
 74
0
 42
0.0000001
 43
0.0000001
 44
0.0000000001
 40
0.0
 40
0.0
 40
0.0
 40
0.0
 40
0.217771049
 40
0.4509539157
 40
0.7101909394
 40
1.0
 40
1.0
 40
1.0
 40
1.0
 10
356.0492969084
 20
847.3142091624
 30
0.0
 10
356.1276372865
 20
847.2689803442
 30
0.0
 10
356.2742674167
 20
847.1457761521
 30
0.0
 10
356.4302212811
 20
846.8906153948
 30
0.0
 10
356.5230166771
 20
846.5762108752
 30
0.0
 10
356.5411918641
 20
846.347355382
 30
0.0
 10
356.5411918641
 20
846.2269725936
 30
0.0
  0
SPLINE
  5
2D8
100
AcDbEntity
  8
0
100
AcDbSpline
 62
7
  6
BYLAYER
 70
0
 71
3
 72
11
 73
7
 74
0
 42
0.0000001
 43
0.0000001
 44
0.0000000001
 40
0.0
 40
0.0
 40
0.0
 40
0.0
 40
0.2898090606
 40
0.5490460843
 40
0.782228951
 40
1.0
 40
1.0
 40
1.0
 40
1.0
 10
306.5135953812
 20
817.3436987072
 30
0.0
 10
306.5135953812
 20
817.2233159188
 30
0.0
 10
306.5317705682
 20
816.9944604256
 30
0.0
 10
306.6245659643
 20
816.6800559061
 30
0.0
 10
306.7805198287
 20
816.4248951487
 30
0.0
 10
306.9271499589
 20
816.3016909567
 30
0.0
 10
307.0054903369
 20
816.2564621384
 30
0.0
  0
SPLINE
  5
2D9
100
AcDbEntity
  8
0
100
AcDbSpline
 62
7
  6
BYLAYER
 70
0
 71
3
 72
13
 73
9
 74
0
 42
0.0000001
 43
0.0000001
 44
0.0000000001
 40
0.0
 40
0.0
 40
0.0
 40
0.0
 40
0.1142589505
 40
0.2375354525
 40
0.499998393
 40
0.7624622132
 40
0.8857397422
 40
1.0
 40
1.0
 40
1.0
 40
1.0
 10
308.1929669946
 20
820.2524718133
 30
0.0
 10
308.0779977993
 20
820.1860947137
 30
0.0
 10
307.8508898043
 20
820.0269207767
 30
0.0
 10
307.4257582843
 20
819.628962795
 30
0.0
 10
306.9766334248
 20
819.0155473708
 30
0.0
 10
306.6699657184
 20
818.31988355
 30
0.0
 10
306.5378903579
 20
817.7527259294
 30
0.0
 10
306.5135953812
 20
817.4764550197
 30
0.0
 10
306.5135953812
 20
817.3436987072
 30
0.0
  0
SPLINE
  5
2DA
100
AcDbEntity
  8
0
100
AcDbSpline
 62
7
  6
BYLAYER
 70
0
 71
3
 72
11
 73
7
 74
0
 42
0.0000001
 43
0.0000001
 44
0.0000000001
 40
0.0
 40
0.0
 40
0.0
 40
0.0
 40
0.2177718234
 40
0.4509610103
 40
0.7101994045
 40
1.0
 40
1.0
 40
1.0
 40
1.0
 10
309.3801915557
 20
820.3702404899
 30
0.0
 10
309.3018554935
 20
820.4154284758
 30
0.0
 10
309.1218693139
 20
820.4807334837
 30
0.0
 10
308.8229962252
 20
820.4881530309
 30
0.0
 10
308.5044114615
 20
820.4113076956
 30
0.0
 10
308.2971904582
 20
820.3126448989
 30
0.0
 10
308.1929669946
 20
820.2524718133
 30
0.0
  0
SPLINE
  5
2DB
100
AcDbEntity
  8
0
100
AcDbSpline
 62
7
  6
BYLAYER
 70
0
 71
3
 72
13
 73
9
 74
0
 42
0.0000001
 43
0.0000001
 44
0.0000000001
 40
0.0
 40
0.0
 40
0.0
 40
0.0
 40
0.2438094546
 40
0.3710033275
 40
0.5000048625
 40
0.6290055552
 40
0.7561975321
 40
1.0
 40
1.0
 40
1.0
 40
1.0
 10
298.9893279152
 20
827.0792262742
 30
0.0
 10
298.5517515252
 20
826.8265842044
 30
0.0
 10
297.9465565984
 20
826.3307755209
 30
0.0
 10
297.2791013006
 20
825.5368147719
 30
0.0
 10
296.8395958781
 20
824.867988075
 30
0.0
 10
296.4801458109
 20
824.1529471428
 30
0.0
 10
296.1263130388
 20
823.1779441848
 30
0.0
 10
295.9995437716
 20
822.4059429367
 30
0.0
 10
295.9995437716
 20
821.9006841112
 30
0.0
  0
SPLINE
  5
2DC
100
AcDbEntity
  8
0
100
AcDbSpline
 62
7
  6
BYLAYER
 70
0
 71
3
 72
11
 73
7
 74
0
 42
0.0000001
 43
0.0000001
 44
0.0000000001
 40
0.0
 40
0.0
 40
0.0
 40
0.0
 40
0.2533955262
 40
0.5024737433
 40
0.7509018897
 40
1.0
 40
1.0
 40
1.0
 40
1.0
 10
295.9995437718
 20
821.9006510817
 30
0.0
 10
295.9995458534
 20
821.611991345
 30
0.0
 10
296.0537593519
 20
821.0373357812
 30
0.0
 10
296.328648692
 20
820.2180716896
 30
0.0
 10
296.8097517493
 20
819.5031809898
 30
0.0
 10
297.2593001341
 20
819.1408947345
 30
0.0
 10
297.5050485851
 20
818.99901501
 30
0.0
  0
SPLINE
  5
2DD
100
AcDbEntity
  8
0
100
AcDbSpline
 62
7
  6
BYLAYER
 70
0
 71
3
 72
13
 73
9
 74
0
 42
0.0000001
 43
0.0000001
 44
0.0000000001
 40
0.0
 40
0.0
 40
0.0
 40
0.0
 40
0.1248417049
 40
0.2494749605
 40
0.3739333315
 40
0.4982088959
 40
0.746951388
 40
1.0
 40
1.0
 40
1.0
 40
1.0
 10
302.2549679917
 20
827.226302876
 30
0.0
 10
302.1316381086
 20
827.2975058064
 30
0.0
 10
301.873742476
 20
827.4209541627
 30
0.0
 10
301.4638909498
 20
827.5445968513
 30
0.0
 10
301.0408638604
 20
827.6060613857
 30
0.0
 10
300.471739337
 20
827.6071210446
 30
0.0
 10
299.7638649156
 20
827.4639738424
 30
0.0
 10
299.2393089307
 20
827.2235570074
 30
0.0
 10
298.9893279152
 20
827.0792262742
 30
0.0
  0
SPLINE
  5
2DE
100
AcDbEntity
  8
0
100
AcDbSpline
 62
7
  6
BYLAYER
 70
0
 71
3
 72
11
 73
7
 74
0
 42
0.0000001
 43
0.0000001
 44
0.0000000001
 40
0.0
 40
0.0
 40
0.0
 40
0.0
 40
0.2898090606
 40
0.5490460843
 40
0.782228951
 40
1.0
 40
1.0
 40
1.0
 40
1.0
 10
309.872338608
 20
819.2828584381
 30
0.0
 10
309.872338608
 20
819.4032412265
 30
0.0
 10
309.854163421
 20
819.6320967197
 30
0.0
 10
309.761368025
 20
819.9465012392
 30
0.0
 10
309.6054141605
 20
820.2016619966
 30
0.0
 10
309.4587840303
 20
820.3248661886
 30
0.0
 10
309.3804436523
 20
820.3700950069
 30
0.0
  0
SPLINE
  5
2DF
100
AcDbEntity
  8
0
100
AcDbSpline
 62
7
  6
BYLAYER
 70
0
 71
3
 72
9
 73
5
 74
0
 42
0.0000001
 43
0.0000001
 44
0.0000000001
 40
0.0
 40
0.0
 40
0.0
 40
0.0
 40
0.2451983516
 40
1.0
 40
1.0
 40
1.0
 40
1.0
 10
308.1929669946
 20
816.374085332
 30
0.0
 10
308.2077024075
 20
816.3825927758
 30
0.0
 10
308.2673995036
 20
816.417976925
 30
0.0
 10
308.32550853
 20
816.4560258959
 30
0.0
 10
308.3684455523
 20
816.4860231343
 30
0.0
  0
SPLINE
  5
2E0
100
AcDbEntity
  8
0
100
AcDbSpline
 62
7
  6
BYLAYER
 70
0
 71
3
 72
9
 73
5
 74
0
 42
0.0000001
 43
0.0000001
 44
0.0000000001
 40
0.0
 40
0.0
 40
0.0
 40
0.0
 40
0.2546375281
 40
1.0
 40
1.0
 40
1.0
 40
1.0
 10
309.8636874187
 20
819.0813870369
 30
0.0
 10
309.8651188159
 20
819.0984463448
 30
0.0
 10
309.8700761328
 20
819.1654940014
 30
0.0
 10
309.872338608
 20
819.2327477957
 30
0.0
 10
309.872338608
 20
819.2828584381
 30
0.0
  0
SPLINE
  5
2E1
100
AcDbEntity
  8
0
100
AcDbSpline
 62
7
  6
BYLAYER
 70
0
 71
3
 72
20
 73
16
 74
0
 42
0.0000001
 43
0.0000001
 44
0.0000000001
 40
0.0
 40
0.0
 40
0.0
 40
0.0
 40
0.1377416896
 40
0.2902961115
 40
0.4440406427
 40
0.5170225109
 40
0.5852970316
 40
0.6478212083
 40
0.704174837
 40
0.7548103903
 40
0.8012861726
 40
0.8462376982
 40
0.8927729918
 40
0.9435076686
 40
1.0
 40
1.0
 40
1.0
 40
1.0
 10
308.5288441141
 20
819.6707177751
 30
0.0
 10
308.3461796006
 20
819.5649936622
 30
0.0
 10
307.9984880694
 20
819.2767760681
 30
0.0
 10
307.5866899953
 20
818.729686675
 30
0.0
 10
307.3386827418
 20
818.1982374574
 30
0.0
 10
307.2216938739
 20
817.7606099293
 30
0.0
 10
307.1807693496
 20
817.45001257
 30
0.0
 10
307.1867033364
 20
817.1620023616
 30
0.0
 10
307.2398883735
 20
816.9059214451
 30
0.0
 10
307.3399926938
 20
816.6902993863
 30
0.0
 10
307.4859076117
 20
816.5240531218
 30
0.0
 10
307.6727835066
 20
816.4169809601
 30
0.0
 10
307.8902189064
 20
816.3750722882
 30
0.0
 10
308.1272693974
 20
816.3973503353
 30
0.0
 10
308.2843258444
 20
816.4499631457
 30
0.0
 10
308.3637013288
 20
816.4844914158
 30
0.0
  0
SPLINE
  5
2E2
100
AcDbEntity
  8
0
100
AcDbSpline
 62
7
  6
BYLAYER
 70
0
 71
3
 72
9
 73
5
 74
0
 42
0.0000001
 43
0.0000001
 44
0.0000000001
 40
0.0
 40
0.0
 40
0.0
 40
0.0
 40
0.2441704836
 40
1.0
 40
1.0
 40
1.0
 40
1.0
 10
308.3637013288
 20
816.4844914158
 30
0.0
 10
308.3775174059
 20
816.4905013979
 30
0.0
 10
308.4337248739
 20
816.5159758646
 30
0.0
 10
308.4884224041
 20
816.5447456038
 30
0.0
 10
308.5288441141
 20
816.5680106534
 30
0.0
  0
SPLINE
  5
2E3
100
AcDbEntity
  8
0
100
AcDbSpline
 62
7
  6
BYLAYER
 70
0
 71
3
 72
9
 73
5
 74
0
 42
0.0000001
 43
0.0000001
 44
0.0000000001
 40
0.0
 40
0.0
 40
0.0
 40
0.0
 40
0.2560366141
 40
1.0
 40
1.0
 40
1.0
 40
1.0
 10
309.8723405113
 20
818.8950275908
 30
0.0
 10
309.8723190827
 20
818.911300312
 30
0.0
 10
309.871388712
 20
818.9748502585
 30
0.0
 10
309.866993006
 20
819.0383677814
 30
0.0
 10
309.8614724688
 20
819.0853279505
 30
0.0
  0
SPLINE
  5
2E4
100
AcDbEntity
  8
0
100
AcDbSpline
 62
7
  6
BYLAYER
 70
0
 71
3
 72
15
 73
11
 74
0
 42
0.0000001
 43
0.0000001
 44
0.0000000001
 40
0.0
 40
0.0
 40
0.0
 40
0.0
 40
0.1377182655
 40
0.2619624983
 40
0.3760803232
 40
0.4857335598
 40
0.5978491374
 40
0.7186421053
 40
0.8521522058
 40
1.0
 40
1.0
 40
1.0
 40
1.0
 10
309.8614724688
 20
819.0853279505
 30
0.0
 10
309.8518024811
 20
819.1675852085
 30
0.0
 10
309.8200790223
 20
819.3231018892
 30
0.0
 10
309.7270762338
 20
819.5316202509
 30
0.0
 10
309.59231654
 20
819.6956633735
 30
0.0
 10
309.4194954046
 20
819.806776007
 30
0.0
 10
309.2169528617
 20
819.8591583327
 30
0.0
 10
308.9942530342
 20
819.8523939348
 30
0.0
 10
308.7590204053
 20
819.78925726
 30
0.0
 10
308.605905915
 20
819.7150738512
 30
0.0
 10
308.5288441141
 20
819.6707177751
 30
0.0
  0
SPLINE
  5
2E5
100
AcDbEntity
  8
0
100
AcDbSpline
 62
7
  6
BYLAYER
 70
0
 71
3
 72
11
 73
7
 74
0
 42
0.0000001
 43
0.0000001
 44
0.0000000001
 40
0.0
 40
0.0
 40
0.0
 40
0.0
 40
0.237217931
 40
0.4999983721
 40
0.7627796989
 40
1.0
 40
1.0
 40
1.0
 40
1.0
 10
308.5288441141
 20
816.5680106534
 30
0.0
 10
308.7194208849
 20
816.6783739129
 30
0.0
 10
309.0805986054
 20
816.9817781682
 30
0.0
 10
309.5017479005
 20
817.5576432511
 30
0.0
 10
309.7898846576
 20
818.2103053375
 30
0.0
 10
309.8720507206
 20
818.6747994368
 30
0.0
 10
309.8723405113
 20
818.8950275908
 30
0.0
  0
SPLINE
  5
2E6
100
AcDbEntity
  8
0
100
AcDbSpline
 62
7
  6
BYLAYER
 70
0
 71
3
 72
11
 73
7
 74
0
 42
0.0000001
 43
0.0000001
 44
0.0000000001
 40
0.0
 40
0.0
 40
0.0
 40
0.0
 40
0.2177718234
 40
0.4509610103
 40
0.7101994045
 40
1.0
 40
1.0
 40
1.0
 40
1.0
 10
307.0057424335
 20
816.2563166554
 30
0.0
 10
307.0840784958
 20
816.2111286695
 30
0.0
 10
307.2640646754
 20
816.1458236616
 30
0.0
 10
307.5629377641
 20
816.1384041144
 30
0.0
 10
307.8815225278
 20
816.2152494497
 30
0.0
 10
308.0887435311
 20
816.3139122464
 30
0.0
 10
308.1929669946
 20
816.374085332
 30
0.0
  0
SPLINE
  5
2E7
100
AcDbEntity
  8
0
100
AcDbSpline
 62
7
  6
BYLAYER
 70
0
 71
3
 72
19
 73
15
 74
0
 42
0.0000001
 43
0.0000001
 44
0.0000000001
 40
0.0
 40
0.0
 40
0.0
 40
0.0
 40
0.042841108
 40
0.0874507916
 40
0.1352633437
 40
0.187204868
 40
0.2436866668
 40
0.304682215
 40
0.3698208903
 40
0.4384718963
 40
0.5827540943
 40
0.7298446894
 40
0.871375366
 40
1.0
 40
1.0
 40
1.0
 40
1.0
 10
302.8427503663
 20
826.8869482603
 30
0.0
 10
302.7256410069
 20
826.9545526149
 30
0.0
 10
302.4675049409
 20
827.0618500879
 30
0.0
 10
302.0413853333
 20
827.1242931871
 30
0.0
 10
301.5838051362
 20
827.090606439
 30
0.0
 10
301.104918456
 20
826.9633653197
 30
0.0
 10
300.614126829
 20
826.7464528707
 30
0.0
 10
300.1212118167
 20
826.4448814773
 30
0.0
 10
299.636135225
 20
826.065137143
 30
0.0
 10
299.0031347837
 20
825.4553565843
 30
0.0
 10
298.2997622779
 20
824.5546120087
 30
0.0
 10
297.6465320206
 20
823.3473265724
 30
0.0
 10
297.2226351731
 20
822.0937995227
 30
0.0
 10
297.1090500206
 20
821.2401344284
 30
0.0
 10
297.1090500206
 20
820.8341490849
 30
0.0
  0
SPLINE
  5
2E8
100
AcDbEntity
  8
0
100
AcDbSpline
 62
7
  6
BYLAYER
 70
0
 71
3
 72
12
 73
8
 74
0
 42
0.0000001
 43
0.0000001
 44
0.0000000001
 40
0.0
 40
0.0
 40
0.0
 40
0.0
 40
0.1081624563
 40
0.2183635916
 40
0.4513683997
 40
0.7104107186
 40
1.0
 40
1.0
 40
1.0
 40
1.0
 10
297.5050502878
 20
818.9990179594
 30
0.0
 10
297.427169032
 20
819.043977023
 30
0.0
 10
297.2774438941
 20
819.1484926586
 30
0.0
 10
297.0088155615
 20
819.4126730908
 30
0.0
 10
296.7428512087
 20
819.8463845544
 30
0.0
 10
296.557738118
 20
820.4749629022
 30
0.0
 10
296.5212650616
 20
820.9327335813
 30
0.0
 10
296.5212650616
 20
821.1734992121
 30
0.0
  0
SPLINE
  5
2E9
100
AcDbEntity
  8
0
100
AcDbSpline
 62
7
  6
BYLAYER
 70
0
 71
3
 72
12
 73
8
 74
0
 42
0.0000001
 43
0.0000001
 44
0.0000000001
 40
0.0
 40
0.0
 40
0.0
 40
0.0
 40
0.2891798507
 40
0.5483334599
 40
0.7816806393
 40
0.8919481592
 40
1.0
 40
1.0
 40
1.0
 40
1.0
 10
297.1090500206
 20
820.8341490849
 30
0.0
 10
297.1090500206
 20
820.5969929983
 30
0.0
 10
297.1444768503
 20
820.1457499545
 30
0.0
 10
297.3238821946
 20
819.524990846
 30
0.0
 10
297.5814545999
 20
819.0942033351
 30
0.0
 10
297.8421281918
 20
818.829061266
 30
0.0
 10
297.9876358641
 20
818.7230348761
 30
0.0
 10
298.0634050176
 20
818.6770856165
 30
0.0
  0
SPLINE
  5
2EA
100
AcDbEntity
  8
0
100
AcDbSpline
 62
7
  6
BYLAYER
 70
0
 71
3
 72
19
 73
15
 74
0
 42
0.0000001
 43
0.0000001
 44
0.0000000001
 40
0.0
 40
0.0
 40
0.0
 40
0.0
 40
0.1286236763
 40
0.2701541148
 40
0.4172448049
 40
0.56152735
 40
0.6301785253
 40
0.6953173385
 40
0.7563129965
 40
0.8127948947
 40
0.8647365362
 40
0.9125492098
 40
0.9571589433
 40
1.0
 40
1.0
 40
1.0
 40
1.0
 10
296.5212650616
 20
821.1734992121
 30
0.0
 10
296.5212650616
 20
821.5794816856
 30
0.0
 10
296.6348487585
 20
822.4331433172
 30
0.0
 10
297.0587424608
 20
823.6866683018
 30
0.0
 10
297.7119714139
 20
824.8939557822
 30
0.0
 10
298.4153442423
 20
825.7947031468
 30
0.0
 10
299.048345769
 20
826.4044860417
 30
0.0
 10
299.5334232393
 20
826.7842317744
 30
0.0
 10
300.026339145
 20
827.0858042356
 30
0.0
 10
300.5171317776
 20
827.3027174768
 30
0.0
 10
300.9960196508
 20
827.429959062
 30
0.0
 10
301.4536009672
 20
827.4636457336
 30
0.0
 10
301.8797210762
 20
827.4012021885
 30
0.0
 10
302.1378571096
 20
827.293904371
 30
0.0
 10
302.2549662889
 20
827.2262999265
 30
0.0
  0
SPLINE
  5
2EB
100
AcDbEntity
  8
0
100
AcDbSpline
 62
7
  6
BYLAYER
 70
0
 71
3
 72
16
 73
12
 74
0
 42
0.0000001
 43
0.0000001
 44
0.0000000001
 40
0.0
 40
0.0
 40
0.0
 40
0.0
 40
0.1287444703
 40
0.2703927879
 40
0.4176109515
 40
0.5620222402
 40
0.6957527405
 40
0.8130672608
 40
0.9124743337
 40
0.9571223879
 40
1.0
 40
1.0
 40
1.0
 40
1.0
 10
330.7379349455
 20
73.1775951232
 30
0.0
 10
330.4048278915
 20
72.9852768239
 30
0.0
 10
329.6506197402
 20
72.6741062414
 30
0.0
 10
328.4214481681
 20
72.4281328646
 30
0.0
 10
327.1212508111
 20
72.3922382349
 30
0.0
 10
325.856600629
 20
72.5696520726
 30
0.0
 10
324.7285089238
 20
72.9472061443
 30
0.0
 10
323.8246991131
 20
73.4957675633
 30
0.0
 10
323.2981306824
 20
74.1003872516
 30
0.0
 10
323.0902420417
 20
74.6239753395
 30
0.0
 10
323.0559463069
 20
74.886576918
 30
0.0
 10
323.0559590633
 20
75.0146785179
 30
0.0
  0
SPLINE
  5
2EC
100
AcDbEntity
  8
0
100
AcDbSpline
 62
7
  6
BYLAYER
 70
0
 71
3
 72
11
 73
7
 74
0
 42
0.0000001
 43
0.0000001
 44
0.0000000001
 40
0.0
 40
0.0
 40
0.0
 40
0.0
 40
0.2177684366
 40
0.4509396364
 40
0.7102096137
 40
1.0
 40
1.0
 40
1.0
 40
1.0
 10
332.0559233013
 20
75.0146785191
 30
0.0
 10
332.0559062345
 20
74.8432909442
 30
0.0
 10
331.9926644175
 20
74.4859994267
 30
0.0
 10
331.7217565107
 20
73.9883474523
 30
0.0
 10
331.2937389264
 20
73.5382746504
 30
0.0
 10
330.9354497513
 20
73.2916296688
 30
0.0
 10
330.7379349455
 20
73.1775951232
 30
0.0
  0
SPLINE
  5
2ED
100
AcDbEntity
  8
0
100
AcDbSpline
 62
7
  6
BYLAYER
 70
0
 71
3
 72
11
 73
7
 74
0
 42
0.0000001
 43
0.0000001
 44
0.0000000001
 40
0.0
 40
0.0
 40
0.0
 40
0.0
 40
0.2492317548
 40
0.4945407047
 40
0.7430443008
 40
1.0
 40
1.0
 40
1.0
 40
1.0
 10
335.7116797144
 20
850.1409175796
 30
0.0
 10
335.7116797144
 20
850.1948115037
 30
0.0
 10
335.6968760004
 20
850.3024731021
 30
0.0
 10
335.629098978
 20
850.4505233613
 30
0.0
 10
335.5226902698
 20
850.5755096087
 30
0.0
 10
335.4331199899
 20
850.6399520698
 30
0.0
 10
335.3850001417
 20
850.6677343506
 30
0.0
  0
SPLINE
  5
2EE
100
AcDbEntity
  8
0
100
AcDbSpline
 62
7
  6
BYLAYER
 70
0
 71
3
 72
9
 73
5
 74
0
 42
0.0000001
 43
0.0000001
 44
0.0000000001
 40
0.0
 40
0.0
 40
0.0
 40
0.0
 40
0.515590212
 40
1.0
 40
1.0
 40
1.0
 40
1.0
 10
321.5406387202
 20
852.5927406648
 30
0.0
 10
321.5602485393
 20
852.6350239236
 30
0.0
 10
321.6121003528
 20
852.711934649
 30
0.0
 10
321.6896984164
 20
852.7630511191
 30
0.0
 10
321.7300339941
 20
852.7800995873
 30
0.0
  0
SPLINE
  5
2EF
100
AcDbEntity
  8
0
100
AcDbSpline
 62
7
  6
BYLAYER
 70
0
 71
3
 72
9
 73
5
 74
0
 42
0.0000001
 43
0.0000001
 44
0.0000000001
 40
0.0
 40
0.0
 40
0.0
 40
0.0
 40
0.4438299059
 40
1.0
 40
1.0
 40
1.0
 40
1.0
 10
325.6002454965
 20
845.5910153205
 30
0.0
 10
325.5549683344
 20
845.4934563648
 30
0.0
 10
325.4743078797
 20
845.2639906934
 30
0.0
 10
325.41594371
 20
845.0285723319
 30
0.0
 10
325.3889239149
 20
844.8965314997
 30
0.0
  0
SPLINE
  5
2F0
100
AcDbEntity
  8
0
100
AcDbSpline
 62
7
  6
BYLAYER
 70
0
 71
3
 72
9
 73
5
 74
0
 42
0.0000001
 43
0.0000001
 44
0.0000000001
 40
0.0
 40
0.0
 40
0.0
 40
0.0
 40
0.5255906598
 40
1.0
 40
1.0
 40
1.0
 40
1.0
 10
333.2726047068
 20
846.1161440378
 30
0.0
 10
333.1958078254
 20
846.2372788456
 30
0.0
 10
333.023496589
 20
846.4519744498
 30
0.0
 10
332.8073688183
 20
846.6238900481
 30
0.0
 10
332.6952520341
 20
846.6886192392
 30
0.0
  0
SPLINE
  5
2F1
100
AcDbEntity
  8
0
100
AcDbSpline
 62
7
  6
BYLAYER
 70
0
 71
3
 72
9
 73
5
 74
0
 42
0.0000001
 43
0.0000001
 44
0.0000000001
 40
0.0
 40
0.0
 40
0.0
 40
0.0
 40
0.4753133233
 40
1.0
 40
1.0
 40
1.0
 40
1.0
 10
333.5117520142
 20
845.400721003
 30
0.0
 10
333.5117520142
 20
845.5213466788
 30
0.0
 10
333.4579755172
 20
845.7748476044
 30
0.0
 10
333.343901737
 20
846.0036843665
 30
0.0
 10
333.2726047068
 20
846.1161440378
 30
0.0
  0
SPLINE
  5
2F2
100
AcDbEntity
  8
0
100
AcDbSpline
 62
7
  6
BYLAYER
 70
0
 71
3
 72
9
 73
5
 74
0
 42
0.0000001
 43
0.0000001
 44
0.0000000001
 40
0.0
 40
0.0
 40
0.0
 40
0.0
 40
0.5200009426
 40
1.0
 40
1.0
 40
1.0
 40
1.0
 10
325.3889239149
 20
844.8965314997
 30
0.0
 10
325.3621032327
 20
844.7654636964
 30
0.0
 10
325.3208379949
 20
844.5112744512
 30
0.0
 10
325.3013916495
 20
844.2540631565
 30
0.0
 10
325.3013916495
 20
844.13057084
 30
0.0
  0
SPLINE
  5
2F3
100
AcDbEntity
  8
0
100
AcDbSpline
 62
7
  6
BYLAYER
 70
0
 71
3
 72
10
 73
6
 74
0
 42
0.0000001
 43
0.0000001
 44
0.0000000001
 40
0.0
 40
0.0
 40
0.0
 40
0.0
 40
0.2217952359
 40
0.5880096644
 40
1.0
 40
1.0
 40
1.0
 40
1.0
 10
321.8250976485
 20
852.8066989947
 30
0.0
 10
321.8620195466
 20
852.8124160273
 30
0.0
 10
321.961988175
 20
852.8151510106
 30
0.0
 10
322.1280434071
 20
852.7771428047
 30
0.0
 10
322.247283581
 20
852.720620176
 30
0.0
 10
322.307386667
 20
852.6859204282
 30
0.0
  0
SPLINE
  5
2F4
100
AcDbEntity
  8
0
100
AcDbSpline
 62
7
  6
BYLAYER
 70
0
 71
3
 72
10
 73
6
 74
0
 42
0.0000001
 43
0.0000001
 44
0.0000000001
 40
0.0
 40
0.0
 40
0.0
 40
0.0
 40
0.1558992023
 40
0.3711911752
 40
1.0
 40
1.0
 40
1.0
 40
1.0
 10
329.5789224327
 20
854.006221386
 30
0.0
 10
329.5639730081
 20
854.0039137885
 30
0.0
 10
329.5311106457
 20
853.9852250642
 30
0.0
 10
329.4663695853
 20
853.9126938086
 30
0.0
 10
329.4280774527
 20
853.8388663427
 30
0.0
 10
329.4023932035
 20
853.7835243468
 30
0.0
  0
SPLINE
  5
2F5
100
AcDbEntity
  8
0
100
AcDbSpline
 62
7
  6
BYLAYER
 70
0
 71
3
 72
9
 73
5
 74
0
 42
0.0000001
 43
0.0000001
 44
0.0000000001
 40
0.0
 40
0.0
 40
0.0
 40
0.0
 40
0.2366187787
 40
1.0
 40
1.0
 40
1.0
 40
1.0
 10
335.3850001417
 20
850.6677343506
 30
0.0
 10
335.32992597
 20
850.6995317516
 30
0.0
 10
335.0817099209
 20
850.8071212767
 30
0.0
 10
334.7990825056
 20
850.8162403844
 30
0.0
 10
334.596325887
 20
850.7848737524
 30
0.0
  0
SPLINE
  5
2F6
100
AcDbEntity
  8
0
100
AcDbSpline
 62
7
  6
BYLAYER
 70
0
 71
3
 72
9
 73
5
 74
0
 42
0.0000001
 43
0.0000001
 44
0.0000000001
 40
0.0
 40
0.0
 40
0.0
 40
0.0
 40
0.2498057336
 40
1.0
 40
1.0
 40
1.0
 40
1.0
 10
320.4063128131
 20
848.5896659149
 30
0.0
 10
320.3344176704
 20
848.5785436714
 30
0.0
 10
320.0502861381
 20
848.5144187091
 30
0.0
 10
319.7811034704
 20
848.3734630535
 30
0.0
 10
319.6176385583
 20
848.2285092743
 30
0.0
  0
SPLINE
  5
2F7
100
AcDbEntity
  8
0
100
AcDbSpline
 62
7
  6
BYLAYER
 70
0
 71
3
 72
9
 73
5
 74
0
 42
0.0000001
 43
0.0000001
 44
0.0000000001
 40
0.0
 40
0.0
 40
0.0
 40
0.0
 40
0.258500729
 40
1.0
 40
1.0
 40
1.0
 40
1.0
 10
319.6176385583
 20
848.2285092743
 30
0.0
 10
319.5901601917
 20
848.2041426195
 30
0.0
 10
319.4880221179
 20
848.1054903414
 30
0.0
 10
319.4032519607
 20
847.98734881
 30
0.0
 10
319.3589221562
 20
847.8917829042
 30
0.0
  0
SPLINE
  5
2F8
100
AcDbEntity
  8
0
100
AcDbSpline
 62
7
  6
BYLAYER
 70
0
 71
3
 72
9
 73
5
 74
0
 42
0.0000001
 43
0.0000001
 44
0.0000000001
 40
0.0
 40
0.0
 40
0.0
 40
0.0
 40
0.2540173136
 40
1.0
 40
1.0
 40
1.0
 40
1.0
 10
299.7001523301
 20
112.4004539755
 30
0.0
 10
299.6306033271
 20
112.5858015457
 30
0.0
 10
299.3768288488
 20
113.322774622
 30
0.0
 10
299.2064370485
 20
114.0888432827
 30
0.0
 10
299.1322423122
 20
114.6654659353
 30
0.0
  0
SPLINE
  5
2F9
100
AcDbEntity
  8
0
100
AcDbSpline
 62
7
  6
BYLAYER
 70
0
 71
3
 72
9
 73
5
 74
0
 42
0.0000001
 43
0.0000001
 44
0.0000000001
 40
0.0
 40
0.0
 40
0.0
 40
0.0
 40
0.2813385426
 40
1.0
 40
1.0
 40
1.0
 40
1.0
 10
353.0147933149
 20
136.298855674
 30
0.0
 10
353.0147933149
 20
136.442721188
 30
0.0
 10
352.9867473359
 20
136.9513301598
 30
0.0
 10
352.8229173695
 20
137.469191703
 30
0.0
 10
352.6003482673
 20
137.7616225677
 30
0.0
  0
SPLINE
  5
2FA
100
AcDbEntity
  8
0
100
AcDbSpline
 62
7
  6
BYLAYER
 70
0
 71
3
 72
9
 73
5
 74
0
 42
0.0000001
 43
0.0000001
 44
0.0000000001
 40
0.0
 40
0.0
 40
0.0
 40
0.0
 40
0.4522218849
 40
1.0
 40
1.0
 40
1.0
 40
1.0
 10
304.6133144424
 20
113.3513857016
 30
0.0
 10
304.6084984899
 20
113.3157613132
 30
0.0
 10
304.5709878195
 20
113.2405317981
 30
0.0
 10
304.5060959856
 20
113.1914996723
 30
0.0
 10
304.4683852983
 20
113.1697275268
 30
0.0
  0
SPLINE
  5
2FB
100
AcDbEntity
  8
0
100
AcDbSpline
 62
7
  6
BYLAYER
 70
0
 71
3
 72
9
 73
5
 74
0
 42
0.0000001
 43
0.0000001
 44
0.0000000001
 40
0.0
 40
0.0
 40
0.0
 40
0.0
 40
0.5078303727
 40
1.0
 40
1.0
 40
1.0
 40
1.0
 10
299.9905134653
 20
127.4171358052
 30
0.0
 10
299.6880223555
 20
126.7527877359
 30
0.0
 10
299.2169633798
 20
125.3825105199
 30
0.0
 10
299.0538596223
 20
123.9407621393
 30
0.0
 10
299.0538766334
 20
123.233301336
 30
0.0
  0
SPLINE
  5
2FC
100
AcDbEntity
  8
0
100
AcDbSpline
 62
7
  6
BYLAYER
 70
0
 71
3
 72
11
 73
7
 74
0
 42
0.0000001
 43
0.0000001
 44
0.0000000001
 40
0.0
 40
0.0
 40
0.0
 40
0.0
 40
0.2177734147
 40
0.4509530517
 40
0.7102017589
 40
1.0
 40
1.0
 40
1.0
 40
1.0
 10
300.0970738241
 20
102.6210584501
 30
0.0
 10
300.2290120501
 20
102.5448817018
 30
0.0
 10
300.5321866036
 20
102.4347740195
 30
0.0
 10
301.0356802236
 20
102.4221644838
 30
0.0
 10
301.5723871805
 20
102.5515899998
 30
0.0
 10
301.9214894462
 20
102.7177869286
 30
0.0
 10
302.0970654973
 20
102.8191552039
 30
0.0
  0
SPLINE
  5
2FD
100
AcDbEntity
  8
0
100
AcDbSpline
 62
7
  6
BYLAYER
 70
0
 71
3
 72
9
 73
5
 74
0
 42
0.0000001
 43
0.0000001
 44
0.0000000001
 40
0.0
 40
0.0
 40
0.0
 40
0.0
 40
0.525563483
 40
1.0
 40
1.0
 40
1.0
 40
1.0
 10
298.6828543738
 20
108.8728775443
 30
0.0
 10
298.9396517395
 20
109.317666098
 30
0.0
 10
299.5216023598
 20
110.113113102
 30
0.0
 10
300.2813266091
 20
110.7523424953
 30
0.0
 10
300.682846047
 20
110.9841584671
 30
0.0
  0
SPLINE
  5
2FE
100
AcDbEntity
  8
0
100
AcDbSpline
 62
7
  6
BYLAYER
 70
0
 71
3
 72
9
 73
5
 74
0
 42
0.0000001
 43
0.0000001
 44
0.0000000001
 40
0.0
 40
0.0
 40
0.0
 40
0.0
 40
0.474438157
 40
1.0
 40
1.0
 40
1.0
 40
1.0
 10
297.8544306981
 20
106.0851721831
 30
0.0
 10
297.8544306981
 20
106.5488108057
 30
0.0
 10
298.0281563155
 20
107.5263720515
 30
0.0
 10
298.4260561474
 20
108.4280874998
 30
0.0
 10
298.6828543738
 20
108.8728775443
 30
0.0
  0
SPLINE
  5
2FF
100
AcDbEntity
  8
0
100
AcDbSpline
 62
7
  6
BYLAYER
 70
0
 71
3
 72
11
 73
7
 74
0
 42
0.0000001
 43
0.0000001
 44
0.0000000001
 40
0.0
 40
0.0
 40
0.0
 40
0.0
 40
0.2177719211
 40
0.4509516547
 40
0.7102011346
 40
1.0
 40
1.0
 40
1.0
 40
1.0
 10
298.6828543738
 20
103.4375399591
 30
0.0
 10
298.5509155011
 20
103.5137170807
 30
0.0
 10
298.3039754183
 20
103.7212280816
 30
0.0
 10
298.0413138271
 20
104.1509708394
 30
0.0
 10
297.8850497578
 20
104.6804940804
 30
0.0
 10
297.8544306981
 20
105.0659294867
 30
0.0
 10
297.8544306981
 20
105.268669766
 30
0.0
  0
SPLINE
  5
300
100
AcDbEntity
  8
0
100
AcDbSpline
 62
7
  6
BYLAYER
 70
0
 71
3
 72
9
 73
5
 74
0
 42
0.0000001
 43
0.0000001
 44
0.0000000001
 40
0.0
 40
0.0
 40
0.0
 40
0.0
 40
0.28090154
 40
1.0
 40
1.0
 40
1.0
 40
1.0
 10
305.8840914929
 20
112.3541043849
 30
0.0
 10
305.9612263617
 20
112.3986379563
 30
0.0
 10
306.2257115383
 20
112.5713494602
 30
0.0
 10
306.4535469414
 20
112.8187421406
 30
0.0
 10
306.5432315391
 20
113.028373215
 30
0.0
  0
SPLINE
  5
301
100
AcDbEntity
  8
0
100
AcDbSpline
 62
7
  6
BYLAYER
 70
0
 71
3
 72
11
 73
7
 74
0
 42
0.0000001
 43
0.0000001
 44
0.0000000001
 40
0.0
 40
0.0
 40
0.0
 40
0.0
 40
0.2265500924
 40
0.4637159112
 40
0.7198444735
 40
1.0
 40
1.0
 40
1.0
 40
1.0
 10
299.0538766334
 20
123.233301336
 30
0.0
 10
299.0538974998
 20
122.365500934
 30
0.0
 10
299.303464085
 20
120.580766846
 30
0.0
 10
300.3964220546
 20
118.0198752414
 30
0.0
 10
302.1606665135
 20
115.6130548486
 30
0.0
 10
303.6779062273
 20
114.2103486309
 30
0.0
 10
304.5189585699
 20
113.5438263077
 30
0.0
  0
SPLINE
  5
302
100
AcDbEntity
  8
0
100
AcDbSpline
 62
7
  6
BYLAYER
 70
0
 71
3
 72
9
 73
5
 74
0
 42
0.0000001
 43
0.0000001
 44
0.0000000001
 40
0.0
 40
0.0
 40
0.0
 40
0.0
 40
0.525561843
 40
1.0
 40
1.0
 40
1.0
 40
1.0
 10
300.0970738241
 20
108.0563960352
 30
0.0
 10
299.8402755977
 20
107.6116059908
 30
0.0
 10
299.4423757658
 20
106.7098905424
 30
0.0
 10
299.2686501484
 20
105.7323292967
 30
0.0
 10
299.2686501484
 20
105.2686906741
 30
0.0
  0
SPLINE
  5
303
100
AcDbEntity
  8
0
100
AcDbSpline
 62
7
  6
BYLAYER
 70
0
 71
3
 72
9
 73
5
 74
0
 42
0.0000001
 43
0.0000001
 44
0.0000000001
 40
0.0
 40
0.0
 40
0.0
 40
0.0
 40
0.474436517
 40
1.0
 40
1.0
 40
1.0
 40
1.0
 10
302.0970654973
 20
110.1676769581
 30
0.0
 10
301.6955460594
 20
109.9358609863
 30
0.0
 10
300.9358218101
 20
109.296631593
 30
0.0
 10
300.3538711898
 20
108.5011845889
 30
0.0
 10
300.0970738241
 20
108.0563960352
 30
0.0
  0
SPLINE
  5
304
100
AcDbEntity
  8
0
100
AcDbSpline
 62
7
  6
BYLAYER
 70
0
 71
3
 72
9
 73
5
 74
0
 42
0.0000001
 43
0.0000001
 44
0.0000000001
 40
0.0
 40
0.0
 40
0.0
 40
0.0
 40
0.537171341
 40
1.0
 40
1.0
 40
1.0
 40
1.0
 10
304.5189585699
 20
113.5438263077
 30
0.0
 10
304.5470679427
 20
113.5215500194
 30
0.0
 10
304.5946105902
 20
113.47206286
 30
0.0
 10
304.6148106063
 20
113.4047501789
 30
0.0
 10
304.6148227451
 20
113.3738479146
 30
0.0
  0
SPLINE
  5
305
100
AcDbEntity
  8
0
100
AcDbSpline
 62
7
  6
BYLAYER
 70
0
 71
3
 72
11
 73
7
 74
0
 42
0.0000001
 43
0.0000001
 44
0.0000000001
 40
0.0
 40
0.0
 40
0.0
 40
0.0
 40
0.2897988654
 40
0.5490483453
 40
0.7822280789
 40
1.0
 40
1.0
 40
1.0
 40
1.0
 10
299.2686501484
 20
104.4521882569
 30
0.0
 10
299.2686501484
 20
104.2494479777
 30
0.0
 10
299.2992692081
 20
103.8640125713
 30
0.0
 10
299.4555332774
 20
103.3344893304
 30
0.0
 10
299.7181948686
 20
102.9047465725
 30
0.0
 10
299.9651349514
 20
102.6972355717
 30
0.0
 10
300.0970738241
 20
102.6210584501
 30
0.0
  0
SPLINE
  5
306
100
AcDbEntity
  8
0
100
AcDbSpline
 62
7
  6
BYLAYER
 70
0
 71
3
 72
15
 73
11
 74
0
 42
0.0000001
 43
0.0000001
 44
0.0000000001
 40
0.0
 40
0.0
 40
0.0
 40
0.0
 40
0.1183870164
 40
0.2434000454
 40
0.3728630913
 40
0.5043201292
 40
0.6351919891
 40
0.7629354384
 40
0.8852005561
 40
1.0
 40
1.0
 40
1.0
 40
1.0
 10
343.8842954003
 20
101.4858683944
 30
0.0
 10
342.6094338577
 20
100.9269309424
 30
0.0
 10
339.9088731051
 20
99.9538874154
 30
0.0
 10
335.6337664612
 20
98.946575864
 30
0.0
 10
331.1243343443
 20
98.3722519088
 30
0.0
 10
326.5118224074
 20
98.2477932525
 30
0.0
 10
321.9295502857
 20
98.5766951677
 30
0.0
 10
317.5098392806
 20
99.3496021032
 30
0.0
 10
313.3811310265
 20
100.5438584087
 30
0.0
 10
310.8074166001
 20
101.6387014416
 30
0.0
 10
309.6067912222
 20
102.2555668655
 30
0.0
  0
SPLINE
  5
307
100
AcDbEntity
  8
0
100
AcDbSpline
 62
7
  6
BYLAYER
 70
0
 71
3
 72
18
 73
14
 74
0
 42
0.0000001
 43
0.0000001
 44
0.0000000001
 40
0.0
 40
0.0
 40
0.0
 40
0.0
 40
0.1263916366
 40
0.2651991231
 40
0.4099329311
 40
0.55310442
 40
0.6874805783
 40
0.7495891811
 40
0.8075918647
 40
0.8612922436
 40
0.9108246217
 40
0.9567295433
 40
1.0
 40
1.0
 40
1.0
 40
1.0
 10
345.233684311
 20
115.125546497
 30
0.0
 10
343.4719416326
 20
114.1084099589
 30
0.0
 10
339.499985784
 20
112.4414256429
 30
0.0
 10
333.0191350388
 20
111.0578915392
 30
0.0
 10
326.1277973555
 20
110.7364795392
 30
0.0
 10
319.3464105302
 20
111.5031815169
 30
0.0
 10
314.062411981
 20
113.0412357983
 30
0.0
 10
310.3519583487
 20
114.794049985
 30
0.0
 10
307.9743381051
 20
116.2824758687
 30
0.0
 10
305.9751360046
 20
117.9516187713
 30
0.0
 10
304.3938685429
 20
119.77391997
 30
0.0
 10
303.2657140288
 20
121.7172670737
 30
0.0
 10
302.8278343048
 20
123.099966557
 30
0.0
 10
302.6999765734
 20
123.7845704436
 30
0.0
  0
SPLINE
  5
308
100
AcDbEntity
  8
0
100
AcDbSpline
 62
7
  6
BYLAYER
 70
0
 71
3
 72
11
 73
7
 74
0
 42
0.0000001
 43
0.0000001
 44
0.0000000001
 40
0.0
 40
0.0
 40
0.0
 40
0.0
 40
0.2682701225
 40
0.5214863769
 40
0.7636727426
 40
1.0
 40
1.0
 40
1.0
 40
1.0
 10
302.3667963394
 20
131.5743515562
 30
0.0
 10
301.9208903222
 20
131.0439946294
 30
0.0
 10
301.123022642
 20
129.951493553
 30
0.0
 10
300.2251312629
 20
128.1848215121
 30
0.0
 10
299.6787449896
 20
126.3646185063
 30
0.0
 10
299.5559761475
 20
125.12545964
 30
0.0
 10
299.5559552779
 20
124.5150629427
 30
0.0
  0
SPLINE
  5
309
100
AcDbEntity
  8
0
100
AcDbSpline
 62
7
  6
BYLAYER
 70
0
 71
3
 72
15
 73
11
 74
0
 42
0.0000001
 43
0.0000001
 44
0.0000000001
 40
0.0
 40
0.0
 40
0.0
 40
0.0
 40
0.1128761621
 40
0.2341805736
 40
0.3618280181
 40
0.493239033
 40
0.6255748854
 40
0.7559350396
 40
0.8815527158
 40
1.0
 40
1.0
 40
1.0
 40
1.0
 10
347.3550134864
 20
112.2678193992
 30
0.0
 10
346.1031877633
 20
111.5450817951
 30
0.0
 10
343.3816601347
 20
110.2559348922
 30
0.0
 10
338.9591026871
 20
108.8380250651
 30
0.0
 10
334.1688222462
 20
107.8996372014
 30
0.0
 10
329.1656719411
 20
107.4715313342
 30
0.0
 10
324.1105757762
 20
107.5670859966
 30
0.0
 10
319.1663560459
 20
108.1834473622
 30
0.0
 10
314.4933315801
 20
109.3003815545
 30
0.0
 10
311.5540631037
 20
110.3942066204
 30
0.0
 10
310.1745392324
 20
111.0248188831
 30
0.0
  0
SPLINE
  5
30A
100
AcDbEntity
  8
0
100
AcDbSpline
 62
7
  6
BYLAYER
 70
0
 71
3
 72
9
 73
5
 74
0
 42
0.0000001
 43
0.0000001
 44
0.0000000001
 40
0.0
 40
0.0
 40
0.0
 40
0.0
 40
0.2578504955
 40
1.0
 40
1.0
 40
1.0
 40
1.0
 10
310.0901303322
 20
111.063556955
 30
0.0
 10
309.7797129519
 20
111.2065815999
 30
0.0
 10
308.5852065847
 20
111.7811526693
 30
0.0
 10
307.4292130148
 20
112.4373234638
 30
0.0
 10
306.6048544837
 20
112.9741135113
 30
0.0
  0
SPLINE
  5
30B
100
AcDbEntity
  8
0
100
AcDbSpline
 62
7
  6
BYLAYER
 70
0
 71
3
 72
12
 73
8
 74
0
 42
0.0000001
 43
0.0000001
 44
0.0000000001
 40
0.0
 40
0.0
 40
0.0
 40
0.0
 40
0.2860535767
 40
0.5438847302
 40
0.7783627343
 40
0.8900680681
 40
1.0
 40
1.0
 40
1.0
 40
1.0
 10
306.6048544837
 20
112.9741135113
 30
0.0
 10
305.5376503241
 20
113.6690351381
 30
0.0
 10
303.6058067472
 20
115.1548593024
 30
0.0
 10
301.3209020477
 20
117.7961534988
 30
0.0
 10
300.1073567089
 20
120.238789285
 30
0.0
 10
299.634370558
 20
122.2206415977
 30
0.0
 10
299.5559471025
 20
123.2091417824
 30
0.0
 10
299.5559632322
 20
123.6985605129
 30
0.0
  0
SPLINE
  5
30C
100
AcDbEntity
  8
0
100
AcDbSpline
 62
7
  6
BYLAYER
 70
0
 71
3
 72
11
 73
7
 74
0
 42
0.0000001
 43
0.0000001
 44
0.0000000001
 40
0.0
 40
0.0
 40
0.0
 40
0.0
 40
0.2357795018
 40
0.4776709438
 40
0.7310383525
 40
1.0
 40
1.0
 40
1.0
 40
1.0
 10
355.5559270867
 20
124.515062943
 30
0.0
 10
355.5559484444
 20
125.1397345237
 30
0.0
 10
355.4271231716
 20
126.408723206
 30
0.0
 10
354.8546454323
 20
128.2707091101
 30
0.0
 10
353.9145850929
 20
130.0751098633
 30
0.0
 10
353.0809109965
 20
131.1874552866
 30
0.0
 10
352.615216692
 20
131.7268111562
 30
0.0
  0
SPLINE
  5
30D
100
AcDbEntity
  8
0
100
AcDbSpline
 62
7
  6
BYLAYER
 70
0
 71
3
 72
13
 73
9
 74
0
 42
0.0000001
 43
0.0000001
 44
0.0000000001
 40
0.0
 40
0.0
 40
0.0
 40
0.0
 40
0.1080951568
 40
0.2182287407
 40
0.3322531448
 40
0.4517031238
 40
0.7105903197
 40
1.0
 40
1.0
 40
1.0
 40
1.0
 10
355.5559191324
 20
123.6985605386
 30
0.0
 10
355.555901663
 20
123.1684887536
 30
0.0
 10
355.4638940072
 20
122.096191247
 30
0.0
 10
355.0529815536
 20
120.5124080305
 30
0.0
 10
354.3747729692
 20
118.9626541053
 30
0.0
 10
353.0916191644
 20
116.9087443356
 30
0.0
 10
350.8127437783
 20
114.5108664571
 30
0.0
 10
348.5840726404
 20
112.9774127969
 30
0.0
 10
347.3550134864
 20
112.2678193992
 30
0.0
  0
SPLINE
  5
30E
100
AcDbEntity
  8
0
100
AcDbSpline
 62
7
  6
BYLAYER
 70
0
 71
3
 72
9
 73
5
 74
0
 42
0.0000001
 43
0.0000001
 44
0.0000000001
 40
0.0
 40
0.0
 40
0.0
 40
0.0
 40
0.2491966061
 40
1.0
 40
1.0
 40
1.0
 40
1.0
 10
352.555906308
 20
125.3315653554
 30
0.0
 10
352.555906656
 20
125.1987125472
 30
0.0
 10
352.5432074951
 20
124.665652371
 30
0.0
 10
352.4791321455
 20
124.1339070751
 30
0.0
 10
352.403619198
 20
123.740822864
 30
0.0
  0
SPLINE
  5
30F
100
AcDbEntity
  8
0
100
AcDbSpline
 62
7
  6
BYLAYER
 70
0
 71
3
 72
11
 73
7
 74
0
 42
0.0000001
 43
0.0000001
 44
0.0000000001
 40
0.0
 40
0.0
 40
0.0
 40
0.0
 40
0.2187053638
 40
0.4548241279
 40
0.714468721
 40
1.0
 40
1.0
 40
1.0
 40
1.0
 10
352.403619198
 20
123.740822864
 30
0.0
 10
352.2450165465
 20
122.9152134784
 30
0.0
 10
351.6578683465
 20
121.2409102741
 30
0.0
 10
350.1081273925
 20
118.9451621024
 30
0.0
 10
347.9309128397
 20
116.8503490043
 30
0.0
 10
346.1842221295
 20
115.6743364865
 30
0.0
 10
345.233684311
 20
115.125546497
 30
0.0
  0
SPLINE
  5
310
100
AcDbEntity
  8
0
100
AcDbSpline
 62
7
  6
BYLAYER
 70
0
 71
3
 72
15
 73
11
 74
0
 42
0.0000001
 43
0.0000001
 44
0.0000000001
 40
0.0
 40
0.0
 40
0.0
 40
0.0
 40
0.1190289228
 40
0.2440816887
 40
0.3731531416
 40
0.5040140882
 40
0.6343356427
 40
0.761818444
 40
0.8843214275
 40
1.0
 40
1.0
 40
1.0
 40
1.0
 10
343.7698840199
 20
101.5375860558
 30
0.0
 10
342.4851652497
 20
101.0107674366
 30
0.0
 10
339.7815213124
 20
100.0942095597
 30
0.0
 10
335.5258370862
 20
99.1454733444
 30
0.0
 10
331.0600461999
 20
98.6063442649
 30
0.0
 10
326.5022772868
 20
98.491226579
 30
0.0
 10
321.9722318062
 20
98.8030515198
 30
0.0
 10
317.5887954598
 20
99.5337630667
 30
0.0
 10
313.4677342346
 20
100.6638695406
 30
0.0
 10
310.8804319234
 20
101.6989343422
 30
0.0
 10
309.6636798135
 20
102.2824954127
 30
0.0
  0
SPLINE
  5
311
100
AcDbEntity
  8
0
100
AcDbSpline
 62
7
  6
BYLAYER
 70
0
 71
3
 72
9
 73
5
 74
0
 42
0.0000001
 43
0.0000001
 44
0.0000000001
 40
0.0
 40
0.0
 40
0.0
 40
0.0
 40
0.2467165319
 40
1.0
 40
1.0
 40
1.0
 40
1.0
 10
310.7024774676
 20
102.6243106132
 30
0.0
 10
310.8676351614
 20
102.5524392167
 30
0.0
 10
311.5395041121
 20
102.266772038
 30
0.0
 10
312.2208390115
 20
102.0034423392
 30
0.0
 10
312.738261944
 20
101.8171336821
 30
0.0
  0
SPLINE
  5
312
100
AcDbEntity
  8
0
100
AcDbSpline
 62
7
  6
BYLAYER
 70
0
 71
3
 72
9
 73
5
 74
0
 42
0.0000001
 43
0.0000001
 44
0.0000000001
 40
0.0
 40
0.0
 40
0.0
 40
0.0
 40
0.2448766352
 40
1.0
 40
1.0
 40
1.0
 40
1.0
 10
312.738261944
 20
101.8171336821
 30
0.0
 10
313.0819374378
 20
101.6933863262
 30
0.0
 10
314.4931352332
 20
101.2096763939
 30
0.0
 10
315.9330570301
 20
100.8106607637
 30
0.0
 10
317.0297726907
 20
100.5537885758
 30
0.0
  0
SPLINE
  5
313
100
AcDbEntity
  8
0
100
AcDbSpline
 62
7
  6
BYLAYER
 70
0
 71
3
 72
9
 73
5
 74
0
 42
0.0000001
 43
0.0000001
 44
0.0000000001
 40
0.0
 40
0.0
 40
0.0
 40
0.0
 40
0.2473617868
 40
1.0
 40
1.0
 40
1.0
 40
1.0
 10
319.344557368
 20
100.0787421601
 30
0.0
 10
319.7993394171
 20
99.9982034281
 30
0.0
 10
321.6428639604
 20
99.7013373529
 30
0.0
 10
323.5043903599
 20
99.5174279624
 30
0.0
 10
324.9075594958
 20
99.440453186
 30
0.0
  0
SPLINE
  5
314
100
AcDbEntity
  8
0
100
AcDbSpline
 62
7
  6
BYLAYER
 70
0
 71
3
 72
9
 73
5
 74
0
 42
0.0000001
 43
0.0000001
 44
0.0000000001
 40
0.0
 40
0.0
 40
0.0
 40
0.0
 40
0.2509133253
 40
1.0
 40
1.0
 40
1.0
 40
1.0
 10
327.0085383939
 20
99.371056333
 30
0.0
 10
327.4900100462
 20
99.3656252123
 30
0.0
 10
329.4090892575
 20
99.3725717101
 30
0.0
 10
331.3278614177
 20
99.4933486336
 30
0.0
 10
332.7568732329
 20
99.6492988627
 30
0.0
  0
SPLINE
  5
315
100
AcDbEntity
  8
0
100
AcDbSpline
 62
7
  6
BYLAYER
 70
0
 71
3
 72
9
 73
5
 74
0
 42
0.0000001
 43
0.0000001
 44
0.0000000001
 40
0.0
 40
0.0
 40
0.0
 40
0.0
 40
0.2540979673
 40
1.0
 40
1.0
 40
1.0
 40
1.0
 10
335.0906068018
 20
99.9642597592
 30
0.0
 10
335.5043448812
 20
100.0310042393
 30
0.0
 10
337.1288261004
 20
100.3163746885
 30
0.0
 10
338.7375075479
 20
100.6933848368
 30
0.0
 10
339.9208844367
 20
101.0296515755
 30
0.0
  0
SPLINE
  5
316
100
AcDbEntity
  8
0
100
AcDbSpline
 62
7
  6
BYLAYER
 70
0
 71
3
 72
9
 73
5
 74
0
 42
0.0000001
 43
0.0000001
 44
0.0000000001
 40
0.0
 40
0.0
 40
0.0
 40
0.0
 40
0.253758591
 40
1.0
 40
1.0
 40
1.0
 40
1.0
 10
339.9208844367
 20
101.0296515755
 30
0.0
 10
340.1667848091
 20
101.099526285
 30
0.0
 10
341.133105687
 20
101.3843057422
 30
0.0
 10
342.0882614925
 20
101.7072420729
 30
0.0
 10
342.7922830041
 20
101.9708665465
 30
0.0
  0
SPLINE
  5
317
100
AcDbEntity
  8
0
100
AcDbSpline
 62
7
  6
BYLAYER
 70
0
 71
3
 72
19
 73
15
 74
0
 42
0.0000001
 43
0.0000001
 44
0.0000000001
 40
0.0
 40
0.0
 40
0.0
 40
0.0
 40
0.0428777238
 40
0.0878484312
 40
0.1360829716
 40
0.1883089121
 40
0.244826444
 40
0.3055756077
 40
0.3702114367
 40
0.4381707086
 40
0.5809158212
 40
0.7270193063
 40
0.8689860199
 40
1.0
 40
1.0
 40
1.0
 40
1.0
 10
299.5903714017
 20
123.7136853646
 30
0.0
 10
299.6556933236
 20
122.954119481
 30
0.0
 10
299.9827074844
 20
121.4090955245
 30
0.0
 10
301.0146727336
 20
119.2011504115
 30
0.0
 10
302.5626499179
 20
117.1111618925
 30
0.0
 10
304.589914112
 20
115.1761593997
 30
0.0
 10
307.0554386225
 20
113.4275760212
 30
0.0
 10
309.9120530117
 20
111.8956504156
 30
0.0
 10
313.105961338
 20
110.6075738244
 30
0.0
 10
317.8089666807
 20
109.2256031395
 30
0.0
 10
324.1134755476
 20
108.2663114068
 30
0.0
 10
331.8046696719
 20
108.3303333824
 30
0.0
 10
339.1816380352
 20
109.58412949
 30
0.0
 10
343.7835352463
 20
111.2455800421
 30
0.0
 10
345.8677872192
 20
112.2858599448
 30
0.0
  0
SPLINE
  5
318
100
AcDbEntity
  8
0
100
AcDbSpline
 62
7
  6
BYLAYER
 70
0
 71
3
 72
11
 73
7
 74
0
 42
0.0000001
 43
0.0000001
 44
0.0000000001
 40
0.0
 40
0.0
 40
0.0
 40
0.0
 40
0.2842396938
 40
0.543816076
 40
0.7806733749
 40
1.0
 40
1.0
 40
1.0
 40
1.0
 10
346.6479037613
 20
114.309064988
 30
0.0
 10
347.633005531
 20
114.8778103649
 30
0.0
 10
349.4494432527
 20
116.0936347631
 30
0.0
 10
351.7373075708
 20
118.2457293763
 30
0.0
 10
353.4076388172
 20
120.599052587
 30
0.0
 10
354.0887154957
 20
122.3185883869
 30
0.0
 10
354.2954668869
 20
123.1716111723
 30
0.0
  0
SPLINE
  5
319
100
AcDbEntity
  8
0
100
AcDbSpline
 62
7
  6
BYLAYER
 70
0
 71
3
 72
11
 73
7
 74
0
 42
0.0000001
 43
0.0000001
 44
0.0000000001
 40
0.0
 40
0.0
 40
0.0
 40
0.0
 40
0.2437583579
 40
0.486775715
 40
0.7366561858
 40
1.0
 40
1.0
 40
1.0
 40
1.0
 10
354.2954668869
 20
123.1716111723
 30
0.0
 10
354.4515478418
 20
123.8155759361
 30
0.0
 10
354.6280986752
 20
125.1394618124
 30
0.0
 10
354.44605435
 20
127.1495210065
 30
0.0
 10
353.8208843252
 20
129.1231568081
 30
0.0
 10
353.1410561287
 20
130.3521470082
 30
0.0
 10
352.7430570757
 20
130.9471569167
 30
0.0
  0
SPLINE
  5
31A
100
AcDbEntity
  8
0
100
AcDbSpline
 62
7
  6
BYLAYER
 70
0
 71
3
 72
23
 73
19
 74
0
 42
0.0000001
 43
0.0000001
 44
0.0000000001
 40
0.0
 40
0.0
 40
0.0
 40
0.0
 40
0.0481489467
 40
0.0933410535
 40
0.1377928719
 40
0.183907528
 40
0.2336823699
 40
0.288365037
 40
0.3484312554
 40
0.4137206393
 40
0.4835939878
 40
0.5570674982
 40
0.6329227302
 40
0.7097996467
 40
0.7862803513
 40
0.8609687737
 40
0.9325724596
 40
1.0
 40
1.0
 40
1.0
 40
1.0
 10
302.5260046423
 20
131.1767637876
 30
0.0
 10
301.9873488717
 20
130.40796017
 30
0.0
 10
301.0988019038
 20
128.7952749816
 30
0.0
 10
300.4628400887
 20
126.1490918915
 30
0.0
 10
300.6187997325
 20
123.4681902832
 30
0.0
 10
301.5562436963
 20
120.8619327314
 30
0.0
 10
303.2208051464
 20
118.4126633919
 30
0.0
 10
305.5478010679
 20
116.1775589017
 30
0.0
 10
308.4685073911
 20
114.2052901408
 30
0.0
 10
311.9043279387
 20
112.5419310865
 30
0.0
 10
315.7638278253
 20
111.229110055
 30
0.0
 10
319.9434879742
 20
110.3011635314
 30
0.0
 10
324.3302576043
 20
109.7829171437
 30
0.0
 10
328.8049086612
 20
109.6884001882
 30
0.0
 10
333.2454765894
 20
110.0201490769
 30
0.0
 10
337.5313572827
 20
110.7693089999
 30
0.0
 10
341.5454916051
 20
111.9152231785
 30
0.0
 10
344.0558046031
 20
112.9601255112
 30
0.0
 10
345.2316117645
 20
113.5480215922
 30
0.0
  0
SPLINE
  5
31B
100
AcDbEntity
  8
0
100
AcDbSpline
 62
7
  6
BYLAYER
 70
0
 71
3
 72
12
 73
8
 74
0
 42
0.0000001
 43
0.0000001
 44
0.0000000001
 40
0.0
 40
0.0
 40
0.0
 40
0.0
 40
0.2878325655
 40
0.547232037
 40
0.7816112583
 40
0.8921512504
 40
1.0
 40
1.0
 40
1.0
 40
1.0
 10
347.3550134864
 20
113.0843218163
 30
0.0
 10
348.5096635579
 20
113.7509553666
 30
0.0
 10
350.6163580589
 20
115.1873479463
 30
0.0
 10
353.1830992481
 20
117.7763558743
 30
0.0
 10
354.6453073979
 20
120.2067864383
 30
0.0
 10
355.3084335271
 20
122.2037278621
 30
0.0
 10
355.4773427174
 20
123.2061845256
 30
0.0
 10
355.5206439896
 20
123.7038719976
 30
0.0
  0
SPLINE
  5
31C
100
AcDbEntity
  8
0
100
AcDbSpline
 62
7
  6
BYLAYER
 70
0
 71
3
 72
9
 73
5
 74
0
 42
0.0000001
 43
0.0000001
 44
0.0000000001
 40
0.0
 40
0.0
 40
0.0
 40
0.0
 40
0.5249554623
 40
1.0
 40
1.0
 40
1.0
 40
1.0
 10
310.1768084182
 20
111.1332092972
 30
0.0
 10
309.9096611988
 20
111.1143066528
 30
0.0
 10
309.4028632162
 20
111.0313032151
 30
0.0
 10
308.9224138785
 20
110.84231693
 30
0.0
 10
308.7125303935
 20
110.7211413668
 30
0.0
  0
SPLINE
  5
31D
100
AcDbEntity
  8
0
100
AcDbSpline
 62
7
  6
BYLAYER
 70
0
 71
3
 72
11
 73
7
 74
0
 42
0.0000001
 43
0.0000001
 44
0.0000000001
 40
0.0
 40
0.0
 40
0.0
 40
0.0
 40
0.2897982411
 40
0.5490469483
 40
0.7822265853
 40
1.0
 40
1.0
 40
1.0
 40
1.0
 10
353.0148168666
 20
136.298925709
 30
0.0
 10
353.1903929177
 20
136.4002939843
 30
0.0
 10
353.5394951834
 20
136.5664909131
 30
0.0
 10
354.0762021403
 20
136.6959164291
 30
0.0
 10
354.5796957603
 20
136.6833068934
 30
0.0
 10
354.8828703138
 20
136.5731992111
 30
0.0
 10
355.0148085398
 20
136.4970224628
 30
0.0
  0
SPLINE
  5
31E
100
AcDbEntity
  8
0
100
AcDbSpline
 62
7
  6
BYLAYER
 70
0
 71
3
 72
11
 73
7
 74
0
 42
0.0000001
 43
0.0000001
 44
0.0000000001
 40
0.0
 40
0.0
 40
0.0
 40
0.0
 40
0.2897988654
 40
0.5490483453
 40
0.7822280789
 40
1.0
 40
1.0
 40
1.0
 40
1.0
 10
357.2574516658
 20
133.8494111469
 30
0.0
 10
357.2574516658
 20
134.0521514262
 30
0.0
 10
357.2268326061
 20
134.4375868325
 30
0.0
 10
357.0705685368
 20
134.9671100735
 30
0.0
 10
356.8079069456
 20
135.3968528313
 30
0.0
 10
356.5609668628
 20
135.6043638321
 30
0.0
 10
356.4290279901
 20
135.6805409538
 30
0.0
  0
SPLINE
  5
31F
100
AcDbEntity
  8
0
100
AcDbSpline
 62
7
  6
BYLAYER
 70
0
 71
3
 72
9
 73
5
 74
0
 42
0.0000001
 43
0.0000001
 44
0.0000000001
 40
0.0
 40
0.0
 40
0.0
 40
0.0
 40
0.525561843
 40
1.0
 40
1.0
 40
1.0
 40
1.0
 10
356.4290279901
 20
130.2452033686
 30
0.0
 10
356.6858262165
 20
130.6899934131
 30
0.0
 10
357.0837260484
 20
131.5917088614
 30
0.0
 10
357.2574516658
 20
132.5692701072
 30
0.0
 10
357.2574516658
 20
133.0329087298
 30
0.0
  0
SPLINE
  5
320
100
AcDbEntity
  8
0
100
AcDbSpline
 62
7
  6
BYLAYER
 70
0
 71
3
 72
9
 73
5
 74
0
 42
0.0000001
 43
0.0000001
 44
0.0000000001
 40
0.0
 40
0.0
 40
0.0
 40
0.0
 40
0.2402698205
 40
1.0
 40
1.0
 40
1.0
 40
1.0
 10
354.59718023
 20
128.236794785
 30
0.0
 10
354.6599065488
 20
128.2773315991
 30
0.0
 10
354.916373744
 20
128.4531258891
 30
0.0
 10
355.1544425047
 20
128.6552016143
 30
0.0
 10
355.3245645503
 20
128.8189895844
 30
0.0
  0
SPLINE
  5
321
100
AcDbEntity
  8
0
100
AcDbSpline
 62
7
  6
BYLAYER
 70
0
 71
3
 72
9
 73
5
 74
0
 42
0.0000001
 43
0.0000001
 44
0.0000000001
 40
0.0
 40
0.0
 40
0.0
 40
0.0
 40
0.2425000255
 40
1.0
 40
1.0
 40
1.0
 40
1.0
 10
355.3245645503
 20
128.8189895844
 30
0.0
 10
355.4298008096
 20
128.9203076308
 30
0.0
 10
355.8472927316
 20
129.355028459
 30
0.0
 10
356.2008696185
 20
129.8500192831
 30
0.0
 10
356.4290279901
 20
130.2452033686
 30
0.0
  0
SPLINE
  5
322
100
AcDbEntity
  8
0
100
AcDbSpline
 62
7
  6
BYLAYER
 70
0
 71
3
 72
9
 73
5
 74
0
 42
0.0000001
 43
0.0000001
 44
0.0000000001
 40
0.0
 40
0.0
 40
0.0
 40
0.0
 40
0.2316738557
 40
1.0
 40
1.0
 40
1.0
 40
1.0
 10
356.3197386002
 20
80.4190398059
 30
0.0
 10
356.3909762587
 20
80.4292148464
 30
0.0
 10
356.6958615977
 20
80.4914785959
 30
0.0
 10
356.984669869
 20
80.6198357588
 30
0.0
 10
357.191348204
 20
80.7391608389
 30
0.0
  0
SPLINE
  5
323
100
AcDbEntity
  8
0
100
AcDbSpline
 62
7
  6
BYLAYER
 70
0
 71
3
 72
11
 73
7
 74
0
 42
0.0000001
 43
0.0000001
 44
0.0000000001
 40
0.0
 40
0.0
 40
0.0
 40
0.0
 40
0.2177731171
 40
0.4509285976
 40
0.710222822
 40
1.0
 40
1.0
 40
1.0
 40
1.0
 10
356.8556102103
 20
79.7493540149
 30
0.0
 10
356.7401611169
 20
79.8160070782
 30
0.0
 10
356.5241162442
 20
79.9975852401
 30
0.0
 10
356.2942083309
 20
80.373577608
 30
0.0
 10
356.1575253156
 20
80.836933805
 30
0.0
 10
356.1307042241
 20
81.1741980602
 30
0.0
 10
356.1307042241
 20
81.3515832512
 30
0.0
  0
SPLINE
  5
324
100
AcDbEntity
  8
0
100
AcDbSpline
 62
7
  6
BYLAYER
 70
0
 71
3
 72
9
 73
5
 74
0
 42
0.0000001
 43
0.0000001
 44
0.0000000001
 40
0.0
 40
0.0
 40
0.0
 40
0.0
 40
0.4958925698
 40
1.0
 40
1.0
 40
1.0
 40
1.0
 10
356.0579745578
 20
123.2333013414
 30
0.0
 10
356.0579797175
 20
123.7382089504
 30
0.0
 10
355.9762069574
 20
124.7579916347
 30
0.0
 10
355.7353195089
 20
125.751875715
 30
0.0
 10
355.5780368795
 20
126.240455418
 30
0.0
  0
SPLINE
  5
325
100
AcDbEntity
  8
0
100
AcDbSpline
 62
7
  6
BYLAYER
 70
0
 71
3
 72
9
 73
5
 74
0
 42
0.0000001
 43
0.0000001
 44
0.0000000001
 40
0.0
 40
0.0
 40
0.0
 40
0.0
 40
0.4955583335
 40
1.0
 40
1.0
 40
1.0
 40
1.0
 10
356.0579745578
 20
115.8847795872
 30
0.0
 10
356.057969185
 20
115.3590159668
 30
0.0
 10
355.9692085497
 20
114.2962532399
 30
0.0
 10
355.7080537607
 20
113.2627561777
 30
0.0
 10
355.5378328562
 20
112.7553594114
 30
0.0
  0
SPLINE
  5
326
100
AcDbEntity
  8
0
100
AcDbSpline
 62
7
  6
BYLAYER
 70
0
 71
3
 72
9
 73
5
 74
0
 42
0.0000001
 43
0.0000001
 44
0.0000000001
 40
0.0
 40
0.0
 40
0.0
 40
0.0
 40
0.2674193647
 40
1.0
 40
1.0
 40
1.0
 40
1.0
 10
310.4399075793
 20
102.6389549333
 30
0.0
 10
310.4107736449
 20
102.6376419873
 30
0.0
 10
310.3023589783
 20
102.6271821549
 30
0.0
 10
310.1944515434
 20
102.5952254648
 30
0.0
 10
310.1252630994
 20
102.5552797365
 30
0.0
  0
SPLINE
  5
327
100
AcDbEntity
  8
0
100
AcDbSpline
 62
7
  6
BYLAYER
 70
0
 71
3
 72
9
 73
5
 74
0
 42
0.0000001
 43
0.0000001
 44
0.0000000001
 40
0.0
 40
0.0
 40
0.0
 40
0.0
 40
0.2361213185
 40
1.0
 40
1.0
 40
1.0
 40
1.0
 10
310.7732300376
 20
102.5844809259
 30
0.0
 10
310.7486143017
 20
102.5948342516
 30
0.0
 10
310.6414106263
 20
102.6315052128
 30
0.0
 10
310.5262117339
 20
102.6428443047
 30
0.0
 10
310.4399075793
 20
102.6389549333
 30
0.0
  0
SPLINE
  5
328
100
AcDbEntity
  8
0
100
AcDbSpline
 62
7
  6
BYLAYER
 70
0
 71
3
 72
11
 73
7
 74
0
 42
0.0000001
 43
0.0000001
 44
0.0000000001
 40
0.0
 40
0.0
 40
0.0
 40
0.0
 40
0.2447496065
 40
0.5029929369
 40
0.7596670059
 40
1.0
 40
1.0
 40
1.0
 40
1.0
 10
342.9007232153
 20
102.0176801549
 30
0.0
 10
340.3916960765
 20
101.092250132
 30
0.0
 10
335.0182307606
 20
99.7562808885
 30
0.0
 10
326.6985665198
 20
99.1989385
 30
0.0
 10
318.4511148576
 20
100.0399254835
 30
0.0
 10
313.1938348962
 20
101.5663797114
 30
0.0
 10
310.7732300376
 20
102.5844809259
 30
0.0
  0
SPLINE
  5
329
100
AcDbEntity
  8
0
100
AcDbSpline
 62
7
  6
BYLAYER
 70
0
 71
3
 72
9
 73
5
 74
0
 42
0.0000001
 43
0.0000001
 44
0.0000000001
 40
0.0
 40
0.0
 40
0.0
 40
0.0
 40
0.525563483
 40
1.0
 40
1.0
 40
1.0
 40
1.0
 10
302.9255127247
 20
106.4234330172
 30
0.0
 10
303.1823100904
 20
106.8682215709
 30
0.0
 10
303.7642607107
 20
107.6636685749
 30
0.0
 10
304.52398496
 20
108.3028979682
 30
0.0
 10
304.9255043978
 20
108.53471394
 30
0.0
  0
SPLINE
  5
32A
100
AcDbEntity
  8
0
100
AcDbSpline
 62
7
  6
BYLAYER
 70
0
 71
3
 72
9
 73
5
 74
0
 42
0.0000001
 43
0.0000001
 44
0.0000000001
 40
0.0
 40
0.0
 40
0.0
 40
0.0
 40
0.474438157
 40
1.0
 40
1.0
 40
1.0
 40
1.0
 10
302.097089049
 20
103.635727656
 30
0.0
 10
302.097089049
 20
104.0993662786
 30
0.0
 10
302.2708146664
 20
105.0769275243
 30
0.0
 10
302.6687144983
 20
105.9786429727
 30
0.0
 10
302.9255127247
 20
106.4234330172
 30
0.0
  0
SPLINE
  5
32B
100
AcDbEntity
  8
0
100
AcDbSpline
 62
7
  6
BYLAYER
 70
0
 71
3
 72
11
 73
7
 74
0
 42
0.0000001
 43
0.0000001
 44
0.0000000001
 40
0.0
 40
0.0
 40
0.0
 40
0.0
 40
0.2177719211
 40
0.4509516547
 40
0.7102011346
 40
1.0
 40
1.0
 40
1.0
 40
1.0
 10
302.9255127247
 20
100.988095432
 30
0.0
 10
302.7935738519
 20
101.0642725536
 30
0.0
 10
302.5466337692
 20
101.2717835544
 30
0.0
 10
302.283972178
 20
101.7015263123
 30
0.0
 10
302.1277081087
 20
102.2310495532
 30
0.0
 10
302.097089049
 20
102.6164849596
 30
0.0
 10
302.097089049
 20
102.8192252388
 30
0.0
  0
SPLINE
  5
32C
100
AcDbEntity
  8
0
100
AcDbSpline
 62
7
  6
BYLAYER
 70
0
 71
3
 72
11
 73
7
 74
0
 42
0.0000001
 43
0.0000001
 44
0.0000000001
 40
0.0
 40
0.0
 40
0.0
 40
0.0
 40
0.2177734147
 40
0.4509530517
 40
0.7102017589
 40
1.0
 40
1.0
 40
1.0
 40
1.0
 10
304.339732175
 20
100.1716139229
 30
0.0
 10
304.4716704009
 20
100.0954371747
 30
0.0
 10
304.7748449545
 20
99.9853294923
 30
0.0
 10
305.2783385745
 20
99.9727199567
 30
0.0
 10
305.8150455313
 20
100.1021454727
 30
0.0
 10
306.1641477971
 20
100.2683424015
 30
0.0
 10
306.3397238481
 20
100.3697106768
 30
0.0
  0
SPLINE
  5
32D
100
AcDbEntity
  8
0
100
AcDbSpline
 62
7
  6
BYLAYER
 70
0
 71
3
 72
11
 73
7
 74
0
 42
0.0000001
 43
0.0000001
 44
0.0000000001
 40
0.0
 40
0.0
 40
0.0
 40
0.0
 40
0.2372273954
 40
0.499998382
 40
0.7627702492
 40
1.0
 40
1.0
 40
1.0
 40
1.0
 10
361.4339712273
 20
83.1886257621
 30
0.0
 10
361.7853151695
 20
83.3914730709
 30
0.0
 10
362.4502307711
 20
83.9510667619
 30
0.0
 10
363.2262590264
 20
85.0115793818
 30
0.0
 10
363.7566711226
 20
86.2139023492
 30
0.0
 10
363.9088346575
 20
87.0695382987
 30
0.0
 10
363.9088346575
 20
87.4752387606
 30
0.0
  0
SPLINE
  5
32E
100
AcDbEntity
  8
0
100
AcDbSpline
 62
7
  6
BYLAYER
 70
0
 71
3
 72
9
 73
5
 74
0
 42
0.0000001
 43
0.0000001
 44
0.0000000001
 40
0.0
 40
0.0
 40
0.0
 40
0.0
 40
0.2694041496
 40
1.0
 40
1.0
 40
1.0
 40
1.0
 10
363.9088346575
 20
87.4752387606
 30
0.0
 10
363.9088346575
 20
87.5588971485
 30
0.0
 10
363.89701717
 20
87.8689710174
 30
0.0
 10
363.8347604888
 20
88.1796783378
 30
0.0
 10
363.7502393538
 20
88.3902191665
 30
0.0
  0
SPLINE
  5
32F
100
AcDbEntity
  8
0
100
AcDbSpline
 62
7
  6
BYLAYER
 70
0
 71
3
 72
9
 73
5
 74
0
 42
0.0000001
 43
0.0000001
 44
0.0000000001
 40
0.0
 40
0.0
 40
0.0
 40
0.0
 40
0.5255618677
 40
1.0
 40
1.0
 40
1.0
 40
1.0
 10
366.9694869643
 20
105.1641054684
 30
0.0
 10
367.2262872169
 20
104.7193168527
 30
0.0
 10
367.6241904969
 20
103.8176032663
 30
0.0
 10
367.7979175381
 20
102.8400424641
 30
0.0
 10
367.7979175381
 20
102.3764040899
 30
0.0
  0
SPLINE
  5
330
100
AcDbEntity
  8
0
100
AcDbSpline
 62
7
  6
BYLAYER
 70
0
 71
3
 72
9
 73
5
 74
0
 42
0.0000001
 43
0.0000001
 44
0.0000000001
 40
0.0
 40
0.0
 40
0.0
 40
0.0
 40
0.4744370256
 40
1.0
 40
1.0
 40
1.0
 40
1.0
 10
364.9694786375
 20
107.2753767765
 30
0.0
 10
365.3710008283
 20
107.0435630758
 30
0.0
 10
366.1307310193
 20
106.404338129
 30
0.0
 10
366.7126872925
 20
105.6088930782
 30
0.0
 10
366.9694869643
 20
105.1641054684
 30
0.0
  0
SPLINE
  5
331
100
AcDbEntity
  8
0
100
AcDbSpline
 62
7
  6
BYLAYER
 70
0
 71
3
 72
9
 73
5
 74
0
 42
0.0000001
 43
0.0000001
 44
0.0000000001
 40
0.0
 40
0.0
 40
0.0
 40
0.0
 40
0.5255647459
 40
1.0
 40
1.0
 40
1.0
 40
1.0
 10
351.8274060566
 20
96.4218532108
 30
0.0
 10
351.9558071254
 20
96.1994572704
 30
0.0
 10
352.1547789801
 20
95.7486065228
 30
0.0
 10
352.2416213435
 20
95.2598207344
 30
0.0
 10
352.2416213435
 20
95.0280025215
 30
0.0
  0
SPLINE
  5
332
100
AcDbEntity
  8
0
100
AcDbSpline
 62
7
  6
BYLAYER
 70
0
 71
3
 72
9
 73
5
 74
0
 42
0.0000001
 43
0.0000001
 44
0.0000000001
 40
0.0
 40
0.0
 40
0.0
 40
0.0
 40
0.4744341472
 40
1.0
 40
1.0
 40
1.0
 40
1.0
 10
350.8274018932
 20
97.4774888648
 30
0.0
 10
351.0281621448
 20
97.3615825016
 30
0.0
 10
351.4080424845
 20
97.0419856574
 30
0.0
 10
351.6990052782
 20
96.6442486482
 30
0.0
 10
351.8274060566
 20
96.4218532108
 30
0.0
  0
SPLINE
  5
333
100
AcDbEntity
  8
0
100
AcDbSpline
 62
7
  6
BYLAYER
 70
0
 71
3
 72
11
 73
7
 74
0
 42
0.0000001
 43
0.0000001
 44
0.0000000001
 40
0.0
 40
0.0
 40
0.0
 40
0.0
 40
0.2897757032
 40
0.5490693955
 40
0.7822254653
 40
1.0
 40
1.0
 40
1.0
 40
1.0
 10
362.8481906776
 20
88.087661173
 30
0.0
 10
363.001804121
 20
88.1763494065
 30
0.0
 10
363.3072811485
 20
88.321746814
 30
0.0
 10
363.7768813664
 20
88.4350491309
 30
0.0
 10
364.2174374938
 20
88.4239414787
 30
0.0
 10
364.4827028502
 20
88.3276373446
 30
0.0
 10
364.5981481216
 20
88.2609864879
 30
0.0
  0
SPLINE
  5
334
100
AcDbEntity
  8
0
100
AcDbSpline
 62
7
  6
BYLAYER
 70
0
 71
3
 72
11
 73
7
 74
0
 42
0.0000001
 43
0.0000001
 44
0.0000000001
 40
0.0
 40
0.0
 40
0.0
 40
0.0
 40
0.2372297508
 40
0.500001618
 40
0.7627726046
 40
1.0
 40
1.0
 40
1.0
 40
1.0
 10
356.1307042241
 20
81.3515832512
 30
0.0
 10
356.1307042241
 20
81.7572837132
 30
0.0
 10
356.282867759
 20
82.6129196626
 30
0.0
 10
356.8132798552
 20
83.81524263
 30
0.0
 10
357.5893081105
 20
84.87575525
 30
0.0
 10
358.2542237121
 20
85.435348941
 30
0.0
 10
358.6055676543
 20
85.6381962497
 30
0.0
  0
SPLINE
  5
335
100
AcDbEntity
  8
0
100
AcDbSpline
 62
7
  6
BYLAYER
 70
0
 71
3
 72
11
 73
7
 74
0
 42
0.0000001
 43
0.0000001
 44
0.0000000001
 40
0.0
 40
0.0
 40
0.0
 40
0.0
 40
0.2177731171
 40
0.4509285976
 40
0.710222822
 40
1.0
 40
1.0
 40
1.0
 40
1.0
 10
364.5981481216
 20
88.2609864879
 30
0.0
 10
364.713597215
 20
88.1943334246
 30
0.0
 10
364.9296420877
 20
88.0127552627
 30
0.0
 10
365.159550001
 20
87.6367628948
 30
0.0
 10
365.2962330163
 20
87.1734066978
 30
0.0
 10
365.3230541078
 20
86.8361424426
 30
0.0
 10
365.3230541078
 20
86.6587572516
 30
0.0
  0
SPLINE
  5
336
100
AcDbEntity
  8
0
100
AcDbSpline
 62
7
  6
BYLAYER
 70
0
 71
3
 72
9
 73
5
 74
0
 42
0.0000001
 43
0.0000001
 44
0.0000000001
 40
0.0
 40
0.0
 40
0.0
 40
0.0
 40
0.525561843
 40
1.0
 40
1.0
 40
1.0
 40
1.0
 10
304.339732175
 20
105.6069515081
 30
0.0
 10
304.0829339486
 20
105.1621614637
 30
0.0
 10
303.6850341167
 20
104.2604460153
 30
0.0
 10
303.5113084993
 20
103.2828847696
 30
0.0
 10
303.5113084993
 20
102.8192461469
 30
0.0
  0
SPLINE
  5
337
100
AcDbEntity
  8
0
100
AcDbSpline
 62
7
  6
BYLAYER
 70
0
 71
3
 72
9
 73
5
 74
0
 42
0.0000001
 43
0.0000001
 44
0.0000000001
 40
0.0
 40
0.0
 40
0.0
 40
0.0
 40
0.474436517
 40
1.0
 40
1.0
 40
1.0
 40
1.0
 10
306.3397238481
 20
107.7182324309
 30
0.0
 10
305.9382044103
 20
107.4864164592
 30
0.0
 10
305.178480161
 20
106.8471870659
 30
0.0
 10
304.5965295406
 20
106.0517400618
 30
0.0
 10
304.339732175
 20
105.6069515081
 30
0.0
  0
SPLINE
  5
338
100
AcDbEntity
  8
0
100
AcDbSpline
 62
7
  6
BYLAYER
 70
0
 71
3
 72
11
 73
7
 74
0
 42
0.0000001
 43
0.0000001
 44
0.0000000001
 40
0.0
 40
0.0
 40
0.0
 40
0.0
 40
0.2897988654
 40
0.5490483453
 40
0.7822280789
 40
1.0
 40
1.0
 40
1.0
 40
1.0
 10
303.5113084993
 20
102.0027437298
 30
0.0
 10
303.5113084993
 20
101.8000034505
 30
0.0
 10
303.541927559
 20
101.4145680442
 30
0.0
 10
303.6981916283
 20
100.8850448032
 30
0.0
 10
303.9608532194
 20
100.4553020454
 30
0.0
 10
304.2077933022
 20
100.2477910446
 30
0.0
 10
304.339732175
 20
100.1716139229
 30
0.0
  0
SPLINE
  5
339
100
AcDbEntity
  8
0
100
AcDbSpline
 62
7
  6
BYLAYER
 70
0
 71
3
 72
11
 73
7
 74
0
 42
0.0000001
 43
0.0000001
 44
0.0000000001
 40
0.0
 40
0.0
 40
0.0
 40
0.0
 40
0.2177734147
 40
0.4509530517
 40
0.7102017589
 40
1.0
 40
1.0
 40
1.0
 40
1.0
 10
356.4290279901
 20
135.6805409538
 30
0.0
 10
356.2970897641
 20
135.7567177021
 30
0.0
 10
355.9939152106
 20
135.8668253844
 30
0.0
 10
355.4904215906
 20
135.87943492
 30
0.0
 10
354.9537146337
 20
135.750009404
 30
0.0
 10
354.604612368
 20
135.5838124752
 30
0.0
 10
354.4290363169
 20
135.4824442
 30
0.0
  0
SPLINE
  5
33A
100
AcDbEntity
  8
0
100
AcDbSpline
 62
7
  6
BYLAYER
 70
0
 71
3
 72
9
 73
5
 74
0
 42
0.0000001
 43
0.0000001
 44
0.0000000001
 40
0.0
 40
0.0
 40
0.0
 40
0.0
 40
0.4827391224
 40
1.0
 40
1.0
 40
1.0
 40
1.0
 10
347.7100370988
 20
108.739833406
 30
0.0
 10
346.5107171753
 20
108.0474098585
 30
0.0
 10
343.9145471848
 20
106.8026202227
 30
0.0
 10
341.1857649376
 20
105.8946758216
 30
0.0
 10
339.7544084365
 20
105.5033448264
 30
0.0
  0
SPLINE
  5
33B
100
AcDbEntity
  8
0
100
AcDbSpline
 62
7
  6
BYLAYER
 70
0
 71
3
 72
9
 73
5
 74
0
 42
0.0000001
 43
0.0000001
 44
0.0000000001
 40
0.0
 40
0.0
 40
0.0
 40
0.0
 40
0.2309892624
 40
1.0
 40
1.0
 40
1.0
 40
1.0
 10
353.6788944253
 20
113.7938511431
 30
0.0
 10
353.3143534951
 20
113.3115732429
 30
0.0
 10
351.6043033112
 20
111.3231602001
 30
0.0
 10
349.4530673526
 20
109.7461663852
 30
0.0
 10
347.7100370988
 20
108.739833406
 30
0.0
  0
SPLINE
  5
33C
100
AcDbEntity
  8
0
100
AcDbSpline
 62
7
  6
BYLAYER
 70
0
 71
3
 72
9
 73
5
 74
0
 42
0.0000001
 43
0.0000001
 44
0.0000000001
 40
0.0
 40
0.0
 40
0.0
 40
0.0
 40
0.5255629744
 40
1.0
 40
1.0
 40
1.0
 40
1.0
 10
352.82741022
 20
96.999222391
 30
0.0
 10
352.5706105482
 20
97.4440100008
 30
0.0
 10
351.988654275
 20
98.2394550516
 30
0.0
 10
351.228924084
 20
98.8786799984
 30
0.0
 10
350.8274018932
 20
99.110493699
 30
0.0
  0
SPLINE
  5
33D
100
AcDbEntity
  8
0
100
AcDbSpline
 62
7
  6
BYLAYER
 70
0
 71
3
 72
9
 73
5
 74
0
 42
0.0000001
 43
0.0000001
 44
0.0000000001
 40
0.0
 40
0.0
 40
0.0
 40
0.0
 40
0.4744381323
 40
1.0
 40
1.0
 40
1.0
 40
1.0
 10
353.6558407938
 20
94.2115210124
 30
0.0
 10
353.6558407938
 20
94.6751593867
 30
0.0
 10
353.4821137526
 20
95.6527201889
 30
0.0
 10
353.0842104726
 20
96.5544337753
 30
0.0
 10
352.82741022
 20
96.999222391
 30
0.0
  0
SPLINE
  5
33E
100
AcDbEntity
  8
0
100
AcDbSpline
 62
7
  6
BYLAYER
 70
0
 71
3
 72
12
 73
8
 74
0
 42
0.0000001
 43
0.0000001
 44
0.0000000001
 40
0.0
 40
0.0
 40
0.0
 40
0.0
 40
0.2895895
 40
0.5486342135
 40
0.7816366894
 40
0.8918380305
 40
1.0
 40
1.0
 40
1.0
 40
1.0
 10
347.7100370988
 20
111.597591866
 30
0.0
 10
348.9611393991
 20
112.3199118042
 30
0.0
 10
351.2304419065
 20
113.8828131525
 30
0.0
 10
353.9414741302
 20
116.730473324
 30
0.0
 10
355.3971591847
 20
119.4137280448
 30
0.0
 10
355.9641647055
 20
121.6021379538
 30
0.0
 10
356.0579690439
 20
122.693724479
 30
0.0
 10
356.0579745578
 20
123.2333013414
 30
0.0
  0
SPLINE
  5
33F
100
AcDbEntity
  8
0
100
AcDbSpline
 62
7
  6
BYLAYER
 70
0
 71
3
 72
15
 73
11
 74
0
 42
0.0000001
 43
0.0000001
 44
0.0000000001
 40
0.0
 40
0.0
 40
0.0
 40
0.0
 40
0.1198463585
 40
0.2462250588
 40
0.3767837851
 40
0.5088739225
 40
0.6397562573
 40
0.7667682554
 40
0.8874969963
 40
1.0
 40
1.0
 40
1.0
 40
1.0
 10
310.7732300373
 20
109.9330026802
 30
0.0
 10
312.1767654628
 20
109.3426786889
 30
0.0
 10
315.1451698413
 20
108.3255034941
 30
0.0
 10
319.8314578732
 20
107.3056692997
 30
0.0
 10
324.7542305588
 20
106.7722934719
 30
0.0
 10
329.7624154763
 20
106.7421667927
 30
0.0
 10
334.7031706952
 20
107.2159922261
 30
0.0
 10
339.4260608977
 20
108.179648126
 30
0.0
 10
343.7865619438
 20
109.603283401
 30
0.0
 10
346.4721980264
 20
110.8829294102
 30
0.0
 10
347.7100370988
 20
111.597591866
 30
0.0
  0
SPLINE
  5
340
100
AcDbEntity
  8
0
100
AcDbSpline
 62
7
  6
BYLAYER
 70
0
 71
3
 72
11
 73
7
 74
0
 42
0.0000001
 43
0.0000001
 44
0.0000000001
 40
0.0
 40
0.0
 40
0.0
 40
0.0
 40
0.2372297508
 40
0.500001618
 40
0.7627726046
 40
1.0
 40
1.0
 40
1.0
 40
1.0
 10
365.3230541078
 20
86.6587572516
 30
0.0
 10
365.3230541078
 20
86.2530567896
 30
0.0
 10
365.1708905729
 20
85.3974208401
 30
0.0
 10
364.6404784767
 20
84.1950978728
 30
0.0
 10
363.8644502214
 20
83.1345852528
 30
0.0
 10
363.1995346198
 20
82.5749915618
 30
0.0
 10
362.8481906776
 20
82.372144253
 30
0.0
  0
SPLINE
  5
341
100
AcDbEntity
  8
0
100
AcDbSpline
 62
7
  6
BYLAYER
 70
0
 71
3
 72
9
 73
5
 74
0
 42
0.0000001
 43
0.0000001
 44
0.0000000001
 40
0.0
 40
0.0
 40
0.0
 40
0.0
 40
0.2603221067
 40
1.0
 40
1.0
 40
1.0
 40
1.0
 10
310.4399075792
 20
109.9874766875
 30
0.0
 10
310.4693105837
 20
109.9888017593
 30
0.0
 10
310.5823230995
 20
109.9880696459
 30
0.0
 10
310.6961408247
 20
109.9654262377
 30
0.0
 10
310.7732300373
 20
109.9330026802
 30
0.0
  0
SPLINE
  5
342
100
AcDbEntity
  8
0
100
AcDbSpline
 62
7
  6
BYLAYER
 70
0
 71
3
 72
11
 73
7
 74
0
 42
0.0000001
 43
0.0000001
 44
0.0000000001
 40
0.0
 40
0.0
 40
0.0
 40
0.0
 40
0.2897757032
 40
0.5490693955
 40
0.7822254653
 40
1.0
 40
1.0
 40
1.0
 40
1.0
 10
358.6055676543
 20
79.9226793298
 30
0.0
 10
358.4519542108
 20
79.8339910963
 30
0.0
 10
358.1464771834
 20
79.6885936887
 30
0.0
 10
357.6768769654
 20
79.5752913718
 30
0.0
 10
357.2363208381
 20
79.5863990241
 30
0.0
 10
356.9710554816
 20
79.6827031581
 30
0.0
 10
356.8556102103
 20
79.7493540149
 30
0.0
  0
SPLINE
  5
343
100
AcDbEntity
  8
0
100
AcDbSpline
 62
7
  6
BYLAYER
 70
0
 71
3
 72
9
 73
5
 74
0
 42
0.0000001
 43
0.0000001
 44
0.0000000001
 40
0.0
 40
0.0
 40
0.0
 40
0.0
 40
0.2297469166
 40
1.0
 40
1.0
 40
1.0
 40
1.0
 10
310.1252630994
 20
109.9038014906
 30
0.0
 10
310.146972937
 20
109.9163355964
 30
0.0
 10
310.2457877447
 20
109.96332728
 30
0.0
 10
310.3559483421
 20
109.9836929917
 30
0.0
 10
310.4399075792
 20
109.9874766875
 30
0.0
  0
SPLINE
  5
344
100
AcDbEntity
  8
0
100
AcDbSpline
 62
7
  6
BYLAYER
 70
0
 71
3
 72
9
 73
5
 74
0
 42
0.0000001
 43
0.0000001
 44
0.0000000001
 40
0.0
 40
0.0
 40
0.0
 40
0.0
 40
0.2528670355
 40
1.0
 40
1.0
 40
1.0
 40
1.0
 10
299.5522914465
 20
827.3400738417
 30
0.0
 10
299.5046341343
 20
827.4852701305
 30
0.0
 10
299.3286779707
 20
828.0634844633
 30
0.0
 10
299.2041956249
 20
828.65749851
 30
0.0
 10
299.1428475246
 20
829.1048332103
 30
0.0
  0
SPLINE
  5
345
100
AcDbEntity
  8
0
100
AcDbSpline
 62
7
  6
BYLAYER
 70
0
 71
3
 72
11
 73
7
 74
0
 42
0.0000001
 43
0.0000001
 44
0.0000000001
 40
0.0
 40
0.0
 40
0.0
 40
0.0
 40
0.2897988654
 40
0.5490483453
 40
0.7822280789
 40
1.0
 40
1.0
 40
1.0
 40
1.0
 10
353.0147933149
 20
850.8180181317
 30
0.0
 10
353.0147933149
 20
851.020758411
 30
0.0
 10
352.9841742552
 20
851.4061938173
 30
0.0
 10
352.8279101859
 20
851.9357170583
 30
0.0
 10
352.5652485948
 20
852.3654598161
 30
0.0
 10
352.318308512
 20
852.572970817
 30
0.0
 10
352.1863696392
 20
852.6491479386
 30
0.0
  0
SPLINE
  5
346
100
AcDbEntity
  8
0
100
AcDbSpline
 62
7
  6
BYLAYER
 70
0
 71
3
 72
11
 73
7
 74
0
 42
0.0000001
 43
0.0000001
 44
0.0000000001
 40
0.0
 40
0.0
 40
0.0
 40
0.0
 40
0.2897982411
 40
0.5490469483
 40
0.7822265853
 40
1.0
 40
1.0
 40
1.0
 40
1.0
 10
348.7721585158
 20
853.2675326938
 30
0.0
 10
348.9477345669
 20
853.3689009691
 30
0.0
 10
349.2968368326
 20
853.5350978979
 30
0.0
 10
349.8335437894
 20
853.6645234139
 30
0.0
 10
350.3370374095
 20
853.6519138782
 30
0.0
 10
350.640211963
 20
853.5418061959
 30
0.0
 10
350.772150189
 20
853.4656294477
 30
0.0
  0
SPLINE
  5
347
100
AcDbEntity
  8
0
100
AcDbSpline
 62
7
  6
BYLAYER
 70
0
 71
3
 72
9
 73
5
 74
0
 42
0.0000001
 43
0.0000001
 44
0.0000000001
 40
0.0
 40
0.0
 40
0.0
 40
0.0
 40
0.4522218849
 40
1.0
 40
1.0
 40
1.0
 40
1.0
 10
304.6133144425
 20
827.8705481594
 30
0.0
 10
304.60849849
 20
827.8349237709
 30
0.0
 10
304.5709878196
 20
827.7596942558
 30
0.0
 10
304.5060959856
 20
827.71066213
 30
0.0
 10
304.4683852983
 20
827.6888899845
 30
0.0
  0
SPLINE
  5
348
100
AcDbEntity
  8
0
100
AcDbSpline
 62
7
  6
BYLAYER
 70
0
 71
3
 72
9
 73
5
 74
0
 42
0.0000001
 43
0.0000001
 44
0.0000000001
 40
0.0
 40
0.0
 40
0.0
 40
0.0
 40
0.5101207613
 40
1.0
 40
1.0
 40
1.0
 40
1.0
 10
300.2821769514
 20
842.5311467056
 30
0.0
 10
299.8888745393
 20
841.7829640495
 30
0.0
 10
299.2706964904
 20
840.2275455141
 30
0.0
 10
299.0538571154
 20
838.5641837678
 30
0.0
 10
299.0538766334
 20
837.7524637937
 30
0.0
  0
SPLINE
  5
349
100
AcDbEntity
  8
0
100
AcDbSpline
 62
7
  6
BYLAYER
 70
0
 71
3
 72
11
 73
7
 74
0
 42
0.0000001
 43
0.0000001
 44
0.0000000001
 40
0.0
 40
0.0
 40
0.0
 40
0.0
 40
0.2177734147
 40
0.4509530517
 40
0.7102017589
 40
1.0
 40
1.0
 40
1.0
 40
1.0
 10
300.0970738241
 20
817.1402209078
 30
0.0
 10
300.2290120501
 20
817.0640441595
 30
0.0
 10
300.5321866036
 20
816.9539364772
 30
0.0
 10
301.0356802236
 20
816.9413269415
 30
0.0
 10
301.5723871805
 20
817.0707524575
 30
0.0
 10
301.9214894462
 20
817.2369493863
 30
0.0
 10
302.0970654973
 20
817.3383176616
 30
0.0
  0
SPLINE
  5
34A
100
AcDbEntity
  8
0
100
AcDbSpline
 62
7
  6
BYLAYER
 70
0
 71
3
 72
11
 73
7
 74
0
 42
0.0000001
 43
0.0000001
 44
0.0000000001
 40
0.0
 40
0.0
 40
0.0
 40
0.0
 40
0.2177719211
 40
0.4509516547
 40
0.7102011346
 40
1.0
 40
1.0
 40
1.0
 40
1.0
 10
298.6828543738
 20
817.9567024168
 30
0.0
 10
298.5509155011
 20
818.0328795384
 30
0.0
 10
298.3039754183
 20
818.2403905393
 30
0.0
 10
298.0413138271
 20
818.6701332971
 30
0.0
 10
297.8850497578
 20
819.1996565381
 30
0.0
 10
297.8544306981
 20
819.5850919444
 30
0.0
 10
297.8544306981
 20
819.7878322237
 30
0.0
  0
SPLINE
  5
34B
100
AcDbEntity
  8
0
100
AcDbSpline
 62
7
  6
BYLAYER
 70
0
 71
3
 72
9
 73
5
 74
0
 42
0.0000001
 43
0.0000001
 44
0.0000000001
 40
0.0
 40
0.0
 40
0.0
 40
0.0
 40
0.525563483
 40
1.0
 40
1.0
 40
1.0
 40
1.0
 10
298.6828543738
 20
823.392040002
 30
0.0
 10
298.9396517395
 20
823.8368285557
 30
0.0
 10
299.5216023598
 20
824.6322755597
 30
0.0
 10
300.2813266091
 20
825.271504953
 30
0.0
 10
300.682846047
 20
825.5033209248
 30
0.0
  0
SPLINE
  5
34C
100
AcDbEntity
  8
0
100
AcDbSpline
 62
7
  6
BYLAYER
 70
0
 71
3
 72
9
 73
5
 74
0
 42
0.0000001
 43
0.0000001
 44
0.0000000001
 40
0.0
 40
0.0
 40
0.0
 40
0.0
 40
0.474438157
 40
1.0
 40
1.0
 40
1.0
 40
1.0
 10
297.8544306981
 20
820.6043346408
 30
0.0
 10
297.8544306981
 20
821.0679732634
 30
0.0
 10
298.0281563155
 20
822.0455345092
 30
0.0
 10
298.4260561474
 20
822.9472499575
 30
0.0
 10
298.6828543738
 20
823.392040002
 30
0.0
  0
SPLINE
  5
34D
100
AcDbEntity
  8
0
100
AcDbSpline
 62
7
  6
BYLAYER
 70
0
 71
3
 72
11
 73
7
 74
0
 42
0.0000001
 43
0.0000001
 44
0.0000000001
 40
0.0
 40
0.0
 40
0.0
 40
0.0
 40
0.2177734147
 40
0.4509530517
 40
0.7102017589
 40
1.0
 40
1.0
 40
1.0
 40
1.0
 10
352.1863696392
 20
852.6491479386
 30
0.0
 10
352.0544314133
 20
852.7253246869
 30
0.0
 10
351.7512568597
 20
852.8354323692
 30
0.0
 10
351.2477632397
 20
852.8480419048
 30
0.0
 10
350.7110562829
 20
852.7186163888
 30
0.0
 10
350.3619540172
 20
852.55241946
 30
0.0
 10
350.1863779661
 20
852.4510511848
 30
0.0
  0
SPLINE
  5
34E
100
AcDbEntity
  8
0
100
AcDbSpline
 62
7
  6
BYLAYER
 70
0
 71
3
 72
9
 73
5
 74
0
 42
0.0000001
 43
0.0000001
 44
0.0000000001
 40
0.0
 40
0.0
 40
0.0
 40
0.0
 40
0.2778362962
 40
1.0
 40
1.0
 40
1.0
 40
1.0
 10
305.8840914929
 20
826.8732668426
 30
0.0
 10
305.9545714639
 20
826.9139582299
 30
0.0
 10
306.199804342
 20
827.0727082859
 30
0.0
 10
306.4140537053
 20
827.2921906852
 30
0.0
 10
306.5113335381
 20
827.4800296033
 30
0.0
  0
SPLINE
  5
34F
100
AcDbEntity
  8
0
100
AcDbSpline
 62
7
  6
BYLAYER
 70
0
 71
3
 72
9
 73
5
 74
0
 42
0.0000001
 43
0.0000001
 44
0.0000000001
 40
0.0
 40
0.0
 40
0.0
 40
0.0
 40
0.537171341
 40
1.0
 40
1.0
 40
1.0
 40
1.0
 10
304.5189585699
 20
828.0629887654
 30
0.0
 10
304.5470679427
 20
828.0407124771
 30
0.0
 10
304.5946105902
 20
827.9912253177
 30
0.0
 10
304.6148106063
 20
827.9239126366
 30
0.0
 10
304.6148227451
 20
827.8930103723
 30
0.0
  0
SPLINE
  5
350
100
AcDbEntity
  8
0
100
AcDbSpline
 62
7
  6
BYLAYER
 70
0
 71
3
 72
11
 73
7
 74
0
 42
0.0000001
 43
0.0000001
 44
0.0000000001
 40
0.0
 40
0.0
 40
0.0
 40
0.0
 40
0.2265500924
 40
0.4637159112
 40
0.7198444735
 40
1.0
 40
1.0
 40
1.0
 40
1.0
 10
299.0538766334
 20
837.7524637937
 30
0.0
 10
299.0538974998
 20
836.8846633917
 30
0.0
 10
299.303464085
 20
835.0999293037
 30
0.0
 10
300.3964220546
 20
832.5390376991
 30
0.0
 10
302.1606665135
 20
830.1322173063
 30
0.0
 10
303.6779062273
 20
828.7295110886
 30
0.0
 10
304.5189585699
 20
828.0629887654
 30
0.0
  0
SPLINE
  5
351
100
AcDbEntity
  8
0
100
AcDbSpline
 62
7
  6
BYLAYER
 70
0
 71
3
 72
11
 73
7
 74
0
 42
0.0000001
 43
0.0000001
 44
0.0000000001
 40
0.0
 40
0.0
 40
0.0
 40
0.0
 40
0.2897988654
 40
0.5490483453
 40
0.7822280789
 40
1.0
 40
1.0
 40
1.0
 40
1.0
 10
299.2686501484
 20
818.9713507146
 30
0.0
 10
299.2686501484
 20
818.7686104354
 30
0.0
 10
299.2992692081
 20
818.383175029
 30
0.0
 10
299.4555332774
 20
817.8536517881
 30
0.0
 10
299.7181948686
 20
817.4239090302
 30
0.0
 10
299.9651349514
 20
817.2163980294
 30
0.0
 10
300.0970738241
 20
817.1402209078
 30
0.0
  0
SPLINE
  5
352
100
AcDbEntity
  8
0
100
AcDbSpline
 62
7
  6
BYLAYER
 70
0
 71
3
 72
9
 73
5
 74
0
 42
0.0000001
 43
0.0000001
 44
0.0000000001
 40
0.0
 40
0.0
 40
0.0
 40
0.0
 40
0.2575514149
 40
1.0
 40
1.0
 40
1.0
 40
1.0
 10
300.0970738241
 20
822.5755584929
 30
0.0
 10
300.0097628192
 20
822.4243305569
 30
0.0
 10
299.6932772423
 20
821.8247442183
 30
0.0
 10
299.464325524
 20
821.1766046098
 30
0.0
 10
299.3639143669
 20
820.6833323556
 30
0.0
  0
SPLINE
  5
353
100
AcDbEntity
  8
0
100
AcDbSpline
 62
7
  6
BYLAYER
 70
0
 71
3
 72
9
 73
5
 74
0
 42
0.0000001
 43
0.0000001
 44
0.0000000001
 40
0.0
 40
0.0
 40
0.0
 40
0.0
 40
0.2604116272
 40
1.0
 40
1.0
 40
1.0
 40
1.0
 10
299.3639143669
 20
820.6833323556
 30
0.0
 10
299.3483075924
 20
820.6066636959
 30
0.0
 10
299.2949742809
 20
820.3109973627
 30
0.0
 10
299.2686501484
 20
820.0100633989
 30
0.0
 10
299.2686501484
 20
819.7878531318
 30
0.0
  0
SPLINE
  5
354
100
AcDbEntity
  8
0
100
AcDbSpline
 62
7
  6
BYLAYER
 70
0
 71
3
 72
9
 73
5
 74
0
 42
0.0000001
 43
0.0000001
 44
0.0000000001
 40
0.0
 40
0.0
 40
0.0
 40
0.0
 40
0.474436517
 40
1.0
 40
1.0
 40
1.0
 40
1.0
 10
302.0970654973
 20
824.6868394158
 30
0.0
 10
301.6955460594
 20
824.455023444
 30
0.0
 10
300.9358218101
 20
823.8157940507
 30
0.0
 10
300.3538711898
 20
823.0203470466
 30
0.0
 10
300.0970738241
 20
822.5755584929
 30
0.0
  0
SPLINE
  5
355
100
AcDbEntity
  8
0
100
AcDbSpline
 62
7
  6
BYLAYER
 70
0
 71
3
 72
11
 73
7
 74
0
 42
0.0000001
 43
0.0000001
 44
0.0000000001
 40
0.0
 40
0.0
 40
0.0
 40
0.0
 40
0.2801153602
 40
0.5391535546
 40
0.7781060926
 40
1.0
 40
1.0
 40
1.0
 40
1.0
 10
307.7568688782
 20
850.3828461387
 30
0.0
 10
306.8626703187
 20
849.8665834414
 30
0.0
 10
305.1968487254
 20
848.7709674104
 30
0.0
 10
303.0365645415
 20
846.8677016205
 30
0.0
 10
301.3521644439
 20
844.8001603054
 30
0.0
 10
300.5476464485
 20
843.2872269464
 30
0.0
 10
300.2487436115
 20
842.5258786805
 30
0.0
  0
SPLINE
  5
356
100
AcDbEntity
  8
0
100
AcDbSpline
 62
7
  6
BYLAYER
 70
0
 71
3
 72
9
 73
5
 74
0
 42
0.0000001
 43
0.0000001
 44
0.0000000001
 40
0.0
 40
0.0
 40
0.0
 40
0.0
 40
0.5059650859
 40
1.0
 40
1.0
 40
1.0
 40
1.0
 10
300.2487436115
 20
842.5258786805
 30
0.0
 10
300.0233827605
 20
841.9518523688
 30
0.0
 10
299.6752430515
 20
840.7758559866
 30
0.0
 10
299.5559758652
 20
839.5542438902
 30
0.0
 10
299.5559552779
 20
838.952105012
 30
0.0
  0
SPLINE
  5
357
100
AcDbEntity
  8
0
100
AcDbSpline
 62
7
  6
BYLAYER
 70
0
 71
3
 72
9
 73
5
 74
0
 42
0.0000001
 43
0.0000001
 44
0.0000000001
 40
0.0
 40
0.0
 40
0.0
 40
0.0
 40
0.2466484367
 40
1.0
 40
1.0
 40
1.0
 40
1.0
 10
355.3736178412
 20
840.7937729805
 30
0.0
 10
355.3410069085
 20
840.9579730823
 30
0.0
 10
355.1916269357
 20
841.6202173061
 30
0.0
 10
354.9739094324
 20
842.2666968364
 30
0.0
 10
354.7769857064
 20
842.738575825
 30
0.0
  0
SPLINE
  5
358
100
AcDbEntity
  8
0
100
AcDbSpline
 62
7
  6
BYLAYER
 70
0
 71
3
 72
9
 73
5
 74
0
 42
0.0000001
 43
0.0000001
 44
0.0000000001
 40
0.0
 40
0.0
 40
0.0
 40
0.0
 40
0.4742388791
 40
1.0
 40
1.0
 40
1.0
 40
1.0
 10
354.3211040563
 20
843.6998775518
 30
0.0
 10
353.8015217197
 20
844.6762570378
 30
0.0
 10
352.4140586872
 20
846.5845896589
 30
0.0
 10
350.6527966883
 20
848.1372299301
 30
0.0
 10
349.6686878091
 20
848.8687014475
 30
0.0
  0
SPLINE
  5
359
100
AcDbEntity
  8
0
100
AcDbSpline
 62
7
  6
BYLAYER
 70
0
 71
3
 72
9
 73
5
 74
0
 42
0.0000001
 43
0.0000001
 44
0.0000000001
 40
0.0
 40
0.0
 40
0.0
 40
0.0
 40
0.2438383637
 40
1.0
 40
1.0
 40
1.0
 40
1.0
 10
349.6686878091
 20
848.8687014475
 30
0.0
 10
349.4882797015
 20
849.0027957484
 30
0.0
 10
348.7398811882
 20
849.5412027423
 30
0.0
 10
347.9590189371
 20
850.0340926558
 30
0.0
 10
347.3553375763
 20
850.382638203
 30
0.0
  0
SPLINE
  5
35A
100
AcDbEntity
  8
0
100
AcDbSpline
 62
7
  6
BYLAYER
 70
0
 71
3
 72
9
 73
5
 74
0
 42
0.0000001
 43
0.0000001
 44
0.0000000001
 40
0.0
 40
0.0
 40
0.0
 40
0.0
 40
0.2408096547
 40
1.0
 40
1.0
 40
1.0
 40
1.0
 10
350.6400546953
 20
828.9865281757
 30
0.0
 10
350.3941645811
 20
828.7797279605
 30
0.0
 10
349.3519960565
 20
827.946114152
 30
0.0
 10
348.2322312169
 20
827.2113203381
 30
0.0
 10
347.3550134864
 20
826.7048614684
 30
0.0
  0
SPLINE
  5
35B
100
AcDbEntity
  8
0
100
AcDbSpline
 62
7
  6
BYLAYER
 70
0
 71
3
 72
15
 73
11
 74
0
 42
0.0000001
 43
0.0000001
 44
0.0000000001
 40
0.0
 40
0.0
 40
0.0
 40
0.0
 40
0.1183069975
 40
0.2433108668
 40
0.3728166179
 40
0.5043420159
 40
0.6352787539
 40
0.763055075
 40
0.8852966874
 40
1.0
 40
1.0
 40
1.0
 40
1.0
 10
343.9643089846
 20
815.9581269381
 30
0.0
 10
342.6857207314
 20
815.3931992244
 30
0.0
 10
339.9751002534
 20
814.4096260978
 30
0.0
 10
335.6811070077
 20
813.3913133989
 30
0.0
 10
331.1489245178
 20
812.8103595687
 30
0.0
 10
326.5118525695
 20
812.6840165944
 30
0.0
 10
321.9053403881
 20
813.015871125
 30
0.0
 10
317.4638161028
 20
813.7963838934
 30
0.0
 10
313.3177201036
 20
815.0024360953
 30
0.0
 10
310.7352859931
 20
816.1082876376
 30
0.0
 10
309.5317322345
 20
816.7313183435
 30
0.0
  0
SPLINE
  5
35C
100
AcDbEntity
  8
0
100
AcDbSpline
 62
7
  6
BYLAYER
 70
0
 71
3
 72
15
 73
11
 74
0
 42
0.0000001
 43
0.0000001
 44
0.0000000001
 40
0.0
 40
0.0
 40
0.0
 40
0.0
 40
0.112887543
 40
0.2342091875
 40
0.3618755256
 40
0.4933021069
 40
0.6256450338
 40
0.7559990896
 40
0.8815939408
 40
1.0
 40
1.0
 40
1.0
 40
1.0
 10
347.3550134864
 20
826.7048614684
 30
0.0
 10
346.1021488115
 20
825.9815240288
 30
0.0
 10
343.3782023638
 20
824.6914516824
 30
0.0
 10
338.9516086243
 20
823.2729989479
 30
0.0
 10
334.1569587813
 20
822.3348824177
 30
0.0
 10
329.1494901224
 20
821.9079019994
 30
0.0
 10
324.0905175357
 20
822.0054195808
 30
0.0
 10
319.1432411296
 20
822.6245163936
 30
0.0
 10
314.4683270628
 20
823.7448367294
 30
0.0
 10
311.528495812
 20
824.8414423627
 30
0.0
 10
310.1490173172
 20
825.4735415502
 30
0.0
  0
SPLINE
  5
35D
100
AcDbEntity
  8
0
100
AcDbSpline
 62
7
  6
BYLAYER
 70
0
 71
3
 72
9
 73
5
 74
0
 42
0.0000001
 43
0.0000001
 44
0.0000000001
 40
0.0
 40
0.0
 40
0.0
 40
0.0
 40
0.2575555721
 40
1.0
 40
1.0
 40
1.0
 40
1.0
 10
309.9349307065
 20
825.5726299851
 30
0.0
 10
309.638960193
 20
825.7109980737
 30
0.0
 10
308.4985490654
 20
826.266566559
 30
0.0
 10
307.3940937676
 20
826.8972338139
 30
0.0
 10
306.6048544837
 20
827.4111555806
 30
0.0
  0
SPLINE
  5
35E
100
AcDbEntity
  8
0
100
AcDbSpline
 62
7
  6
BYLAYER
 70
0
 71
3
 72
9
 73
5
 74
0
 42
0.0000001
 43
0.0000001
 44
0.0000000001
 40
0.0
 40
0.0
 40
0.0
 40
0.0
 40
0.2562859963
 40
1.0
 40
1.0
 40
1.0
 40
1.0
 10
306.6048544837
 20
827.4111555806
 30
0.0
 10
306.4194422888
 20
827.5318887532
 30
0.0
 10
305.702551421
 20
828.0129329361
 30
0.0
 10
305.0126207651
 20
828.5345638412
 30
0.0
 10
304.5199126017
 20
828.9462438108
 30
0.0
  0
SPLINE
  5
35F
100
AcDbEntity
  8
0
100
AcDbSpline
 62
7
  6
BYLAYER
 70
0
 71
3
 72
11
 73
7
 74
0
 42
0.0000001
 43
0.0000001
 44
0.0000000001
 40
0.0
 40
0.0
 40
0.0
 40
0.0
 40
0.2784984373
 40
0.5341788932
 40
0.7720347315
 40
1.0
 40
1.0
 40
1.0
 40
1.0
 10
304.5199126017
 20
828.9462438108
 30
0.0
 10
303.7527081938
 20
829.5872778158
 30
0.0
 10
302.3700699562
 20
830.931774809
 30
0.0
 10
300.7695519067
 20
833.2178836767
 30
0.0
 10
299.7810805634
 20
835.6375889098
 30
0.0
 10
299.5559362618
 20
837.3172447732
 30
0.0
 10
299.5559632322
 20
838.1356025821
 30
0.0
  0
SPLINE
  5
360
100
AcDbEntity
  8
0
100
AcDbSpline
 62
7
  6
BYLAYER
 70
0
 71
3
 72
15
 73
11
 74
0
 42
0.0000001
 43
0.0000001
 44
0.0000000001
 40
0.0
 40
0.0
 40
0.0
 40
0.0
 40
0.1141531832
 40
0.2373242282
 40
0.3669735883
 40
0.4999978499
 40
0.6330226557
 40
0.7626729512
 40
0.8858424231
 40
1.0
 40
1.0
 40
1.0
 40
1.0
 10
346.6482072708
 20
850.7909020883
 30
0.0
 10
345.3412275141
 20
851.5455085518
 30
0.0
 10
342.483274579
 20
852.8764313327
 30
0.0
 10
337.8292041932
 20
854.2910085758
 30
0.0
 10
332.7904284478
 20
855.1617931077
 30
0.0
 10
327.5561998926
 20
855.4555888565
 30
0.0
 10
322.3219585529
 20
855.1618395805
 30
0.0
 10
317.2831671471
 20
854.2911450654
 30
0.0
 10
312.6290389861
 20
852.8765933237
 30
0.0
 10
309.771019861
 20
851.5457239188
 30
0.0
 10
308.4639786033
 20
850.7911078013
 30
0.0
  0
SPLINE
  5
361
100
AcDbEntity
  8
0
100
AcDbSpline
 62
7
  6
BYLAYER
 70
0
 71
3
 72
9
 73
5
 74
0
 42
0.0000001
 43
0.0000001
 44
0.0000000001
 40
0.0
 40
0.0
 40
0.0
 40
0.0
 40
0.2567181305
 40
1.0
 40
1.0
 40
1.0
 40
1.0
 10
347.3550134864
 20
827.5213638855
 30
0.0
 10
347.578324403
 20
827.6502917338
 30
0.0
 10
348.4407240431
 20
828.1652481817
 30
0.0
 10
349.2725295288
 20
828.7320968595
 30
0.0
 10
349.8665547407
 20
829.1843291017
 30
0.0
  0
SPLINE
  5
362
100
AcDbEntity
  8
0
100
AcDbSpline
 62
7
  6
BYLAYER
 70
0
 71
3
 72
11
 73
7
 74
0
 42
0.0000001
 43
0.0000001
 44
0.0000000001
 40
0.0
 40
0.0
 40
0.0
 40
0.0
 40
0.2264082158
 40
0.4646207159
 40
0.7211847699
 40
1.0
 40
1.0
 40
1.0
 40
1.0
 10
299.5903714017
 20
838.1507274339
 30
0.0
 10
299.6584371018
 20
837.3592567887
 30
0.0
 10
300.0085255297
 20
835.7471075335
 30
0.0
 10
301.1204578826
 20
833.452081343
 30
0.0
 10
302.788215625
 20
831.2902744506
 30
0.0
 10
304.1835004757
 20
830.0187555972
 30
0.0
 10
304.9512047675
 20
829.412418769
 30
0.0
  0
SPLINE
  5
363
100
AcDbEntity
  8
0
100
AcDbSpline
 62
7
  6
BYLAYER
 70
0
 71
3
 72
15
 73
11
 74
0
 42
0.0000001
 43
0.0000001
 44
0.0000000001
 40
0.0
 40
0.0
 40
0.0
 40
0.0
 40
0.1065020203
 40
0.22340002
 40
0.3488622712
 40
0.4802304961
 40
0.6143493607
 40
0.7478474125
 40
0.8774013703
 40
1.0
 40
1.0
 40
1.0
 40
1.0
 10
304.9512047675
 20
829.412418769
 30
0.0
 10
306.0824335181
 20
828.5189684394
 30
0.0
 10
308.6525015772
 20
826.8893647196
 30
0.0
 10
313.0060400792
 20
825.0223777064
 30
0.0
 10
317.8953871202
 20
823.6714634733
 30
0.0
 10
323.1403095961
 20
822.8864484564
 30
0.0
 10
328.5484274666
 20
822.6955194175
 30
0.0
 10
333.9201562127
 20
823.1058746319
 30
0.0
 10
339.0556971559
 20
824.101988464
 30
0.0
 10
342.3102723413
 20
825.1698809287
 30
0.0
 10
343.8440433371
 20
825.8031722133
 30
0.0
  0
SPLINE
  5
364
100
AcDbEntity
  8
0
100
AcDbSpline
 62
7
  6
BYLAYER
 70
0
 71
3
 72
9
 73
5
 74
0
 42
0.0000001
 43
0.0000001
 44
0.0000000001
 40
0.0
 40
0.0
 40
0.0
 40
0.0
 40
0.2567188653
 40
1.0
 40
1.0
 40
1.0
 40
1.0
 10
346.6479037613
 20
828.7461070572
 30
0.0
 10
346.8632622459
 20
828.8704435941
 30
0.0
 10
347.6949473976
 20
829.3670615607
 30
0.0
 10
348.4971246966
 20
829.9137292049
 30
0.0
 10
349.0699870599
 20
830.3498636809
 30
0.0
  0
SPLINE
  5
365
100
AcDbEntity
  8
0
100
AcDbSpline
 62
7
  6
BYLAYER
 70
0
 71
3
 72
11
 73
7
 74
0
 42
0.0000001
 43
0.0000001
 44
0.0000000001
 40
0.0
 40
0.0
 40
0.0
 40
0.0
 40
0.2335764542
 40
0.4722353716
 40
0.7254469283
 40
1.0
 40
1.0
 40
1.0
 40
1.0
 10
354.4727724009
 20
838.5461351714
 30
0.0
 10
354.5789871385
 20
839.3258711986
 30
0.0
 10
354.5869930539
 20
840.9388029294
 30
0.0
 10
353.9520610037
 20
843.3253894903
 30
0.0
 10
352.701956008
 20
845.60903778
 30
0.0
 10
351.5380446
 20
846.9694049397
 30
0.0
 10
350.8807745196
 20
847.620253021
 30
0.0
  0
SPLINE
  5
366
100
AcDbEntity
  8
0
100
AcDbSpline
 62
7
  6
BYLAYER
 70
0
 71
3
 72
9
 73
5
 74
0
 42
0.0000001
 43
0.0000001
 44
0.0000000001
 40
0.0
 40
0.0
 40
0.0
 40
0.0
 40
0.2391958404
 40
1.0
 40
1.0
 40
1.0
 40
1.0
 10
350.7518244502
 20
847.7465748304
 30
0.0
 10
350.505847254
 20
847.9849695258
 30
0.0
 10
349.4472893787
 20
848.9503388303
 30
0.0
 10
348.2787778324
 20
849.7920112239
 30
0.0
 10
347.3538584906
 20
850.3678450102
 30
0.0
  0
SPLINE
  5
367
100
AcDbEntity
  8
0
100
AcDbSpline
 62
7
  6
BYLAYER
 70
0
 71
3
 72
15
 73
11
 74
0
 42
0.0000001
 43
0.0000001
 44
0.0000000001
 40
0.0
 40
0.0
 40
0.0
 40
0.0
 40
0.1462982226
 40
0.2788023639
 40
0.3993632344
 40
0.5120003685
 40
0.6226111423
 40
0.7376394614
 40
0.8623755309
 40
1.0
 40
1.0
 40
1.0
 40
1.0
 10
307.7472023643
 20
850.3610957841
 30
0.0
 10
306.7365724011
 20
849.7310765193
 30
0.0
 10
304.8936345968
 20
848.3850458443
 30
0.0
 10
302.6554927658
 20
845.9963451864
 30
0.0
 10
301.1517175457
 20
843.390263022
 30
0.0
 10
300.456741599
 20
840.6374115556
 30
0.0
 10
300.6206707549
 20
837.8452942963
 30
0.0
 10
301.6304319366
 20
835.1375610273
 30
0.0
 10
303.4207582966
 20
832.607389626
 30
0.0
 10
305.0055938105
 20
831.1532495742
 30
0.0
 10
305.8905475473
 20
830.4662539157
 30
0.0
  0
SPLINE
  5
368
100
AcDbEntity
  8
0
100
AcDbSpline
 62
7
  6
BYLAYER
 70
0
 71
3
 72
15
 73
11
 74
0
 42
0.0000001
 43
0.0000001
 44
0.0000000001
 40
0.0
 40
0.0
 40
0.0
 40
0.0
 40
0.1082989723
 40
0.2278911059
 40
0.356321184
 40
0.4901398587
 40
0.625362907
 40
0.7578741931
 40
0.8838133487
 40
1.0
 40
1.0
 40
1.0
 40
1.0
 10
305.8905475473
 20
830.4662539157
 30
0.0
 10
307.109557182
 20
829.5199283713
 30
0.0
 10
309.9035255617
 20
827.8175947652
 30
0.0
 10
314.6427422779
 20
825.9451656827
 30
0.0
 10
319.9543686612
 20
824.6882701028
 30
0.0
 10
325.602617812
 20
824.1033020322
 30
0.0
 10
331.337755274
 20
824.2151806917
 30
0.0
 10
336.905301079
 20
825.0195189185
 30
0.0
 10
342.0566854913
 20
826.4797405264
 30
0.0
 10
345.2140991305
 20
827.918304509
 30
0.0
 10
346.6479037613
 20
828.7461070572
 30
0.0
  0
SPLINE
  5
369
100
AcDbEntity
  8
0
100
AcDbSpline
 62
7
  6
BYLAYER
 70
0
 71
3
 72
9
 73
5
 74
0
 42
0.0000001
 43
0.0000001
 44
0.0000000001
 40
0.0
 40
0.0
 40
0.0
 40
0.0
 40
0.2424515736
 40
1.0
 40
1.0
 40
1.0
 40
1.0
 10
311.5905672484
 20
816.6903871583
 30
0.0
 10
312.0686145493
 20
816.4988156291
 30
0.0
 10
314.0584007514
 20
815.7540963766
 30
0.0
 10
316.1125363492
 20
815.1848867461
 30
0.0
 10
317.6849196431
 20
814.8428842381
 30
0.0
  0
SPLINE
  5
36A
100
AcDbEntity
  8
0
100
AcDbSpline
 62
7
  6
BYLAYER
 70
0
 71
3
 72
9
 73
5
 74
0
 42
0.0000001
 43
0.0000001
 44
0.0000000001
 40
0.0
 40
0.0
 40
0.0
 40
0.0
 40
0.2460900552
 40
1.0
 40
1.0
 40
1.0
 40
1.0
 10
318.043927872
 20
814.7664101809
 30
0.0
 10
318.6665325422
 20
814.6365685529
 30
0.0
 10
321.2080060837
 20
814.1651596589
 30
0.0
 10
323.7893128543
 20
813.9124132289
 30
0.0
 10
325.7363546261
 20
813.8391843634
 30
0.0
  0
SPLINE
  5
36B
100
AcDbEntity
  8
0
100
AcDbSpline
 62
7
  6
BYLAYER
 70
0
 71
3
 72
9
 73
5
 74
0
 42
0.0000001
 43
0.0000001
 44
0.0000000001
 40
0.0
 40
0.0
 40
0.0
 40
0.0
 40
0.2510505271
 40
1.0
 40
1.0
 40
1.0
 40
1.0
 10
325.7363546261
 20
813.8391843634
 30
0.0
 10
326.3979039639
 20
813.8143032806
 30
0.0
 10
329.0347430421
 20
813.7694579944
 30
0.0
 10
331.6755982534
 20
813.939042767
 30
0.0
 10
333.6344904662
 20
814.1905361891
 30
0.0
  0
SPLINE
  5
36C
100
AcDbEntity
  8
0
100
AcDbSpline
 62
7
  6
BYLAYER
 70
0
 71
3
 72
9
 73
5
 74
0
 42
0.0000001
 43
0.0000001
 44
0.0000000001
 40
0.0
 40
0.0
 40
0.0
 40
0.0
 40
0.2555555214
 40
1.0
 40
1.0
 40
1.0
 40
1.0
 10
334.0260353701
 20
814.2425107108
 30
0.0
 10
334.6041461239
 20
814.3217780152
 30
0.0
 10
336.8600556715
 20
814.6750792797
 30
0.0
 10
339.0898775398
 20
815.2019873908
 30
0.0
 10
340.7146793141
 20
815.7013902948
 30
0.0
  0
SPLINE
  5
36D
100
AcDbEntity
  8
0
100
AcDbSpline
 62
7
  6
BYLAYER
 70
0
 71
3
 72
15
 73
11
 74
0
 42
0.0000001
 43
0.0000001
 44
0.0000000001
 40
0.0
 40
0.0
 40
0.0
 40
0.0
 40
0.11895153
 40
0.243995007
 40
0.3731063484
 40
0.5040316245
 40
0.6344146928
 40
0.7619294331
 40
0.8844115351
 40
1.0
 40
1.0
 40
1.0
 40
1.0
 10
343.8547451728
 20
816.0095641725
 30
0.0
 10
342.5657782563
 20
815.4768229702
 30
0.0
 10
339.8512276808
 20
814.5498538675
 30
0.0
 10
335.5756374757
 20
813.5902062582
 30
0.0
 10
331.086297002
 20
813.0444898412
 30
0.0
 10
326.5032665703
 20
812.927446048
 30
0.0
 10
321.948239778
 20
813.2420888284
 30
0.0
 10
317.5420759159
 20
813.9801998382
 30
0.0
 10
313.4024237605
 20
815.1218736947
 30
0.0
 10
310.8053849191
 20
816.1677432207
 30
0.0
 10
309.5850800126
 20
816.7573747896
 30
0.0
  0
SPLINE
  5
36E
100
AcDbEntity
  8
0
100
AcDbSpline
 62
7
  6
BYLAYER
 70
0
 71
3
 72
9
 73
5
 74
0
 42
0.0000001
 43
0.0000001
 44
0.0000000001
 40
0.0
 40
0.0
 40
0.0
 40
0.0
 40
0.2674193647
 40
1.0
 40
1.0
 40
1.0
 40
1.0
 10
310.4399075793
 20
817.1581173909
 30
0.0
 10
310.4107736448
 20
817.156804445
 30
0.0
 10
310.302358978
 20
817.1463446125
 30
0.0
 10
310.1944515429
 20
817.1143879222
 30
0.0
 10
310.1252630989
 20
817.0744421938
 30
0.0
  0
SPLINE
  5
36F
100
AcDbEntity
  8
0
100
AcDbSpline
 62
7
  6
BYLAYER
 70
0
 71
3
 72
9
 73
5
 74
0
 42
0.0000001
 43
0.0000001
 44
0.0000000001
 40
0.0
 40
0.0
 40
0.0
 40
0.0
 40
0.2361213185
 40
1.0
 40
1.0
 40
1.0
 40
1.0
 10
310.7732300381
 20
817.1036433834
 30
0.0
 10
310.7486143022
 20
817.1139967092
 30
0.0
 10
310.6414106266
 20
817.1506676705
 30
0.0
 10
310.526211734
 20
817.1620067624
 30
0.0
 10
310.4399075793
 20
817.1581173909
 30
0.0
  0
SPLINE
  5
370
100
AcDbEntity
  8
0
100
AcDbSpline
 62
7
  6
BYLAYER
 70
0
 71
3
 72
11
 73
7
 74
0
 42
0.0000001
 43
0.0000001
 44
0.0000000001
 40
0.0
 40
0.0
 40
0.0
 40
0.0
 40
0.2447496065
 40
0.5029929369
 40
0.7596670059
 40
1.0
 40
1.0
 40
1.0
 40
1.0
 10
342.9007232153
 20
816.5368426126
 30
0.0
 10
340.3916960765
 20
815.6114125898
 30
0.0
 10
335.0182307607
 20
814.2754433462
 30
0.0
 10
326.6985665201
 20
813.7181009577
 30
0.0
 10
318.451114858
 20
814.5590879411
 30
0.0
 10
313.1938348966
 20
816.0855421689
 30
0.0
 10
310.7732300381
 20
817.1036433834
 30
0.0
  0
SPLINE
  5
371
100
AcDbEntity
  8
0
100
AcDbSpline
 62
7
  6
BYLAYER
 70
0
 71
3
 72
9
 73
5
 74
0
 42
0.0000001
 43
0.0000001
 44
0.0000000001
 40
0.0
 40
0.0
 40
0.0
 40
0.0
 40
0.525561843
 40
1.0
 40
1.0
 40
1.0
 40
1.0
 10
356.4290279901
 20
844.7643658263
 30
0.0
 10
356.6858262165
 20
845.2091558708
 30
0.0
 10
357.0837260484
 20
846.1108713191
 30
0.0
 10
357.2574516658
 20
847.0884325649
 30
0.0
 10
357.2574516658
 20
847.5520711875
 30
0.0
  0
SPLINE
  5
372
100
AcDbEntity
  8
0
100
AcDbSpline
 62
7
  6
BYLAYER
 70
0
 71
3
 72
9
 73
5
 74
0
 42
0.0000001
 43
0.0000001
 44
0.0000000001
 40
0.0
 40
0.0
 40
0.0
 40
0.0
 40
0.4776340179
 40
1.0
 40
1.0
 40
1.0
 40
1.0
 10
354.5727712535
 20
842.7403050372
 30
0.0
 10
354.9442186284
 20
842.9766377292
 30
0.0
 10
355.6446354691
 20
843.5942776354
 30
0.0
 10
356.1882847075
 20
844.3473839145
 30
0.0
 10
356.4290279901
 20
844.7643658263
 30
0.0
  0
SPLINE
  5
373
100
AcDbEntity
  8
0
100
AcDbSpline
 62
7
  6
BYLAYER
 70
0
 71
3
 72
11
 73
7
 74
0
 42
0.0000001
 43
0.0000001
 44
0.0000000001
 40
0.0
 40
0.0
 40
0.0
 40
0.0
 40
0.2897988654
 40
0.5490483453
 40
0.7822280789
 40
1.0
 40
1.0
 40
1.0
 40
1.0
 10
357.2574516658
 20
848.3685736046
 30
0.0
 10
357.2574516658
 20
848.5713138839
 30
0.0
 10
357.2268326061
 20
848.9567492902
 30
0.0
 10
357.0705685368
 20
849.4862725312
 30
0.0
 10
356.8079069456
 20
849.916015289
 30
0.0
 10
356.5609668628
 20
850.1235262898
 30
0.0
 10
356.4290279901
 20
850.1997034115
 30
0.0
  0
SPLINE
  5
374
100
AcDbEntity
  8
0
100
AcDbSpline
 62
7
  6
BYLAYER
 70
0
 71
3
 72
11
 73
7
 74
0
 42
0.0000001
 43
0.0000001
 44
0.0000000001
 40
0.0
 40
0.0
 40
0.0
 40
0.0
 40
0.2177731171
 40
0.4509285976
 40
0.710222822
 40
1.0
 40
1.0
 40
1.0
 40
1.0
 10
358.9769217219
 20
825.2955871594
 30
0.0
 10
358.8614726286
 20
825.3622402227
 30
0.0
 10
358.6454277559
 20
825.5438183846
 30
0.0
 10
358.4155198425
 20
825.9198107526
 30
0.0
 10
358.2788368272
 20
826.3831669495
 30
0.0
 10
358.2520157357
 20
826.7204312047
 30
0.0
 10
358.2520157357
 20
826.8978163958
 30
0.0
  0
SPLINE
  5
375
100
AcDbEntity
  8
0
100
AcDbSpline
 62
7
  6
BYLAYER
 70
0
 71
3
 72
9
 73
5
 74
0
 42
0.0000001
 43
0.0000001
 44
0.0000000001
 40
0.0
 40
0.0
 40
0.0
 40
0.0
 40
0.2316738557
 40
1.0
 40
1.0
 40
1.0
 40
1.0
 10
358.4410501119
 20
825.9652729505
 30
0.0
 10
358.5122877704
 20
825.9754479909
 30
0.0
 10
358.8171731094
 20
826.0377117404
 30
0.0
 10
359.1059813807
 20
826.1660689033
 30
0.0
 10
359.3126597156
 20
826.2853939834
 30
0.0
  0
SPLINE
  5
376
100
AcDbEntity
  8
0
100
AcDbSpline
 62
7
  6
BYLAYER
 70
0
 71
3
 72
11
 73
7
 74
0
 42
0.0000001
 43
0.0000001
 44
0.0000000001
 40
0.0
 40
0.0
 40
0.0
 40
0.0
 40
0.2897982411
 40
0.5490469483
 40
0.7822265853
 40
1.0
 40
1.0
 40
1.0
 40
1.0
 10
353.0148168666
 20
850.8180881667
 30
0.0
 10
353.1903929177
 20
850.919456442
 30
0.0
 10
353.5394951834
 20
851.0856533707
 30
0.0
 10
354.0762021403
 20
851.2150788868
 30
0.0
 10
354.5796957603
 20
851.2024693511
 30
0.0
 10
354.8828703138
 20
851.0923616688
 30
0.0
 10
355.0148085398
 20
851.0161849205
 30
0.0
  0
SPLINE
  5
377
100
AcDbEntity
  8
0
100
AcDbSpline
 62
7
  6
BYLAYER
 70
0
 71
3
 72
9
 73
5
 74
0
 42
0.0000001
 43
0.0000001
 44
0.0000000001
 40
0.0
 40
0.0
 40
0.0
 40
0.0
 40
0.2479375811
 40
1.0
 40
1.0
 40
1.0
 40
1.0
 10
355.9202988507
 20
839.3680031151
 30
0.0
 10
355.8994833818
 20
839.4897965598
 30
0.0
 10
355.8062361305
 20
839.9793994609
 30
0.0
 10
355.6760013802
 20
840.4618755941
 30
0.0
 10
355.5590678755
 20
840.8179565912
 30
0.0
  0
SPLINE
  5
378
100
AcDbEntity
  8
0
100
AcDbSpline
 62
7
  6
BYLAYER
 70
0
 71
3
 72
9
 73
5
 74
0
 42
0.0000001
 43
0.0000001
 44
0.0000000001
 40
0.0
 40
0.0
 40
0.0
 40
0.0
 40
0.2455189225
 40
1.0
 40
1.0
 40
1.0
 40
1.0
 10
355.5590678755
 20
840.8179565912
 30
0.0
 10
355.5055556543
 20
840.9809097598
 30
0.0
 10
355.2713655721
 20
841.6392261687
 30
0.0
 10
354.9734796601
 20
842.2744831033
 30
0.0
 10
354.7193408923
 20
842.7362316436
 30
0.0
  0
SPLINE
  5
379
100
AcDbEntity
  8
0
100
AcDbSpline
 62
7
  6
BYLAYER
 70
0
 71
3
 72
9
 73
5
 74
0
 42
0.0000001
 43
0.0000001
 44
0.0000000001
 40
0.0
 40
0.0
 40
0.0
 40
0.0
 40
0.2671996132
 40
1.0
 40
1.0
 40
1.0
 40
1.0
 10
310.0083216516
 20
825.6370699997
 30
0.0
 10
309.8879159838
 20
825.6236987188
 30
0.0
 10
309.4402685681
 20
825.5542131848
 30
0.0
 10
309.0002633921
 20
825.4064255571
 30
0.0
 10
308.7125303935
 20
825.2403038245
 30
0.0
  0
SPLINE
  5
37A
100
AcDbEntity
  8
0
100
AcDbSpline
 62
7
  6
BYLAYER
 70
0
 71
3
 72
11
 73
7
 74
0
 42
0.0000001
 43
0.0000001
 44
0.0000000001
 40
0.0
 40
0.0
 40
0.0
 40
0.0
 40
0.2897041239
 40
0.5490570377
 40
0.7822824085
 40
1.0
 40
1.0
 40
1.0
 40
1.0
 10
352.2416213435
 20
814.446179482
 30
0.0
 10
352.2416213435
 20
814.3448439464
 30
0.0
 10
352.2262311029
 20
814.1521454726
 30
0.0
 10
352.1482521862
 20
813.8873080693
 30
0.0
 10
352.0167590947
 20
813.672502964
 30
0.0
 10
351.8933580822
 20
813.5686910956
 30
0.0
 10
351.8274060566
 20
813.5306125872
 30
0.0
  0
SPLINE
  5
37B
100
AcDbEntity
  8
0
100
AcDbSpline
 62
7
  6
BYLAYER
 70
0
 71
3
 72
11
 73
7
 74
0
 42
0.0000001
 43
0.0000001
 44
0.0000000001
 40
0.0
 40
0.0
 40
0.0
 40
0.0
 40
0.2897976215
 40
0.549046257
 40
0.7822262083
 40
1.0
 40
1.0
 40
1.0
 40
1.0
 10
350.8274018932
 20
811.9966513225
 30
0.0
 10
351.0029795565
 20
811.8952838045
 30
0.0
 10
351.3520850926
 20
811.7290884526
 30
0.0
 10
351.8887964486
 20
811.5996656632
 30
0.0
 10
352.392293925
 20
811.6122777133
 30
0.0
 10
352.6954708213
 20
811.7223867581
 30
0.0
 10
352.82741022
 20
811.7985641835
 30
0.0
  0
SPLINE
  5
37C
100
AcDbEntity
  8
0
100
AcDbSpline
 62
7
  6
BYLAYER
 70
0
 71
3
 72
11
 73
7
 74
0
 42
0.0000001
 43
0.0000001
 44
0.0000000001
 40
0.0
 40
0.0
 40
0.0
 40
0.0
 40
0.2897980429
 40
0.5490471997
 40
0.7822272162
 40
1.0
 40
1.0
 40
1.0
 40
1.0
 10
367.7979175381
 20
821.7945810503
 30
0.0
 10
367.7979175381
 20
821.5918406709
 30
0.0
 10
367.7672981548
 20
821.2064047664
 30
0.0
 10
367.6110326095
 20
820.676880625
 30
0.0
 10
367.3483686177
 20
820.247136681
 30
0.0
 10
367.1014267994
 20
820.0396249382
 30
0.0
 10
366.9694869643
 20
819.9634472609
 30
0.0
  0
SPLINE
  5
37D
100
AcDbEntity
  8
0
100
AcDbSpline
 62
7
  6
BYLAYER
 70
0
 71
3
 72
11
 73
7
 74
0
 42
0.0000001
 43
0.0000001
 44
0.0000000001
 40
0.0
 40
0.0
 40
0.0
 40
0.0
 40
0.2897757032
 40
0.5490693955
 40
0.7822254653
 40
1.0
 40
1.0
 40
1.0
 40
1.0
 10
360.7268791659
 20
836.083443897
 30
0.0
 10
360.8804926094
 20
836.1721321306
 30
0.0
 10
361.1859696369
 20
836.3175295381
 30
0.0
 10
361.6555698548
 20
836.430831855
 30
0.0
 10
362.0961259821
 20
836.4197242028
 30
0.0
 10
362.3613913386
 20
836.3234200687
 30
0.0
 10
362.47683661
 20
836.256769212
 30
0.0
  0
SPLINE
  5
37E
100
AcDbEntity
  8
0
100
AcDbSpline
 62
7
  6
BYLAYER
 70
0
 71
3
 72
11
 73
7
 74
0
 42
0.0000001
 43
0.0000001
 44
0.0000000001
 40
0.0
 40
0.0
 40
0.0
 40
0.0
 40
0.2372297508
 40
0.500001618
 40
0.7627726046
 40
1.0
 40
1.0
 40
1.0
 40
1.0
 10
358.2520157357
 20
831.7968308985
 30
0.0
 10
358.2520157357
 20
832.2025313605
 30
0.0
 10
358.4041792707
 20
833.05816731
 30
0.0
 10
358.9345913668
 20
834.2604902773
 30
0.0
 10
359.7106196221
 20
835.3210028973
 30
0.0
 10
360.3755352238
 20
835.8805965883
 30
0.0
 10
360.7268791659
 20
836.083443897
 30
0.0
  0
SPLINE
  5
37F
100
AcDbEntity
  8
0
100
AcDbSpline
 62
7
  6
BYLAYER
 70
0
 71
3
 72
11
 73
7
 74
0
 42
0.0000001
 43
0.0000001
 44
0.0000000001
 40
0.0
 40
0.0
 40
0.0
 40
0.0
 40
0.2372273954
 40
0.499998382
 40
0.7627702492
 40
1.0
 40
1.0
 40
1.0
 40
1.0
 10
359.3126597156
 20
826.2853939834
 30
0.0
 10
359.6640036578
 20
826.4882412922
 30
0.0
 10
360.3289192594
 20
827.0478349832
 30
0.0
 10
361.1049475147
 20
828.1083476032
 30
0.0
 10
361.6353596109
 20
829.3106705705
 30
0.0
 10
361.7875231459
 20
830.16630652
 30
0.0
 10
361.7875231459
 20
830.5720069819
 30
0.0
  0
SPLINE
  5
380
100
AcDbEntity
  8
0
100
AcDbSpline
 62
7
  6
BYLAYER
 70
0
 71
3
 72
9
 73
5
 74
0
 42
0.0000001
 43
0.0000001
 44
0.0000000001
 40
0.0
 40
0.0
 40
0.0
 40
0.0
 40
0.2694041496
 40
1.0
 40
1.0
 40
1.0
 40
1.0
 10
361.7875231459
 20
835.4710214847
 30
0.0
 10
361.7875231459
 20
835.5546798725
 30
0.0
 10
361.7757056583
 20
835.8647537415
 30
0.0
 10
361.7134489772
 20
836.1754610619
 30
0.0
 10
361.6289278422
 20
836.3860018906
 30
0.0
  0
SPLINE
  5
381
100
AcDbEntity
  8
0
100
AcDbSpline
 62
7
  6
BYLAYER
 70
0
 71
3
 72
9
 73
5
 74
0
 42
0.0000001
 43
0.0000001
 44
0.0000000001
 40
0.0
 40
0.0
 40
0.0
 40
0.0
 40
0.474438157
 40
1.0
 40
1.0
 40
1.0
 40
1.0
 10
302.097089049
 20
818.1548901137
 30
0.0
 10
302.097089049
 20
818.6185287363
 30
0.0
 10
302.2708146664
 20
819.596089982
 30
0.0
 10
302.6687144983
 20
820.4978054304
 30
0.0
 10
302.9255127247
 20
820.9425954749
 30
0.0
  0
SPLINE
  5
382
100
AcDbEntity
  8
0
100
AcDbSpline
 62
7
  6
BYLAYER
 70
0
 71
3
 72
9
 73
5
 74
0
 42
0.0000001
 43
0.0000001
 44
0.0000000001
 40
0.0
 40
0.0
 40
0.0
 40
0.0
 40
0.525563483
 40
1.0
 40
1.0
 40
1.0
 40
1.0
 10
302.9255127247
 20
820.9425954749
 30
0.0
 10
303.1823100904
 20
821.3873840286
 30
0.0
 10
303.7642607107
 20
822.1828310326
 30
0.0
 10
304.52398496
 20
822.8220604259
 30
0.0
 10
304.9255043978
 20
823.0538763977
 30
0.0
  0
SPLINE
  5
383
100
AcDbEntity
  8
0
100
AcDbSpline
 62
7
  6
BYLAYER
 70
0
 71
3
 72
11
 73
7
 74
0
 42
0.0000001
 43
0.0000001
 44
0.0000000001
 40
0.0
 40
0.0
 40
0.0
 40
0.0
 40
0.2177734147
 40
0.4509530517
 40
0.7102017589
 40
1.0
 40
1.0
 40
1.0
 40
1.0
 10
304.339732175
 20
814.6907763806
 30
0.0
 10
304.4716704009
 20
814.6145996324
 30
0.0
 10
304.7748449545
 20
814.50449195
 30
0.0
 10
305.2783385745
 20
814.4918824144
 30
0.0
 10
305.8150455313
 20
814.6213079304
 30
0.0
 10
306.1641477971
 20
814.7875048592
 30
0.0
 10
306.3397238481
 20
814.8888731345
 30
0.0
  0
SPLINE
  5
384
100
AcDbEntity
  8
0
100
AcDbSpline
 62
7
  6
BYLAYER
 70
0
 71
3
 72
11
 73
7
 74
0
 42
0.0000001
 43
0.0000001
 44
0.0000000001
 40
0.0
 40
0.0
 40
0.0
 40
0.0
 40
0.2177719211
 40
0.4509516547
 40
0.7102011346
 40
1.0
 40
1.0
 40
1.0
 40
1.0
 10
302.9255127247
 20
815.5072578897
 30
0.0
 10
302.7935738519
 20
815.5834350113
 30
0.0
 10
302.5466337692
 20
815.7909460121
 30
0.0
 10
302.283972178
 20
816.22068877
 30
0.0
 10
302.1277081087
 20
816.7502120109
 30
0.0
 10
302.097089049
 20
817.1356474173
 30
0.0
 10
302.097089049
 20
817.3383876965
 30
0.0
  0
SPLINE
  5
385
100
AcDbEntity
  8
0
100
AcDbSpline
 62
7
  6
BYLAYER
 70
0
 71
3
 72
11
 73
7
 74
0
 42
0.0000001
 43
0.0000001
 44
0.0000000001
 40
0.0
 40
0.0
 40
0.0
 40
0.0
 40
0.2177185986
 40
0.4509439051
 40
0.7102962973
 40
1.0
 40
1.0
 40
1.0
 40
1.0
 10
351.8274060566
 20
813.5306125872
 30
0.0
 10
351.7614542494
 20
813.4925342049
 30
0.0
 10
351.6098522528
 20
813.4375682135
 30
0.0
 10
351.3580808788
 20
813.4310892404
 30
0.0
 10
351.0897368862
 20
813.4959715462
 30
0.0
 10
350.9151607136
 20
813.5789897244
 30
0.0
 10
350.8274018932
 20
813.6296561567
 30
0.0
  0
SPLINE
  5
386
100
AcDbEntity
  8
0
100
AcDbSpline
 62
7
  6
BYLAYER
 70
0
 71
3
 72
11
 73
7
 74
0
 42
0.0000001
 43
0.0000001
 44
0.0000000001
 40
0.0
 40
0.0
 40
0.0
 40
0.0
 40
0.2177731171
 40
0.4509285976
 40
0.710222822
 40
1.0
 40
1.0
 40
1.0
 40
1.0
 10
362.47683661
 20
836.256769212
 30
0.0
 10
362.5922857033
 20
836.1901161487
 30
0.0
 10
362.808330576
 20
836.0085379868
 30
0.0
 10
363.0382384894
 20
835.6325456188
 30
0.0
 10
363.1749215046
 20
835.1691894219
 30
0.0
 10
363.2017425962
 20
834.8319251667
 30
0.0
 10
363.2017425962
 20
834.6545399756
 30
0.0
  0
SPLINE
  5
387
100
AcDbEntity
  8
0
100
AcDbSpline
 62
7
  6
BYLAYER
 70
0
 71
3
 72
11
 73
7
 74
0
 42
0.0000001
 43
0.0000001
 44
0.0000000001
 40
0.0
 40
0.0
 40
0.0
 40
0.0
 40
0.2177727838
 40
0.4509528003
 40
0.7102019571
 40
1.0
 40
1.0
 40
1.0
 40
1.0
 10
352.82741022
 20
811.7985641835
 30
0.0
 10
352.9593500551
 20
811.8747418607
 30
0.0
 10
353.2062918734
 20
812.0822536036
 30
0.0
 10
353.4689558653
 20
812.5119975476
 30
0.0
 10
353.6252214105
 20
813.041521689
 30
0.0
 10
353.6558407938
 20
813.4269575934
 30
0.0
 10
353.6558407938
 20
813.6296979729
 30
0.0
  0
SPLINE
  5
388
100
AcDbEntity
  8
0
100
AcDbSpline
 62
7
  6
BYLAYER
 70
0
 71
3
 72
9
 73
5
 74
0
 42
0.0000001
 43
0.0000001
 44
0.0000000001
 40
0.0
 40
0.0
 40
0.0
 40
0.0
 40
0.2639851412
 40
1.0
 40
1.0
 40
1.0
 40
1.0
 10
347.7100370988
 20
826.1167543237
 30
0.0
 10
348.1490986999
 20
826.3702451441
 30
0.0
 10
349.7841334471
 20
827.3770153044
 30
0.0
 10
351.3046914038
 20
828.5805194185
 30
0.0
 10
352.2993165069
 20
829.5848865947
 30
0.0
  0
SPLINE
  5
389
100
AcDbEntity
  8
0
100
AcDbSpline
 62
7
  6
BYLAYER
 70
0
 71
3
 72
11
 73
7
 74
0
 42
0.0000001
 43
0.0000001
 44
0.0000000001
 40
0.0
 40
0.0
 40
0.0
 40
0.0
 40
0.2897757032
 40
0.5490693955
 40
0.7822254653
 40
1.0
 40
1.0
 40
1.0
 40
1.0
 10
360.7268791659
 20
825.4689124744
 30
0.0
 10
360.5732657225
 20
825.3802242408
 30
0.0
 10
360.267788695
 20
825.2348268333
 30
0.0
 10
359.7981884771
 20
825.1215245164
 30
0.0
 10
359.3576323497
 20
825.1326321686
 30
0.0
 10
359.0923669933
 20
825.2289363027
 30
0.0
 10
358.9769217219
 20
825.2955871594
 30
0.0
  0
SPLINE
  5
38A
100
AcDbEntity
  8
0
100
AcDbSpline
 62
7
  6
BYLAYER
 70
0
 71
3
 72
11
 73
7
 74
0
 42
0.0000001
 43
0.0000001
 44
0.0000000001
 40
0.0
 40
0.0
 40
0.0
 40
0.0
 40
0.2372297508
 40
0.500001618
 40
0.7627726046
 40
1.0
 40
1.0
 40
1.0
 40
1.0
 10
363.2017425962
 20
829.7555254729
 30
0.0
 10
363.2017425962
 20
829.3498250109
 30
0.0
 10
363.0495790612
 20
828.4941890614
 30
0.0
 10
362.519166965
 20
827.2918660941
 30
0.0
 10
361.7431387097
 20
826.2313534741
 30
0.0
 10
361.0782231081
 20
825.6717597831
 30
0.0
 10
360.7268791659
 20
825.4689124744
 30
0.0
  0
SPLINE
  5
38B
100
AcDbEntity
  8
0
100
AcDbSpline
 62
7
  6
BYLAYER
 70
0
 71
3
 72
15
 73
11
 74
0
 42
0.0000001
 43
0.0000001
 44
0.0000000001
 40
0.0
 40
0.0
 40
0.0
 40
0.0
 40
0.1198463585
 40
0.2462250588
 40
0.3767837851
 40
0.5088739225
 40
0.6397562573
 40
0.7667682554
 40
0.8874969963
 40
1.0
 40
1.0
 40
1.0
 40
1.0
 10
310.7732300376
 20
824.4521651378
 30
0.0
 10
312.1767654631
 20
823.8618411465
 30
0.0
 10
315.1451698415
 20
822.8446659517
 30
0.0
 10
319.8314578734
 20
821.8248317573
 30
0.0
 10
324.754230559
 20
821.2914559296
 30
0.0
 10
329.7624154764
 20
821.2613292504
 30
0.0
 10
334.7031706953
 20
821.7351546838
 30
0.0
 10
339.4260608978
 20
822.6988105838
 30
0.0
 10
343.7865619439
 20
824.1224458587
 30
0.0
 10
346.4721980264
 20
825.4020918679
 30
0.0
 10
347.7100370988
 20
826.1167543237
 30
0.0
  0
SPLINE
  5
38C
100
AcDbEntity
  8
0
100
AcDbSpline
 62
7
  6
BYLAYER
 70
0
 71
3
 72
9
 73
5
 74
0
 42
0.0000001
 43
0.0000001
 44
0.0000000001
 40
0.0
 40
0.0
 40
0.0
 40
0.0
 40
0.2603221067
 40
1.0
 40
1.0
 40
1.0
 40
1.0
 10
310.4399075794
 20
824.5066391451
 30
0.0
 10
310.4693105838
 20
824.507964217
 30
0.0
 10
310.5823230997
 20
824.5072321036
 30
0.0
 10
310.696140825
 20
824.4845886953
 30
0.0
 10
310.7732300376
 20
824.4521651378
 30
0.0
  0
SPLINE
  5
38D
100
AcDbEntity
  8
0
100
AcDbSpline
 62
7
  6
BYLAYER
 70
0
 71
3
 72
9
 73
5
 74
0
 42
0.0000001
 43
0.0000001
 44
0.0000000001
 40
0.0
 40
0.0
 40
0.0
 40
0.0
 40
0.2297469166
 40
1.0
 40
1.0
 40
1.0
 40
1.0
 10
310.1252630988
 20
824.422963948
 30
0.0
 10
310.1469729365
 20
824.4354980537
 30
0.0
 10
310.2457877444
 20
824.4824897375
 30
0.0
 10
310.355948342
 20
824.5028554494
 30
0.0
 10
310.4399075794
 20
824.5066391451
 30
0.0
  0
SPLINE
  5
38E
100
AcDbEntity
  8
0
100
AcDbSpline
 62
7
  6
BYLAYER
 70
0
 71
3
 72
11
 73
7
 74
0
 42
0.0000001
 43
0.0000001
 44
0.0000000001
 40
0.0
 40
0.0
 40
0.0
 40
0.0
 40
0.2177734147
 40
0.4509530517
 40
0.7102017589
 40
1.0
 40
1.0
 40
1.0
 40
1.0
 10
356.4290279901
 20
850.1997034115
 30
0.0
 10
356.2970897641
 20
850.2758801597
 30
0.0
 10
355.9939152106
 20
850.3859878421
 30
0.0
 10
355.4904215906
 20
850.3985973777
 30
0.0
 10
354.9537146337
 20
850.2691718617
 30
0.0
 10
354.604612368
 20
850.1029749329
 30
0.0
 10
354.4290363169
 20
850.0016066576
 30
0.0
  0
SPLINE
  5
38F
100
AcDbEntity
  8
0
100
AcDbSpline
 62
7
  6
BYLAYER
 70
0
 71
3
 72
11
 73
7
 74
0
 42
0.0000001
 43
0.0000001
 44
0.0000000001
 40
0.0
 40
0.0
 40
0.0
 40
0.0
 40
0.2897988654
 40
0.5490483453
 40
0.7822280789
 40
1.0
 40
1.0
 40
1.0
 40
1.0
 10
303.5113084993
 20
816.5219061875
 30
0.0
 10
303.5113084993
 20
816.3191659082
 30
0.0
 10
303.541927559
 20
815.9337305019
 30
0.0
 10
303.6981916283
 20
815.4042072609
 30
0.0
 10
303.9608532194
 20
814.9744645031
 30
0.0
 10
304.2077933022
 20
814.7669535023
 30
0.0
 10
304.339732175
 20
814.6907763806
 30
0.0
  0
SPLINE
  5
390
100
AcDbEntity
  8
0
100
AcDbSpline
 62
7
  6
BYLAYER
 70
0
 71
3
 72
9
 73
5
 74
0
 42
0.0000001
 43
0.0000001
 44
0.0000000001
 40
0.0
 40
0.0
 40
0.0
 40
0.0
 40
0.525561843
 40
1.0
 40
1.0
 40
1.0
 40
1.0
 10
304.339732175
 20
820.1261139658
 30
0.0
 10
304.0829339486
 20
819.6813239214
 30
0.0
 10
303.6850341167
 20
818.779608473
 30
0.0
 10
303.5113084993
 20
817.8020472273
 30
0.0
 10
303.5113084993
 20
817.3384086046
 30
0.0
  0
SPLINE
  5
391
100
AcDbEntity
  8
0
100
AcDbSpline
 62
7
  6
BYLAYER
 70
0
 71
3
 72
9
 73
5
 74
0
 42
0.0000001
 43
0.0000001
 44
0.0000000001
 40
0.0
 40
0.0
 40
0.0
 40
0.0
 40
0.474436517
 40
1.0
 40
1.0
 40
1.0
 40
1.0
 10
306.3397238481
 20
822.2373948886
 30
0.0
 10
305.9382044103
 20
822.0055789169
 30
0.0
 10
305.178480161
 20
821.3663495236
 30
0.0
 10
304.5965295406
 20
820.5709025195
 30
0.0
 10
304.339732175
 20
820.1261139658
 30
0.0
  0
SPLINE
  5
392
100
AcDbEntity
  8
0
100
AcDbSpline
 62
7
  6
BYLAYER
 70
0
 71
3
 72
9
 73
5
 74
0
 42
0.0000001
 43
0.0000001
 44
0.0000000001
 40
0.0
 40
0.0
 40
0.0
 40
0.0
 40
0.4827391224
 40
1.0
 40
1.0
 40
1.0
 40
1.0
 10
347.7100370988
 20
823.2589958637
 30
0.0
 10
346.5107171753
 20
822.5665723162
 30
0.0
 10
343.9145471848
 20
821.3217826804
 30
0.0
 10
341.1857649376
 20
820.4138382793
 30
0.0
 10
339.7544084365
 20
820.0225072841
 30
0.0
  0
SPLINE
  5
393
100
AcDbEntity
  8
0
100
AcDbSpline
 62
7
  6
BYLAYER
 70
0
 71
3
 72
9
 73
5
 74
0
 42
0.0000001
 43
0.0000001
 44
0.0000000001
 40
0.0
 40
0.0
 40
0.0
 40
0.0
 40
0.2366332602
 40
1.0
 40
1.0
 40
1.0
 40
1.0
 10
352.2607761331
 20
826.6883526799
 30
0.0
 10
351.9429893374
 20
826.3694383777
 30
0.0
 10
350.5477365729
 20
825.0739721796
 30
0.0
 10
348.9678325164
 20
823.9851800519
 30
0.0
 10
347.7100370988
 20
823.2589958637
 30
0.0
  0
ENDSEC
  0
SECTION
  2
OBJECTS
  0
DICTIONARY
  5
C
100
AcDbDictionary
280
0
281
1
  3
ACAD_GROUP
350
D
  3
ACAD_MLINESTYLE
350
17
  3
ACAD_LAYOUT
350
1A
  3
ACAD_PLOTSETTINGS
350
19
  3
ACAD_PLOTSTYLENAME
350
E
  0
DICTIONARY
  5
D
102
{ACAD_REACTORS
330
C
102
}
100
AcDbDictionary
280
0
281
1
  0
ACDBDICTIONARYWDFLT
  5
E
102
{ACAD_REACTORS
330
C
102
}
100
AcDbDictionary
281
1
  3
Normal
350
F
100
AcDbDictionaryWithDefault
340
F
  0
DICTIONARY
  5
17
102
{ACAD_REACTORS
330
C
102
}
100
AcDbDictionary
280
0
281
1
  3
Standard
350
18
  0
DICTIONARY
  5
19
102
{ACAD_REACTORS
330
C
102
}
100
AcDbDictionary
281
1
  0
DICTIONARY
  5
1A
102
{ACAD_REACTORS
330
C
102
}
100
AcDbDictionary
281
1
  3
Model
350
394
  3
Layout1
350
395
  0
ACDBPLACEHOLDER
  5
F
102
{ACAD_REACTORS
330
E
102
}
  0
MLINESTYLE
  5
18
102
{ACAD_REACTORS
330
17
102
}
100
AcDbMlineStyle
  2
STANDARD
 70
0
  3

 62
256
 51
90.0
 52
90.0
 71
2
 49
0.5
 62
256
  6
BYLAYER
 49
-0.5
 62
256
  6
BYLAYER
  0
LAYOUT
  5
394
102
{ACAD_REACTORS
330
1A
102
}
100
AcDbPlotSettings
  1

  2
none_device
  4

  6

 40
0.0
 41
0.0
 42
0.0
 43
0.0
 44
210.0
 45
297.0
 46
0.0
 47
0.0
 48
0.0
 49
0.0
140
0.0
141
0.0
142
1.0
143
1.0
 70
1024
 72
1
 73
0
 74
0
  7

 75
0
147
1.0
148
0.0
149
0.0
100
AcDbLayout
  1
Model
 70
0
 71
0
 10
0.0
 20
0.0
 11
210.0
 21
297.0
 12
0.0
 22
0.0
 32
0.0
 14
0.0
 24
0.0
 34
0.0
 15
0.0
 25
0.0
 35
0.0
146
0.0
 13
0.0
 23
0.0
 33
0.0
 16
1.0
 26
0.0
 36
0.0
 17
0.0
 27
1.0
 37
0.0
 76
0
330
210
345
0
346
0
  0
LAYOUT
  5
395
102
{ACAD_REACTORS
330
1A
102
}
100
AcDbPlotSettings
  1

  2
none_device
  4

  6

 40
0.0
 41
0.0
 42
0.0
 43
0.0
 44
210.0
 45
297.0
 46
0.0
 47
0.0
 48
0.0
 49
0.0
140
0.0
141
0.0
142
1.0
143
1.0
 70
0
 72
1
 73
0
 74
0
  7

 75
0
147
1.0
148
0.0
149
0.0
100
AcDbLayout
  1
Layout1
 70
0
 71
1
 10
0.0
 20
0.0
 11
210.0
 21
297.0
 12
0.0
 22
0.0
 32
0.0
 14
0.0
 24
0.0
 34
0.0
 15
0.0
 25
0.0
 35
0.0
146
0.0
 13
0.0
 23
0.0
 33
0.0
 16
1.0
 26
0.0
 36
0.0
 17
0.0
 27
1.0
 37
0.0
 76
0
330
211
345
0
346
0
  0
ENDSEC
  0
EOF
