999
DXF file: C:\Users\sesa63760\Dev\_Creo\CAD\MCADUE0001178_3D-CAD\drw0001_6.dxf
999
Pro/ENGINEER 2019471 by Parametric Technology Corporation
  0
SECTION
  2
HEADER
  9
$ACADVER
  1
AC1024
  9
$DWGCODEPAGE
  3
ANSI_1252
  9
$EXTMAX
 10
231.3235196605
 20
327.1575492341
 30
0.0
  9
$EXTMIN
 10
0.0
 20
0.0
 30
0.0
  9
$LIMMIN
 10
0.0
 20
0.0
  9
$LIMMAX
 10
231.3235196605
 20
327.1575492341
  9
$VIEWCTR
 10
115.6617598303
 20
163.5787746171
  9
$VIEWSIZE
 40
327.1575492341
  9
$CLAYER
  8
0
  9
$LTSCALE
 40
21.3258254316
  9
$CELTYPE
  6
BYLAYER
  9
$DIMSCALE
 40
1.0
  9
$DIMASZ
 40
2.7538514245
  9
$DIMEXO
 40
1.0
  9
$DIMDLI
 40
14.7342066618
  9
$DIMEXE
 40
1.0
  9
$DIMCEN
 40
3.4896805252
  9
$DIMLFAC
 40
1.0
  9
$DIMBLK
  1
_FILLED
  9
$DIMALT
 70
0
  9
$DIMALTF
 40
0.0393700787
  9
$DIMTXT
 40
3.8553919943
  9
$DIMTOL
 70
1
  9
$DIMLIM
 70
0
  9
$DIMTFAC
 40
1.0
  9
$DIMTP
 40
0.01
  9
$DIMTM
 40
0.01
  9
$DIMGAP
 40
0.625
  9
$DIMDSEP
 70
46
  9
$AUNITS
 70
0
  9
$PDMODE
 70
3
  9
$PDSIZE
 40
0.3125
  9
$HANDSEED
  5
2FF
  9
$TILEMODE
 70
1
  9
$MEASUREMENT
 70
1
  9
$INSUNITS
 70
4
  0
ENDSEC
  0
SECTION
  2
CLASSES
  0
CLASS
  1
ACDBDICTIONARYWDFLT
  2
AcDbDictionaryWithDefault
  3
AutoCAD 2000
 90
0
 91
1
280
0
281
0
  0
CLASS
  1
ACDBPLACEHOLDER
  2
AcDbPlaceHolder
  3
AutoCAD 2000
 90
0
 91
1
280
0
281
0
  0
CLASS
  1
LAYOUT
  2
AcDbLayout
  3
AutoCAD 2000
 90
0
 91
0
280
0
281
0
  0
ENDSEC
  0
SECTION
  2
TABLES
  0
TABLE
  2
VPORT
  5
8
100
AcDbSymbolTable
 70
2
  0
VPORT
  5
1F4
100
AcDbSymbolTableRecord
100
AcDbViewportTableRecord
  2
*ACTIVE
 70
0
 10
0.0
 20
0.0
 11
1.0
 21
1.0
 12
115.6617598303
 22
163.5787746171
 13
0.0
 23
0.0
 14
1.0
 24
1.0
 15
0.0
 25
0.0
 16
0.0
 26
0.0
 36
1.0
 17
0.0
 27
0.0
 37
0.0
 40
327.1575492341
 41
0.7070707071
 42
50.0
 43
0.0
 44
0.0
 50
0.0
 51
0.0
 71
0
 72
100
 73
1
 74
1
 75
0
 76
0
 77
0
 78
0
  0
ENDTAB
  0
TABLE
  2
LTYPE
  5
5
100
AcDbSymbolTable
 70
6
  0
LTYPE
  5
14
100
AcDbSymbolTableRecord
100
AcDbLinetypeTableRecord
  2
BYBLOCK
 70
0
  3

 72
65
 73
0
 40
0.0
  0
LTYPE
  5
15
100
AcDbSymbolTableRecord
100
AcDbLinetypeTableRecord
  2
BYLAYER
 70
0
  3

 72
65
 73
0
 40
0.0
  0
LTYPE
  5
16
100
AcDbSymbolTableRecord
100
AcDbLinetypeTableRecord
  2
CONTINUOUS
 70
64
  3
Solid line
 72
65
 73
0
 40
0.0
  0
LTYPE
  5
1F5
100
AcDbSymbolTableRecord
100
AcDbLinetypeTableRecord
  2
CENTER
 70
64
  3
____ _ ____ _ ____ _ ____ _ ____ _ ____ _ ____
 72
65
 73
4
 40
0.6
 49
0.375
 74
0
 49
-0.075
 74
0
 49
0.075
 74
0
 49
-0.075
 74
0
  0
LTYPE
  5
1F6
100
AcDbSymbolTableRecord
100
AcDbLinetypeTableRecord
  2
HIDDEN
 70
64
  3
- - - - - - - - - - - - - - - - - - - -
 72
65
 73
2
 40
0.2
 49
0.1
 74
0
 49
-0.1
 74
0
  0
LTYPE
  5
1F7
100
AcDbSymbolTableRecord
100
AcDbLinetypeTableRecord
  2
PHANTOM
 70
64
  3
_____ _ _ _____ _ _ _____ _ _ _____
 72
65
 73
6
 40
0.8
 49
0.45
 74
0
 49
-0.05
 74
0
 49
0.1
 74
0
 49
-0.05
 74
0
 49
0.1
 74
0
 49
-0.05
 74
0
  0
LTYPE
  5
1F8
100
AcDbSymbolTableRecord
100
AcDbLinetypeTableRecord
  2
DOT
 70
64
  3
. . . . . . . . . . . . . . . . . . . .
 72
65
 73
2
 40
0.2
 49
0.1
 74
0
 49
-0.1
 74
0
  0
LTYPE
  5
1F9
100
AcDbSymbolTableRecord
100
AcDbLinetypeTableRecord
  2
DASHED
 70
64
  3
- - - - - - - - - - - - - - - - - - - -
 72
65
 73
2
 40
0.2
 49
0.1
 74
0
 49
-0.1
 74
0
  0
ENDTAB
  0
TABLE
  2
LAYER
  5
2
100
AcDbSymbolTable
 70
36
  0
LAYER
  5
10
100
AcDbSymbolTableRecord
100
AcDbLayerTableRecord
  2
0
 70
0
 62
7
  6
CONTINUOUS
370
-3
390
F
  0
LAYER
  5
1FA
100
AcDbSymbolTableRecord
100
AcDbLayerTableRecord
  2
DEFAULT_1
 70
0
 62
7
  6
CENTER
370
-3
390
F
  0
LAYER
  5
1FB
100
AcDbSymbolTableRecord
100
AcDbLayerTableRecord
  2
DEFAULT_2
 70
0
 62
8
  6
HIDDEN
370
-3
390
F
  0
LAYER
  5
1FC
100
AcDbSymbolTableRecord
100
AcDbLayerTableRecord
  2
DEFAULT_3
 70
0
 62
7
  6
PHANTOM
370
-3
390
F
  0
LAYER
  5
1FD
100
AcDbSymbolTableRecord
100
AcDbLayerTableRecord
  2
00_COMPONENTS
 70
0
 62
7
  6
CONTINUOUS
370
-3
390
F
  0
LAYER
  5
1FE
100
AcDbSymbolTableRecord
100
AcDbLayerTableRecord
  2
01_1_DEFAULT_DATUMS
 70
0
 62
7
  6
CONTINUOUS
370
-3
390
F
  0
LAYER
  5
1FF
100
AcDbSymbolTableRecord
100
AcDbLayerTableRecord
  2
01_PLANES
 70
0
 62
7
  6
CONTINUOUS
370
-3
390
F
  0
LAYER
  5
200
100
AcDbSymbolTableRecord
100
AcDbLayerTableRecord
  2
02_COORD_SYS
 70
0
 62
7
  6
CONTINUOUS
370
-3
390
F
  0
LAYER
  5
201
100
AcDbSymbolTableRecord
100
AcDbLayerTableRecord
  2
03_AXES
 70
0
 62
7
  6
CONTINUOUS
370
-3
390
F
  0
LAYER
  5
202
100
AcDbSymbolTableRecord
100
AcDbLayerTableRecord
  2
04_POINTS
 70
0
 62
7
  6
CONTINUOUS
370
-3
390
F
  0
LAYER
  5
203
100
AcDbSymbolTableRecord
100
AcDbLayerTableRecord
  2
05_CURVES
 70
0
 62
7
  6
CONTINUOUS
370
-3
390
F
  0
LAYER
  5
204
100
AcDbSymbolTableRecord
100
AcDbLayerTableRecord
  2
06_SURFS
 70
0
 62
7
  6
CONTINUOUS
370
-3
390
F
  0
LAYER
  5
205
100
AcDbSymbolTableRecord
100
AcDbLayerTableRecord
  2
07_COSMETICS
 70
0
 62
7
  6
CONTINUOUS
370
-3
390
F
  0
LAYER
  5
206
100
AcDbSymbolTableRecord
100
AcDbLayerTableRecord
  2
10_NOTES
 70
0
 62
7
  6
CONTINUOUS
370
-3
390
F
  0
LAYER
  5
207
100
AcDbSymbolTableRecord
100
AcDbLayerTableRecord
  2
11_NOTES_PUB
 70
0
 62
7
  6
CONTINUOUS
370
-3
390
F
  0
LAYER
  5
208
100
AcDbSymbolTableRecord
100
AcDbLayerTableRecord
  2
13_REF_GTOL
 70
0
 62
7
  6
CONTINUOUS
370
-3
390
F
  0
LAYER
  5
209
100
AcDbSymbolTableRecord
100
AcDbLayerTableRecord
  2
16_MISC
 70
0
 62
7
  6
CONTINUOUS
370
-3
390
F
  0
LAYER
  5
20A
100
AcDbSymbolTableRecord
100
AcDbLayerTableRecord
  2
17_NO_PRINT
 70
0
 62
7
  6
CONTINUOUS
370
-3
390
F
  0
LAYER
  5
20B
100
AcDbSymbolTableRecord
100
AcDbLayerTableRecord
  2
18_DATUM_CAMS_JOINTS
 70
0
 62
7
  6
CONTINUOUS
370
-3
390
F
  0
LAYER
  5
20C
100
AcDbSymbolTableRecord
100
AcDbLayerTableRecord
  2
19_DATUM_FUNCTIONAL
 70
0
 62
7
  6
CONTINUOUS
370
-3
390
F
  0
LAYER
  5
20D
100
AcDbSymbolTableRecord
100
AcDbLayerTableRecord
  2
20_DATUM_KINEMATIC_SCHEME
 70
0
 62
7
  6
CONTINUOUS
370
-3
390
F
  0
ENDTAB
  0
TABLE
  2
STYLE
  5
3
100
AcDbSymbolTable
 70
1
  0
STYLE
  5
11
100
AcDbSymbolTableRecord
100
AcDbTextStyleTableRecord
  2
STANDARD
 70
0
 40
0.0
 41
0.8
 50
0.0
 71
0
 42
0.2
  3
txt
  4

  0
STYLE
  5
20E
100
AcDbSymbolTableRecord
100
AcDbTextStyleTableRecord
  2
TEXTSTYLE_1
 70
0
 40
0.0
 41
0.8
 50
0.0
 71
0
 42
0.2
  3
gdt
  4

  0
ENDTAB
  0
TABLE
  2
VIEW
  5
6
100
AcDbSymbolTable
 70
0
  0
ENDTAB
  0
TABLE
  2
UCS
  5
7
100
AcDbSymbolTable
 70
0
  0
ENDTAB
  0
TABLE
  2
APPID
  5
9
100
AcDbSymbolTable
 70
1
  0
APPID
  5
20F
100
AcDbSymbolTableRecord
100
AcDbRegAppTableRecord
  2
ACAD
 70
0
  0
ENDTAB
  0
TABLE
  2
BLOCK_RECORD
  5
1
100
AcDbSymbolTable
 70
0
  0
BLOCK_RECORD
  5
210
100
AcDbSymbolTableRecord
100
AcDbBlockTableRecord
  2
*Model_Space
  0
BLOCK_RECORD
  5
211
100
AcDbSymbolTableRecord
100
AcDbBlockTableRecord
  2
*Paper_Space
  0
BLOCK_RECORD
  5
212
100
AcDbSymbolTableRecord
100
AcDbBlockTableRecord
  2
_FILLED
  0
ENDTAB
  0
TABLE
  2
DIMSTYLE
  5
A
100
AcDbSymbolTable
 70
1
100
AcDbDimStyleTable
 71
0
  0
DIMSTYLE
105
213
100
AcDbSymbolTableRecord
100
AcDbDimStyleTableRecord
  2
STANDARD
 70
0
  3

  4

 40
1.0
 41
2.7538514245
 42
1.0
 43
0.38
 44
1.0
 45
0.0
 46
0.0
 47
0.01
 48
0.01
140
3.8553919943
141
0.09
142
0.0
143
25.4
144
1.0
145
0.0
146
1.0
147
0.625
 71
1
 72
0
 73
0
 74
0
 75
0
 76
0
 77
1
 78
8
 79
2
170
0
171
1
172
0
173
0
174
0
175
0
176
0
177
0
178
0
270
2
179
2
271
2
272
2
273
2
274
2
275
0
280
0
281
0
282
0
283
1
284
8
285
0
286
0
287
3
288
0
340
11
278
46
341
212
342
212
343
212
344
212
  0
ENDTAB
  0
ENDSEC
  0
SECTION
  2
BLOCKS
  0
BLOCK
  5
20
100
AcDbEntity
  8
0
100
AcDbBlockBegin
  2
*Model_Space
 70
0
 10
0.0
 20
0.0
 30
0.0
  3
*Model_Space
  1

  0
ENDBLK
  5
21
100
AcDbEntity
  8
0
100
AcDbBlockEnd
  0
BLOCK
  5
1C
100
AcDbEntity
  8
0
100
AcDbBlockBegin
  2
*Paper_Space
 70
0
 10
0.0
 20
0.0
 30
0.0
  3
*Paper_Space
  1

  0
ENDBLK
  5
1D
100
AcDbEntity
  8
0
100
AcDbBlockEnd
  0
BLOCK
  5
214
100
AcDbEntity
  8
0
100
AcDbBlockBegin
  2
_FILLED
 70
64
 10
0.0
 20
0.0
  3
_FILLED
  1

  0
SOLID
  5
215
100
AcDbEntity
  8
0
  6
BYBLOCK
 62
0
100
AcDbTrace
 10
0.0
 20
0.0
 11
-1.0
 21
0.25
 12
-1.0
 22
-0.25
 13
-1.0
 23
-0.25
  0
ENDBLK
  5
216
100
AcDbEntity
  8
0
  6
BYBLOCK
 62
0
100
AcDbBlockEnd
  0
ENDSEC
  0
SECTION
  2
ENTITIES
  0
LINE
  5
217
100
AcDbEntity
  8
0
100
AcDbLine
 62
7
  6
CONTINUOUS
 10
71.1639480141
 20
28.5787746171
 11
209.1639480141
 21
30.9875735772
  0
LINE
  5
218
100
AcDbEntity
  8
0
100
AcDbLine
 62
7
  6
CONTINUOUS
 10
40.1639480141
 20
30.0631209151
 11
41.1639480141
 21
30.0631209151
  0
LINE
  5
219
100
AcDbEntity
  8
0
100
AcDbLine
 62
7
  6
CONTINUOUS
 10
41.1639480141
 20
30.3783070219
 11
40.1639480141
 21
30.3783070219
  0
LINE
  5
21A
100
AcDbEntity
  8
0
100
AcDbLine
 62
7
  6
CONTINUOUS
 10
31.1639480141
 20
31.8287746171
 11
35.1639480141
 21
31.8287746171
  0
LINE
  5
21B
100
AcDbEntity
  8
0
100
AcDbLine
 62
7
  6
CONTINUOUS
 10
41.6464982657
 20
29.8595466757
 11
71.1639480141
 21
28.8287746171
  0
LINE
  5
21C
100
AcDbEntity
  8
0
100
AcDbLine
 62
7
  6
CONTINUOUS
 10
35.1639480141
 20
30.9908135135
 11
40.1639480141
 21
30.7287746171
  0
LINE
  5
21D
100
AcDbEntity
  8
0
100
AcDbLine
 62
7
  6
CONTINUOUS
 10
36.6639480141
 20
35.0476457429
 11
38.6639480141
 21
35.0476457429
  0
LINE
  5
21E
100
AcDbEntity
  8
0
100
AcDbLine
 62
7
  6
CONTINUOUS
 10
36.6639480141
 20
36.5787746171
 11
38.6639480141
 21
36.5787746171
  0
LINE
  5
21F
100
AcDbEntity
  8
0
100
AcDbLine
 62
7
  6
CONTINUOUS
 10
73.5052979792
 20
39.0787746171
 11
69.8142727064
 21
39.0787746171
  0
LINE
  5
220
100
AcDbEntity
  8
0
100
AcDbLine
 62
7
  6
CONTINUOUS
 10
38.6639480141
 20
41.5787746171
 11
36.6639480141
 21
41.5787746171
  0
LINE
  5
221
100
AcDbEntity
  8
0
100
AcDbLine
 62
7
  6
CONTINUOUS
 10
38.6639480141
 20
43.1099034912
 11
36.6639480141
 21
43.1099034912
  0
LINE
  5
222
100
AcDbEntity
  8
0
100
AcDbLine
 62
7
  6
CONTINUOUS
 10
40.1690277582
 20
39.3697929626
 11
37.1699415176
 21
39.4221422076
  0
LINE
  5
223
100
AcDbEntity
  8
0
100
AcDbLine
 62
7
  6
CONTINUOUS
 10
31.1639480141
 20
39.5269772142
 11
31.0766859818
 21
39.5285003786
  0
LINE
  5
224
100
AcDbEntity
  8
0
100
AcDbLine
 62
7
  6
CONTINUOUS
 10
31.0766859819
 20
40.9927434274
 11
31.1639480141
 21
40.9912202621
  0
LINE
  5
225
100
AcDbEntity
  8
0
100
AcDbLine
 62
7
  6
CONTINUOUS
 10
40.1639480141
 20
47.4287746171
 11
41.087708873
 21
45.8287738753
  0
LINE
  5
226
100
AcDbEntity
  8
0
100
AcDbLine
 62
7
  6
CONTINUOUS
 10
35.1639480141
 20
47.1667357207
 11
40.1639480141
 21
47.4287746171
  0
LINE
  5
227
100
AcDbEntity
  8
0
100
AcDbLine
 62
7
  6
CONTINUOUS
 10
48.9073431589
 20
48.5515568435
 11
41.6464982657
 21
48.2961075854
  0
LINE
  5
228
100
AcDbEntity
  8
0
100
AcDbLine
 62
7
  6
CONTINUOUS
 10
48.9073340239
 20
48.5515565303
 11
62.3071729057
 21
49.0194892151
  0
LINE
  5
229
100
AcDbEntity
  8
0
100
AcDbLine
 62
7
  6
CONTINUOUS
 10
206.16396301
 20
50.5350328942
 11
205.611969334
 21
50.5177822298
  0
LINE
  5
22A
100
AcDbEntity
  8
0
100
AcDbLine
 62
7
  6
CONTINUOUS
 10
60.5098848656
 20
50.2233855031
 11
41.6464976869
 21
49.6821207108
  0
LINE
  5
22B
100
AcDbEntity
  8
0
100
AcDbLine
 62
7
  6
CONTINUOUS
 10
41.6464980735
 20
49.0109429388
 11
60.8305011032
 21
49.0423535658
  0
LINE
  5
22C
100
AcDbEntity
  8
0
100
AcDbLine
 62
7
  6
CONTINUOUS
 10
31.1639480141
 20
46.3287746171
 11
35.1639480141
 21
46.3287746171
  0
LINE
  5
22D
100
AcDbEntity
  8
0
100
AcDbLine
 62
7
  6
CONTINUOUS
 10
206.1639480141
 20
51.7315035429
 11
200.2686624527
 21
51.7315035429
  0
LINE
  5
22E
100
AcDbEntity
  8
0
100
AcDbLine
 62
7
  6
CONTINUOUS
 10
206.2744951081
 20
53.5787746171
 11
206.6639480141
 21
53.5787746171
  0
LINE
  5
22F
100
AcDbEntity
  8
0
100
AcDbLine
 62
7
  6
CONTINUOUS
 10
64.0334722059
 20
55.6116526875
 11
61.1880519455
 21
55.6116526875
  0
LINE
  5
230
100
AcDbEntity
  8
0
100
AcDbLine
 62
7
  6
CONTINUOUS
 10
31.0766859819
 20
55.8293628957
 11
26.1639480141
 21
55.8293628957
  0
LINE
  5
231
100
AcDbEntity
  8
0
100
AcDbLine
 62
7
  6
CONTINUOUS
 10
41.6552160386
 20
51.7859069606
 11
60.4575055163
 21
51.7108571432
  0
LINE
  5
232
100
AcDbEntity
  8
0
100
AcDbLine
 62
7
  6
CONTINUOUS
 10
60.5573537405
 20
52.081218574
 11
31.0766859819
 21
52.2943674698
  0
LINE
  5
233
100
AcDbEntity
  8
0
100
AcDbLine
 62
7
  6
CONTINUOUS
 10
31.0766859819
 20
55.8293628957
 11
61.1880519467
 21
55.6116533849
  0
LINE
  5
234
100
AcDbEntity
  8
0
100
AcDbLine
 62
7
  6
CONTINUOUS
 10
200.2686625947
 20
46.4031880752
 11
74.8911824231
 21
47.9180400986
  0
LINE
  5
235
100
AcDbEntity
  8
0
100
AcDbLine
 62
7
  6
CONTINUOUS
 10
209.1639480141
 20
47.169975657
 11
204.5766015897
 21
47.2500480867
  0
LINE
  5
236
100
AcDbEntity
  8
0
100
AcDbLine
 62
7
  6
CONTINUOUS
 10
205.9527024064
 20
47.2291185637
 11
206.1639507608
 21
47.2225167227
  0
LINE
  5
237
100
AcDbEntity
  8
0
100
AcDbLine
 62
7
  6
CONTINUOUS
 10
26.1639480141
 20
44.5277388538
 11
26.1639480141
 21
282.6298103799
  0
LINE
  5
238
100
AcDbEntity
  8
0
100
AcDbLine
 62
7
  6
CONTINUOUS
 10
31.0766859819
 20
285.9638899666
 11
31.0766859819
 21
274.0576759794
  0
LINE
  5
239
100
AcDbEntity
  8
0
100
AcDbLine
 62
7
  6
CONTINUOUS
 10
31.0766859819
 20
52.2943674698
 11
31.0766859819
 21
40.9927434274
  0
LINE
  5
23A
100
AcDbEntity
  8
0
100
AcDbLine
 62
7
  6
CONTINUOUS
 10
31.0766859819
 20
55.8293628957
 11
31.0766859819
 21
270.7235963942
  0
LINE
  5
23B
100
AcDbEntity
  8
0
100
AcDbLine
 62
7
  6
CONTINUOUS
 10
31.1639480141
 20
31.8289631953
 11
31.1639480141
 21
46.3285860389
  0
LINE
  5
23C
100
AcDbEntity
  8
0
100
AcDbLine
 62
7
  6
CONTINUOUS
 10
31.1639480141
 20
280.8289631953
 11
31.1639480141
 21
295.3285860389
  0
LINE
  5
23D
100
AcDbEntity
  8
0
100
AcDbLine
 62
7
  6
CONTINUOUS
 10
41.6464983266
 20
277.218099982
 11
41.6552221066
 21
275.1739951186
  0
LINE
  5
23E
100
AcDbEntity
  8
0
100
AcDbLine
 62
7
  6
CONTINUOUS
 10
35.1639480141
 20
30.9908135135
 11
35.1639480141
 21
47.1667357207
  0
LINE
  5
23F
100
AcDbEntity
  8
0
100
AcDbLine
 62
7
  6
CONTINUOUS
 10
35.1639480141
 20
279.9908135135
 11
35.1639480141
 21
296.1667357207
  0
LINE
  5
240
100
AcDbEntity
  8
0
100
AcDbLine
 62
7
  6
CONTINUOUS
 10
36.6639480141
 20
295.9966601207
 11
36.6639480141
 21
290.5787746171
  0
LINE
  5
241
100
AcDbEntity
  8
0
100
AcDbLine
 62
7
  6
CONTINUOUS
 10
36.6639480141
 20
285.5787746171
 11
36.6639480141
 21
280.1608891134
  0
LINE
  5
242
100
AcDbEntity
  8
0
100
AcDbLine
 62
7
  6
CONTINUOUS
 10
36.6639480141
 20
46.9966601207
 11
36.6639480141
 21
41.5787746171
  0
LINE
  5
243
100
AcDbEntity
  8
0
100
AcDbLine
 62
7
  6
CONTINUOUS
 10
36.6639480141
 20
36.5787746171
 11
36.6639480141
 21
31.1608891134
  0
LINE
  5
244
100
AcDbEntity
  8
0
100
AcDbLine
 62
7
  6
CONTINUOUS
 10
38.6639480141
 20
31.0528251453
 11
38.6639480141
 21
36.5787746171
  0
LINE
  5
245
100
AcDbEntity
  8
0
100
AcDbLine
 62
7
  6
CONTINUOUS
 10
38.6639480141
 20
41.5787746171
 11
38.6639480141
 21
47.1047240888
  0
LINE
  5
246
100
AcDbEntity
  8
0
100
AcDbLine
 62
7
  6
CONTINUOUS
 10
38.6639480141
 20
280.0528251453
 11
38.6639480141
 21
285.5787746171
  0
LINE
  5
247
100
AcDbEntity
  8
0
100
AcDbLine
 62
7
  6
CONTINUOUS
 10
38.6639480141
 20
290.5787746171
 11
38.6639480141
 21
296.1047240888
  0
LINE
  5
248
100
AcDbEntity
  8
0
100
AcDbLine
 62
7
  6
CONTINUOUS
 10
40.1639480141
 20
30.0631512264
 11
40.1639480141
 21
47.4287746171
  0
LINE
  5
249
100
AcDbEntity
  8
0
100
AcDbLine
 62
7
  6
CONTINUOUS
 10
40.1639480141
 20
272.6740801284
 11
40.1639480141
 21
297.0943980077
  0
LINE
  5
24A
100
AcDbEntity
  8
0
100
AcDbLine
 62
7
  6
CONTINUOUS
 10
41.087708873
 20
45.8278042461
 11
41.087708873
 21
32.3287753588
  0
LINE
  5
24B
100
AcDbEntity
  8
0
100
AcDbLine
 62
7
  6
CONTINUOUS
 10
41.1639480141
 20
297.0944064896
 11
41.1639480141
 21
272.6740801284
  0
LINE
  5
24C
100
AcDbEntity
  8
0
100
AcDbLine
 62
7
  6
CONTINUOUS
 10
41.1639480141
 20
30.0631427446
 11
41.1639480141
 21
50.8668178024
  0
LINE
  5
24D
100
AcDbEntity
  8
0
100
AcDbLine
 62
7
  6
CONTINUOUS
 10
41.6464980735
 20
49.0109429388
 11
41.6464976869
 21
49.6821207108
  0
LINE
  5
24E
100
AcDbEntity
  8
0
100
AcDbLine
 62
7
  6
CONTINUOUS
 10
41.6464982657
 20
29.8595466757
 11
41.6464982657
 21
48.2961075854
  0
LINE
  5
24F
100
AcDbEntity
  8
0
100
AcDbLine
 62
7
  6
CONTINUOUS
 10
41.6464982657
 20
278.8614416499
 11
41.6464982657
 21
297.2980025584
  0
LINE
  5
250
100
AcDbEntity
  8
0
100
AcDbLine
 62
7
  6
CONTINUOUS
 10
41.6464981075
 20
277.2181020217
 11
41.6464979501
 21
278.146606327
  0
LINE
  5
251
100
AcDbEntity
  8
0
100
AcDbLine
 62
7
  6
CONTINUOUS
 10
64.3588830513
 20
278.7030949049
 11
63.5791853421
 21
275.8318571822
  0
LINE
  5
252
100
AcDbEntity
  8
0
100
AcDbLine
 62
7
  6
CONTINUOUS
 10
60.4377796192
 20
276.6691483477
 11
60.830474344
 21
278.1151906408
  0
LINE
  5
253
100
AcDbEntity
  8
0
100
AcDbLine
 62
7
  6
CONTINUOUS
 10
60.8305011032
 20
49.0423535658
 11
60.5098848656
 21
50.2233855031
  0
LINE
  5
254
100
AcDbEntity
  8
0
100
AcDbLine
 62
7
  6
CONTINUOUS
 10
63.6506287758
 20
51.0626245274
 11
64.3588830513
 21
48.4544543292
  0
LINE
  5
255
100
AcDbEntity
  8
0
100
AcDbLine
 62
7
  6
CONTINUOUS
 10
61.1880519456
 20
270.9244575075
 11
61.1880519467
 21
55.6116533849
  0
LINE
  5
256
100
AcDbEntity
  8
0
100
AcDbLine
 62
7
  6
CONTINUOUS
 10
64.0334722067
 20
55.611652984
 11
64.0334722051
 21
270.9244575078
  0
LINE
  5
257
100
AcDbEntity
  8
0
100
AcDbLine
 62
7
  6
CONTINUOUS
 10
65.1591410585
 20
280.4264773781
 11
65.1591410585
 21
46.7310718561
  0
LINE
  5
258
100
AcDbEntity
  8
0
100
AcDbLine
 62
7
  6
CONTINUOUS
 10
69.8142727064
 20
39.0787746171
 11
69.8142727064
 21
288.0787746171
  0
LINE
  5
259
100
AcDbEntity
  8
0
100
AcDbLine
 62
7
  6
CONTINUOUS
 10
71.1639480141
 20
28.5787746171
 11
71.1639480141
 21
298.5787746171
  0
LINE
  5
25A
100
AcDbEntity
  8
0
100
AcDbLine
 62
7
  6
CONTINUOUS
 10
73.5052979792
 20
288.0787746171
 11
73.5052979792
 21
39.0787746171
  0
LINE
  5
25B
100
AcDbEntity
  8
0
100
AcDbLine
 62
7
  6
CONTINUOUS
 10
74.6841723256
 20
43.8579210425
 11
74.6841723256
 21
283.2996281916
  0
LINE
  5
25C
100
AcDbEntity
  8
0
100
AcDbLine
 62
7
  6
CONTINUOUS
 10
78.6605597134
 20
52.9633263483
 11
78.6605597134
 21
274.1942228859
  0
LINE
  5
25D
100
AcDbEntity
  8
0
100
AcDbLine
 62
7
  6
CONTINUOUS
 10
207.7139480141
 20
255.0014243479
 11
207.1639480141
 21
254.6838816998
  0
LINE
  5
25E
100
AcDbEntity
  8
0
100
AcDbLine
 62
7
  6
CONTINUOUS
 10
207.7139480141
 20
72.1561248863
 11
207.1639480141
 21
72.4736675343
  0
LINE
  5
25F
100
AcDbEntity
  8
0
100
AcDbLine
 62
7
  6
CONTINUOUS
 10
60.5573537405
 20
52.081218574
 11
60.4575055163
 21
51.7108571432
  0
LINE
  5
260
100
AcDbEntity
  8
0
100
AcDbLine
 62
7
  6
CONTINUOUS
 10
60.6392340899
 20
274.2548757814
 11
60.4054219987
 21
275.2237335471
  0
LINE
  5
261
100
AcDbEntity
  8
0
100
AcDbLine
 62
7
  6
CONTINUOUS
 10
40.1639480141
 20
30.7287746171
 11
41.087708873
 21
32.3287753588
  0
LINE
  5
262
100
AcDbEntity
  8
0
100
AcDbLine
 62
7
  6
CONTINUOUS
 10
206.1639480141
 20
161.4537746171
 11
206.6639480141
 21
161.4537746171
  0
LINE
  5
263
100
AcDbEntity
  8
0
100
AcDbLine
 62
7
  6
CONTINUOUS
 10
206.1639480141
 20
161.5683578412
 11
206.6639480141
 21
161.5683578412
  0
LINE
  5
264
100
AcDbEntity
  8
0
100
AcDbLine
 62
7
  6
CONTINUOUS
 10
206.1639480141
 20
161.578774617
 11
206.6639480141
 21
161.578774617
  0
LINE
  5
265
100
AcDbEntity
  8
0
100
AcDbLine
 62
7
  6
CONTINUOUS
 10
206.1639480141
 20
161.6933579538
 11
206.6639480141
 21
161.6933579538
  0
LINE
  5
266
100
AcDbEntity
  8
0
100
AcDbLine
 62
7
  6
CONTINUOUS
 10
206.1639480141
 20
161.9225246171
 11
206.6639480141
 21
161.9225246171
  0
LINE
  5
267
100
AcDbEntity
  8
0
100
AcDbLine
 62
7
  6
CONTINUOUS
 10
206.1639480141
 20
162.266274617
 11
206.6639480141
 21
162.266274617
  0
LINE
  5
268
100
AcDbEntity
  8
0
100
AcDbLine
 62
7
  6
CONTINUOUS
 10
206.1639480141
 20
162.8391913111
 11
206.6639480141
 21
162.8391913111
  0
LINE
  5
269
100
AcDbEntity
  8
0
100
AcDbLine
 62
7
  6
CONTINUOUS
 10
206.1639480141
 20
163.4121080051
 11
206.6639480141
 21
163.4121080051
  0
LINE
  5
26A
100
AcDbEntity
  8
0
100
AcDbLine
 62
7
  6
CONTINUOUS
 10
206.1639480141
 20
163.8704412292
 11
206.6639480141
 21
163.8704412292
  0
LINE
  5
26B
100
AcDbEntity
  8
0
100
AcDbLine
 62
7
  6
CONTINUOUS
 10
206.1639480141
 20
164.4433578411
 11
206.6639480141
 21
164.4433578411
  0
LINE
  5
26C
100
AcDbEntity
  8
0
100
AcDbLine
 62
7
  6
CONTINUOUS
 10
206.1639480141
 20
165.0162746171
 11
206.6639480141
 21
165.0162746171
  0
LINE
  5
26D
100
AcDbEntity
  8
0
100
AcDbLine
 62
7
  6
CONTINUOUS
 10
206.1639480141
 20
165.3600246171
 11
206.6639480141
 21
165.3600246171
  0
LINE
  5
26E
100
AcDbEntity
  8
0
100
AcDbLine
 62
7
  6
CONTINUOUS
 10
206.1639480141
 20
165.4746078412
 11
206.6639480141
 21
165.4746078412
  0
LINE
  5
26F
100
AcDbEntity
  8
0
100
AcDbLine
 62
7
  6
CONTINUOUS
 10
206.1639480141
 20
165.7037746171
 11
206.6639480141
 21
165.7037746171
  0
LINE
  5
270
100
AcDbEntity
  8
0
100
AcDbLine
 62
7
  6
CONTINUOUS
 10
200.2686623253
 20
275.4260456996
 11
200.2686625225
 21
51.731503537
  0
LINE
  5
271
100
AcDbEntity
  8
0
100
AcDbLine
 62
7
  6
CONTINUOUS
 10
206.1639620498
 20
47.2223406068
 11
206.1639480141
 21
279.9352083824
  0
LINE
  5
272
100
AcDbEntity
  8
0
100
AcDbLine
 62
7
  6
CONTINUOUS
 10
206.6639480141
 20
273.5787746171
 11
206.6639480141
 21
272.8932173499
  0
LINE
  5
273
100
AcDbEntity
  8
0
100
AcDbLine
 62
7
  6
CONTINUOUS
 10
206.6639480141
 20
165.7037746171
 11
206.6639480141
 21
161.5787746171
  0
LINE
  5
274
100
AcDbEntity
  8
0
100
AcDbLine
 62
7
  6
CONTINUOUS
 10
206.6639480141
 20
161.5683578411
 11
206.6639480141
 21
161.4537746171
  0
LINE
  5
275
100
AcDbEntity
  8
0
100
AcDbLine
 62
7
  6
CONTINUOUS
 10
206.6639480141
 20
54.2643318842
 11
206.6639480141
 21
53.5787746171
  0
LINE
  5
276
100
AcDbEntity
  8
0
100
AcDbLine
 62
7
  6
CONTINUOUS
 10
207.1639480141
 20
54.6838816998
 11
207.1639480141
 21
72.4736675343
  0
LINE
  5
277
100
AcDbEntity
  8
0
100
AcDbLine
 62
7
  6
CONTINUOUS
 10
207.1639480141
 20
254.6838816998
 11
207.1639480141
 21
272.4736675343
  0
LINE
  5
278
100
AcDbEntity
  8
0
100
AcDbLine
 62
7
  6
CONTINUOUS
 10
207.7139480141
 20
272.1561248863
 11
207.7139480141
 21
255.0014243479
  0
LINE
  5
279
100
AcDbEntity
  8
0
100
AcDbLine
 62
7
  6
CONTINUOUS
 10
207.7139480141
 20
72.1561248863
 11
207.7139480141
 21
55.0014243479
  0
LINE
  5
27A
100
AcDbEntity
  8
0
100
AcDbLine
 62
7
  6
CONTINUOUS
 10
208.7139480141
 20
270.4239922705
 11
208.7139480141
 21
256.7335569637
  0
LINE
  5
27B
100
AcDbEntity
  8
0
100
AcDbLine
 62
7
  6
CONTINUOUS
 10
208.7139480141
 20
70.4239938757
 11
208.7139480141
 21
56.7335553584
  0
LINE
  5
27C
100
AcDbEntity
  8
0
100
AcDbLine
 62
7
  6
CONTINUOUS
 10
209.1639480141
 20
296.169878959
 11
209.1639480141
 21
279.9875735772
  0
LINE
  5
27D
100
AcDbEntity
  8
0
100
AcDbLine
 62
7
  6
CONTINUOUS
 10
209.1639480141
 20
47.169975657
 11
209.1639480141
 21
30.9876702752
  0
LINE
  5
27E
100
AcDbEntity
  8
0
100
AcDbLine
 62
7
  6
CONTINUOUS
 10
61.1880519456
 20
270.9244575075
 11
31.0766859819
 21
270.7235963942
  0
LINE
  5
27F
100
AcDbEntity
  8
0
100
AcDbLine
 62
7
  6
CONTINUOUS
 10
26.1639480141
 20
270.7235963926
 11
31.0766859819
 21
270.7235963926
  0
LINE
  5
280
100
AcDbEntity
  8
0
100
AcDbLine
 62
7
  6
CONTINUOUS
 10
61.1880519455
 20
270.9244575028
 11
64.0334722059
 21
270.9244575028
  0
LINE
  5
281
100
AcDbEntity
  8
0
100
AcDbLine
 62
7
  6
CONTINUOUS
 10
40.1639480141
 20
272.6740758604
 11
41.1639480141
 21
272.6740758604
  0
LINE
  5
282
100
AcDbEntity
  8
0
100
AcDbLine
 62
7
  6
CONTINUOUS
 10
206.2744951081
 20
273.5787746171
 11
206.6639480141
 21
273.5787746171
  0
LINE
  5
283
100
AcDbEntity
  8
0
100
AcDbLine
 62
7
  6
CONTINUOUS
 10
204.5766015897
 20
279.9075011475
 11
209.1639480141
 21
279.9875735772
  0
LINE
  5
284
100
AcDbEntity
  8
0
100
AcDbLine
 62
7
  6
CONTINUOUS
 10
74.8911824231
 20
279.2395091355
 11
200.2686625947
 21
280.7543611589
  0
LINE
  5
285
100
AcDbEntity
  8
0
100
AcDbLine
 62
7
  6
CONTINUOUS
 10
31.0766859819
 20
274.0576759794
 11
40.1636530195
 21
274.1182914613
  0
LINE
  5
286
100
AcDbEntity
  8
0
100
AcDbLine
 62
7
  6
CONTINUOUS
 10
41.1666299025
 20
274.1249819145
 11
60.6392340899
 21
274.2548757814
  0
LINE
  5
287
100
AcDbEntity
  8
0
100
AcDbLine
 62
7
  6
CONTINUOUS
 10
60.4054219987
 20
275.2237335471
 11
41.6552220013
 21
275.174020839
  0
LINE
  5
288
100
AcDbEntity
  8
0
100
AcDbLine
 62
7
  6
CONTINUOUS
 10
41.1639480141
 20
274.5270282477
 11
40.1639480141
 21
274.5270282477
  0
LINE
  5
289
100
AcDbEntity
  8
0
100
AcDbLine
 62
7
  6
CONTINUOUS
 10
200.2686624527
 20
275.4260456912
 11
206.1639480141
 21
275.4260456912
  0
LINE
  5
28A
100
AcDbEntity
  8
0
100
AcDbLine
 62
7
  6
CONTINUOUS
 10
31.1639480141
 20
280.8287746171
 11
35.1639480141
 21
280.8287746171
  0
LINE
  5
28B
100
AcDbEntity
  8
0
100
AcDbLine
 62
7
  6
CONTINUOUS
 10
36.6639480141
 20
284.0476457429
 11
38.6639480141
 21
284.0476457429
  0
LINE
  5
28C
100
AcDbEntity
  8
0
100
AcDbLine
 62
7
  6
CONTINUOUS
 10
60.830474344
 20
278.1151906408
 11
41.6464979501
 21
278.146606327
  0
LINE
  5
28D
100
AcDbEntity
  8
0
100
AcDbLine
 62
7
  6
CONTINUOUS
 10
41.6464981075
 20
277.2181020217
 11
60.4377796192
 21
276.6691483477
  0
LINE
  5
28E
100
AcDbEntity
  8
0
100
AcDbLine
 62
7
  6
CONTINUOUS
 10
206.1639580855
 20
276.6225164938
 11
205.6119283688
 21
276.6397682846
  0
LINE
  5
28F
100
AcDbEntity
  8
0
100
AcDbLine
 62
7
  6
CONTINUOUS
 10
41.6464982657
 20
278.8614416499
 11
62.3071729058
 21
278.1380600191
  0
LINE
  5
290
100
AcDbEntity
  8
0
100
AcDbLine
 62
7
  6
CONTINUOUS
 10
35.1639480141
 20
279.9908135135
 11
40.1639480141
 21
279.7287746171
  0
LINE
  5
291
100
AcDbEntity
  8
0
100
AcDbLine
 62
7
  6
CONTINUOUS
 10
31.1639480141
 20
285.965413131
 11
31.0766859819
 21
285.9638899666
  0
LINE
  5
292
100
AcDbEntity
  8
0
100
AcDbLine
 62
7
  6
CONTINUOUS
 10
31.0766859818
 20
287.6290488555
 11
31.1717690366
 21
287.6307085364
  0
LINE
  5
293
100
AcDbEntity
  8
0
100
AcDbLine
 62
7
  6
CONTINUOUS
 10
37.1699415176
 20
287.7354070265
 11
40.1690277582
 21
287.7877562716
  0
LINE
  5
294
100
AcDbEntity
  8
0
100
AcDbLine
 62
7
  6
CONTINUOUS
 10
40.1639480141
 20
285.4503521519
 11
41.1639480141
 21
285.4503521519
  0
LINE
  5
295
100
AcDbEntity
  8
0
100
AcDbLine
 62
7
  6
CONTINUOUS
 10
36.6639480141
 20
285.5787746171
 11
38.6639480141
 21
285.5787746171
  0
LINE
  5
296
100
AcDbEntity
  8
0
100
AcDbLine
 62
7
  6
CONTINUOUS
 10
69.8142727064
 20
288.0787746171
 11
73.5052979792
 21
288.0787746171
  0
LINE
  5
297
100
AcDbEntity
  8
0
100
AcDbLine
 62
7
  6
CONTINUOUS
 10
38.6639480141
 20
290.5787746171
 11
36.6639480141
 21
290.5787746171
  0
LINE
  5
298
100
AcDbEntity
  8
0
100
AcDbLine
 62
7
  6
CONTINUOUS
 10
38.6639480141
 20
292.1099034912
 11
36.6639480141
 21
292.1099034912
  0
LINE
  5
299
100
AcDbEntity
  8
0
100
AcDbLine
 62
7
  6
CONTINUOUS
 10
31.1639480141
 20
295.3287746171
 11
35.1639480141
 21
295.3287746171
  0
LINE
  5
29A
100
AcDbEntity
  8
0
100
AcDbLine
 62
7
  6
CONTINUOUS
 10
207.7139480141
 20
55.0014243479
 11
207.1639480141
 21
54.6838816998
  0
LINE
  5
29B
100
AcDbEntity
  8
0
100
AcDbLine
 62
7
  6
CONTINUOUS
 10
35.1639480141
 20
296.1667357207
 11
40.1639480141
 21
296.4287746171
  0
LINE
  5
29C
100
AcDbEntity
  8
0
100
AcDbLine
 62
7
  6
CONTINUOUS
 10
41.6464982657
 20
297.2980025584
 11
71.1639480141
 21
298.3287746171
  0
LINE
  5
29D
100
AcDbEntity
  8
0
100
AcDbLine
 62
7
  6
CONTINUOUS
 10
40.1639480141
 20
297.094428319
 11
41.1639480141
 21
297.094428319
  0
LINE
  5
29E
100
AcDbEntity
  8
0
100
AcDbLine
 62
7
  6
CONTINUOUS
 10
209.1639480141
 20
296.169975657
 11
71.1639480141
 21
298.5787746171
  0
LINE
  5
29F
100
AcDbEntity
  8
0
100
AcDbLine
 62
7
  6
CONTINUOUS
 10
207.7139480141
 20
272.1561248863
 11
207.1639480141
 21
272.4736675343
  0
ARC
  5
2A0
100
AcDbEntity
  8
0
100
AcDbCircle
 62
7
  6
CONTINUOUS
 10
215.5811440913
 20
287.9271391824
 40
184.5149029475
100
AcDbArc
 50
180.3301217167
 51
180.6096419036
  0
ARC
  5
2A1
100
AcDbEntity
  8
0
100
AcDbCircle
 62
7
  6
CONTINUOUS
 10
172.6628317014
 20
39.4584712511
 40
141.5944584044
100
AcDbArc
 50
179.3791491444
 51
179.7005981827
  0
ARC
  5
2A2
100
AcDbEntity
  8
0
100
AcDbCircle
 62
7
  6
CONTINUOUS
 10
-32.3952161266
 20
278.8554507926
 40
74.0451279329
100
AcDbArc
 50
359.4514875356
 51
359.743970087
  0
ARC
  5
2A3
100
AcDbEntity
  8
0
100
AcDbCircle
 62
7
  6
CONTINUOUS
 10
31.1627531218
 20
47.9633341381
 40
6.9711220338
100
AcDbArc
 50
268.5546839463
 51
269.2925946298
  0
ARC
  5
2A4
100
AcDbEntity
  8
0
100
AcDbCircle
 62
7
  6
CONTINUOUS
 10
31.1639480141
 20
282.6298103798
 40
5.0
100
AcDbArc
 50
91.0000000022
 51
180.0
  0
ARC
  5
2A5
100
AcDbEntity
  8
0
100
AcDbCircle
 62
7
  6
CONTINUOUS
 10
31.1639480141
 20
44.5277388544
 40
5.0
100
AcDbArc
 50
180.0
 51
268.9999999983
  0
ARC
  5
2A6
100
AcDbEntity
  8
0
100
AcDbCircle
 62
7
  6
CONTINUOUS
 10
44.5518100599
 20
47.8287746171
 40
4.0
100
AcDbArc
 50
210.000012268
 51
212.8480640766
  0
ARC
  5
2A7
100
AcDbEntity
  8
0
100
AcDbCircle
 62
7
  6
CONTINUOUS
 10
44.5518100599
 20
30.3287746171
 40
4.0
100
AcDbArc
 50
147.1519359234
 51
149.999987732
  0
ARC
  5
2A8
100
AcDbEntity
  8
0
100
AcDbCircle
 62
7
  6
CONTINUOUS
 10
206.7139480141
 20
270.4240740787
 40
2.0
100
AcDbArc
 50
0.0
 51
60.0
  0
ARC
  5
2A9
100
AcDbEntity
  8
0
100
AcDbCircle
 62
7
  6
CONTINUOUS
 10
206.7139480141
 20
256.7334751554
 40
2.0
100
AcDbArc
 50
300.0
 51
360.0
  0
ARC
  5
2AA
100
AcDbEntity
  8
0
100
AcDbCircle
 62
7
  6
CONTINUOUS
 10
208.1639480141
 20
274.2057183419
 40
2.0
100
AcDbArc
 50
180.0
 51
240.0
  0
ARC
  5
2AB
100
AcDbEntity
  8
0
100
AcDbCircle
 62
7
  6
CONTINUOUS
 10
208.1639480141
 20
252.9518308923
 40
2.0
100
AcDbArc
 50
120.0
 51
180.0
  0
ARC
  5
2AC
100
AcDbEntity
  8
0
100
AcDbCircle
 62
7
  6
CONTINUOUS
 10
206.7139480141
 20
70.4240740787
 40
2.0
100
AcDbArc
 50
0.0
 51
60.0
  0
ARC
  5
2AD
100
AcDbEntity
  8
0
100
AcDbCircle
 62
7
  6
CONTINUOUS
 10
206.7139480141
 20
56.7334751554
 40
2.0
100
AcDbArc
 50
300.0
 51
360.0
  0
ARC
  5
2AE
100
AcDbEntity
  8
0
100
AcDbCircle
 62
7
  6
CONTINUOUS
 10
208.1639480141
 20
74.2057183419
 40
2.0
100
AcDbArc
 50
180.0
 51
240.0
  0
ARC
  5
2AF
100
AcDbEntity
  8
0
100
AcDbCircle
 62
7
  6
CONTINUOUS
 10
208.1639480141
 20
52.9518308923
 40
2.0
100
AcDbArc
 50
120.0
 51
180.0
  0
CIRCLE
  5
2B0
100
AcDbEntity
  8
0
100
AcDbCircle
 62
7
  6
CONTINUOUS
 10
38.6639480141
 20
288.0787746171
 40
1.5
  0
CIRCLE
  5
2B1
100
AcDbEntity
  8
0
100
AcDbCircle
 62
7
  6
CONTINUOUS
 10
38.6639480141
 20
39.0787746171
 40
1.5
  0
ARC
  5
2B2
100
AcDbEntity
  8
0
100
AcDbCircle
 62
7
  6
CONTINUOUS
 10
41.6639480141
 20
296.7983071449
 40
0.5
100
AcDbArc
 50
92.0
 51
180.0
  0
ARC
  5
2B3
100
AcDbEntity
  8
0
100
AcDbCircle
 62
7
  6
CONTINUOUS
 10
41.6639480141
 20
30.3592420892
 40
0.5
100
AcDbArc
 50
180.0
 51
268.0
  0
LINE
  5
2B4
100
AcDbEntity
  8
0
100
AcDbLine
 62
7
  6
CONTINUOUS
 10
38.6639480141
 20
280.0528251453
 11
36.6639480141
 21
280.1608891134
  0
LINE
  5
2B5
100
AcDbEntity
  8
0
100
AcDbLine
 62
7
  6
CONTINUOUS
 10
36.6639480141
 20
295.9966601207
 11
38.6639480141
 21
296.1047240888
  0
LINE
  5
2B6
100
AcDbEntity
  8
0
100
AcDbLine
 62
7
  6
CONTINUOUS
 10
38.6639480141
 20
31.0528251453
 11
36.6639480141
 21
31.1608891134
  0
LINE
  5
2B7
100
AcDbEntity
  8
0
100
AcDbLine
 62
7
  6
CONTINUOUS
 10
36.6639480141
 20
46.9966601207
 11
38.6639480141
 21
47.1047240888
  0
SPLINE
  5
2B8
100
AcDbEntity
  8
0
100
AcDbSpline
 62
7
  6
CONTINUOUS
 70
0
 71
3
 72
8
 73
4
 74
0
 42
0.0000001
 43
0.0000001
 44
0.0000000001
 40
0.0
 40
0.0
 40
0.0
 40
0.0
 40
1.0
 40
1.0
 40
1.0
 40
1.0
 10
48.9073250219
 20
278.6059262195
 30
0.0
 10
53.1028312456
 20
278.4593892882
 30
0.0
 10
57.2984144149
 20
278.3150156373
 30
0.0
 10
61.4941145193
 20
278.174139168
 30
0.0
  0
SPLINE
  5
2B9
100
AcDbEntity
  8
0
100
AcDbSpline
 62
7
  6
CONTINUOUS
 70
0
 71
3
 72
8
 73
4
 74
0
 42
0.0000001
 43
0.0000001
 44
0.0000000001
 40
0.0
 40
0.0
 40
0.0
 40
0.0
 40
1.0
 40
1.0
 40
1.0
 40
1.0
 10
61.4941144844
 20
48.9834100478
 30
0.0
 10
57.298415243
 20
48.842533579
 30
0.0
 10
53.102832935
 20
48.6981599764
 30
0.0
 10
48.9073275727
 20
48.5516230917
 30
0.0
  0
SPLINE
  5
2BA
100
AcDbEntity
  8
0
100
AcDbSpline
 62
7
  6
CONTINUOUS
 70
0
 71
3
 72
10
 73
6
 74
0
 42
0.0000001
 43
0.0000001
 44
0.0000000001
 40
0.0
 40
0.0
 40
0.0
 40
0.0
 40
0.4387643826
 40
0.7174408197
 40
1.0
 40
1.0
 40
1.0
 40
1.0
 10
41.1639480141
 20
49.3287848229
 30
0.0
 10
41.1639489415
 20
49.4231609183
 30
0.0
 10
41.2668717606
 20
49.5748044244
 30
0.0
 10
41.4650256499
 20
49.6591387747
 30
0.0
 10
41.5857396735
 20
49.6806204423
 30
0.0
 10
41.6464982657
 20
49.6821207264
 30
0.0
  0
SPLINE
  5
2BB
100
AcDbEntity
  8
0
100
AcDbSpline
 62
7
  6
CONTINUOUS
 70
0
 71
3
 72
9
 73
5
 74
0
 42
0.0000001
 43
0.0000001
 44
0.0000000001
 40
0.0
 40
0.0
 40
0.0
 40
0.0
 40
0.2147267527
 40
1.0
 40
1.0
 40
1.0
 40
1.0
 10
41.6552210354
 20
51.7860476881
 30
0.0
 10
41.6547990026
 20
51.7107485909
 30
0.0
 10
41.6529456291
 20
51.3600739309
 30
0.0
 10
41.6513651706
 20
51.0093978714
 30
0.0
 10
41.6502235222
 20
50.734020973
 30
0.0
  0
SPLINE
  5
2BC
100
AcDbEntity
  8
0
100
AcDbSpline
 62
7
  6
CONTINUOUS
 70
0
 71
3
 72
9
 73
5
 74
0
 42
0.0000001
 43
0.0000001
 44
0.0000000001
 40
0.0
 40
0.0
 40
0.0
 40
0.0
 40
0.2751501461
 40
1.0
 40
1.0
 40
1.0
 40
1.0
 10
41.6502235222
 20
50.734020973
 30
0.0
 10
41.6498235527
 20
50.637544353
 30
0.0
 10
41.6484270014
 20
50.2869114987
 30
0.0
 10
41.647180376
 20
49.9362779565
 30
0.0
 10
41.6464964186
 20
49.6821206802
 30
0.0
  0
SPLINE
  5
2BD
100
AcDbEntity
  8
0
100
AcDbSpline
 62
7
  6
CONTINUOUS
 70
0
 71
3
 72
9
 73
5
 74
0
 42
0.0000001
 43
0.0000001
 44
0.0000000001
 40
0.0
 40
0.0
 40
0.0
 40
0.0
 40
0.5237341396
 40
1.0
 40
1.0
 40
1.0
 40
1.0
 10
64.0334722067
 20
55.611652984
 30
0.0
 10
64.0334856089
 20
54.8138802221
 30
0.0
 10
63.9735375593
 20
53.2900912504
 30
0.0
 10
63.7837337017
 20
51.7757764834
 30
0.0
 10
63.6506287758
 20
51.0626245274
 30
0.0
  0
SPLINE
  5
2BE
100
AcDbEntity
  8
0
100
AcDbSpline
 62
7
  6
CONTINUOUS
 70
0
 71
3
 72
9
 73
5
 74
0
 42
0.0000001
 43
0.0000001
 44
0.0000000001
 40
0.0
 40
0.0
 40
0.0
 40
0.0
 40
0.4714872815
 40
1.0
 40
1.0
 40
1.0
 40
1.0
 10
63.5791853421
 20
275.8318571822
 30
0.0
 10
63.7347252529
 20
275.0720862741
 30
0.0
 10
63.9644434064
 20
273.4397351624
 30
0.0
 10
64.0356714578
 20
271.7937818665
 30
0.0
 10
64.0334722051
 20
270.9244575078
 30
0.0
  0
SPLINE
  5
2BF
100
AcDbEntity
  8
0
100
AcDbSpline
 62
7
  6
CONTINUOUS
 70
0
 71
3
 72
11
 73
7
 74
0
 42
0.0000001
 43
0.0000001
 44
0.0000000001
 40
0.0
 40
0.0
 40
0.0
 40
0.0
 40
0.2098675832
 40
0.4558882717
 40
0.7224562806
 40
1.0
 40
1.0
 40
1.0
 40
1.0
 10
65.1591410585
 20
280.4264773781
 30
0.0
 10
65.3306244021
 20
280.9622355675
 30
0.0
 10
65.8638423703
 20
282.0706678569
 30
0.0
 10
66.8550343362
 20
283.73285361
 30
0.0
 10
68.0234097416
 20
285.5005815395
 30
0.0
 10
68.8526576844
 20
286.7001616751
 30
0.0
 10
69.2778733725
 20
287.3105947132
 30
0.0
  0
SPLINE
  5
2C0
100
AcDbEntity
  8
0
100
AcDbSpline
 62
7
  6
CONTINUOUS
 70
0
 71
3
 72
8
 73
4
 74
0
 42
0.0000001
 43
0.0000001
 44
0.0000000001
 40
0.0
 40
0.0
 40
0.0
 40
0.0
 40
1.0
 40
1.0
 40
1.0
 40
1.0
 10
69.2778733725
 20
287.3105947132
 30
0.0
 10
69.4563814424
 20
287.5668581261
 30
0.0
 10
69.635278749
 20
287.822850349
 30
0.0
 10
69.8142727064
 20
288.0787746171
 30
0.0
  0
SPLINE
  5
2C1
100
AcDbEntity
  8
0
100
AcDbSpline
 62
7
  6
CONTINUOUS
 70
0
 71
3
 72
9
 73
5
 74
0
 42
0.0000001
 43
0.0000001
 44
0.0000000001
 40
0.0
 40
0.0
 40
0.0
 40
0.0
 40
0.4997297605
 40
1.0
 40
1.0
 40
1.0
 40
1.0
 10
41.646498031
 20
278.8614372701
 30
0.0
 10
41.521784469
 20
278.8657914129
 30
0.0
 10
41.265835084
 20
278.9764416866
 30
0.0
 10
41.1639436028
 20
279.2361120539
 30
0.0
 10
41.1639446515
 20
279.3610365664
 30
0.0
  0
SPLINE
  5
2C2
100
AcDbEntity
  8
0
100
AcDbSpline
 62
7
  6
CONTINUOUS
 70
0
 71
3
 72
9
 73
5
 74
0
 42
0.0000001
 43
0.0000001
 44
0.0000000001
 40
0.0
 40
0.0
 40
0.0
 40
0.0
 40
0.4485816139
 40
1.0
 40
1.0
 40
1.0
 40
1.0
 10
41.1639452494
 20
278.4999427816
 30
0.0
 10
41.1639449834
 20
278.4407783775
 30
0.0
 10
41.2182309451
 20
278.3087955425
 30
0.0
 10
41.3316847465
 20
278.2302363046
 30
0.0
 10
41.3983977039
 20
278.2012758183
 30
0.0
  0
SPLINE
  5
2C3
100
AcDbEntity
  8
0
100
AcDbSpline
 62
7
  6
CONTINUOUS
 70
0
 71
3
 72
8
 73
4
 74
0
 42
0.0000001
 43
0.0000001
 44
0.0000000001
 40
0.0
 40
0.0
 40
0.0
 40
0.0
 40
1.0
 40
1.0
 40
1.0
 40
1.0
 10
41.3983977039
 20
278.2012758183
 30
0.0
 10
41.4760784089
 20
278.1675541685
 30
0.0
 10
41.5618395138
 20
278.1486928654
 30
0.0
 10
41.6464980727
 20
278.1466024121
 30
0.0
  0
SPLINE
  5
2C4
100
AcDbEntity
  8
0
100
AcDbSpline
 62
7
  6
CONTINUOUS
 70
0
 71
3
 72
8
 73
4
 74
0
 42
0.0000001
 43
0.0000001
 44
0.0000000001
 40
0.0
 40
0.0
 40
0.0
 40
0.0
 40
1.0
 40
1.0
 40
1.0
 40
1.0
 10
60.8304570365
 20
278.1151873907
 30
0.0
 10
60.9845439206
 20
278.1457549665
 30
0.0
 10
61.1410941647
 20
278.167211842
 30
0.0
 10
61.2980346033
 20
278.1740560566
 30
0.0
  0
SPLINE
  5
2C5
100
AcDbEntity
  8
0
100
AcDbSpline
 62
7
  6
CONTINUOUS
 70
0
 71
3
 72
9
 73
5
 74
0
 42
0.0000001
 43
0.0000001
 44
0.0000000001
 40
0.0
 40
0.0
 40
0.0
 40
0.0
 40
0.2883309302
 40
1.0
 40
1.0
 40
1.0
 40
1.0
 10
41.6465193622
 20
278.8614341771
 30
0.0
 10
41.6491765402
 20
278.852864422
 30
0.0
 10
41.6467789442
 20
278.8209602104
 30
0.0
 10
41.6490013184
 20
278.7902840749
 30
0.0
 10
41.6491729894
 20
278.7681390971
 30
0.0
  0
SPLINE
  5
2C6
100
AcDbEntity
  8
0
100
AcDbSpline
 62
7
  6
CONTINUOUS
 70
0
 71
3
 72
9
 73
5
 74
0
 42
0.0000001
 43
0.0000001
 44
0.0000000001
 40
0.0
 40
0.0
 40
0.0
 40
0.0
 40
0.1947168703
 40
1.0
 40
1.0
 40
1.0
 40
1.0
 10
41.6491729894
 20
278.7681390971
 30
0.0
 10
41.6492955366
 20
278.7523309328
 30
0.0
 10
41.6496790055
 20
278.6711437009
 30
0.0
 10
41.6494493713
 20
278.5899550297
 30
0.0
 10
41.6491725383
 20
278.5245764293
 30
0.0
  0
SPLINE
  5
2C7
100
AcDbEntity
  8
0
100
AcDbSpline
 62
7
  6
CONTINUOUS
 70
0
 71
3
 72
10
 73
6
 74
0
 42
0.0000001
 43
0.0000001
 44
0.0000000001
 40
0.0
 40
0.0
 40
0.0
 40
0.0
 40
0.5787247206
 40
0.8140185278
 40
1.0
 40
1.0
 40
1.0
 40
1.0
 10
60.4377960581
 20
276.6691483989
 30
0.0
 10
60.9860612188
 20
276.6312299321
 30
0.0
 10
61.7566335261
 20
276.5295810504
 30
0.0
 10
62.6753409205
 20
276.2865313114
 30
0.0
 10
63.0515771629
 20
276.1467732999
 30
0.0
 10
63.2113336784
 20
276.0714721157
 30
0.0
  0
SPLINE
  5
2C8
100
AcDbEntity
  8
0
100
AcDbSpline
 62
7
  6
CONTINUOUS
 70
0
 71
3
 72
10
 73
6
 74
0
 42
0.0000001
 43
0.0000001
 44
0.0000000001
 40
0.0
 40
0.0
 40
0.0
 40
0.0
 40
0.3044366254
 40
0.5826376193
 40
1.0
 40
1.0
 40
1.0
 40
1.0
 10
60.4054115493
 20
275.2237338128
 30
0.0
 10
60.6940641741
 20
275.2343607327
 30
0.0
 10
61.2456112363
 20
275.282615431
 30
0.0
 10
62.184652006
 20
275.4127218075
 30
0.0
 10
62.8346745625
 20
275.5494057121
 30
0.0
 10
63.2083513883
 20
275.6804592112
 30
0.0
  0
SPLINE
  5
2C9
100
AcDbEntity
  8
0
100
AcDbSpline
 62
7
  6
CONTINUOUS
 70
0
 71
3
 72
9
 73
5
 74
0
 42
0.0000001
 43
0.0000001
 44
0.0000000001
 40
0.0
 40
0.0
 40
0.0
 40
0.0
 40
0.2266422315
 40
1.0
 40
1.0
 40
1.0
 40
1.0
 10
60.4378066865
 20
276.6690845612
 30
0.0
 10
60.436176589
 20
276.5598785985
 30
0.0
 10
60.4278166144
 20
276.0780555492
 30
0.0
 10
60.417166623
 20
275.5962572524
 30
0.0
 10
60.4054229284
 20
275.2237638255
 30
0.0
  0
SPLINE
  5
2CA
100
AcDbEntity
  8
0
100
AcDbSpline
 62
7
  6
CONTINUOUS
 70
0
 71
3
 72
10
 73
6
 74
0
 42
0.0000001
 43
0.0000001
 44
0.0000000001
 40
0.0
 40
0.0
 40
0.0
 40
0.0
 40
0.2281208826
 40
0.4820812789
 40
1.0
 40
1.0
 40
1.0
 40
1.0
 10
63.2083514302
 20
275.6804590382
 30
0.0
 10
63.0783180208
 20
275.4926147085
 30
0.0
 10
62.7414383453
 20
275.1380068273
 30
0.0
 10
61.9102309445
 20
274.5713264761
 30
0.0
 10
61.1525335251
 20
274.3294591284
 30
0.0
 10
60.63923414
 20
274.2548754669
 30
0.0
  0
SPLINE
  5
2CB
100
AcDbEntity
  8
0
100
AcDbSpline
 62
7
  6
CONTINUOUS
 70
0
 71
3
 72
8
 73
4
 74
0
 42
0.0000001
 43
0.0000001
 44
0.0000000001
 40
0.0
 40
0.0
 40
0.0
 40
0.0
 40
1.0
 40
1.0
 40
1.0
 40
1.0
 10
63.2113370128
 20
276.0714718369
 30
0.0
 10
63.2329924464
 20
275.9429420135
 30
0.0
 10
63.2318446184
 20
275.8086662553
 30
0.0
 10
63.2083542407
 20
275.6804590969
 30
0.0
  0
SPLINE
  5
2CC
100
AcDbEntity
  8
0
100
AcDbSpline
 62
7
  6
CONTINUOUS
 70
0
 71
3
 72
9
 73
5
 74
0
 42
0.0000001
 43
0.0000001
 44
0.0000000001
 40
0.0
 40
0.0
 40
0.0
 40
0.0
 40
0.2151409164
 40
1.0
 40
1.0
 40
1.0
 40
1.0
 10
63.5792126988
 20
275.8318298886
 30
0.0
 10
63.5570605438
 20
275.8543472586
 30
0.0
 10
63.4467735717
 20
275.9518875271
 30
0.0
 10
63.3156487762
 20
276.0225112417
 30
0.0
 10
63.2113336784
 20
276.0714721157
 30
0.0
  0
SPLINE
  5
2CD
100
AcDbEntity
  8
0
100
AcDbSpline
 62
7
  6
CONTINUOUS
 70
0
 71
3
 72
9
 73
5
 74
0
 42
0.0000001
 43
0.0000001
 44
0.0000000001
 40
0.0
 40
0.0
 40
0.0
 40
0.0
 40
0.5729154192
 40
1.0
 40
1.0
 40
1.0
 40
1.0
 10
63.2083514116
 20
275.6804592214
 30
0.0
 10
63.2797778274
 20
275.7077955651
 30
0.0
 10
63.4044592295
 20
275.7556013274
 30
0.0
 10
63.525801346
 20
275.8115606613
 30
0.0
 10
63.5790778518
 20
275.8318573515
 30
0.0
  0
SPLINE
  5
2CE
100
AcDbEntity
  8
0
100
AcDbSpline
 62
7
  6
CONTINUOUS
 70
0
 71
3
 72
9
 73
5
 74
0
 42
0.0000001
 43
0.0000001
 44
0.0000000001
 40
0.0
 40
0.0
 40
0.0
 40
0.0
 40
0.2413155844
 40
1.0
 40
1.0
 40
1.0
 40
1.0
 10
60.5573537397
 20
52.0812185744
 30
0.0
 10
60.6937138765
 20
52.0612005389
 30
0.0
 10
61.2536685179
 20
51.9482184375
 30
0.0
 10
61.7944468402
 20
51.7280185113
 30
0.0
 10
62.1619068207
 20
51.498397083
 30
0.0
  0
SPLINE
  5
2CF
100
AcDbEntity
  8
0
100
AcDbSpline
 62
7
  6
CONTINUOUS
 70
0
 71
3
 72
9
 73
5
 74
0
 42
0.0000001
 43
0.0000001
 44
0.0000000001
 40
0.0
 40
0.0
 40
0.0
 40
0.0
 40
0.6252706606
 40
1.0
 40
1.0
 40
1.0
 40
1.0
 10
62.1618919762
 20
51.49848621
 30
0.0
 10
62.475849274
 20
51.4209902426
 30
0.0
 10
62.975018901
 20
51.2840525394
 30
0.0
 10
63.4659769894
 20
51.1213404351
 30
0.0
 10
63.6506074121
 20
51.0624195086
 30
0.0
  0
SPLINE
  5
2D0
100
AcDbEntity
  8
0
100
AcDbSpline
 62
7
  6
CONTINUOUS
 70
0
 71
3
 72
9
 73
5
 74
0
 42
0.0000001
 43
0.0000001
 44
0.0000000001
 40
0.0
 40
0.0
 40
0.0
 40
0.0
 40
0.2649759795
 40
1.0
 40
1.0
 40
1.0
 40
1.0
 10
60.4574551442
 20
51.7108579565
 30
0.0
 10
60.6089322218
 20
51.701401648
 30
0.0
 10
61.1799610589
 20
51.6574488486
 30
0.0
 10
61.7492025608
 20
51.5815826375
 30
0.0
 10
62.1619068206
 20
51.4983970823
 30
0.0
  0
SPLINE
  5
2D1
100
AcDbEntity
  8
0
100
AcDbSpline
 62
7
  6
CONTINUOUS
 70
0
 71
3
 72
9
 73
5
 74
0
 42
0.0000001
 43
0.0000001
 44
0.0000000001
 40
0.0
 40
0.0
 40
0.0
 40
0.0
 40
0.2651449033
 40
1.0
 40
1.0
 40
1.0
 40
1.0
 10
60.5098430784
 20
50.2233845825
 30
0.0
 10
60.6568040939
 20
50.2335240945
 30
0.0
 10
61.2105406349
 20
50.277661938
 30
0.0
 10
61.7626361511
 20
50.3525096913
 30
0.0
 10
62.1623680003
 20
50.4355889428
 30
0.0
  0
SPLINE
  5
2D2
100
AcDbEntity
  8
0
100
AcDbSpline
 62
7
  6
CONTINUOUS
 70
0
 71
3
 72
9
 73
5
 74
0
 42
0.0000001
 43
0.0000001
 44
0.0000000001
 40
0.0
 40
0.0
 40
0.0
 40
0.0
 40
0.229482223
 40
1.0
 40
1.0
 40
1.0
 40
1.0
 10
60.4575098909
 20
51.7107206912
 30
0.0
 10
60.4603039591
 20
51.5969239919
 30
0.0
 10
60.4748381872
 20
51.1010992224
 30
0.0
 10
60.4937585849
 20
50.6054135003
 30
0.0
 10
60.509883541
 20
50.2235507529
 30
0.0
  0
SPLINE
  5
2D3
100
AcDbEntity
  8
0
100
AcDbSpline
 62
7
  6
CONTINUOUS
 70
0
 71
3
 72
9
 73
5
 74
0
 42
0.0000001
 43
0.0000001
 44
0.0000000001
 40
0.0
 40
0.0
 40
0.0
 40
0.0
 40
0.2424028
 40
1.0
 40
1.0
 40
1.0
 40
1.0
 10
62.1619056201
 20
51.4983967325
 30
0.0
 10
62.1921782093
 20
51.4170441166
 30
0.0
 10
62.2816470367
 20
51.0696924517
 30
0.0
 10
62.256888354
 20
50.6898813766
 30
0.0
 10
62.1623716145
 20
50.4355890098
 30
0.0
  0
SPLINE
  5
2D4
100
AcDbEntity
  8
0
100
AcDbSpline
 62
7
  6
CONTINUOUS
 70
0
 71
3
 72
10
 73
6
 74
0
 42
0.0000001
 43
0.0000001
 44
0.0000000001
 40
0.0
 40
0.0
 40
0.0
 40
0.0
 40
0.5989737377
 40
0.8243633146
 40
1.0
 40
1.0
 40
1.0
 40
1.0
 10
62.1623680003
 20
50.4355889428
 30
0.0
 10
62.4815717289
 20
50.5020205869
 30
0.0
 10
62.9196104536
 20
50.6185422635
 30
0.0
 10
63.4090261379
 20
50.8592451014
 30
0.0
 10
63.5859629916
 20
50.9922453728
 30
0.0
 10
63.6506483677
 20
51.0626456806
 30
0.0
  0
SPLINE
  5
2D5
100
AcDbEntity
  8
0
100
AcDbSpline
 62
7
  6
CONTINUOUS
 70
0
 71
3
 72
10
 73
6
 74
0
 42
0.0000001
 43
0.0000001
 44
0.0000000001
 40
0.0
 40
0.0
 40
0.0
 40
0.0
 40
0.2825669465
 40
0.5612455999
 40
1.0
 40
1.0
 40
1.0
 40
1.0
 10
41.6464982657
 20
277.2180999861
 30
0.0
 10
41.5857379176
 20
277.2196003251
 30
0.0
 10
41.4650216757
 20
277.2410832543
 30
0.0
 10
41.2668679198
 20
277.3254194369
 30
0.0
 10
41.1639487023
 20
277.477062357
 30
0.0
 10
41.1639480141
 20
277.5714364391
 30
0.0
  0
SPLINE
  5
2D6
100
AcDbEntity
  8
0
100
AcDbSpline
 62
7
  6
CONTINUOUS
 70
0
 71
3
 72
11
 73
7
 74
0
 42
0.0000001
 43
0.0000001
 44
0.0000000001
 40
0.0
 40
0.0
 40
0.0
 40
0.0
 40
0.3459305242
 40
0.6063313729
 40
0.8103336227
 40
1.0
 40
1.0
 40
1.0
 40
1.0
 10
62.3071728521
 20
278.138060215
 30
0.0
 10
62.5630009965
 20
278.1291230917
 30
0.0
 10
63.011660768
 20
278.1197547742
 30
0.0
 10
63.6119952008
 20
278.1839519636
 30
0.0
 10
64.0673770333
 20
278.3762902573
 30
0.0
 10
64.2757898935
 20
278.589985002
 30
0.0
 10
64.3588830513
 20
278.703094905
 30
0.0
  0
SPLINE
  5
2D7
100
AcDbEntity
  8
0
100
AcDbSpline
 62
7
  6
CONTINUOUS
 70
0
 71
3
 72
9
 73
5
 74
0
 42
0.0000001
 43
0.0000001
 44
0.0000000001
 40
0.0
 40
0.0
 40
0.0
 40
0.0
 40
0.2573308664
 40
1.0
 40
1.0
 40
1.0
 40
1.0
 10
41.6552220013
 20
275.174020839
 30
0.0
 10
41.6067982121
 20
275.2357691538
 30
0.0
 10
41.4204907566
 20
275.475032972
 30
0.0
 10
41.2439672011
 20
275.7385823037
 30
0.0
 10
41.1883163923
 20
275.9581097194
 30
0.0
  0
SPLINE
  5
2D8
100
AcDbEntity
  8
0
100
AcDbSpline
 62
7
  6
CONTINUOUS
 70
0
 71
3
 72
8
 73
4
 74
0
 42
0.0000001
 43
0.0000001
 44
0.0000000001
 40
0.0
 40
0.0
 40
0.0
 40
0.0
 40
1.0
 40
1.0
 40
1.0
 40
1.0
 10
41.1883163923
 20
275.9581097194
 30
0.0
 10
41.1730255006
 20
276.0184281587
 30
0.0
 10
41.1639481643
 20
276.0809652419
 30
0.0
 10
41.1639481867
 20
276.1431916469
 30
0.0
  0
SPLINE
  5
2D9
100
AcDbEntity
  8
0
100
AcDbSpline
 62
7
  6
CONTINUOUS
 70
0
 71
3
 72
14
 73
10
 74
0
 42
0.0000001
 43
0.0000001
 44
0.0000000001
 40
0.0
 40
0.0
 40
0.0
 40
0.0
 40
0.4307959879
 40
0.6027289592
 40
0.7445727724
 40
0.8555779655
 40
0.9353299848
 40
0.9835164336
 40
1.0
 40
1.0
 40
1.0
 40
1.0
 10
31.0693038347
 20
286.8640235389
 30
0.0
 10
31.0687508392
 20
286.9739281649
 30
0.0
 10
31.0680929713
 20
287.1278809347
 30
0.0
 10
31.0686236731
 20
287.3174330071
 30
0.0
 10
31.0687249623
 20
287.4266519083
 30
0.0
 10
31.0711931528
 20
287.5092930762
 30
0.0
 10
31.069449278
 20
287.5752708134
 30
0.0
 10
31.0767717177
 20
287.6031688549
 30
0.0
 10
31.0724812834
 20
287.6289754622
 30
0.0
 10
31.0766859819
 20
287.6290488555
 30
0.0
  0
SPLINE
  5
2DA
100
AcDbEntity
  8
0
100
AcDbSpline
 62
7
  6
CONTINUOUS
 70
0
 71
3
 72
12
 73
8
 74
0
 42
0.0000001
 43
0.0000001
 44
0.0000000001
 40
0.0
 40
0.0
 40
0.0
 40
0.0
 40
0.1000247228
 40
0.2046330603
 40
0.4371504981
 40
0.7065815709
 40
1.0
 40
1.0
 40
1.0
 40
1.0
 10
26.1639480141
 20
282.6298103797
 30
0.0
 10
26.1639480141
 20
282.8463851316
 30
0.0
 10
26.2308836573
 20
283.2917847728
 30
0.0
 10
26.6298942681
 20
284.1617373311
 30
0.0
 10
27.6161464239
 20
285.0959798969
 30
0.0
 10
29.2175443198
 20
285.7880701237
 30
0.0
 10
30.441415857
 20
285.9564947311
 30
0.0
 10
31.0766859819
 20
285.9638899666
 30
0.0
  0
SPLINE
  5
2DB
100
AcDbEntity
  8
0
100
AcDbSpline
 62
7
  6
CONTINUOUS
 70
0
 71
3
 72
12
 73
8
 74
0
 42
0.0000001
 43
0.0000001
 44
0.0000000001
 40
0.0
 40
0.0
 40
0.0
 40
0.0
 40
0.2933813148
 40
0.5628223137
 40
0.7953582968
 40
0.8999737824
 40
1.0
 40
1.0
 40
1.0
 40
1.0
 10
31.0766859819
 20
274.0576759794
 30
0.0
 10
30.4414966429
 20
274.0502816843
 30
0.0
 10
29.2176896407
 20
273.8818725687
 30
0.0
 10
27.6162824272
 20
273.1898614579
 30
0.0
 10
26.6299348908
 20
272.2555949762
 30
0.0
 10
26.2308928111
 20
271.3855915118
 30
0.0
 10
26.1639480141
 20
270.940174234
 30
0.0
 10
26.1639480141
 20
270.7235963925
 30
0.0
  0
SPLINE
  5
2DC
100
AcDbEntity
  8
0
100
AcDbSpline
 62
7
  6
CONTINUOUS
 70
0
 71
3
 72
9
 73
5
 74
0
 42
0.0000001
 43
0.0000001
 44
0.0000000001
 40
0.0
 40
0.0
 40
0.0
 40
0.0
 40
0.2720794595
 40
1.0
 40
1.0
 40
1.0
 40
1.0
 10
31.0766859818
 20
270.7235963957
 30
0.0
 10
31.0746695851
 20
271.0259693157
 30
0.0
 10
31.0691243217
 20
272.1373177357
 30
0.0
 10
31.0694469869
 20
273.2487228104
 30
0.0
 10
31.0766859819
 20
274.0576759794
 30
0.0
  0
SPLINE
  5
2DD
100
AcDbEntity
  8
0
100
AcDbSpline
 62
7
  6
CONTINUOUS
 70
0
 71
3
 72
9
 73
5
 74
0
 42
0.0000001
 43
0.0000001
 44
0.0000000001
 40
0.0
 40
0.0
 40
0.0
 40
0.0
 40
0.2142751467
 40
1.0
 40
1.0
 40
1.0
 40
1.0
 10
31.0766859818
 20
52.2943674729
 30
0.0
 10
31.0741055441
 20
52.5468432377
 30
0.0
 10
31.0663820753
 20
53.7251639605
 30
0.0
 10
31.069994178
 20
54.9035361478
 30
0.0
 10
31.0766859819
 20
55.8293628957
 30
0.0
  0
SPLINE
  5
2DE
100
AcDbEntity
  8
0
100
AcDbSpline
 62
7
  6
CONTINUOUS
 70
0
 71
3
 72
11
 73
7
 74
0
 42
0.0000001
 43
0.0000001
 44
0.0000000001
 40
0.0
 40
0.0
 40
0.0
 40
0.0
 40
0.2098014538
 40
0.44487202
 40
0.7119010235
 40
1.0
 40
1.0
 40
1.0
 40
1.0
 10
26.1639480141
 20
55.8293628957
 30
0.0
 10
26.1639480141
 20
55.3661332991
 30
0.0
 10
26.4605143877
 20
54.3721705857
 30
0.0
 10
27.6015508729
 20
53.2266637479
 30
0.0
 10
29.209327286
 20
52.4814494692
 30
0.0
 10
30.4406283852
 20
52.3022180699
 30
0.0
 10
31.0766859819
 20
52.2943674687
 30
0.0
  0
SPLINE
  5
2DF
100
AcDbEntity
  8
0
100
AcDbSpline
 62
7
  6
CONTINUOUS
 70
0
 71
3
 72
11
 73
7
 74
0
 42
0.0000001
 43
0.0000001
 44
0.0000000001
 40
0.0
 40
0.0
 40
0.0
 40
0.0
 40
0.2882121385
 40
0.5549153004
 40
0.7898794193
 40
1.0
 40
1.0
 40
1.0
 40
1.0
 10
30.9869215657
 20
40.9944299435
 30
0.0
 10
30.3592715767
 20
41.0102633068
 30
0.0
 10
29.147240219
 20
41.2003024421
 30
0.0
 10
27.5688182352
 20
41.9502669739
 30
0.0
 10
26.452759376
 20
43.0888723664
 30
0.0
 10
26.1639480141
 20
44.0700060979
 30
0.0
 10
26.1639480141
 20
44.5277388543
 30
0.0
  0
SPLINE
  5
2E0
100
AcDbEntity
  8
0
100
AcDbSpline
 62
7
  6
CONTINUOUS
 70
0
 71
3
 72
14
 73
10
 74
0
 42
0.0000001
 43
0.0000001
 44
0.0000000001
 40
0.0
 40
0.0
 40
0.0
 40
0.0
 40
0.0164146955
 40
0.0644426098
 40
0.1439869961
 40
0.2547790672
 40
0.3964587733
 40
0.5683734576
 40
1.0
 40
1.0
 40
1.0
 40
1.0
 10
31.0766859818
 20
39.5285003786
 30
0.0
 10
31.0730196552
 20
39.5285643749
 30
0.0
 10
31.0768000963
 20
39.5510884083
 30
0.0
 10
31.0703987929
 20
39.5754363261
 30
0.0
 10
31.0719516454
 20
39.6330729996
 30
0.0
 10
31.0698002514
 20
39.7053052266
 30
0.0
 10
31.0697223021
 20
39.8008515166
 30
0.0
 10
31.0692598509
 20
39.966970459
 30
0.0
 10
31.0698302683
 20
40.1019564083
 30
0.0
 10
31.0703065063
 20
40.1983764517
 30
0.0
  0
SPLINE
  5
2E1
100
AcDbEntity
  8
0
100
AcDbSpline
 62
7
  6
CONTINUOUS
 70
0
 71
3
 72
9
 73
5
 74
0
 42
0.0000001
 43
0.0000001
 44
0.0000000001
 40
0.0
 40
0.0
 40
0.0
 40
0.0
 40
0.5336081903
 40
1.0
 40
1.0
 40
1.0
 40
1.0
 10
61.1880519457
 20
270.9244575059
 30
0.0
 10
61.1894235184
 20
271.5272481512
 30
0.0
 10
61.1024508266
 20
272.6579358265
 30
0.0
 10
60.8323988792
 20
273.764702867
 30
0.0
 10
60.6392339721
 20
274.2548761402
 30
0.0
  0
SPLINE
  5
2E2
100
AcDbEntity
  8
0
100
AcDbSpline
 62
7
  6
CONTINUOUS
 70
0
 71
3
 72
9
 73
5
 74
0
 42
0.0000001
 43
0.0000001
 44
0.0000000001
 40
0.0
 40
0.0
 40
0.0
 40
0.0
 40
0.4644320922
 40
1.0
 40
1.0
 40
1.0
 40
1.0
 10
60.5573348616
 20
52.0812229193
 30
0.0
 10
60.7812789433
 20
52.5922897262
 30
0.0
 10
61.0963658948
 20
53.7648981537
 30
0.0
 10
61.1908021751
 20
54.9682170426
 30
0.0
 10
61.188032069
 20
55.6116538812
 30
0.0
  0
SPLINE
  5
2E3
100
AcDbEntity
  8
0
100
AcDbSpline
 62
7
  6
CONTINUOUS
 70
0
 71
3
 72
11
 73
7
 74
0
 42
0.0000001
 43
0.0000001
 44
0.0000000001
 40
0.0
 40
0.0
 40
0.0
 40
0.0
 40
0.1896663287
 40
0.3936685631
 40
0.6540694377
 40
1.0
 40
1.0
 40
1.0
 40
1.0
 10
64.3588830513
 20
48.4544543292
 30
0.0
 10
64.2757899154
 20
48.5675642023
 30
0.0
 10
64.0673771041
 20
48.7812589201
 30
0.0
 10
63.6119953125
 20
48.9735972286
 30
0.0
 10
63.0116608512
 20
49.0377944587
 30
0.0
 10
62.5630010353
 20
49.0284261425
 30
0.0
 10
62.3071728644
 20
49.0194890279
 30
0.0
  0
SPLINE
  5
2E4
100
AcDbEntity
  8
0
100
AcDbSpline
 62
7
  6
CONTINUOUS
 70
0
 71
3
 72
8
 73
4
 74
0
 42
0.0000001
 43
0.0000001
 44
0.0000000001
 40
0.0
 40
0.0
 40
0.0
 40
0.0
 40
1.0
 40
1.0
 40
1.0
 40
1.0
 10
69.8142727064
 20
39.0787746171
 30
0.0
 10
69.6352892655
 20
39.3346838488
 30
0.0
 10
69.4563972355
 20
39.5906573654
 30
0.0
 10
69.2778931291
 20
39.846901177
 30
0.0
  0
SPLINE
  5
2E5
100
AcDbEntity
  8
0
100
AcDbSpline
 62
7
  6
CONTINUOUS
 70
0
 71
3
 72
11
 73
7
 74
0
 42
0.0000001
 43
0.0000001
 44
0.0000000001
 40
0.0
 40
0.0
 40
0.0
 40
0.0
 40
0.2775454974
 40
0.544116098
 40
0.790132026
 40
1.0
 40
1.0
 40
1.0
 40
1.0
 10
69.2778931291
 20
39.846901177
 30
0.0
 10
68.8526562558
 20
40.4573314887
 30
0.0
 10
68.0233550106
 20
41.6569039868
 30
0.0
 10
66.8551612322
 20
43.424762695
 30
0.0
 10
65.8637756342
 20
45.0868450355
 30
0.0
 10
65.3306258985
 20
46.1953089917
 30
0.0
 10
65.1591410585
 20
46.7310718561
 30
0.0
  0
SPLINE
  5
2E6
100
AcDbEntity
  8
0
100
AcDbSpline
 62
7
  6
CONTINUOUS
 70
0
 71
3
 72
8
 73
4
 74
0
 42
0.0000001
 43
0.0000001
 44
0.0000000001
 40
0.0
 40
0.0
 40
0.0
 40
0.0
 40
1.0
 40
1.0
 40
1.0
 40
1.0
 10
61.2979359789
 20
48.9834972788
 30
0.0
 10
61.1410584458
 20
48.9903447784
 30
0.0
 10
60.9845711697
 20
49.0117918428
 30
0.0
 10
60.830545399
 20
49.0423452486
 30
0.0
  0
SPLINE
  5
2E7
100
AcDbEntity
  8
0
100
AcDbSpline
 62
7
  6
CONTINUOUS
 70
0
 71
3
 72
9
 73
5
 74
0
 42
0.0000001
 43
0.0000001
 44
0.0000000001
 40
0.0
 40
0.0
 40
0.0
 40
0.0
 40
0.3294790878
 40
1.0
 40
1.0
 40
1.0
 40
1.0
 10
41.6465188378
 20
49.0109474596
 30
0.0
 10
41.6471365237
 20
48.9426879113
 30
0.0
 10
41.6487271441
 20
48.7355139285
 30
0.0
 10
41.6502500223
 20
48.5283235935
 30
0.0
 10
41.6491731
 20
48.3894074837
 30
0.0
  0
SPLINE
  5
2E8
100
AcDbEntity
  8
0
100
AcDbSpline
 62
7
  6
CONTINUOUS
 70
0
 71
3
 72
9
 73
5
 74
0
 42
0.0000001
 43
0.0000001
 44
0.0000000001
 40
0.0
 40
0.0
 40
0.0
 40
0.0
 40
0.7116899237
 40
1.0
 40
1.0
 40
1.0
 40
1.0
 10
41.6491731
 20
48.3894074837
 30
0.0
 10
41.6490014249
 20
48.3672624864
 30
0.0
 10
41.6467776421
 20
48.3365877175
 30
0.0
 10
41.6491776493
 20
48.3046835537
 30
0.0
 10
41.6465194493
 20
48.296115062
 30
0.0
  0
SPLINE
  5
2E9
100
AcDbEntity
  8
0
100
AcDbSpline
 62
7
  6
CONTINUOUS
 70
0
 71
3
 72
9
 73
5
 74
0
 42
0.0000001
 43
0.0000001
 44
0.0000000001
 40
0.0
 40
0.0
 40
0.0
 40
0.0
 40
0.2584396635
 40
1.0
 40
1.0
 40
1.0
 40
1.0
 10
41.6464980727
 20
49.0109468817
 30
0.0
 10
41.6072076655
 20
49.0099766918
 30
0.0
 10
41.4571788194
 20
48.991894693
 30
0.0
 10
41.3031254835
 20
48.9228325946
 30
0.0
 10
41.2325897853
 20
48.8348409571
 30
0.0
  0
SPLINE
  5
2EA
100
AcDbEntity
  8
0
100
AcDbSpline
 62
7
  6
CONTINUOUS
 70
0
 71
3
 72
9
 73
5
 74
0
 42
0.0000001
 43
0.0000001
 44
0.0000000001
 40
0.0
 40
0.0
 40
0.0
 40
0.0
 40
0.2742326078
 40
1.0
 40
1.0
 40
1.0
 40
1.0
 10
41.2325897853
 20
48.8348409571
 30
0.0
 10
41.2216130419
 20
48.8211477259
 30
0.0
 10
41.1853200864
 20
48.7685623805
 30
0.0
 10
41.1639452583
 20
48.7040531568
 30
0.0
 10
41.1639452486
 20
48.6576070712
 30
0.0
  0
SPLINE
  5
2EB
100
AcDbEntity
  8
0
100
AcDbSpline
 62
7
  6
CONTINUOUS
 70
0
 71
3
 72
9
 73
5
 74
0
 42
0.0000001
 43
0.0000001
 44
0.0000000001
 40
0.0
 40
0.0
 40
0.0
 40
0.0
 40
0.5002700237
 40
1.0
 40
1.0
 40
1.0
 40
1.0
 10
41.1639446505
 20
47.7965126707
 30
0.0
 10
41.1639436146
 20
47.9214371297
 30
0.0
 10
41.2658350153
 20
48.1811074913
 30
0.0
 10
41.5217844149
 20
48.2917578186
 30
0.0
 10
41.6464980309
 20
48.2961119685
 30
0.0
  0
SPLINE
  5
2EC
100
AcDbEntity
  8
0
100
AcDbSpline
 62
7
  6
CONTINUOUS
 70
0
 71
3
 72
9
 73
5
 74
0
 42
0.0000001
 43
0.0000001
 44
0.0000000001
 40
0.0
 40
0.0
 40
0.0
 40
0.0
 40
0.4815699096
 40
1.0
 40
1.0
 40
1.0
 40
1.0
 10
41.1639481138
 20
50.8668177684
 30
0.0
 10
41.1639487514
 20
51.0362556753
 30
0.0
 10
41.3152482274
 20
51.3785879476
 30
0.0
 10
41.5388881407
 20
51.6454074092
 30
0.0
 10
41.6552160386
 20
51.7859069606
 30
0.0
  0
SPLINE
  5
2ED
100
AcDbEntity
  8
0
100
AcDbSpline
 62
7
  6
CONTINUOUS
 70
0
 71
3
 72
8
 73
4
 74
0
 42
0.0000001
 43
0.0000001
 44
0.0000000001
 40
0.0
 40
0.0
 40
0.0
 40
0.0
 40
1.0
 40
1.0
 40
1.0
 40
1.0
 10
205.611990749
 20
276.6397655376
 30
0.0
 10
205.6760587903
 20
277.7405022934
 30
0.0
 10
205.8245450005
 20
278.834843791
 30
0.0
 10
205.9526563384
 20
279.9299755659
 30
0.0
  0
SPLINE
  5
2EE
100
AcDbEntity
  8
0
100
AcDbSpline
 62
7
  6
CONTINUOUS
 70
0
 71
3
 72
8
 73
4
 74
0
 42
0.0000001
 43
0.0000001
 44
0.0000000001
 40
0.0
 40
0.0
 40
0.0
 40
0.0
 40
1.0
 40
1.0
 40
1.0
 40
1.0
 10
205.6119907457
 20
50.5177836964
 30
0.0
 10
205.6760588323
 20
49.4170469384
 30
0.0
 10
205.8245448391
 20
48.3227054162
 30
0.0
 10
205.952656225
 20
47.2275736419
 30
0.0
  0
SPLINE
  5
2EF
100
AcDbEntity
  8
0
100
AcDbSpline
 62
7
  6
CONTINUOUS
 70
0
 71
3
 72
10
 73
6
 74
0
 42
0.0000001
 43
0.0000001
 44
0.0000000001
 40
0.0
 40
0.0
 40
0.0
 40
0.0
 40
0.5365336397
 40
0.7815998779
 40
1.0
 40
1.0
 40
1.0
 40
1.0
 10
200.2686625947
 20
280.7543611589
 30
0.0
 10
201.0158975009
 20
280.5046627382
 30
0.0
 10
202.1269550798
 20
280.201390547
 30
0.0
 10
203.5747304801
 20
279.9535380819
 30
0.0
 10
204.25594963
 20
279.9019041467
 30
0.0
 10
204.5766015897
 20
279.9075011475
 30
0.0
  0
SPLINE
  5
2F0
100
AcDbEntity
  8
0
100
AcDbSpline
 62
7
  6
CONTINUOUS
 70
0
 71
3
 72
9
 73
5
 74
0
 42
0.0000001
 43
0.0000001
 44
0.0000000001
 40
0.0
 40
0.0
 40
0.0
 40
0.0
 40
0.2626355016
 40
1.0
 40
1.0
 40
1.0
 40
1.0
 10
74.7309786046
 20
279.9915527965
 30
0.0
 10
74.7324244202
 20
279.9240000681
 30
0.0
 10
74.7476289206
 20
279.6674056274
 30
0.0
 10
74.8104089637
 20
279.4112296243
 30
0.0
 10
74.891195972
 20
279.2395899446
 30
0.0
  0
SPLINE
  5
2F1
100
AcDbEntity
  8
0
100
AcDbSpline
 62
7
  6
CONTINUOUS
 70
0
 71
3
 72
9
 73
5
 74
0
 42
0.0000001
 43
0.0000001
 44
0.0000000001
 40
0.0
 40
0.0
 40
0.0
 40
0.0
 40
0.4146558551
 40
1.0
 40
1.0
 40
1.0
 40
1.0
 10
200.2686633829
 20
46.4031876562
 30
0.0
 10
200.2856841142
 20
47.1394807847
 30
0.0
 10
200.2895332165
 20
48.9158377451
 30
0.0
 10
200.2797006477
 20
50.6919071451
 30
0.0
 10
200.2686633155
 20
51.7315059173
 30
0.0
  0
LINE
  5
2F2
100
AcDbEntity
  8
0
100
AcDbLine
 62
7
  6
CONTINUOUS
 10
200.2686625225
 20
51.731503537
 11
78.6605597134
 21
52.9633263483
  0
SPLINE
  5
2F3
100
AcDbEntity
  8
0
100
AcDbSpline
 62
7
  6
CONTINUOUS
 70
0
 71
3
 72
10
 73
6
 74
0
 42
0.0000001
 43
0.0000001
 44
0.0000000001
 40
0.0
 40
0.0
 40
0.0
 40
0.0
 40
0.5141782756
 40
0.7626986676
 40
1.0
 40
1.0
 40
1.0
 40
1.0
 10
73.5052979792
 20
288.0787746171
 30
0.0
 10
73.7767932243
 20
287.2770621381
 30
0.0
 10
74.1817144038
 20
286.0869266072
 30
0.0
 10
74.5767692062
 20
284.4882964038
 30
0.0
 10
74.6806597695
 20
283.6902555146
 30
0.0
 10
74.6841723256
 20
283.2996281916
 30
0.0
  0
SPLINE
  5
2F4
100
AcDbEntity
  8
0
100
AcDbSpline
 62
7
  6
CONTINUOUS
 70
0
 71
3
 72
10
 73
6
 74
0
 42
0.0000001
 43
0.0000001
 44
0.0000000001
 40
0.0
 40
0.0
 40
0.0
 40
0.0
 40
0.5141823609
 40
0.7627065285
 40
1.0
 40
1.0
 40
1.0
 40
1.0
 10
73.5052979792
 20
39.0787746171
 30
0.0
 10
73.7767952021
 20
39.8804929363
 30
0.0
 10
74.1819218046
 20
41.0705886975
 30
0.0
 10
74.5766304386
 20
42.6692946738
 30
0.0
 10
74.6806598882
 20
43.4673069174
 30
0.0
 10
74.6841723256
 20
43.8579210425
 30
0.0
  0
SPLINE
  5
2F5
100
AcDbEntity
  8
0
100
AcDbSpline
 62
7
  6
CONTINUOUS
 70
0
 71
3
 72
11
 73
7
 74
0
 42
0.0000001
 43
0.0000001
 44
0.0000000001
 40
0.0
 40
0.0
 40
0.0
 40
0.0
 40
0.1980041415
 40
0.4449785244
 40
0.7169994717
 40
1.0
 40
1.0
 40
1.0
 40
1.0
 10
74.891195972
 20
47.9179592896
 30
0.0
 10
75.0682507819
 20
48.294717325
 30
0.0
 10
75.5800709893
 20
49.0840823048
 30
0.0
 10
76.4804335819
 20
50.2912968011
 30
0.0
 10
77.5382239077
 20
51.6053967935
 30
0.0
 10
78.2841415833
 20
52.5025482502
 30
0.0
 10
78.6605597595
 20
52.9633264038
 30
0.0
  0
SPLINE
  5
2F6
100
AcDbEntity
  8
0
100
AcDbSpline
 62
7
  6
CONTINUOUS
 70
0
 71
3
 72
9
 73
5
 74
0
 42
0.0000001
 43
0.0000001
 44
0.0000000001
 40
0.0
 40
0.0
 40
0.0
 40
0.0
 40
0.2626375645
 40
1.0
 40
1.0
 40
1.0
 40
1.0
 10
74.7309786046
 20
47.1659964377
 30
0.0
 10
74.7324244317
 20
47.2335497036
 30
0.0
 10
74.7476282029
 20
47.4901442341
 30
0.0
 10
74.8104091813
 20
47.7463200722
 30
0.0
 10
74.891195972
 20
47.9179592896
 30
0.0
  0
SPLINE
  5
2F7
100
AcDbEntity
  8
0
100
AcDbSpline
 62
7
  6
CONTINUOUS
 70
0
 71
3
 72
11
 73
7
 74
0
 42
0.0000001
 43
0.0000001
 44
0.0000000001
 40
0.0
 40
0.0
 40
0.0
 40
0.0
 40
0.1985549302
 40
0.445400589
 40
0.7171392385
 40
1.0
 40
1.0
 40
1.0
 40
1.0
 10
74.891195972
 20
279.2395899446
 30
0.0
 10
75.0674629114
 20
278.8611117622
 30
0.0
 10
75.5749557435
 20
278.0678334856
 30
0.0
 10
76.4730878163
 20
276.8579660668
 30
0.0
 10
77.5366926155
 20
275.5496952222
 30
0.0
 10
78.2841569146
 20
274.6547558724
 30
0.0
 10
78.6605597595
 20
274.1942228305
 30
0.0
  0
SPLINE
  5
2F8
100
AcDbEntity
  8
0
100
AcDbSpline
 62
7
  6
CONTINUOUS
 70
0
 71
3
 72
9
 73
5
 74
0
 42
0.0000001
 43
0.0000001
 44
0.0000000001
 40
0.0
 40
0.0
 40
0.0
 40
0.0
 40
0.5853456447
 40
1.0
 40
1.0
 40
1.0
 40
1.0
 10
200.2686632895
 20
275.4260433175
 30
0.0
 10
200.2797006983
 20
276.4656492907
 30
0.0
 10
200.289533151
 20
278.2417264375
 30
0.0
 10
200.28568409
 20
280.0180911637
 30
0.0
 10
200.2686628195
 20
280.7543848304
 30
0.0
  0
LINE
  5
2F9
100
AcDbEntity
  8
0
100
AcDbLine
 62
7
  6
CONTINUOUS
 10
78.6605597134
 20
274.1942228859
 11
200.2686623253
 21
275.4260456996
  0
SPLINE
  5
2FA
100
AcDbEntity
  8
0
100
AcDbSpline
 62
7
  6
CONTINUOUS
 70
0
 71
3
 72
10
 73
6
 74
0
 42
0.0000001
 43
0.0000001
 44
0.0000000001
 40
0.0
 40
0.0
 40
0.0
 40
0.0
 40
0.5365281102
 40
0.7816047161
 40
1.0
 40
1.0
 40
1.0
 40
1.0
 10
200.2686625947
 20
46.4031880752
 30
0.0
 10
201.0158900297
 20
46.6528839956
 30
0.0
 10
202.1269442404
 20
46.9562078807
 30
0.0
 10
203.5747313042
 20
47.2039925691
 30
0.0
 10
204.2559566354
 20
47.2556449652
 30
0.0
 10
204.5766015898
 20
47.2500480867
 30
0.0
  0
ELLIPSE
  5
2FB
100
AcDbEntity
  8
0
100
AcDbEllipse
 62
7
  6
CONTINUOUS
 10
63.4424915367
 20
288.0787746171
 30
0.0
 11
-0.0
 21
9.9799238819
 31
0.0
 40
0.2679609231
 41
-2.7918298782
 42
-2.4445890752
  0
ELLIPSE
  5
2FC
100
AcDbEntity
  8
0
100
AcDbEllipse
 62
7
  6
CONTINUOUS
 10
63.4424915367
 20
39.0787746171
 30
0.0
 11
0.0
 21
9.9799238819
 31
0.0
 40
0.2679609231
 41
-0.6970035784
 42
-0.3497627754
  0
ENDSEC
  0
SECTION
  2
OBJECTS
  0
DICTIONARY
  5
C
100
AcDbDictionary
280
0
281
1
  3
ACAD_GROUP
350
D
  3
ACAD_MLINESTYLE
350
17
  3
ACAD_LAYOUT
350
1A
  3
ACAD_PLOTSETTINGS
350
19
  3
ACAD_PLOTSTYLENAME
350
E
  0
DICTIONARY
  5
D
102
{ACAD_REACTORS
330
C
102
}
100
AcDbDictionary
280
0
281
1
  0
ACDBDICTIONARYWDFLT
  5
E
102
{ACAD_REACTORS
330
C
102
}
100
AcDbDictionary
281
1
  3
Normal
350
F
100
AcDbDictionaryWithDefault
340
F
  0
DICTIONARY
  5
17
102
{ACAD_REACTORS
330
C
102
}
100
AcDbDictionary
280
0
281
1
  3
Standard
350
18
  0
DICTIONARY
  5
19
102
{ACAD_REACTORS
330
C
102
}
100
AcDbDictionary
281
1
  0
DICTIONARY
  5
1A
102
{ACAD_REACTORS
330
C
102
}
100
AcDbDictionary
281
1
  3
Model
350
2FD
  3
Layout1
350
2FE
  0
ACDBPLACEHOLDER
  5
F
102
{ACAD_REACTORS
330
E
102
}
  0
MLINESTYLE
  5
18
102
{ACAD_REACTORS
330
17
102
}
100
AcDbMlineStyle
  2
STANDARD
 70
0
  3

 62
256
 51
90.0
 52
90.0
 71
2
 49
0.5
 62
256
  6
BYLAYER
 49
-0.5
 62
256
  6
BYLAYER
  0
LAYOUT
  5
2FD
102
{ACAD_REACTORS
330
1A
102
}
100
AcDbPlotSettings
  1

  2
none_device
  4

  6

 40
0.0
 41
0.0
 42
0.0
 43
0.0
 44
210.0
 45
297.0
 46
0.0
 47
0.0
 48
0.0
 49
0.0
140
0.0
141
0.0
142
1.0
143
1.0
 70
1024
 72
1
 73
0
 74
0
  7

 75
0
147
1.0
148
0.0
149
0.0
100
AcDbLayout
  1
Model
 70
0
 71
0
 10
0.0
 20
0.0
 11
210.0
 21
297.0
 12
0.0
 22
0.0
 32
0.0
 14
0.0
 24
0.0
 34
0.0
 15
0.0
 25
0.0
 35
0.0
146
0.0
 13
0.0
 23
0.0
 33
0.0
 16
1.0
 26
0.0
 36
0.0
 17
0.0
 27
1.0
 37
0.0
 76
0
330
210
345
0
346
0
  0
LAYOUT
  5
2FE
102
{ACAD_REACTORS
330
1A
102
}
100
AcDbPlotSettings
  1

  2
none_device
  4

  6

 40
0.0
 41
0.0
 42
0.0
 43
0.0
 44
210.0
 45
297.0
 46
0.0
 47
0.0
 48
0.0
 49
0.0
140
0.0
141
0.0
142
1.0
143
1.0
 70
0
 72
1
 73
0
 74
0
  7

 75
0
147
1.0
148
0.0
149
0.0
100
AcDbLayout
  1
Layout1
 70
0
 71
1
 10
0.0
 20
0.0
 11
210.0
 21
297.0
 12
0.0
 22
0.0
 32
0.0
 14
0.0
 24
0.0
 34
0.0
 15
0.0
 25
0.0
 35
0.0
146
0.0
 13
0.0
 23
0.0
 33
0.0
 16
1.0
 26
0.0
 36
0.0
 17
0.0
 27
1.0
 37
0.0
 76
0
330
211
345
0
346
0
  0
ENDSEC
  0
EOF
