999
DXF file: C:\Gen2D\CAD\NSYEX106_3D-CAD\drw0001_1.dxf
999
Pro/ENGINEER 2019471 by Parametric Technology Corporation
  0
SECTION
  2
HEADER
  9
$ACADVER
  1
AC1024
  9
$DWGCODEPAGE
  3
ANSI_1252
  9
$EXTMAX
 10
24.9953749153
 20
35.3506016659
 30
0.0
  9
$EXTMIN
 10
0.0
 20
0.0
 30
0.0
  9
$LIMMIN
 10
0.0
 20
0.0
  9
$LIMMAX
 10
24.9953749153
 20
35.3506016659
  9
$VIEWCTR
 10
12.4976874577
 20
17.675300833
  9
$VIEWSIZE
 40
35.3506016659
  9
$CLAYER
  8
0
  9
$LTSCALE
 40
2.304335516
  9
$CELTYPE
  6
BYLAYER
  9
$DIMSCALE
 40
1.0
  9
$DIMASZ
 40
0.2975639871
  9
$DIMEXO
 40
1.0
  9
$DIMDLI
 40
1.5920863565
  9
$DIMEXE
 40
1.0
  9
$DIMCEN
 40
0.3770730844
  9
$DIMLFAC
 40
1.0
  9
$DIMBLK
  1
_FILLED
  9
$DIMALT
 70
0
  9
$DIMALTF
 40
0.0393700787
  9
$DIMTXT
 40
0.4165895819
  9
$DIMTOL
 70
1
  9
$DIMLIM
 70
0
  9
$DIMTFAC
 40
1.0
  9
$DIMTP
 40
0.01
  9
$DIMTM
 40
0.01
  9
$DIMGAP
 40
0.625
  9
$DIMDSEP
 70
46
  9
$AUNITS
 70
0
  9
$PDMODE
 70
3
  9
$PDSIZE
 40
0.3125
  9
$HANDSEED
  5
23E
  9
$TILEMODE
 70
1
  9
$MEASUREMENT
 70
1
  9
$INSUNITS
 70
4
  0
ENDSEC
  0
SECTION
  2
CLASSES
  0
CLASS
  1
ACDBDICTIONARYWDFLT
  2
AcDbDictionaryWithDefault
  3
AutoCAD 2000
 90
0
 91
1
280
0
281
0
  0
CLASS
  1
ACDBPLACEHOLDER
  2
AcDbPlaceHolder
  3
AutoCAD 2000
 90
0
 91
1
280
0
281
0
  0
CLASS
  1
LAYOUT
  2
AcDbLayout
  3
AutoCAD 2000
 90
0
 91
0
280
0
281
0
  0
ENDSEC
  0
SECTION
  2
TABLES
  0
TABLE
  2
VPORT
  5
8
100
AcDbSymbolTable
 70
2
  0
VPORT
  5
1F4
100
AcDbSymbolTableRecord
100
AcDbViewportTableRecord
  2
*ACTIVE
 70
0
 10
0.0
 20
0.0
 11
1.0
 21
1.0
 12
12.4976874577
 22
17.675300833
 13
0.0
 23
0.0
 14
1.0
 24
1.0
 15
0.0
 25
0.0
 16
0.0
 26
0.0
 36
1.0
 17
0.0
 27
0.0
 37
0.0
 40
35.3506016659
 41
0.7070707071
 42
50.0
 43
0.0
 44
0.0
 50
0.0
 51
0.0
 71
0
 72
100
 73
1
 74
1
 75
0
 76
0
 77
0
 78
0
  0
ENDTAB
  0
TABLE
  2
LTYPE
  5
5
100
AcDbSymbolTable
 70
6
  0
LTYPE
  5
14
100
AcDbSymbolTableRecord
100
AcDbLinetypeTableRecord
  2
BYBLOCK
 70
0
  3

 72
65
 73
0
 40
0.0
  0
LTYPE
  5
15
100
AcDbSymbolTableRecord
100
AcDbLinetypeTableRecord
  2
BYLAYER
 70
0
  3

 72
65
 73
0
 40
0.0
  0
LTYPE
  5
16
100
AcDbSymbolTableRecord
100
AcDbLinetypeTableRecord
  2
CONTINUOUS
 70
64
  3
Solid line
 72
65
 73
0
 40
0.0
  0
LTYPE
  5
1F5
100
AcDbSymbolTableRecord
100
AcDbLinetypeTableRecord
  2
CENTER
 70
64
  3
____ _ ____ _ ____ _ ____ _ ____ _ ____ _ ____
 72
65
 73
4
 40
0.6
 49
0.375
 74
0
 49
-0.075
 74
0
 49
0.075
 74
0
 49
-0.075
 74
0
  0
LTYPE
  5
1F6
100
AcDbSymbolTableRecord
100
AcDbLinetypeTableRecord
  2
HIDDEN
 70
64
  3
- - - - - - - - - - - - - - - - - - - -
 72
65
 73
2
 40
0.2
 49
0.1
 74
0
 49
-0.1
 74
0
  0
LTYPE
  5
1F7
100
AcDbSymbolTableRecord
100
AcDbLinetypeTableRecord
  2
PHANTOM
 70
64
  3
_____ _ _ _____ _ _ _____ _ _ _____
 72
65
 73
6
 40
0.8
 49
0.45
 74
0
 49
-0.05
 74
0
 49
0.1
 74
0
 49
-0.05
 74
0
 49
0.1
 74
0
 49
-0.05
 74
0
  0
LTYPE
  5
1F8
100
AcDbSymbolTableRecord
100
AcDbLinetypeTableRecord
  2
DOT
 70
64
  3
. . . . . . . . . . . . . . . . . . . .
 72
65
 73
2
 40
0.2
 49
0.1
 74
0
 49
-0.1
 74
0
  0
LTYPE
  5
1F9
100
AcDbSymbolTableRecord
100
AcDbLinetypeTableRecord
  2
DASHED
 70
64
  3
- - - - - - - - - - - - - - - - - - - -
 72
65
 73
2
 40
0.2
 49
0.1
 74
0
 49
-0.1
 74
0
  0
ENDTAB
  0
TABLE
  2
LAYER
  5
2
100
AcDbSymbolTable
 70
36
  0
LAYER
  5
10
100
AcDbSymbolTableRecord
100
AcDbLayerTableRecord
  2
0
 70
0
 62
7
  6
CONTINUOUS
370
-3
390
F
  0
LAYER
  5
1FA
100
AcDbSymbolTableRecord
100
AcDbLayerTableRecord
  2
DEFAULT_1
 70
0
 62
7
  6
CENTER
370
-3
390
F
  0
LAYER
  5
1FB
100
AcDbSymbolTableRecord
100
AcDbLayerTableRecord
  2
DEFAULT_2
 70
0
 62
8
  6
HIDDEN
370
-3
390
F
  0
LAYER
  5
1FC
100
AcDbSymbolTableRecord
100
AcDbLayerTableRecord
  2
DEFAULT_3
 70
0
 62
7
  6
PHANTOM
370
-3
390
F
  0
LAYER
  5
1FD
100
AcDbSymbolTableRecord
100
AcDbLayerTableRecord
  2
00_COMPONENTS
 70
0
 62
7
  6
CONTINUOUS
370
-3
390
F
  0
LAYER
  5
1FE
100
AcDbSymbolTableRecord
100
AcDbLayerTableRecord
  2
01_1_DEFAULT_DATUMS
 70
0
 62
7
  6
CONTINUOUS
370
-3
390
F
  0
LAYER
  5
1FF
100
AcDbSymbolTableRecord
100
AcDbLayerTableRecord
  2
01_PLANES
 70
0
 62
7
  6
CONTINUOUS
370
-3
390
F
  0
LAYER
  5
200
100
AcDbSymbolTableRecord
100
AcDbLayerTableRecord
  2
02_COORD_SYS
 70
0
 62
7
  6
CONTINUOUS
370
-3
390
F
  0
LAYER
  5
201
100
AcDbSymbolTableRecord
100
AcDbLayerTableRecord
  2
03_AXES
 70
0
 62
7
  6
CONTINUOUS
370
-3
390
F
  0
LAYER
  5
202
100
AcDbSymbolTableRecord
100
AcDbLayerTableRecord
  2
04_POINTS
 70
0
 62
7
  6
CONTINUOUS
370
-3
390
F
  0
LAYER
  5
203
100
AcDbSymbolTableRecord
100
AcDbLayerTableRecord
  2
05_CURVES
 70
0
 62
7
  6
CONTINUOUS
370
-3
390
F
  0
LAYER
  5
204
100
AcDbSymbolTableRecord
100
AcDbLayerTableRecord
  2
06_SURFS
 70
0
 62
7
  6
CONTINUOUS
370
-3
390
F
  0
LAYER
  5
205
100
AcDbSymbolTableRecord
100
AcDbLayerTableRecord
  2
07_COSMETICS
 70
0
 62
7
  6
CONTINUOUS
370
-3
390
F
  0
LAYER
  5
206
100
AcDbSymbolTableRecord
100
AcDbLayerTableRecord
  2
10_NOTES
 70
0
 62
7
  6
CONTINUOUS
370
-3
390
F
  0
LAYER
  5
207
100
AcDbSymbolTableRecord
100
AcDbLayerTableRecord
  2
11_NOTES_PUB
 70
0
 62
7
  6
CONTINUOUS
370
-3
390
F
  0
LAYER
  5
208
100
AcDbSymbolTableRecord
100
AcDbLayerTableRecord
  2
13_REF_GTOL
 70
0
 62
7
  6
CONTINUOUS
370
-3
390
F
  0
LAYER
  5
209
100
AcDbSymbolTableRecord
100
AcDbLayerTableRecord
  2
16_MISC
 70
0
 62
7
  6
CONTINUOUS
370
-3
390
F
  0
LAYER
  5
20A
100
AcDbSymbolTableRecord
100
AcDbLayerTableRecord
  2
17_NO_PRINT
 70
0
 62
7
  6
CONTINUOUS
370
-3
390
F
  0
LAYER
  5
20B
100
AcDbSymbolTableRecord
100
AcDbLayerTableRecord
  2
18_DATUM_CAMS_JOINTS
 70
0
 62
7
  6
CONTINUOUS
370
-3
390
F
  0
LAYER
  5
20C
100
AcDbSymbolTableRecord
100
AcDbLayerTableRecord
  2
19_DATUM_FUNCTIONAL
 70
0
 62
7
  6
CONTINUOUS
370
-3
390
F
  0
LAYER
  5
20D
100
AcDbSymbolTableRecord
100
AcDbLayerTableRecord
  2
20_DATUM_KINEMATIC_SCHEME
 70
0
 62
7
  6
CONTINUOUS
370
-3
390
F
  0
LAYER
  5
20E
100
AcDbSymbolTableRecord
100
AcDbLayerTableRecord
  2
INTFCLR_35
 70
0
 62
7
  6
CONTINUOUS
370
-3
390
F
  0
ENDTAB
  0
TABLE
  2
STYLE
  5
3
100
AcDbSymbolTable
 70
1
  0
STYLE
  5
11
100
AcDbSymbolTableRecord
100
AcDbTextStyleTableRecord
  2
STANDARD
 70
0
 40
0.0
 41
0.8
 50
0.0
 71
0
 42
0.2
  3
txt
  4

  0
STYLE
  5
20F
100
AcDbSymbolTableRecord
100
AcDbTextStyleTableRecord
  2
TEXTSTYLE_1
 70
0
 40
0.0
 41
0.8
 50
0.0
 71
0
 42
0.2
  3
gdt
  4

  0
ENDTAB
  0
TABLE
  2
VIEW
  5
6
100
AcDbSymbolTable
 70
0
  0
ENDTAB
  0
TABLE
  2
UCS
  5
7
100
AcDbSymbolTable
 70
0
  0
ENDTAB
  0
TABLE
  2
APPID
  5
9
100
AcDbSymbolTable
 70
1
  0
APPID
  5
210
100
AcDbSymbolTableRecord
100
AcDbRegAppTableRecord
  2
ACAD
 70
0
  0
ENDTAB
  0
TABLE
  2
BLOCK_RECORD
  5
1
100
AcDbSymbolTable
 70
0
  0
BLOCK_RECORD
  5
211
100
AcDbSymbolTableRecord
100
AcDbBlockTableRecord
  2
*Model_Space
  0
BLOCK_RECORD
  5
212
100
AcDbSymbolTableRecord
100
AcDbBlockTableRecord
  2
*Paper_Space
  0
BLOCK_RECORD
  5
213
100
AcDbSymbolTableRecord
100
AcDbBlockTableRecord
  2
_FILLED
  0
ENDTAB
  0
TABLE
  2
DIMSTYLE
  5
A
100
AcDbSymbolTable
 70
1
100
AcDbDimStyleTable
 71
0
  0
DIMSTYLE
105
214
100
AcDbSymbolTableRecord
100
AcDbDimStyleTableRecord
  2
STANDARD
 70
0
  3

  4

 40
1.0
 41
0.2975639871
 42
1.0
 43
0.38
 44
1.0
 45
0.0
 46
0.0
 47
0.01
 48
0.01
140
0.4165895819
141
0.09
142
0.0
143
25.4
144
1.0
145
0.0
146
1.0
147
0.625
 71
1
 72
0
 73
0
 74
0
 75
0
 76
0
 77
1
 78
8
 79
2
170
0
171
1
172
0
173
0
174
0
175
0
176
0
177
0
178
0
270
2
179
2
271
2
272
2
273
2
274
2
275
0
280
0
281
0
282
0
283
1
284
8
285
0
286
0
287
3
288
0
340
11
278
46
341
213
342
213
343
213
344
213
  0
ENDTAB
  0
ENDSEC
  0
SECTION
  2
BLOCKS
  0
BLOCK
  5
20
100
AcDbEntity
  8
0
100
AcDbBlockBegin
  2
*Model_Space
 70
0
 10
0.0
 20
0.0
 30
0.0
  3
*Model_Space
  1

  0
ENDBLK
  5
21
100
AcDbEntity
  8
0
100
AcDbBlockEnd
  0
BLOCK
  5
1C
100
AcDbEntity
  8
0
100
AcDbBlockBegin
  2
*Paper_Space
 70
0
 10
0.0
 20
0.0
 30
0.0
  3
*Paper_Space
  1

  0
ENDBLK
  5
1D
100
AcDbEntity
  8
0
100
AcDbBlockEnd
  0
BLOCK
  5
215
100
AcDbEntity
  8
0
100
AcDbBlockBegin
  2
_FILLED
 70
64
 10
0.0
 20
0.0
  3
_FILLED
  1

  0
SOLID
  5
216
100
AcDbEntity
  8
0
  6
BYBLOCK
 62
0
100
AcDbTrace
 10
0.0
 20
0.0
 11
-1.0
 21
0.25
 12
-1.0
 22
-0.25
 13
-1.0
 23
-0.25
  0
ENDBLK
  5
217
100
AcDbEntity
  8
0
  6
BYBLOCK
 62
0
100
AcDbBlockEnd
  0
ENDSEC
  0
SECTION
  2
ENTITIES
  0
LINE
  5
218
100
AcDbEntity
  8
0
100
AcDbLine
 62
7
  6
CONTINUOUS
 10
4.7368760245
 20
12.1250392571
 11
2.8997510688
 21
16.859940727
  0
LINE
  5
219
100
AcDbEntity
  8
0
100
AcDbLine
 62
7
  6
CONTINUOUS
 10
8.411125936
 20
10.0037580714
 11
4.7368760245
 21
12.1250392571
  0
LINE
  5
21A
100
AcDbEntity
  8
0
100
AcDbLine
 62
7
  6
CONTINUOUS
 10
2.8997510688
 20
16.859940727
 11
4.7368760245
 21
19.4735610112
  0
LINE
  5
21B
100
AcDbEntity
  8
0
100
AcDbLine
 62
7
  6
CONTINUOUS
 10
4.7368760245
 20
19.4735610112
 11
11.1008105594
 21
23.1477583961
  0
LINE
  5
21C
100
AcDbEntity
  8
0
100
AcDbLine
 62
7
  6
CONTINUOUS
 10
8.411125936
 20
17.3522798256
 11
10.2482508917
 21
12.6173783557
  0
LINE
  5
21D
100
AcDbEntity
  8
0
100
AcDbLine
 62
7
  6
CONTINUOUS
 10
13.3895459025
 20
22.1376891942
 11
18.8625325212
 21
25.2975006302
  0
LINE
  5
21E
100
AcDbEntity
  8
0
100
AcDbLine
 62
7
  6
CONTINUOUS
 10
4.7368760245
 20
19.4735610112
 11
8.411125936
 21
17.3522798256
  0
LINE
  5
21F
100
AcDbEntity
  8
0
100
AcDbLine
 62
7
  6
CONTINUOUS
 10
8.411125936
 20
17.3522798256
 11
14.7750604709
 21
21.0264772104
  0
LINE
  5
220
100
AcDbEntity
  8
INTFCLR_35
100
AcDbLine
 62
7
420
3604575
  6
CONTINUOUS
 10
8.8004550575
 20
16.0240957292
 11
7.9882086547
 21
15.5551478491
  0
LINE
  5
221
100
AcDbEntity
  8
0
100
AcDbLine
 62
7
  6
CONTINUOUS
 10
10.2482508917
 20
12.6173783557
 11
8.411125936
 21
10.0037580714
  0
LINE
  5
222
100
AcDbEntity
  8
0
100
AcDbLine
 62
7
  6
CONTINUOUS
 10
16.4772039766
 20
16.992145882
 11
21.8625190906
 21
20.1013404534
  0
LINE
  5
223
100
AcDbEntity
  8
0
100
AcDbLine
 62
7
  6
CONTINUOUS
 10
10.2482508917
 20
12.6173783557
 11
16.6121854266
 21
16.2915757405
  0
LINE
  5
224
100
AcDbEntity
  8
0
100
AcDbLine
 62
7
  6
CONTINUOUS
 10
8.411125936
 20
10.0037580714
 11
14.7750604709
 21
13.6779554563
  0
LINE
  5
225
100
AcDbEntity
  8
0
100
AcDbLine
 62
7
  6
CONTINUOUS
 10
22.4838520373
 20
21.88295773
 11
22.4838549813
 21
21.4747186754
  0
LINE
  5
226
100
AcDbEntity
  8
0
100
AcDbLine
 62
7
  6
CONTINUOUS
 10
20.3625258059
 20
25.1489277932
 11
20.7160777245
 21
24.9447986616
  0
LINE
  5
227
100
AcDbEntity
  8
0
100
AcDbLine
 62
7
  6
CONTINUOUS
 10
21.0880631145
 20
24.5823247464
 11
20.3625258059
 21
25.1489277932
  0
LWPOLYLINE
  5
228
100
AcDbEntity
  8
0
100
AcDbPolyline
 62
7
  6
CONTINUOUS
 90
4
 70
0
 10
22.4516272246
 20
21.9186570318
 10
22.1996507616
 20
22.8635335747
 10
21.7260899159
 20
23.7886156638
 10
21.0880631145
 20
24.5823247464
  0
ARC
  5
229
100
AcDbEntity
  8
0
100
AcDbCircle
 62
7
  6
CONTINUOUS
 10
18.9457602642
 20
21.4265908939
 40
3.5402305332
100
AcDbArc
 50
7.3562688457
 51
7.9895613175
  0
SPLINE
  5
22A
100
AcDbEntity
  8
0
100
AcDbSpline
 62
7
  6
CONTINUOUS
 70
0
 71
3
 72
23
 73
19
 74
0
 42
0.0000001
 43
0.0000001
 44
0.0000000001
 40
0.0
 40
0.0
 40
0.0
 40
0.0
 40
0.0558377714
 40
0.1141794635
 40
0.1747824157
 40
0.2373531136
 40
0.3015477353
 40
0.3669916957
 40
0.4332816955
 40
0.4999995437
 40
0.5667155988
 40
0.6330045696
 40
0.6984489851
 40
0.7626449526
 40
0.8252091089
 40
0.8858175869
 40
0.9441826762
 40
1.0
 40
1.0
 40
1.0
 40
1.0
 10
22.4838439622
 20
21.8829623884
 30
0.0
 10
22.4838434128
 20
21.9513505797
 30
0.0
 10
22.4777806358
 20
22.0912454918
 30
0.0
 10
22.4519996514
 20
22.3039382554
 30
0.0
 10
22.4096320255
 20
22.5223584562
 30
0.0
 10
22.3510381592
 20
22.7443970898
 30
0.0
 10
22.2768190634
 20
22.9679572602
 30
0.0
 10
22.1876533906
 20
23.1908922347
 30
0.0
 10
22.0844142752
 20
23.4110811371
 30
0.0
 10
21.9680785176
 20
23.6264100937
 30
0.0
 10
21.8397645769
 20
23.8348215469
 30
0.0
 10
21.7007019035
 20
24.0343254473
 30
0.0
 10
21.5522035335
 20
24.2230026103
 30
0.0
 10
21.3957197865
 20
24.3990645427
 30
0.0
 10
21.232716076
 20
24.5608179564
 30
0.0
 10
21.064735233
 20
24.706754444
 30
0.0
 10
20.8933907827
 20
24.8353943373
 30
0.0
 10
20.775282282
 20
24.9106176677
 30
0.0
 10
20.7160777245
 20
24.9447986616
 30
0.0
  0
SPLINE
  5
22B
100
AcDbEntity
  8
0
100
AcDbSpline
 62
7
  6
CONTINUOUS
 70
0
 71
3
 72
15
 73
11
 74
0
 42
0.0000001
 43
0.0000001
 44
0.0000000001
 40
0.0
 40
0.0
 40
0.0
 40
0.0
 40
0.1614770374
 40
0.3153266065
 40
0.4594786075
 40
0.5920241811
 40
0.7118008599
 40
0.818837007
 40
0.9142954682
 40
1.0
 40
1.0
 40
1.0
 40
1.0
 10
14.7750604709
 20
13.6779554563
 30
0.0
 10
14.8905606253
 20
13.8065372841
 30
0.0
 10
15.1141657574
 20
14.0593845785
 30
0.0
 10
15.4321015576
 20
14.4346733085
 30
0.0
 10
15.7199453548
 20
14.7946693655
 30
0.0
 10
15.9725401317
 20
15.1358349036
 30
0.0
 10
16.1867613805
 20
15.4555106456
 30
0.0
 10
16.3625021478
 20
15.7525802719
 30
0.0
 10
16.5026016627
 20
16.0276445255
 30
0.0
 10
16.5790029913
 20
16.2060520867
 30
0.0
 10
16.6121854266
 20
16.2915757405
 30
0.0
  0
SPLINE
  5
22C
100
AcDbEntity
  8
0
100
AcDbSpline
 62
7
  6
CONTINUOUS
 70
0
 71
3
 72
15
 73
11
 74
0
 42
0.0000001
 43
0.0000001
 44
0.0000000001
 40
0.0
 40
0.0
 40
0.0
 40
0.0
 40
0.1282692795
 40
0.2561703089
 40
0.3834108498
 40
0.5096359327
 40
0.6345147312
 40
0.7578513411
 40
0.8796348178
 40
1.0
 40
1.0
 40
1.0
 40
1.0
 10
16.6121854266
 20
16.2915757405
 30
0.0
 10
16.580657645
 20
16.5086963788
 30
0.0
 10
16.5093695969
 20
16.9411800095
 30
0.0
 10
16.3718518272
 20
17.5827049893
 30
0.0
 10
16.1984954778
 20
18.2119937509
 30
0.0
 10
15.98569698
 20
18.8236870755
 30
0.0
 10
15.7330898337
 20
19.4128051557
 30
0.0
 10
15.443983364
 20
19.9763002408
 30
0.0
 10
15.1241493407
 20
20.5138323333
 30
0.0
 10
14.8934528582
 20
20.8580459738
 30
0.0
 10
14.7750604709
 20
21.0264772104
 30
0.0
  0
SPLINE
  5
22D
100
AcDbEntity
  8
0
100
AcDbSpline
 62
7
  6
CONTINUOUS
 70
0
 71
3
 72
15
 73
11
 74
0
 42
0.0000001
 43
0.0000001
 44
0.0000000001
 40
0.0
 40
0.0
 40
0.0
 40
0.0
 40
0.1090809024
 40
0.2220118053
 40
0.3395940284
 40
0.4623772553
 40
0.5904252378
 40
0.7232666917
 40
0.8600879407
 40
1.0
 40
1.0
 40
1.0
 40
1.0
 10
14.7750604709
 20
21.0264772104
 30
0.0
 10
14.667229395
 20
21.1392614166
 30
0.0
 10
14.4409704433
 20
21.3624598577
 30
0.0
 10
14.0726870414
 20
21.6798550595
 30
0.0
 10
13.6659429211
 20
21.9806485865
 30
0.0
 10
13.2188957421
 20
22.2606932038
 30
0.0
 10
12.7332259869
 20
22.5172773645
 30
0.0
 10
12.2137232741
 20
22.7500095704
 30
0.0
 10
11.6667549521
 20
22.9605927164
 30
0.0
 10
11.2915028353
 20
23.0869887742
 30
0.0
 10
11.1008105594
 20
23.1477583961
 30
0.0
  0
SPLINE
  5
22E
100
AcDbEntity
  8
0
100
AcDbSpline
 62
7
  6
CONTINUOUS
 70
0
 71
3
 72
16
 73
12
 74
0
 42
0.0000001
 43
0.0000001
 44
0.0000000001
 40
0.0
 40
0.0
 40
0.0
 40
0.0
 40
0.053920365
 40
0.1080987422
 40
0.2181379649
 40
0.3320639107
 40
0.4514112261
 40
0.5773190353
 40
0.7105284885
 40
0.8514105919
 40
1.0
 40
1.0
 40
1.0
 40
1.0
 10
21.8625152471
 20
20.1013471105
 30
0.0
 10
21.887072132
 20
20.11552491
 30
0.0
 10
21.9351209137
 20
20.1460613887
 30
0.0
 10
22.0264718866
 20
20.2156299596
 30
0.0
 10
22.1312476819
 20
20.3187256971
 30
0.0
 10
22.238692342
 20
20.4646594675
 30
0.0
 10
22.3276789243
 20
20.6319642019
 30
0.0
 10
22.3974762277
 20
20.8188953741
 30
0.0
 10
22.4475715564
 20
21.0236430128
 30
0.0
 10
22.4775543873
 20
21.2442451068
 30
0.0
 10
22.4838555462
 20
21.3965780797
 30
0.0
 10
22.4838549813
 20
21.4747186754
 30
0.0
  0
SPLINE
  5
22F
100
AcDbEntity
  8
0
100
AcDbSpline
 62
7
  6
CONTINUOUS
 70
0
 71
3
 72
16
 73
12
 74
0
 42
0.0000001
 43
0.0000001
 44
0.0000000001
 40
0.0
 40
0.0
 40
0.0
 40
0.0
 40
0.1298378215
 40
0.2611808373
 40
0.3925110695
 40
0.5223548662
 40
0.6492670281
 40
0.7719101561
 40
0.889129022
 40
0.9454248606
 40
1.0
 40
1.0
 40
1.0
 40
1.0
 10
9.3296886509
 20
14.9848284795
 30
0.0
 10
9.2596241212
 20
15.1654088653
 30
0.0
 10
9.1041525127
 20
15.5231899202
 30
0.0
 10
8.8304044174
 20
16.0414174535
 30
0.0
 10
8.518447968
 20
16.5376405074
 30
0.0
 10
8.1736255095
 20
17.0034229539
 30
0.0
 10
7.8017099665
 20
17.4309066198
 30
0.0
 10
7.4090198366
 20
17.8128709089
 30
0.0
 10
7.0652922185
 20
18.0916446442
 30
0.0
 10
6.7853964761
 20
18.285366173
 30
0.0
 10
6.644510601
 20
18.3722125908
 30
0.0
 10
6.5740009802
 20
18.4129204184
 30
0.0
  0
SPLINE
  5
230
100
AcDbEntity
  8
0
100
AcDbSpline
 62
7
  6
CONTINUOUS
 70
0
 71
3
 72
11
 73
7
 74
0
 42
0.0000001
 43
0.0000001
 44
0.0000000001
 40
0.0
 40
0.0
 40
0.0
 40
0.0
 40
0.2377636705
 40
0.4807313284
 40
0.7335618853
 40
1.0
 40
1.0
 40
1.0
 40
1.0
 10
9.2382007241
 20
13.3900851519
 30
0.0
 10
9.2824588626
 20
13.4156426905
 30
0.0
 10
9.3673554935
 20
13.4757449837
 30
0.0
 10
9.4780443773
 20
13.5891352816
 30
0.0
 10
9.5715218363
 20
13.7245489735
 30
0.0
 10
9.620276747
 20
13.8254619301
 30
0.0
 10
9.6417212494
 20
13.8785665839
 30
0.0
  0
SPLINE
  5
231
100
AcDbEntity
  8
0
100
AcDbSpline
 62
7
  6
CONTINUOUS
 70
0
 71
3
 72
12
 73
8
 74
0
 42
0.0000001
 43
0.0000001
 44
0.0000000001
 40
0.0
 40
0.0
 40
0.0
 40
0.0
 40
0.2654292779
 40
0.5180248574
 40
0.7613349514
 40
0.8809775253
 40
1.0
 40
1.0
 40
1.0
 40
1.0
 10
7.3390510917
 20
17.8285739922
 30
0.0
 10
7.2845169895
 20
17.835194053
 30
0.0
 10
7.177044448
 20
17.8411556816
 30
0.0
 10
7.0195700948
 20
17.8262374913
 30
0.0
 10
6.8957762744
 20
17.7933794647
 30
0.0
 10
6.8034494807
 20
17.7553434255
 30
0.0
 10
6.7595487
 20
17.732529102
 30
0.0
 10
6.7382165852
 20
17.7202105462
 30
0.0
  0
SPLINE
  5
232
100
AcDbEntity
  8
0
100
AcDbSpline
 62
7
  6
CONTINUOUS
 70
0
 71
3
 72
11
 73
7
 74
0
 42
0.0000001
 43
0.0000001
 44
0.0000000001
 40
0.0
 40
0.0
 40
0.0
 40
0.0
 40
0.2320696255
 40
0.477476045
 40
0.734287515
 40
1.0
 40
1.0
 40
1.0
 40
1.0
 10
9.755990148
 20
12.9016093946
 30
0.0
 10
9.7559889565
 20
13.0669592501
 30
0.0
 10
9.7361768997
 20
13.4073524471
 30
0.0
 10
9.6538377771
 20
13.9247498009
 30
0.0
 10
9.5193943908
 20
14.4558169717
 30
0.0
 10
9.3981702722
 20
14.8083277931
 30
0.0
 10
9.3296886509
 20
14.9848284795
 30
0.0
  0
SPLINE
  5
233
100
AcDbEntity
  8
0
100
AcDbSpline
 62
7
  6
CONTINUOUS
 70
0
 71
3
 72
16
 73
12
 74
0
 42
0.0000001
 43
0.0000001
 44
0.0000000001
 40
0.0
 40
0.0
 40
0.0
 40
0.0
 40
0.1485391438
 40
0.2894787969
 40
0.4226885536
 40
0.5485835994
 40
0.6679330987
 40
0.7818616421
 40
0.8919008361
 40
0.9460793148
 40
1.0
 40
1.0
 40
1.0
 40
1.0
 10
20.3625258059
 20
25.1489277932
 30
0.0
 10
20.294879268
 20
25.1879826565
 30
0.0
 10
20.159800374
 20
25.2586784133
 30
0.0
 10
19.9537738622
 20
25.3430290735
 30
0.0
 10
19.7513929275
 20
25.402020699
 30
0.0
 10
19.5546181355
 20
25.4350227381
 30
0.0
 10
19.365247031
 20
25.4416121223
 30
0.0
 10
19.1851465018
 20
25.4215315716
 30
0.0
 10
19.0434799973
 20
25.3823397304
 30
0.0
 10
18.937560522
 20
25.3380132506
 30
0.0
 10
18.8870924175
 20
25.3116712923
 30
0.0
 10
18.8625363647
 20
25.2974939732
 30
0.0
  0
SPLINE
  5
234
100
AcDbEntity
  8
0
100
AcDbSpline
 62
7
  6
CONTINUOUS
 70
0
 71
3
 72
23
 73
19
 74
0
 42
0.0000001
 43
0.0000001
 44
0.0000000001
 40
0.0
 40
0.0
 40
0.0
 40
0.0
 40
0.0771992297
 40
0.1518157034
 40
0.2237651901
 40
0.2930602724
 40
0.3597862935
 40
0.4240754198
 40
0.4861094091
 40
0.5461297731
 40
0.6044470822
 40
0.6614261813
 40
0.7174817765
 40
0.7730620491
 40
0.8286435484
 40
0.8847089573
 40
0.9417040452
 40
1.0
 40
1.0
 40
1.0
 40
1.0
 10
6.5740009802
 20
18.4129204184
 30
0.0
 10
6.5057627791
 20
18.4523168709
 30
0.0
 10
6.3693683527
 20
18.5260656978
 30
0.0
 10
6.1621488761
 20
18.6224336688
 30
0.0
 10
5.956599977
 20
18.7022166876
 30
0.0
 10
5.7536497865
 20
18.7650481752
 30
0.0
 10
5.5541379187
 20
18.8106562919
 30
0.0
 10
5.3588884105
 20
18.8388280489
 30
0.0
 10
5.1687291306
 20
18.8494412696
 30
0.0
 10
4.9844776983
 20
18.8423635019
 30
0.0
 10
4.8069355259
 20
18.8176420564
 30
0.0
 10
4.6368978691
 20
18.7752926101
 30
0.0
 10
4.4751299144
 20
18.715527341
 30
0.0
 10
4.3223813325
 20
18.6385703391
 30
0.0
 10
4.1793509455
 20
18.5447635248
 30
0.0
 10
4.0466837557
 20
18.4345295659
 30
0.0
 10
3.9250259753
 20
18.3084264662
 30
0.0
 10
3.8525296081
 20
18.2154289909
 30
0.0
 10
3.8183135467
 20
18.1667508691
 30
0.0
  0
SPLINE
  5
235
100
AcDbEntity
  8
0
100
AcDbSpline
 62
7
  6
CONTINUOUS
 70
0
 71
3
 72
23
 73
19
 74
0
 42
0.0000001
 43
0.0000001
 44
0.0000000001
 40
0.0
 40
0.0
 40
0.0
 40
0.0
 40
0.0771992295
 40
0.1518157033
 40
0.2237651901
 40
0.2930602724
 40
0.3597862934
 40
0.4240754198
 40
0.486109409
 40
0.5461297731
 40
0.6044470822
 40
0.6614261813
 40
0.7174817765
 40
0.7730620491
 40
0.8286435484
 40
0.8847089573
 40
0.9417040452
 40
1.0
 40
1.0
 40
1.0
 40
1.0
 10
6.5740009802
 20
11.0643986642
 30
0.0
 10
6.6422391816
 20
11.0250022125
 30
0.0
 10
6.7786336082
 20
10.9512533861
 30
0.0
 10
6.9858530843
 20
10.8548854141
 30
0.0
 10
7.1914019833
 20
10.7751023946
 30
0.0
 10
7.394352174
 20
10.7122709073
 30
0.0
 10
7.5938640418
 20
10.6666627909
 30
0.0
 10
7.78911355
 20
10.6384910338
 30
0.0
 10
7.9792728298
 20
10.627877813
 30
0.0
 10
8.1635242622
 20
10.6349555808
 30
0.0
 10
8.3410664346
 20
10.6596770262
 30
0.0
 10
8.5111040914
 20
10.7020264726
 30
0.0
 10
8.6728720461
 20
10.7617917416
 30
0.0
 10
8.825620628
 20
10.8387487435
 30
0.0
 10
8.968651015
 20
10.9325555579
 30
0.0
 10
9.1013182048
 20
11.0427895167
 30
0.0
 10
9.2229759852
 20
11.1688926164
 30
0.0
 10
9.2954723523
 20
11.2618900917
 30
0.0
 10
9.3296884138
 20
11.3105682135
 30
0.0
  0
SPLINE
  5
236
100
AcDbEntity
  8
0
100
AcDbSpline
 62
7
  6
CONTINUOUS
 70
0
 71
3
 72
16
 73
12
 74
0
 42
0.0000001
 43
0.0000001
 44
0.0000000001
 40
0.0
 40
0.0
 40
0.0
 40
0.0
 40
0.1298378215
 40
0.2611808373
 40
0.3925110695
 40
0.5223548662
 40
0.6492670281
 40
0.771910156
 40
0.889129022
 40
0.9454248607
 40
1.0
 40
1.0
 40
1.0
 40
1.0
 10
3.8183133094
 20
14.4924906034
 30
0.0
 10
3.8883778391
 20
14.3119102176
 30
0.0
 10
4.0438494476
 20
13.9541291627
 30
0.0
 10
4.317597543
 20
13.4359016293
 30
0.0
 10
4.6295539923
 20
12.9396785754
 30
0.0
 10
4.974376451
 20
12.4738961288
 30
0.0
 10
5.3462919938
 20
12.0464124628
 30
0.0
 10
5.7389821239
 20
11.6644481738
 30
0.0
 10
6.0827097423
 20
11.3856744386
 30
0.0
 10
6.3626054839
 20
11.1919529085
 30
0.0
 10
6.5034913592
 20
11.105106491
 30
0.0
 10
6.5740009802
 20
11.0643986642
 30
0.0
  0
SPLINE
  5
237
100
AcDbEntity
  8
0
100
AcDbSpline
 62
7
  6
CONTINUOUS
 70
0
 71
3
 72
16
 73
12
 74
0
 42
0.0000001
 43
0.0000001
 44
0.0000000001
 40
0.0
 40
0.0
 40
0.0
 40
0.0
 40
0.0980074423
 40
0.1496987427
 40
0.2033424537
 40
0.3168101022
 40
0.4388058973
 40
0.5690417651
 40
0.7067623412
 40
0.850883515
 40
1.0
 40
1.0
 40
1.0
 40
1.0
 10
3.8183135467
 20
18.1667508691
 30
0.0
 10
3.7467572556
 20
18.0649499692
 30
0.0
 10
3.6533428747
 20
17.8977551143
 30
0.0
 10
3.5574819641
 20
17.6578680031
 30
0.0
 10
3.4756091617
 20
17.3920944715
 30
0.0
 10
3.4083075498
 20
17.0299069158
 30
0.0
 10
3.382995763
 20
16.5652231277
 30
0.0
 10
3.4118211872
 20
16.070032455
 30
0.0
 10
3.4941607717
 20
15.5525737716
 30
0.0
 10
3.6286047424
 20
15.0215140766
 30
0.0
 10
3.7498306062
 20
14.6689940785
 30
0.0
 10
3.8183133094
 20
14.4924906034
 30
0.0
  0
SPLINE
  5
238
100
AcDbEntity
  8
0
100
AcDbSpline
 62
7
  6
CONTINUOUS
 70
0
 71
3
 72
9
 73
5
 74
0
 42
0.0000001
 43
0.0000001
 44
0.0000000001
 40
0.0
 40
0.0
 40
0.0
 40
0.0
 40
0.4908816404
 40
1.0
 40
1.0
 40
1.0
 40
1.0
 10
22.4838549813
 20
21.4747186754
 30
0.0
 10
22.4838545007
 20
21.5411948046
 30
0.0
 10
22.4790787551
 20
21.6766471296
 30
0.0
 10
22.4656789771
 20
21.8114989107
 30
0.0
 10
22.4568517868
 20
21.8798772799
 30
0.0
  0
SPLINE
  5
239
100
AcDbEntity
  8
0
100
AcDbSpline
 62
7
  6
CONTINUOUS
 70
0
 71
3
 72
13
 73
9
 74
0
 42
0.0000001
 43
0.0000001
 44
0.0000000001
 40
0.0
 40
0.0
 40
0.0
 40
0.0
 40
0.2233144294
 40
0.3410955273
 40
0.4633253649
 40
0.5902555725
 40
0.7220260796
 40
1.0
 40
1.0
 40
1.0
 40
1.0
 10
9.3296884138
 20
11.3105682135
 30
0.0
 10
9.4012458897
 20
11.4123707991
 30
0.0
 10
9.4946627635
 20
11.5795705877
 30
0.0
 10
9.5905212085
 20
11.8194568208
 30
0.0
 10
9.6507914625
 20
12.0150905845
 30
0.0
 10
9.6978380054
 20
12.2222654583
 30
0.0
 10
9.7435378857
 20
12.5179830512
 30
0.0
 10
9.7559912641
 20
12.7467162502
 30
0.0
 10
9.755990148
 20
12.9016093946
 30
0.0
  0
SPLINE
  5
23A
100
AcDbEntity
  8
0
100
AcDbSpline
 62
7
  6
CONTINUOUS
 70
0
 71
3
 72
30
 73
26
 74
0
 42
0.0000001
 43
0.0000001
 44
0.0000000001
 40
0.0
 40
0.0
 40
0.0
 40
0.0
 40
0.0213284954
 40
0.0428850785
 40
0.0648869541
 40
0.0875275562
 40
0.1109730506
 40
0.1353559672
 40
0.1872477001
 40
0.214906433
 40
0.2437122027
 40
0.2736490648
 40
0.3046785078
 40
0.3367465454
 40
0.369779165
 40
0.4383644157
 40
0.5096379592
 40
0.5826489865
 40
0.6563672673
 40
0.7297309029
 40
0.8016955124
 40
0.8712700715
 40
0.9376074294
 40
0.9693469393
 40
1.0
 40
1.0
 40
1.0
 40
1.0
 10
6.7382165852
 20
17.7202105462
 30
0.0
 10
6.7075033454
 20
17.7024747164
 30
0.0
 10
6.6479643903
 20
17.6628128999
 30
0.0
 10
6.5662358979
 20
17.5919587202
 30
0.0
 10
6.4923527729
 20
17.5099959995
 30
0.0
 10
6.4266851606
 20
17.4174718115
 30
0.0
 10
6.3695975177
 20
17.3148825392
 30
0.0
 10
6.3039369651
 20
17.162365551
 30
0.0
 10
6.2585627008
 20
16.994540061
 30
0.0
 10
6.2318267682
 20
16.8162616702
 30
0.0
 10
6.2208512904
 20
16.6728740507
 30
0.0
 10
6.2194383446
 20
16.5235040032
 30
0.0
 10
6.2275664055
 20
16.3689207107
 30
0.0
 10
6.2452265863
 20
16.2099614804
 30
0.0
 10
6.2817560582
 20
15.9905898309
 30
0.0
 10
6.3510685923
 20
15.7110467693
 30
0.0
 10
6.4681110009
 20
15.376493685
 30
0.0
 10
6.617593662
 20
15.04574082
 30
0.0
 10
6.7963189668
 20
14.7258643663
 30
0.0
 10
7.0004790175
 20
14.423681043
 30
0.0
 10
7.2257287997
 20
14.1456448519
 30
0.0
 10
7.4672437101
 20
13.8976536946
 30
0.0
 10
7.6809885265
 20
13.7177834949
 30
0.0
 10
7.8558812618
 20
13.5941883787
 30
0.0
 10
7.9440655027
 20
13.539377291
 30
0.0
 10
7.9882086547
 20
13.5138918062
 30
0.0
  0
SPLINE
  5
23B
100
AcDbEntity
  8
0
100
AcDbSpline
 62
7
  6
CONTINUOUS
 70
0
 71
3
 72
16
 73
12
 74
0
 42
0.0000001
 43
0.0000001
 44
0.0000000001
 40
0.0
 40
0.0
 40
0.0
 40
0.0
 40
0.1485263852
 40
0.2894760803
 40
0.4226925879
 40
0.5485851455
 40
0.6679307553
 40
0.781861947
 40
0.8919009849
 40
0.9460797868
 40
1.0
 40
1.0
 40
1.0
 40
1.0
 10
7.9882086547
 20
13.5138918062
 30
0.0
 10
8.0445759045
 20
13.4813488948
 30
0.0
 10
8.1571425087
 20
13.4224405982
 30
0.0
 10
8.3288300545
 20
13.3521404454
 30
0.0
 10
8.4974876188
 20
13.3029832271
 30
0.0
 10
8.6614661039
 20
13.2754723561
 30
0.0
 10
8.8192732597
 20
13.2700000155
 30
0.0
 10
8.969359574
 20
13.2867118604
 30
0.0
 10
9.0874103291
 20
13.3193922932
 30
0.0
 10
9.1756823469
 20
13.3563156715
 30
0.0
 10
9.2177385983
 20
13.3782689845
 30
0.0
 10
9.2382007241
 20
13.3900851519
 30
0.0
  0
ENDSEC
  0
SECTION
  2
OBJECTS
  0
DICTIONARY
  5
C
100
AcDbDictionary
280
0
281
1
  3
ACAD_GROUP
350
D
  3
ACAD_MLINESTYLE
350
17
  3
ACAD_LAYOUT
350
1A
  3
ACAD_PLOTSETTINGS
350
19
  3
ACAD_PLOTSTYLENAME
350
E
  0
DICTIONARY
  5
D
102
{ACAD_REACTORS
330
C
102
}
100
AcDbDictionary
280
0
281
1
  0
ACDBDICTIONARYWDFLT
  5
E
102
{ACAD_REACTORS
330
C
102
}
100
AcDbDictionary
281
1
  3
Normal
350
F
100
AcDbDictionaryWithDefault
340
F
  0
DICTIONARY
  5
17
102
{ACAD_REACTORS
330
C
102
}
100
AcDbDictionary
280
0
281
1
  3
Standard
350
18
  0
DICTIONARY
  5
19
102
{ACAD_REACTORS
330
C
102
}
100
AcDbDictionary
281
1
  0
DICTIONARY
  5
1A
102
{ACAD_REACTORS
330
C
102
}
100
AcDbDictionary
281
1
  3
Model
350
23C
  3
Layout1
350
23D
  0
ACDBPLACEHOLDER
  5
F
102
{ACAD_REACTORS
330
E
102
}
  0
MLINESTYLE
  5
18
102
{ACAD_REACTORS
330
17
102
}
100
AcDbMlineStyle
  2
STANDARD
 70
0
  3

 62
256
 51
90.0
 52
90.0
 71
2
 49
0.5
 62
256
  6
BYLAYER
 49
-0.5
 62
256
  6
BYLAYER
  0
LAYOUT
  5
23C
102
{ACAD_REACTORS
330
1A
102
}
100
AcDbPlotSettings
  1

  2
none_device
  4

  6

 40
0.0
 41
0.0
 42
0.0
 43
0.0
 44
210.0
 45
297.0
 46
0.0
 47
0.0
 48
0.0
 49
0.0
140
0.0
141
0.0
142
1.0
143
1.0
 70
1024
 72
1
 73
0
 74
0
  7

 75
0
147
1.0
148
0.0
149
0.0
100
AcDbLayout
  1
Model
 70
0
 71
0
 10
0.0
 20
0.0
 11
210.0
 21
297.0
 12
0.0
 22
0.0
 32
0.0
 14
0.0
 24
0.0
 34
0.0
 15
0.0
 25
0.0
 35
0.0
146
0.0
 13
0.0
 23
0.0
 33
0.0
 16
1.0
 26
0.0
 36
0.0
 17
0.0
 27
1.0
 37
0.0
 76
0
330
211
345
0
346
0
  0
LAYOUT
  5
23D
102
{ACAD_REACTORS
330
1A
102
}
100
AcDbPlotSettings
  1

  2
none_device
  4

  6

 40
0.0
 41
0.0
 42
0.0
 43
0.0
 44
210.0
 45
297.0
 46
0.0
 47
0.0
 48
0.0
 49
0.0
140
0.0
141
0.0
142
1.0
143
1.0
 70
0
 72
1
 73
0
 74
0
  7

 75
0
147
1.0
148
0.0
149
0.0
100
AcDbLayout
  1
Layout1
 70
0
 71
1
 10
0.0
 20
0.0
 11
210.0
 21
297.0
 12
0.0
 22
0.0
 32
0.0
 14
0.0
 24
0.0
 34
0.0
 15
0.0
 25
0.0
 35
0.0
146
0.0
 13
0.0
 23
0.0
 33
0.0
 16
1.0
 26
0.0
 36
0.0
 17
0.0
 27
1.0
 37
0.0
 76
0
330
212
345
0
346
0
  0
ENDSEC
  0
EOF
