999
DXF file: C:\Users\sesa63760\Dev\_Creo\CAD\MCADID0004585_3D-CAD\drw0001_4.dxf
999
Pro/ENGINEER 2019471 by Parametric Technology Corporation
  0
SECTION
  2
HEADER
  9
$ACADVER
  1
AC1024
  9
$DWGCODEPAGE
  3
ANSI_1252
  9
$EXTMAX
 10
352.9555250784
 20
499.1799568966
 30
0.0
  9
$EXTMIN
 10
0.0
 20
0.0
 30
0.0
  9
$LIMMIN
 10
0.0
 20
0.0
  9
$LIMMAX
 10
352.9555250784
 20
499.1799568966
  9
$VIEWCTR
 10
176.4777625392
 20
249.5899784483
  9
$VIEWSIZE
 40
499.1799568966
  9
$CLAYER
  8
0
  9
$LTSCALE
 40
32.539137931
  9
$CELTYPE
  6
BYLAYER
  9
$DIMSCALE
 40
1.0
  9
$DIMASZ
 40
4.201851489
  9
$DIMEXO
 40
1.0
  9
$DIMDLI
 40
22.4815862069
  9
$DIMEXE
 40
1.0
  9
$DIMCEN
 40
5.3245862069
  9
$DIMLFAC
 40
1.0
  9
$DIMBLK
  1
_FILLED
  9
$DIMALT
 70
0
  9
$DIMALTF
 40
0.0393700787
  9
$DIMTXT
 40
5.8825920846
  9
$DIMTOL
 70
1
  9
$DIMLIM
 70
0
  9
$DIMTFAC
 40
1.0
  9
$DIMTP
 40
0.01
  9
$DIMTM
 40
0.01
  9
$DIMGAP
 40
0.625
  9
$DIMDSEP
 70
46
  9
$AUNITS
 70
0
  9
$PDMODE
 70
3
  9
$PDSIZE
 40
0.3125
  9
$HANDSEED
  5
341
  9
$TILEMODE
 70
1
  9
$MEASUREMENT
 70
1
  9
$INSUNITS
 70
4
  0
ENDSEC
  0
SECTION
  2
CLASSES
  0
CLASS
  1
ACDBDICTIONARYWDFLT
  2
AcDbDictionaryWithDefault
  3
AutoCAD 2000
 90
0
 91
1
280
0
281
0
  0
CLASS
  1
ACDBPLACEHOLDER
  2
AcDbPlaceHolder
  3
AutoCAD 2000
 90
0
 91
1
280
0
281
0
  0
CLASS
  1
LAYOUT
  2
AcDbLayout
  3
AutoCAD 2000
 90
0
 91
0
280
0
281
0
  0
ENDSEC
  0
SECTION
  2
TABLES
  0
TABLE
  2
VPORT
  5
8
100
AcDbSymbolTable
 70
2
  0
VPORT
  5
1F4
100
AcDbSymbolTableRecord
100
AcDbViewportTableRecord
  2
*ACTIVE
 70
0
 10
0.0
 20
0.0
 11
1.0
 21
1.0
 12
176.4777625392
 22
249.5899784483
 13
0.0
 23
0.0
 14
1.0
 24
1.0
 15
0.0
 25
0.0
 16
0.0
 26
0.0
 36
1.0
 17
0.0
 27
0.0
 37
0.0
 40
499.1799568966
 41
0.7070707071
 42
50.0
 43
0.0
 44
0.0
 50
0.0
 51
0.0
 71
0
 72
100
 73
1
 74
1
 75
0
 76
0
 77
0
 78
0
  0
ENDTAB
  0
TABLE
  2
LTYPE
  5
5
100
AcDbSymbolTable
 70
6
  0
LTYPE
  5
14
100
AcDbSymbolTableRecord
100
AcDbLinetypeTableRecord
  2
BYBLOCK
 70
0
  3

 72
65
 73
0
 40
0.0
  0
LTYPE
  5
15
100
AcDbSymbolTableRecord
100
AcDbLinetypeTableRecord
  2
BYLAYER
 70
0
  3

 72
65
 73
0
 40
0.0
  0
LTYPE
  5
16
100
AcDbSymbolTableRecord
100
AcDbLinetypeTableRecord
  2
CONTINUOUS
 70
64
  3
Solid line
 72
65
 73
0
 40
0.0
  0
LTYPE
  5
1F5
100
AcDbSymbolTableRecord
100
AcDbLinetypeTableRecord
  2
CENTER
 70
64
  3
____ _ ____ _ ____ _ ____ _ ____ _ ____ _ ____
 72
65
 73
4
 40
0.6
 49
0.375
 74
0
 49
-0.075
 74
0
 49
0.075
 74
0
 49
-0.075
 74
0
  0
LTYPE
  5
1F6
100
AcDbSymbolTableRecord
100
AcDbLinetypeTableRecord
  2
HIDDEN
 70
64
  3
- - - - - - - - - - - - - - - - - - - -
 72
65
 73
2
 40
0.2
 49
0.1
 74
0
 49
-0.1
 74
0
  0
LTYPE
  5
1F7
100
AcDbSymbolTableRecord
100
AcDbLinetypeTableRecord
  2
PHANTOM
 70
64
  3
_____ _ _ _____ _ _ _____ _ _ _____
 72
65
 73
6
 40
0.8
 49
0.45
 74
0
 49
-0.05
 74
0
 49
0.1
 74
0
 49
-0.05
 74
0
 49
0.1
 74
0
 49
-0.05
 74
0
  0
LTYPE
  5
1F8
100
AcDbSymbolTableRecord
100
AcDbLinetypeTableRecord
  2
DOT
 70
64
  3
. . . . . . . . . . . . . . . . . . . .
 72
65
 73
2
 40
0.2
 49
0.1
 74
0
 49
-0.1
 74
0
  0
LTYPE
  5
1F9
100
AcDbSymbolTableRecord
100
AcDbLinetypeTableRecord
  2
DASHED
 70
64
  3
- - - - - - - - - - - - - - - - - - - -
 72
65
 73
2
 40
0.2
 49
0.1
 74
0
 49
-0.1
 74
0
  0
ENDTAB
  0
TABLE
  2
LAYER
  5
2
100
AcDbSymbolTable
 70
36
  0
LAYER
  5
10
100
AcDbSymbolTableRecord
100
AcDbLayerTableRecord
  2
0
 70
0
 62
7
  6
CONTINUOUS
370
-3
390
F
  0
LAYER
  5
1FA
100
AcDbSymbolTableRecord
100
AcDbLayerTableRecord
  2
DEFAULT_1
 70
0
 62
7
  6
CENTER
370
-3
390
F
  0
LAYER
  5
1FB
100
AcDbSymbolTableRecord
100
AcDbLayerTableRecord
  2
DEFAULT_2
 70
0
 62
7
  6
HIDDEN
370
-3
390
F
  0
LAYER
  5
1FC
100
AcDbSymbolTableRecord
100
AcDbLayerTableRecord
  2
DEFAULT_3
 70
0
 62
7
  6
PHANTOM
370
-3
390
F
  0
LAYER
  5
1FD
100
AcDbSymbolTableRecord
100
AcDbLayerTableRecord
  2
00_COMPONENTS
 70
0
 62
7
  6
CONTINUOUS
370
-3
390
F
  0
LAYER
  5
1FE
100
AcDbSymbolTableRecord
100
AcDbLayerTableRecord
  2
01_1_DEFAULT_DATUMS
 70
0
 62
7
  6
CONTINUOUS
370
-3
390
F
  0
LAYER
  5
1FF
100
AcDbSymbolTableRecord
100
AcDbLayerTableRecord
  2
01_PLANES
 70
0
 62
7
  6
CONTINUOUS
370
-3
390
F
  0
LAYER
  5
200
100
AcDbSymbolTableRecord
100
AcDbLayerTableRecord
  2
02_COORD_SYS
 70
0
 62
7
  6
CONTINUOUS
370
-3
390
F
  0
LAYER
  5
201
100
AcDbSymbolTableRecord
100
AcDbLayerTableRecord
  2
03_AXES
 70
0
 62
7
  6
CONTINUOUS
370
-3
390
F
  0
LAYER
  5
202
100
AcDbSymbolTableRecord
100
AcDbLayerTableRecord
  2
04_POINTS
 70
0
 62
7
  6
CONTINUOUS
370
-3
390
F
  0
LAYER
  5
203
100
AcDbSymbolTableRecord
100
AcDbLayerTableRecord
  2
05_CURVES
 70
0
 62
7
  6
CONTINUOUS
370
-3
390
F
  0
LAYER
  5
204
100
AcDbSymbolTableRecord
100
AcDbLayerTableRecord
  2
06_SURFS
 70
0
 62
7
  6
CONTINUOUS
370
-3
390
F
  0
LAYER
  5
205
100
AcDbSymbolTableRecord
100
AcDbLayerTableRecord
  2
07_COSMETICS
 70
0
 62
7
  6
CONTINUOUS
370
-3
390
F
  0
LAYER
  5
206
100
AcDbSymbolTableRecord
100
AcDbLayerTableRecord
  2
10_NOTES
 70
0
 62
7
  6
CONTINUOUS
370
-3
390
F
  0
LAYER
  5
207
100
AcDbSymbolTableRecord
100
AcDbLayerTableRecord
  2
11_NOTES_PUB
 70
0
 62
7
  6
CONTINUOUS
370
-3
390
F
  0
LAYER
  5
208
100
AcDbSymbolTableRecord
100
AcDbLayerTableRecord
  2
13_REF_GTOL
 70
0
 62
7
  6
CONTINUOUS
370
-3
390
F
  0
LAYER
  5
209
100
AcDbSymbolTableRecord
100
AcDbLayerTableRecord
  2
16_MISC
 70
0
 62
7
  6
CONTINUOUS
370
-3
390
F
  0
LAYER
  5
20A
100
AcDbSymbolTableRecord
100
AcDbLayerTableRecord
  2
17_NO_PRINT
 70
0
 62
7
  6
CONTINUOUS
370
-3
390
F
  0
LAYER
  5
20B
100
AcDbSymbolTableRecord
100
AcDbLayerTableRecord
  2
18_DATUM_CAMS_JOINTS
 70
0
 62
7
  6
CONTINUOUS
370
-3
390
F
  0
LAYER
  5
20C
100
AcDbSymbolTableRecord
100
AcDbLayerTableRecord
  2
19_DATUM_FUNCTIONAL
 70
0
 62
7
  6
CONTINUOUS
370
-3
390
F
  0
LAYER
  5
20D
100
AcDbSymbolTableRecord
100
AcDbLayerTableRecord
  2
20_DATUM_KINEMATIC_SCHEME
 70
0
 62
7
  6
CONTINUOUS
370
-3
390
F
  0
ENDTAB
  0
TABLE
  2
STYLE
  5
3
100
AcDbSymbolTable
 70
1
  0
STYLE
  5
11
100
AcDbSymbolTableRecord
100
AcDbTextStyleTableRecord
  2
STANDARD
 70
0
 40
0.0
 41
1.0
 50
0.0
 71
0
 42
0.2
  3
ARIAL.TTF
  4

  0
STYLE
  5
20E
100
AcDbSymbolTableRecord
100
AcDbTextStyleTableRecord
  2
TEXTSTYLE_1
 70
0
 40
0.0
 41
0.8
 50
0.0
 71
0
 42
0.2
  3
gdt
  4

  0
ENDTAB
  0
TABLE
  2
VIEW
  5
6
100
AcDbSymbolTable
 70
0
  0
ENDTAB
  0
TABLE
  2
UCS
  5
7
100
AcDbSymbolTable
 70
0
  0
ENDTAB
  0
TABLE
  2
APPID
  5
9
100
AcDbSymbolTable
 70
1
  0
APPID
  5
20F
100
AcDbSymbolTableRecord
100
AcDbRegAppTableRecord
  2
ACAD
 70
0
  0
ENDTAB
  0
TABLE
  2
BLOCK_RECORD
  5
1
100
AcDbSymbolTable
 70
0
  0
BLOCK_RECORD
  5
210
100
AcDbSymbolTableRecord
100
AcDbBlockTableRecord
  2
*Model_Space
  0
BLOCK_RECORD
  5
211
100
AcDbSymbolTableRecord
100
AcDbBlockTableRecord
  2
*Paper_Space
  0
BLOCK_RECORD
  5
212
100
AcDbSymbolTableRecord
100
AcDbBlockTableRecord
  2
_FILLED
  0
ENDTAB
  0
TABLE
  2
DIMSTYLE
  5
A
100
AcDbSymbolTable
 70
1
100
AcDbDimStyleTable
 71
0
  0
DIMSTYLE
105
213
100
AcDbSymbolTableRecord
100
AcDbDimStyleTableRecord
  2
STANDARD
 70
0
  3

  4

 40
1.0
 41
4.201851489
 42
1.0
 43
0.38
 44
1.0
 45
0.0
 46
0.0
 47
0.01
 48
0.01
140
5.8825920846
141
0.09
142
0.0
143
25.4
144
1.0
145
0.0
146
1.0
147
0.625
 71
1
 72
0
 73
0
 74
0
 75
0
 76
0
 77
1
 78
8
 79
2
170
0
171
1
172
0
173
0
174
0
175
0
176
0
177
0
178
0
270
2
179
2
271
2
272
2
273
2
274
2
275
0
280
0
281
0
282
0
283
1
284
8
285
0
286
0
287
3
288
0
340
11
278
46
341
212
342
212
343
212
344
212
  0
ENDTAB
  0
ENDSEC
  0
SECTION
  2
BLOCKS
  0
BLOCK
  5
20
100
AcDbEntity
  8
0
100
AcDbBlockBegin
  2
*Model_Space
 70
0
 10
0.0
 20
0.0
 30
0.0
  3
*Model_Space
  1

  0
ENDBLK
  5
21
100
AcDbEntity
  8
0
100
AcDbBlockEnd
  0
BLOCK
  5
1C
100
AcDbEntity
  8
0
100
AcDbBlockBegin
  2
*Paper_Space
 70
0
 10
0.0
 20
0.0
 30
0.0
  3
*Paper_Space
  1

  0
ENDBLK
  5
1D
100
AcDbEntity
  8
0
100
AcDbBlockEnd
  0
BLOCK
  5
214
100
AcDbEntity
  8
0
100
AcDbBlockBegin
  2
_FILLED
 70
64
 10
0.0
 20
0.0
  3
_FILLED
  1

  0
SOLID
  5
215
100
AcDbEntity
  8
0
  6
BYBLOCK
 62
0
100
AcDbTrace
 10
0.0
 20
0.0
 11
-1.0
 21
0.25
 12
-1.0
 22
-0.25
 13
-1.0
 23
-0.25
  0
ENDBLK
  5
216
100
AcDbEntity
  8
0
  6
BYBLOCK
 62
0
100
AcDbBlockEnd
  0
ENDSEC
  0
SECTION
  2
ENTITIES
  0
LINE
  5
217
100
AcDbEntity
  8
0
100
AcDbLine
 62
7
  6
BYLAYER
 10
65.910197884
 20
227.0225
 11
65.910197884
 21
230.6565874062
  0
LINE
  5
218
100
AcDbEntity
  8
0
100
AcDbLine
 62
7
  6
BYLAYER
 10
65.910197884
 20
236.4884121747
 11
65.910197884
 21
240.1225
  0
LINE
  5
219
100
AcDbEntity
  8
0
100
AcDbLine
 62
7
  6
BYLAYER
 10
71.510197884
 20
240.1225
 11
71.510197884
 21
227.0228800434
  0
LINE
  5
21A
100
AcDbEntity
  8
0
100
AcDbLine
 62
7
  6
BYLAYER
 10
73.510197884
 20
228.1197567564
 11
73.510197884
 21
239.0252432436
  0
LINE
  5
21B
100
AcDbEntity
  8
0
100
AcDbLine
 62
7
  6
BYLAYER
 10
73.510197884
 20
228.1190280286
 11
73.9436839868
 21
227.0725
  0
LINE
  5
21C
100
AcDbEntity
  8
0
100
AcDbLine
 62
7
  6
BYLAYER
 10
77.360197884
 20
225.5725458455
 11
77.360197884
 21
241.5724541545
  0
LINE
  5
21D
100
AcDbEntity
  8
0
100
AcDbLine
 62
7
  6
BYLAYER
 10
78.860197884
 20
224.0725
 11
78.860197884
 21
243.0725
  0
LINE
  5
21E
100
AcDbEntity
  8
0
100
AcDbLine
 62
7
  6
BYLAYER
 10
80.5547064763
 20
224.2327913533
 11
80.5547064763
 21
242.9122086467
  0
LINE
  5
21F
100
AcDbEntity
  8
0
100
AcDbLine
 62
7
  6
BYLAYER
 10
85.6611597783
 20
215.3881547877
 11
80.5547064763
 21
224.2327913533
  0
LINE
  5
220
100
AcDbEntity
  8
0
100
AcDbLine
 62
7
  6
BYLAYER
 10
77.360197884
 20
239.0259719714
 11
76.9267117812
 21
240.0725
  0
LINE
  5
221
100
AcDbEntity
  8
0
100
AcDbLine
 62
7
  6
BYLAYER
 10
85.6611597783
 20
251.7568452123
 11
85.6611597783
 21
215.3881547877
  0
LINE
  5
222
100
AcDbEntity
  8
0
100
AcDbLine
 62
7
  6
BYLAYER
 10
88.1742946118
 20
215.2572636845
 11
88.1742946118
 21
251.8877363155
  0
LINE
  5
223
100
AcDbEntity
  8
0
100
AcDbLine
 62
7
  6
BYLAYER
 10
89.8364387566
 20
249.5968699871
 11
89.8364387566
 21
217.5481300129
  0
LINE
  5
224
100
AcDbEntity
  8
0
100
AcDbLine
 62
7
  6
BYLAYER
 10
90.4839570114
 20
217.5481300129
 11
90.4839570114
 21
249.5968699871
  0
LINE
  5
225
100
AcDbEntity
  8
0
100
AcDbLine
 62
7
  6
BYLAYER
 10
92.1461011563
 20
251.8877363155
 11
92.1461011563
 21
215.2572636845
  0
LINE
  5
226
100
AcDbEntity
  8
0
100
AcDbLine
 62
7
  6
BYLAYER
 10
94.5742946118
 20
215.2572636845
 11
94.5742946118
 21
251.8877363155
  0
LINE
  5
227
100
AcDbEntity
  8
0
100
AcDbLine
 62
7
  6
BYLAYER
 10
73.510197884
 20
239.0259719714
 11
73.9436839868
 21
240.0725
  0
LINE
  5
228
100
AcDbEntity
  8
0
100
AcDbLine
 62
7
  6
BYLAYER
 10
77.360197884
 20
228.1190280286
 11
76.9267117812
 21
227.0725
  0
LINE
  5
229
100
AcDbEntity
  8
0
100
AcDbLine
 62
7
  6
BYLAYER
 10
92.1461011563
 20
215.2572636845
 11
90.4839570114
 21
217.5481300129
  0
LINE
  5
22A
100
AcDbEntity
  8
0
100
AcDbLine
 62
7
  6
BYLAYER
 10
96.2364387566
 20
249.5968699871
 11
96.2364387566
 21
217.5481300129
  0
LINE
  5
22B
100
AcDbEntity
  8
0
100
AcDbLine
 62
7
  6
BYLAYER
 10
96.8839570114
 20
217.5481300129
 11
96.8839570114
 21
249.5968699871
  0
LINE
  5
22C
100
AcDbEntity
  8
0
100
AcDbLine
 62
7
  6
BYLAYER
 10
98.5461011563
 20
251.8877363155
 11
98.5461011563
 21
215.2572636845
  0
LINE
  5
22D
100
AcDbEntity
  8
0
100
AcDbLine
 62
7
  6
BYLAYER
 10
100.9742946118
 20
215.2572636845
 11
100.9742946118
 21
251.8877363155
  0
LINE
  5
22E
100
AcDbEntity
  8
0
100
AcDbLine
 62
7
  6
BYLAYER
 10
102.6364387566
 20
249.5968699871
 11
102.6364387566
 21
217.5481300129
  0
LINE
  5
22F
100
AcDbEntity
  8
0
100
AcDbLine
 62
7
  6
BYLAYER
 10
103.2839570114
 20
217.5481300129
 11
103.2839570114
 21
249.5968699871
  0
LINE
  5
230
100
AcDbEntity
  8
0
100
AcDbLine
 62
7
  6
BYLAYER
 10
85.6611597783
 20
251.7568452123
 11
80.5547064763
 21
242.9122086467
  0
LINE
  5
231
100
AcDbEntity
  8
0
100
AcDbLine
 62
7
  6
BYLAYER
 10
98.5461011563
 20
215.2572636845
 11
96.8839570114
 21
217.5481300129
  0
LINE
  5
232
100
AcDbEntity
  8
0
100
AcDbLine
 62
7
  6
BYLAYER
 10
104.9461011563
 20
215.2572636845
 11
103.2839570114
 21
217.5481300129
  0
LINE
  5
233
100
AcDbEntity
  8
0
100
AcDbLine
 62
7
  6
BYLAYER
 10
104.9461011563
 20
251.8877363155
 11
104.9461011563
 21
215.2572636845
  0
LINE
  5
234
100
AcDbEntity
  8
0
100
AcDbLine
 62
7
  6
BYLAYER
 10
107.0083317778
 20
214.9010931564
 11
107.008399813
 21
252.2440006138
  0
LINE
  5
235
100
AcDbEntity
  8
0
100
AcDbLine
 62
7
  6
BYLAYER
 10
107.4592359897
 20
215.3881547877
 11
107.4592359897
 21
251.4881547877
  0
LINE
  5
236
100
AcDbEntity
  8
0
100
AcDbLine
 62
7
  6
BYLAYER
 10
109.8263720934
 20
219.4881547877
 11
109.8263720934
 21
247.3881547877
  0
LINE
  5
237
100
AcDbEntity
  8
0
100
AcDbLine
 62
7
  6
BYLAYER
 10
114.060197884
 20
265.1225
 11
114.060197884
 21
213.5225
  0
LINE
  5
238
100
AcDbEntity
  8
0
100
AcDbLine
 62
7
  6
BYLAYER
 10
92.1461011563
 20
251.8877363155
 11
90.4839570114
 21
249.5968699871
  0
LINE
  5
239
100
AcDbEntity
  8
0
100
AcDbLine
 62
7
  6
BYLAYER
 10
98.5461011563
 20
251.8877363155
 11
96.8839570114
 21
249.5968699871
  0
LINE
  5
23A
100
AcDbEntity
  8
0
100
AcDbLine
 62
7
  6
BYLAYER
 10
89.8364387566
 20
249.5968699871
 11
88.1742946118
 21
251.8877363155
  0
LINE
  5
23B
100
AcDbEntity
  8
0
100
AcDbLine
 62
7
  6
BYLAYER
 10
96.2364387566
 20
249.5968699871
 11
94.5742946118
 21
251.8877363155
  0
LINE
  5
23C
100
AcDbEntity
  8
0
100
AcDbLine
 62
7
  6
BYLAYER
 10
117.260197884
 20
233.5725
 11
117.260197884
 21
265.1225
  0
LINE
  5
23D
100
AcDbEntity
  8
0
100
AcDbLine
 62
7
  6
BYLAYER
 10
120.060197884
 20
213.5225
 11
120.060197884
 21
233.5725
  0
LINE
  5
23E
100
AcDbEntity
  8
0
100
AcDbLine
 62
7
  6
BYLAYER
 10
104.9461011563
 20
251.8877363155
 11
103.2839570114
 21
249.5968699871
  0
LINE
  5
23F
100
AcDbEntity
  8
0
100
AcDbLine
 62
7
  6
BYLAYER
 10
102.6364387566
 20
249.5968699871
 11
100.9742946118
 21
251.8877363155
  0
LINE
  5
240
100
AcDbEntity
  8
0
100
AcDbLine
 62
7
  6
BYLAYER
 10
109.8263720934
 20
247.3881547877
 11
107.4592359897
 21
251.4881547877
  0
LINE
  5
241
100
AcDbEntity
  8
0
100
AcDbLine
 62
7
  6
BYLAYER
 10
124.860197884
 20
265.1225
 11
124.860197884
 21
233.5725
  0
LINE
  5
242
100
AcDbEntity
  8
0
100
AcDbLine
 62
7
  6
BYLAYER
 10
128.060197884
 20
265.1225
 11
128.060197884
 21
233.5725
  0
LINE
  5
243
100
AcDbEntity
  8
0
100
AcDbLine
 62
7
  6
BYLAYER
 10
129.840197884
 20
267.2825
 11
129.840197884
 21
265.1225
  0
LINE
  5
244
100
AcDbEntity
  8
0
100
AcDbLine
 62
7
  6
BYLAYER
 10
132.010197884
 20
227.1225
 11
132.010197884
 21
249.1220911808
  0
LINE
  5
245
100
AcDbEntity
  8
0
100
AcDbLine
 62
7
  6
BYLAYER
 10
133.260197884
 20
250.6225
 11
133.260197884
 21
265.1225
  0
LINE
  5
246
100
AcDbEntity
  8
0
100
AcDbLine
 62
7
  6
BYLAYER
 10
133.510197884
 20
225.6225
 11
133.510197884
 21
250.6220354327
  0
LINE
  5
247
100
AcDbEntity
  8
0
100
AcDbLine
 62
7
  6
BYLAYER
 10
109.8263720934
 20
219.4881547877
 11
107.4592359897
 21
215.3881547877
  0
LINE
  5
248
100
AcDbEntity
  8
0
100
AcDbLine
 62
7
  6
BYLAYER
 10
89.8364387566
 20
217.5481300129
 11
88.1742946118
 21
215.2572636845
  0
LINE
  5
249
100
AcDbEntity
  8
0
100
AcDbLine
 62
7
  6
BYLAYER
 10
96.2364387566
 20
217.5481300129
 11
94.5742946118
 21
215.2572636845
  0
LINE
  5
24A
100
AcDbEntity
  8
0
100
AcDbLine
 62
7
  6
BYLAYER
 10
133.910197884
 20
250.6225
 11
133.910197884
 21
225.6225
  0
LINE
  5
24B
100
AcDbEntity
  8
0
100
AcDbLine
 62
7
  6
BYLAYER
 10
134.410197884
 20
250.1222956723
 11
134.410197884
 21
226.1225
  0
LINE
  5
24C
100
AcDbEntity
  8
0
100
AcDbLine
 62
7
  6
BYLAYER
 10
136.360197884
 20
222.5725
 11
136.360197884
 21
253.6721781448
  0
LINE
  5
24D
100
AcDbEntity
  8
0
100
AcDbLine
 62
7
  6
BYLAYER
 10
136.680197884
 20
267.2825
 11
136.680197884
 21
265.1225
  0
LINE
  5
24E
100
AcDbEntity
  8
0
100
AcDbLine
 62
7
  6
BYLAYER
 10
136.860197884
 20
265.1225
 11
136.860197884
 21
254.5825505063
  0
LINE
  5
24F
100
AcDbEntity
  8
0
100
AcDbLine
 62
7
  6
BYLAYER
 10
136.860197884
 20
221.6624494937
 11
136.860197884
 21
213.5225
  0
LINE
  5
250
100
AcDbEntity
  8
0
100
AcDbLine
 62
7
  6
BYLAYER
 10
137.560197884
 20
221.3725
 11
137.560197884
 21
254.8721533071
  0
LINE
  5
251
100
AcDbEntity
  8
0
100
AcDbLine
 62
7
  6
BYLAYER
 10
140.060197884
 20
265.1225
 11
140.060197884
 21
213.5225
  0
LINE
  5
252
100
AcDbEntity
  8
0
100
AcDbLine
 62
7
  6
BYLAYER
 10
141.840197884
 20
267.2825
 11
141.840197884
 21
265.1225
  0
LINE
  5
253
100
AcDbEntity
  8
0
100
AcDbLine
 62
7
  6
BYLAYER
 10
102.6364387566
 20
217.5481300129
 11
100.9742946118
 21
215.2572636845
  0
LINE
  5
254
100
AcDbEntity
  8
0
100
AcDbLine
 62
7
  6
BYLAYER
 10
145.260197884
 20
213.5225
 11
145.260197884
 21
265.1225
  0
LINE
  5
255
100
AcDbEntity
  8
0
100
AcDbLine
 62
7
  6
BYLAYER
 10
148.680197884
 20
267.2825
 11
148.680197884
 21
265.1225
  0
LINE
  5
256
100
AcDbEntity
  8
0
100
AcDbLine
 62
7
  6
BYLAYER
 10
248.060197884
 20
213.5225
 11
114.060197884
 21
213.5225
  0
LINE
  5
257
100
AcDbEntity
  8
0
100
AcDbLine
 62
7
  6
BYLAYER
 10
114.060197884
 20
219.4881547877
 11
109.8263720934
 21
219.4881547877
  0
LINE
  5
258
100
AcDbEntity
  8
0
100
AcDbLine
 62
7
  6
BYLAYER
 10
248.060197884
 20
219.6225
 11
252.2940236747
 21
219.6225
  0
LINE
  5
259
100
AcDbEntity
  8
0
100
AcDbLine
 62
7
  6
BYLAYER
 10
224.560197884
 20
221.3725
 11
222.060197884
 21
221.3725
  0
LINE
  5
25A
100
AcDbEntity
  8
0
100
AcDbLine
 62
7
  6
BYLAYER
 10
137.560197884
 20
221.3725
 11
140.060197884
 21
221.3725
  0
LINE
  5
25B
100
AcDbEntity
  8
0
100
AcDbLine
 62
7
  6
BYLAYER
 10
78.860197884
 20
225.5725
 11
77.360197884
 21
225.5725
  0
LINE
  5
25C
100
AcDbEntity
  8
0
100
AcDbLine
 62
7
  6
BYLAYER
 10
283.260197884
 20
225.5725
 11
284.760197884
 21
225.5725
  0
LINE
  5
25D
100
AcDbEntity
  8
0
100
AcDbLine
 62
7
  6
BYLAYER
 10
228.610197884
 20
225.6225
 11
228.210197884
 21
225.6225
  0
LINE
  5
25E
100
AcDbEntity
  8
0
100
AcDbLine
 62
7
  6
BYLAYER
 10
133.510197884
 20
225.6225
 11
133.910197884
 21
225.6225
  0
LINE
  5
25F
100
AcDbEntity
  8
0
100
AcDbLine
 62
7
  6
BYLAYER
 10
71.510197884
 20
227.0225
 11
65.910197884
 21
227.0225
  0
LINE
  5
260
100
AcDbEntity
  8
0
100
AcDbLine
 62
7
  6
BYLAYER
 10
290.610197884
 20
227.0225
 11
296.210197884
 21
227.0225
  0
LINE
  5
261
100
AcDbEntity
  8
0
100
AcDbLine
 62
7
  6
BYLAYER
 10
73.9442060836
 20
227.0725
 11
76.9261896844
 21
227.0725
  0
LINE
  5
262
100
AcDbEntity
  8
0
100
AcDbLine
 62
7
  6
BYLAYER
 10
285.1942047773
 20
227.0725
 11
288.1761909908
 21
227.0725
  0
LINE
  5
263
100
AcDbEntity
  8
0
100
AcDbLine
 62
7
  6
BYLAYER
 10
61.6602957314
 20
229.6225
 11
43.260197884
 21
229.6225
  0
LINE
  5
264
100
AcDbEntity
  8
0
100
AcDbLine
 62
7
  6
BYLAYER
 10
300.4601000366
 20
229.6225
 11
318.860197884
 21
229.6225
  0
LINE
  5
265
100
AcDbEntity
  8
0
100
AcDbLine
 62
7
  6
BYLAYER
 10
166.060197884
 20
271.5725
 11
166.060197884
 21
266.3725
  0
LINE
  5
266
100
AcDbEntity
  8
0
100
AcDbLine
 62
7
  6
BYLAYER
 10
166.810197884
 20
266.3725
 11
166.810197884
 21
279.6460034129
  0
LINE
  5
267
100
AcDbEntity
  8
0
100
AcDbLine
 62
7
  6
BYLAYER
 10
168.460197884
 20
266.3725
 11
168.460197884
 21
265.1225
  0
LINE
  5
268
100
AcDbEntity
  8
0
100
AcDbLine
 62
7
  6
BYLAYER
 10
166.060197884
 20
271.5725
 11
166.760197884
 21
280.5725
  0
LINE
  5
269
100
AcDbEntity
  8
0
100
AcDbLine
 62
7
  6
BYLAYER
 10
281.5656892917
 20
242.7778634344
 11
283.260197884
 21
242.9381547877
  0
LINE
  5
26A
100
AcDbEntity
  8
0
100
AcDbLine
 62
7
  6
BYLAYER
 10
80.5547064763
 20
224.2327913533
 11
78.860197884
 21
224.0725
  0
LINE
  5
26B
100
AcDbEntity
  8
0
100
AcDbLine
 62
7
  6
BYLAYER
 10
287.760197884
 20
233.5725
 11
285.610197884
 21
233.5725
  0
LINE
  5
26C
100
AcDbEntity
  8
0
100
AcDbLine
 62
7
  6
BYLAYER
 10
74.360197884
 20
233.5725
 11
76.510197884
 21
233.5725
  0
LINE
  5
26D
100
AcDbEntity
  8
0
100
AcDbLine
 62
7
  6
BYLAYER
 10
114.060197884
 20
233.5725
 11
132.010197884
 21
233.5725
  0
LINE
  5
26E
100
AcDbEntity
  8
0
100
AcDbLine
 62
7
  6
BYLAYER
 10
230.110197884
 20
233.5725
 11
248.060197884
 21
233.5725
  0
LINE
  5
26F
100
AcDbEntity
  8
0
100
AcDbLine
 62
7
  6
BYLAYER
 10
61.6602957314
 20
237.5225
 11
43.260197884
 21
237.5225
  0
LINE
  5
270
100
AcDbEntity
  8
0
100
AcDbLine
 62
7
  6
BYLAYER
 10
300.4601000366
 20
237.5225
 11
318.860197884
 21
237.5225
  0
LINE
  5
271
100
AcDbEntity
  8
0
100
AcDbLine
 62
7
  6
BYLAYER
 10
80.5547064763
 20
242.9122086467
 11
78.860197884
 21
243.0725
  0
LINE
  5
272
100
AcDbEntity
  8
0
100
AcDbLine
 62
7
  6
BYLAYER
 10
281.5656892917
 20
224.098446141
 11
283.260197884
 21
223.9381547877
  0
LINE
  5
273
100
AcDbEntity
  8
0
100
AcDbLine
 62
7
  6
BYLAYER
 10
288.1761909908
 20
240.0725
 11
285.1942047773
 21
240.0725
  0
LINE
  5
274
100
AcDbEntity
  8
0
100
AcDbLine
 62
7
  6
BYLAYER
 10
73.9442060836
 20
240.0725
 11
76.9261896844
 21
240.0725
  0
LINE
  5
275
100
AcDbEntity
  8
0
100
AcDbLine
 62
7
  6
BYLAYER
 10
71.510197884
 20
240.1225
 11
65.910197884
 21
240.1225
  0
LINE
  5
276
100
AcDbEntity
  8
0
100
AcDbLine
 62
7
  6
BYLAYER
 10
290.610197884
 20
240.1225
 11
296.210197884
 21
240.1225
  0
LINE
  5
277
100
AcDbEntity
  8
0
100
AcDbLine
 62
7
  6
BYLAYER
 10
78.860197884
 20
241.5725
 11
77.360197884
 21
241.5725
  0
LINE
  5
278
100
AcDbEntity
  8
0
100
AcDbLine
 62
7
  6
BYLAYER
 10
283.260197884
 20
241.5725
 11
284.760197884
 21
241.5725
  0
LINE
  5
279
100
AcDbEntity
  8
0
100
AcDbLine
 62
7
  6
BYLAYER
 10
114.060197884
 20
247.3881547877
 11
109.8263720934
 21
247.3881547877
  0
LINE
  5
27A
100
AcDbEntity
  8
0
100
AcDbLine
 62
7
  6
BYLAYER
 10
248.060197884
 20
247.5225
 11
252.2940236747
 21
247.5225
  0
LINE
  5
27B
100
AcDbEntity
  8
0
100
AcDbLine
 62
7
  6
BYLAYER
 10
228.610197884
 20
250.6225
 11
228.210197884
 21
250.6225
  0
LINE
  5
27C
100
AcDbEntity
  8
0
100
AcDbLine
 62
7
  6
BYLAYER
 10
133.510197884
 20
250.6225
 11
133.910197884
 21
250.6225
  0
LINE
  5
27D
100
AcDbEntity
  8
0
100
AcDbLine
 62
7
  6
BYLAYER
 10
224.560197884
 20
254.8725
 11
222.060197884
 21
254.8725
  0
LINE
  5
27E
100
AcDbEntity
  8
0
100
AcDbLine
 62
7
  6
BYLAYER
 10
137.560197884
 20
254.8725
 11
140.060197884
 21
254.8725
  0
LINE
  5
27F
100
AcDbEntity
  8
0
100
AcDbLine
 62
7
  6
BYLAYER
 10
195.360197884
 20
280.5725
 11
196.060197884
 21
271.5725
  0
LINE
  5
280
100
AcDbEntity
  8
0
100
AcDbLine
 62
7
  6
BYLAYER
 10
193.660197884
 20
265.1225
 11
193.660197884
 21
266.3725
  0
LINE
  5
281
100
AcDbEntity
  8
0
100
AcDbLine
 62
7
  6
BYLAYER
 10
195.310197884
 20
279.6460034129
 11
195.310197884
 21
266.3725
  0
LINE
  5
282
100
AcDbEntity
  8
0
100
AcDbLine
 62
7
  6
BYLAYER
 10
196.060197884
 20
271.5725
 11
196.060197884
 21
266.3725
  0
LINE
  5
283
100
AcDbEntity
  8
0
100
AcDbLine
 62
7
  6
BYLAYER
 10
114.060197884
 20
265.1225
 11
248.060197884
 21
265.1225
  0
LINE
  5
284
100
AcDbEntity
  8
0
100
AcDbLine
 62
7
  6
BYLAYER
 10
196.060197884
 20
266.3725
 11
166.060197884
 21
266.3725
  0
LINE
  5
285
100
AcDbEntity
  8
0
100
AcDbLine
 62
7
  6
BYLAYER
 10
129.840197884
 20
267.2825
 11
136.680197884
 21
267.2825
  0
LINE
  5
286
100
AcDbEntity
  8
0
100
AcDbLine
 62
7
  6
BYLAYER
 10
141.840197884
 20
267.2825
 11
148.680197884
 21
267.2825
  0
LINE
  5
287
100
AcDbEntity
  8
0
100
AcDbLine
 62
7
  6
BYLAYER
 10
213.440197884
 20
267.2825
 11
220.280197884
 21
267.2825
  0
LINE
  5
288
100
AcDbEntity
  8
0
100
AcDbLine
 62
7
  6
BYLAYER
 10
225.440197884
 20
267.2825
 11
232.280197884
 21
267.2825
  0
LINE
  5
289
100
AcDbEntity
  8
0
100
AcDbLine
 62
7
  6
BYLAYER
 10
130.340197884
 20
267.7825
 11
136.180197884
 21
267.7825
  0
LINE
  5
28A
100
AcDbEntity
  8
0
100
AcDbLine
 62
7
  6
BYLAYER
 10
142.340197884
 20
267.7825
 11
148.180197884
 21
267.7825
  0
LINE
  5
28B
100
AcDbEntity
  8
0
100
AcDbLine
 62
7
  6
BYLAYER
 10
213.940197884
 20
267.7825
 11
219.780197884
 21
267.7825
  0
LINE
  5
28C
100
AcDbEntity
  8
0
100
AcDbLine
 62
7
  6
BYLAYER
 10
225.940197884
 20
267.7825
 11
231.780197884
 21
267.7825
  0
LINE
  5
28D
100
AcDbEntity
  8
0
100
AcDbLine
 62
7
  6
BYLAYER
 10
166.060197884
 20
271.5725
 11
166.810197884
 21
271.5725
  0
LINE
  5
28E
100
AcDbEntity
  8
0
100
AcDbLine
 62
7
  6
BYLAYER
 10
195.310197884
 20
271.5725
 11
196.060197884
 21
271.5725
  0
LINE
  5
28F
100
AcDbEntity
  8
0
100
AcDbLine
 62
7
  6
BYLAYER
 10
213.440197884
 20
267.2825
 11
213.440197884
 21
265.1225
  0
LINE
  5
290
100
AcDbEntity
  8
0
100
AcDbLine
 62
7
  6
BYLAYER
 10
216.860197884
 20
265.1225
 11
216.860197884
 21
213.5225
  0
LINE
  5
291
100
AcDbEntity
  8
0
100
AcDbLine
 62
7
  6
BYLAYER
 10
220.280197884
 20
267.2825
 11
220.280197884
 21
265.1225
  0
LINE
  5
292
100
AcDbEntity
  8
0
100
AcDbLine
 62
7
  6
BYLAYER
 10
166.810197884
 20
279.6460034129
 11
195.310197884
 21
279.6460034129
  0
LINE
  5
293
100
AcDbEntity
  8
0
100
AcDbLine
 62
7
  6
BYLAYER
 10
166.760197884
 20
280.5725
 11
167.5211792651
 21
280.5725
  0
LINE
  5
294
100
AcDbEntity
  8
0
100
AcDbLine
 62
7
  6
BYLAYER
 10
194.5992165029
 20
280.5725
 11
195.360197884
 21
280.5725
  0
LINE
  5
295
100
AcDbEntity
  8
0
100
AcDbLine
 62
7
  6
BYLAYER
 10
167.5211792651
 20
280.603326889
 11
194.5992165029
 21
280.603326889
  0
LINE
  5
296
100
AcDbEntity
  8
0
100
AcDbLine
 62
7
  6
BYLAYER
 10
222.060197884
 20
213.5225
 11
222.060197884
 21
265.1225
  0
LINE
  5
297
100
AcDbEntity
  8
0
100
AcDbLine
 62
7
  6
BYLAYER
 10
224.560197884
 20
254.8725
 11
224.560197884
 21
221.3728466929
  0
LINE
  5
298
100
AcDbEntity
  8
0
100
AcDbLine
 62
7
  6
BYLAYER
 10
225.260197884
 20
213.5225
 11
225.260197884
 21
221.6624494937
  0
LINE
  5
299
100
AcDbEntity
  8
0
100
AcDbLine
 62
7
  6
BYLAYER
 10
225.260197884
 20
254.5825505063
 11
225.260197884
 21
265.1225
  0
LINE
  5
29A
100
AcDbEntity
  8
0
100
AcDbLine
 62
7
  6
BYLAYER
 10
225.440197884
 20
267.2825
 11
225.440197884
 21
265.1225
  0
LINE
  5
29B
100
AcDbEntity
  8
0
100
AcDbLine
 62
7
  6
BYLAYER
 10
225.760197884
 20
253.6725
 11
225.760197884
 21
222.5728218552
  0
LINE
  5
29C
100
AcDbEntity
  8
0
100
AcDbLine
 62
7
  6
BYLAYER
 10
227.710197884
 20
226.1225
 11
227.710197884
 21
250.1225
  0
LINE
  5
29D
100
AcDbEntity
  8
0
100
AcDbLine
 62
7
  6
BYLAYER
 10
228.210197884
 20
225.6225
 11
228.210197884
 21
250.6225
  0
LINE
  5
29E
100
AcDbEntity
  8
0
100
AcDbLine
 62
7
  6
BYLAYER
 10
228.610197884
 20
250.6225
 11
228.610197884
 21
225.6229645673
  0
LINE
  5
29F
100
AcDbEntity
  8
0
100
AcDbLine
 62
7
  6
BYLAYER
 10
228.860197884
 20
265.1225
 11
228.860197884
 21
250.6225
  0
LINE
  5
2A0
100
AcDbEntity
  8
0
100
AcDbLine
 62
7
  6
BYLAYER
 10
230.110197884
 20
249.1225
 11
230.110197884
 21
227.1229088192
  0
LINE
  5
2A1
100
AcDbEntity
  8
0
100
AcDbLine
 62
7
  6
BYLAYER
 10
259.4839570114
 20
217.4137848006
 11
261.1461011563
 21
215.1229184722
  0
LINE
  5
2A2
100
AcDbEntity
  8
0
100
AcDbLine
 62
7
  6
BYLAYER
 10
252.2940236747
 20
219.6225
 11
254.6611597783
 21
215.5225
  0
LINE
  5
2A3
100
AcDbEntity
  8
0
100
AcDbLine
 62
7
  6
BYLAYER
 10
232.280197884
 20
267.2825
 11
232.280197884
 21
265.1225
  0
LINE
  5
2A4
100
AcDbEntity
  8
0
100
AcDbLine
 62
7
  6
BYLAYER
 10
234.060197884
 20
233.5725
 11
234.060197884
 21
265.1225
  0
LINE
  5
2A5
100
AcDbEntity
  8
0
100
AcDbLine
 62
7
  6
BYLAYER
 10
237.260197884
 20
233.5725
 11
237.260197884
 21
265.1225
  0
LINE
  5
2A6
100
AcDbEntity
  8
0
100
AcDbLine
 62
7
  6
BYLAYER
 10
265.8839570114
 20
217.4137848006
 11
267.5461011563
 21
215.1229184722
  0
LINE
  5
2A7
100
AcDbEntity
  8
0
100
AcDbLine
 62
7
  6
BYLAYER
 10
272.2839570114
 20
217.4137848006
 11
273.9461011563
 21
215.1229184722
  0
LINE
  5
2A8
100
AcDbEntity
  8
0
100
AcDbLine
 62
7
  6
BYLAYER
 10
242.060197884
 20
233.5725
 11
242.060197884
 21
213.5225
  0
LINE
  5
2A9
100
AcDbEntity
  8
0
100
AcDbLine
 62
7
  6
BYLAYER
 10
244.860197884
 20
265.1225
 11
244.860197884
 21
233.5725
  0
LINE
  5
2AA
100
AcDbEntity
  8
0
100
AcDbLine
 62
7
  6
BYLAYER
 10
248.060197884
 20
213.5225
 11
248.060197884
 21
265.1225
  0
LINE
  5
2AB
100
AcDbEntity
  8
0
100
AcDbLine
 62
7
  6
BYLAYER
 10
252.2940236747
 20
247.5225
 11
254.6611597783
 21
251.6225
  0
LINE
  5
2AC
100
AcDbEntity
  8
0
100
AcDbLine
 62
7
  6
BYLAYER
 10
259.4839570114
 20
249.4625247748
 11
261.1461011563
 21
251.7533911032
  0
LINE
  5
2AD
100
AcDbEntity
  8
0
100
AcDbLine
 62
7
  6
BYLAYER
 10
265.8839570114
 20
249.4625247748
 11
267.5461011563
 21
251.7533911032
  0
LINE
  5
2AE
100
AcDbEntity
  8
0
100
AcDbLine
 62
7
  6
BYLAYER
 10
257.1742946118
 20
251.7533911032
 11
258.8364387566
 21
249.4625247748
  0
LINE
  5
2AF
100
AcDbEntity
  8
0
100
AcDbLine
 62
7
  6
BYLAYER
 10
263.5742946118
 20
251.7533911032
 11
265.2364387566
 21
249.4625247748
  0
LINE
  5
2B0
100
AcDbEntity
  8
0
100
AcDbLine
 62
7
  6
BYLAYER
 10
252.2940236747
 20
247.5225
 11
252.2940236747
 21
219.6225
  0
LINE
  5
2B1
100
AcDbEntity
  8
0
100
AcDbLine
 62
7
  6
BYLAYER
 10
254.6611597783
 20
251.6225
 11
254.6611597783
 21
215.5225
  0
LINE
  5
2B2
100
AcDbEntity
  8
0
100
AcDbLine
 62
7
  6
BYLAYER
 10
255.1120635995
 20
252.1095621698
 11
255.111995955
 21
214.7666541739
  0
LINE
  5
2B3
100
AcDbEntity
  8
0
100
AcDbLine
 62
7
  6
BYLAYER
 10
257.1742946118
 20
215.1229184722
 11
257.1742946118
 21
251.7533911032
  0
LINE
  5
2B4
100
AcDbEntity
  8
0
100
AcDbLine
 62
7
  6
BYLAYER
 10
258.8364387566
 20
249.4625247748
 11
258.8364387566
 21
217.4137848006
  0
LINE
  5
2B5
100
AcDbEntity
  8
0
100
AcDbLine
 62
7
  6
BYLAYER
 10
259.4839570114
 20
217.4137848006
 11
259.4839570114
 21
249.4625247748
  0
LINE
  5
2B6
100
AcDbEntity
  8
0
100
AcDbLine
 62
7
  6
BYLAYER
 10
272.2839570114
 20
249.4625247748
 11
273.9461011563
 21
251.7533911032
  0
LINE
  5
2B7
100
AcDbEntity
  8
0
100
AcDbLine
 62
7
  6
BYLAYER
 10
269.9742946118
 20
251.7533911032
 11
271.6364387566
 21
249.4625247748
  0
LINE
  5
2B8
100
AcDbEntity
  8
0
100
AcDbLine
 62
7
  6
BYLAYER
 10
261.1461011563
 20
251.7533911032
 11
261.1461011563
 21
215.1229184722
  0
LINE
  5
2B9
100
AcDbEntity
  8
0
100
AcDbLine
 62
7
  6
BYLAYER
 10
263.5742946118
 20
215.1229184722
 11
263.5742946118
 21
251.7533911032
  0
LINE
  5
2BA
100
AcDbEntity
  8
0
100
AcDbLine
 62
7
  6
BYLAYER
 10
265.2364387566
 20
249.4625247748
 11
265.2364387566
 21
217.4137848006
  0
LINE
  5
2BB
100
AcDbEntity
  8
0
100
AcDbLine
 62
7
  6
BYLAYER
 10
265.8839570114
 20
217.4137848006
 11
265.8839570114
 21
249.4625247748
  0
LINE
  5
2BC
100
AcDbEntity
  8
0
100
AcDbLine
 62
7
  6
BYLAYER
 10
267.5461011563
 20
251.7533911032
 11
267.5461011563
 21
215.1229184722
  0
LINE
  5
2BD
100
AcDbEntity
  8
0
100
AcDbLine
 62
7
  6
BYLAYER
 10
257.1742946118
 20
215.1229184722
 11
258.8364387566
 21
217.4137848006
  0
LINE
  5
2BE
100
AcDbEntity
  8
0
100
AcDbLine
 62
7
  6
BYLAYER
 10
263.5742946118
 20
215.1229184722
 11
265.2364387566
 21
217.4137848006
  0
LINE
  5
2BF
100
AcDbEntity
  8
0
100
AcDbLine
 62
7
  6
BYLAYER
 10
276.4592359897
 20
251.6225
 11
281.5656892917
 21
242.7778634344
  0
LINE
  5
2C0
100
AcDbEntity
  8
0
100
AcDbLine
 62
7
  6
BYLAYER
 10
284.760197884
 20
228.1190280286
 11
285.1936839868
 21
227.0725
  0
LINE
  5
2C1
100
AcDbEntity
  8
0
100
AcDbLine
 62
7
  6
BYLAYER
 10
269.9742946118
 20
215.1229184722
 11
269.9742946118
 21
251.7533911032
  0
LINE
  5
2C2
100
AcDbEntity
  8
0
100
AcDbLine
 62
7
  6
BYLAYER
 10
271.6364387566
 20
249.4625247748
 11
271.6364387566
 21
217.4137848006
  0
LINE
  5
2C3
100
AcDbEntity
  8
0
100
AcDbLine
 62
7
  6
BYLAYER
 10
272.2839570114
 20
217.4137848006
 11
272.2839570114
 21
249.4625247748
  0
LINE
  5
2C4
100
AcDbEntity
  8
0
100
AcDbLine
 62
7
  6
BYLAYER
 10
273.9461011563
 20
251.7533911032
 11
273.9461011563
 21
215.1229184722
  0
LINE
  5
2C5
100
AcDbEntity
  8
0
100
AcDbLine
 62
7
  6
BYLAYER
 10
276.4592359897
 20
215.2538095754
 11
276.4592359897
 21
251.6225
  0
LINE
  5
2C6
100
AcDbEntity
  8
0
100
AcDbLine
 62
7
  6
BYLAYER
 10
269.9742946118
 20
215.1229184722
 11
271.6364387566
 21
217.4137848006
  0
LINE
  5
2C7
100
AcDbEntity
  8
0
100
AcDbLine
 62
7
  6
BYLAYER
 10
288.610197884
 20
239.0259719714
 11
288.1767117812
 21
240.0725
  0
LINE
  5
2C8
100
AcDbEntity
  8
0
100
AcDbLine
 62
7
  6
BYLAYER
 10
281.5656892917
 20
242.7778634344
 11
281.5656892917
 21
224.098446141
  0
LINE
  5
2C9
100
AcDbEntity
  8
0
100
AcDbLine
 62
7
  6
BYLAYER
 10
283.260197884
 20
242.9381547877
 11
283.260197884
 21
223.9381547877
  0
LINE
  5
2CA
100
AcDbEntity
  8
0
100
AcDbLine
 62
7
  6
BYLAYER
 10
284.760197884
 20
241.5724541545
 11
284.760197884
 21
225.5725458455
  0
LINE
  5
2CB
100
AcDbEntity
  8
0
100
AcDbLine
 62
7
  6
BYLAYER
 10
288.610197884
 20
239.0252432436
 11
288.610197884
 21
228.1197567564
  0
LINE
  5
2CC
100
AcDbEntity
  8
0
100
AcDbLine
 62
7
  6
BYLAYER
 10
284.760197884
 20
239.0259719714
 11
285.1936839868
 21
240.0725
  0
LINE
  5
2CD
100
AcDbEntity
  8
0
100
AcDbLine
 62
7
  6
BYLAYER
 10
288.610197884
 20
228.1190280286
 11
288.1767117812
 21
227.0725
  0
LINE
  5
2CE
100
AcDbEntity
  8
0
100
AcDbLine
 62
7
  6
BYLAYER
 10
276.4592359897
 20
215.2538095754
 11
281.5656892917
 21
224.098446141
  0
LINE
  5
2CF
100
AcDbEntity
  8
0
100
AcDbLine
 62
7
  6
BYLAYER
 10
290.610197884
 20
227.0225
 11
290.610197884
 21
240.1221199566
  0
LINE
  5
2D0
100
AcDbEntity
  8
0
100
AcDbLine
 62
7
  6
BYLAYER
 10
296.210197884
 20
240.1225
 11
296.210197884
 21
236.4884140592
  0
LINE
  5
2D1
100
AcDbEntity
  8
0
100
AcDbLine
 62
7
  6
BYLAYER
 10
296.210197884
 20
230.6565864485
 11
296.210197884
 21
227.0225
  0
ARC
  5
2D2
100
AcDbEntity
  8
0
100
AcDbCircle
 62
7
  6
BYLAYER
 10
86.960197884
 20
216.1381547877
 40
1.5
100
AcDbArc
 50
209.9999999999
 51
324.0371383148
  0
ARC
  5
2D3
100
AcDbEntity
  8
0
100
AcDbCircle
 62
7
  6
BYLAYER
 10
93.360197884
 20
216.1381547877
 40
1.5
100
AcDbArc
 50
215.9628616852
 51
324.0371383148
  0
ARC
  5
2D4
100
AcDbEntity
  8
0
100
AcDbCircle
 62
7
  6
BYLAYER
 10
99.760197884
 20
216.1381547877
 40
1.5
100
AcDbArc
 50
215.9628616852
 51
324.0371383148
  0
ARC
  5
2D5
100
AcDbEntity
  8
0
100
AcDbCircle
 62
7
  6
BYLAYER
 10
90.160197884
 20
217.3132257187
 40
0.4
100
AcDbArc
 50
35.9628616854
 51
144.0371383146
  0
ARC
  5
2D6
100
AcDbEntity
  8
0
100
AcDbCircle
 62
7
  6
BYLAYER
 10
96.560197884
 20
217.3132257187
 40
0.4
100
AcDbArc
 50
35.9628616854
 51
144.0371383146
  0
ARC
  5
2D7
100
AcDbEntity
  8
0
100
AcDbCircle
 62
7
  6
BYLAYER
 10
102.960197884
 20
217.3132257187
 40
0.4
100
AcDbArc
 50
35.9628616854
 51
144.0371383146
  0
ARC
  5
2D8
100
AcDbEntity
  8
0
100
AcDbCircle
 62
7
  6
BYLAYER
 10
65.910197884
 20
233.5725
 40
6.55
100
AcDbArc
 50
215.5636580385
 51
270.0
  0
ARC
  5
2D9
100
AcDbEntity
  8
0
100
AcDbCircle
 62
7
  6
BYLAYER
 10
65.910197884
 20
233.5725
 40
6.55
100
AcDbArc
 50
90.0
 51
141.2068010535
  0
ARC
  5
2DA
100
AcDbEntity
  8
0
100
AcDbCircle
 62
7
  6
BYLAYER
 10
43.260197884
 20
233.5725
 40
3.95
100
AcDbArc
 50
90.0
 51
270.0
  0
ARC
  5
2DB
100
AcDbEntity
  8
0
100
AcDbCircle
 62
7
  6
BYLAYER
 10
63.3056711463
 20
234.8117963436
 40
3.602548052
100
AcDbArc
 50
122.3526606662
 51
131.0877520591
  0
ARC
  5
2DC
100
AcDbEntity
  8
0
100
AcDbCircle
 62
7
  6
BYLAYER
 10
63.3055851899
 20
232.3331000296
 40
3.6024133408
100
AcDbArc
 50
228.9110954193
 51
237.658542657
  0
ARC
  5
2DD
100
AcDbEntity
  8
0
100
AcDbCircle
 62
7
  6
BYLAYER
 10
71.510197884
 20
229.0225
 40
2.0
100
AcDbArc
 50
270.0
 51
360.0
  0
ARC
  5
2DE
100
AcDbEntity
  8
0
100
AcDbCircle
 62
7
  6
BYLAYER
 10
71.510197884
 20
238.1225
 40
2.0
100
AcDbArc
 50
0.0
 51
90.0
  0
ARC
  5
2DF
100
AcDbEntity
  8
0
100
AcDbCircle
 62
7
  6
BYLAYER
 10
106.160197884
 20
216.1381547877
 40
1.5
100
AcDbArc
 50
215.9628616852
 51
330.0000000001
  0
ARC
  5
2E0
100
AcDbEntity
  8
0
100
AcDbCircle
 62
7
  6
BYLAYER
 10
133.510197884
 20
227.1225
 40
1.5
100
AcDbArc
 50
180.0
 51
270.0
  0
ARC
  5
2E1
100
AcDbEntity
  8
0
100
AcDbCircle
 62
7
  6
BYLAYER
 10
137.560197884
 20
222.5725
 40
1.2
100
AcDbArc
 50
180.0
 51
270.0
  0
ARC
  5
2E2
100
AcDbEntity
  8
0
100
AcDbCircle
 62
7
  6
BYLAYER
 10
135.360197884
 20
227.1225
 40
1.0
100
AcDbArc
 50
198.1948723388
 51
360.0
  0
ARC
  5
2E3
100
AcDbEntity
  8
0
100
AcDbCircle
 62
7
  6
BYLAYER
 10
133.910197884
 20
226.1225
 40
0.5
100
AcDbArc
 50
270.0
 51
360.0
  0
CIRCLE
  5
2E4
100
AcDbEntity
  8
0
100
AcDbCircle
 62
7
  6
BYLAYER
 10
166.560197884
 20
241.1225
 40
16.75
  0
CIRCLE
  5
2E5
100
AcDbEntity
  8
0
100
AcDbCircle
 62
7
  6
BYLAYER
 10
166.560197884
 20
241.1225
 40
15.55
  0
CIRCLE
  5
2E6
100
AcDbEntity
  8
0
100
AcDbCircle
 62
7
  6
BYLAYER
 10
166.560197884
 20
241.1225
 40
11.3
  0
CIRCLE
  5
2E7
100
AcDbEntity
  8
0
100
AcDbCircle
 62
7
  6
BYLAYER
 10
166.560197884
 20
241.1225
 40
8.3
  0
ARC
  5
2E8
100
AcDbEntity
  8
0
100
AcDbCircle
 62
7
  6
BYLAYER
 10
106.160197884
 20
251.0068452123
 40
1.5
100
AcDbArc
 50
55.5652069095
 51
144.0371383148
  0
ARC
  5
2E9
100
AcDbEntity
  8
0
100
AcDbCircle
 62
7
  6
BYLAYER
 10
133.510197884
 20
249.1225
 40
1.5
100
AcDbArc
 50
90.0
 51
180.0
  0
ARC
  5
2EA
100
AcDbEntity
  8
0
100
AcDbCircle
 62
7
  6
BYLAYER
 10
86.960197884
 20
251.0068452123
 40
1.5
100
AcDbArc
 50
35.9628616852
 51
150.0000000001
  0
ARC
  5
2EB
100
AcDbEntity
  8
0
100
AcDbCircle
 62
7
  6
BYLAYER
 10
93.360197884
 20
251.0068452123
 40
1.5
100
AcDbArc
 50
35.9628616852
 51
144.0371383148
  0
ARC
  5
2EC
100
AcDbEntity
  8
0
100
AcDbCircle
 62
7
  6
BYLAYER
 10
99.760197884
 20
251.0068452123
 40
1.5
100
AcDbArc
 50
35.9628616852
 51
144.0371383148
  0
ARC
  5
2ED
100
AcDbEntity
  8
0
100
AcDbCircle
 62
7
  6
BYLAYER
 10
106.160197884
 20
250.7381547877
 40
1.5
100
AcDbArc
 50
29.9999999999
 51
55.4045184096
  0
ARC
  5
2EE
100
AcDbEntity
  8
0
100
AcDbCircle
 62
7
  6
BYLAYER
 10
137.560197884
 20
253.6725
 40
1.2
100
AcDbArc
 50
90.0
 51
180.0
  0
ARC
  5
2EF
100
AcDbEntity
  8
0
100
AcDbCircle
 62
7
  6
BYLAYER
 10
135.360197884
 20
249.1225
 40
1.0
100
AcDbArc
 50
0.0
 51
161.8051276612
  0
ARC
  5
2F0
100
AcDbEntity
  8
0
100
AcDbCircle
 62
7
  6
BYLAYER
 10
167.810197884
 20
279.6460034129
 40
1.0
100
AcDbArc
 50
106.7992112946
 51
180.0
  0
ARC
  5
2F1
100
AcDbEntity
  8
0
100
AcDbCircle
 62
7
  6
BYLAYER
 10
133.910197884
 20
250.1225
 40
0.5
100
AcDbArc
 50
0.0
 51
90.0
  0
ARC
  5
2F2
100
AcDbEntity
  8
0
100
AcDbCircle
 62
7
  6
BYLAYER
 10
136.180197884
 20
267.2825
 40
0.5
100
AcDbArc
 50
0.0
 51
90.0
  0
ARC
  5
2F3
100
AcDbEntity
  8
0
100
AcDbCircle
 62
7
  6
BYLAYER
 10
130.340197884
 20
267.2825
 40
0.5
100
AcDbArc
 50
90.0
 51
180.0
  0
ARC
  5
2F4
100
AcDbEntity
  8
0
100
AcDbCircle
 62
7
  6
BYLAYER
 10
148.180197884
 20
267.2825
 40
0.5
100
AcDbArc
 50
0.0
 51
90.0
  0
ARC
  5
2F5
100
AcDbEntity
  8
0
100
AcDbCircle
 62
7
  6
BYLAYER
 10
142.340197884
 20
267.2825
 40
0.5
100
AcDbArc
 50
90.0
 51
180.0
  0
ARC
  5
2F6
100
AcDbEntity
  8
0
100
AcDbCircle
 62
7
  6
BYLAYER
 10
90.160197884
 20
249.8317742813
 40
0.4
100
AcDbArc
 50
215.9628616854
 51
324.0371383146
  0
ARC
  5
2F7
100
AcDbEntity
  8
0
100
AcDbCircle
 62
7
  6
BYLAYER
 10
96.560197884
 20
249.8317742813
 40
0.4
100
AcDbArc
 50
215.9628616854
 51
324.0371383146
  0
ARC
  5
2F8
100
AcDbEntity
  8
0
100
AcDbCircle
 62
7
  6
BYLAYER
 10
102.960197884
 20
249.8317742813
 40
0.4
100
AcDbArc
 50
215.9628616854
 51
324.0371383146
  0
ARC
  5
2F9
100
AcDbEntity
  8
0
100
AcDbCircle
 62
7
  6
BYLAYER
 10
181.060197884
 20
235.7577027027
 40
46.8447972973
100
AcDbArc
 50
73.2007887054
 51
106.7992112946
  0
ARC
  5
2FA
100
AcDbEntity
  8
0
100
AcDbCircle
 62
7
  6
BYLAYER
 10
296.210197884
 20
233.5725
 40
6.55
100
AcDbArc
 50
270.0
 51
321.2068010536
  0
ARC
  5
2FB
100
AcDbEntity
  8
0
100
AcDbCircle
 62
7
  6
BYLAYER
 10
296.210197884
 20
233.5725
 40
6.55
100
AcDbArc
 50
35.5636580385
 51
90.0
  0
ARC
  5
2FC
100
AcDbEntity
  8
0
100
AcDbCircle
 62
7
  6
BYLAYER
 10
318.860197884
 20
233.5725
 40
3.95
100
AcDbArc
 50
270.0
 51
90.0
  0
ARC
  5
2FD
100
AcDbEntity
  8
0
100
AcDbCircle
 62
7
  6
BYLAYER
 10
298.8147102649
 20
232.333221318
 40
3.6025707796
100
AcDbArc
 50
302.3545236324
 51
311.0873705259
  0
ARC
  5
2FE
100
AcDbEntity
  8
0
100
AcDbCircle
 62
7
  6
BYLAYER
 10
298.8148388113
 20
234.811935666
 40
3.602367884
100
AcDbArc
 50
48.9110333749
 51
57.6614802168
  0
ARC
  5
2FF
100
AcDbEntity
  8
0
100
AcDbCircle
 62
7
  6
BYLAYER
 10
290.610197884
 20
229.0225
 40
2.0
100
AcDbArc
 50
180.0
 51
270.0
  0
ARC
  5
300
100
AcDbEntity
  8
0
100
AcDbCircle
 62
7
  6
BYLAYER
 10
290.610197884
 20
238.1225
 40
2.0
100
AcDbArc
 50
90.0
 51
180.0
  0
ARC
  5
301
100
AcDbEntity
  8
0
100
AcDbCircle
 62
7
  6
BYLAYER
 10
228.610197884
 20
227.1225
 40
1.5
100
AcDbArc
 50
270.0
 51
360.0
  0
ARC
  5
302
100
AcDbEntity
  8
0
100
AcDbCircle
 62
7
  6
BYLAYER
 10
255.960197884
 20
216.2725
 40
1.5
100
AcDbArc
 50
209.9999999999
 51
235.4045290418
  0
ARC
  5
303
100
AcDbEntity
  8
0
100
AcDbCircle
 62
7
  6
BYLAYER
 10
255.960197884
 20
216.0038095754
 40
1.5
100
AcDbArc
 50
235.5652069095
 51
324.0371383148
  0
ARC
  5
304
100
AcDbEntity
  8
0
100
AcDbCircle
 62
7
  6
BYLAYER
 10
262.360197884
 20
216.0038095754
 40
1.5
100
AcDbArc
 50
215.9628616852
 51
324.0371383148
  0
ARC
  5
305
100
AcDbEntity
  8
0
100
AcDbCircle
 62
7
  6
BYLAYER
 10
268.760197884
 20
216.0038095754
 40
1.5
100
AcDbArc
 50
215.9628616852
 51
324.0371383148
  0
ARC
  5
306
100
AcDbEntity
  8
0
100
AcDbCircle
 62
7
  6
BYLAYER
 10
275.160197884
 20
216.0038095754
 40
1.5
100
AcDbArc
 50
215.9628616852
 51
330.0000000001
  0
ARC
  5
307
100
AcDbEntity
  8
0
100
AcDbCircle
 62
7
  6
BYLAYER
 10
224.560197884
 20
222.5725
 40
1.2
100
AcDbArc
 50
270.0
 51
360.0
  0
ARC
  5
308
100
AcDbEntity
  8
0
100
AcDbCircle
 62
7
  6
BYLAYER
 10
226.760197884
 20
227.1225
 40
1.0
100
AcDbArc
 50
180.0
 51
341.8051276612
  0
ARC
  5
309
100
AcDbEntity
  8
0
100
AcDbCircle
 62
7
  6
BYLAYER
 10
228.210197884
 20
226.1225
 40
0.5
100
AcDbArc
 50
180.0
 51
270.0
  0
ARC
  5
30A
100
AcDbEntity
  8
0
100
AcDbCircle
 62
7
  6
BYLAYER
 10
259.160197884
 20
217.1788805065
 40
0.4
100
AcDbArc
 50
35.9628616854
 51
144.0371383146
  0
ARC
  5
30B
100
AcDbEntity
  8
0
100
AcDbCircle
 62
7
  6
BYLAYER
 10
265.560197884
 20
217.1788805065
 40
0.4
100
AcDbArc
 50
35.9628616854
 51
144.0371383146
  0
ARC
  5
30C
100
AcDbEntity
  8
0
100
AcDbCircle
 62
7
  6
BYLAYER
 10
271.960197884
 20
217.1788805065
 40
0.4
100
AcDbArc
 50
35.9628616854
 51
144.0371383146
  0
ARC
  5
30D
100
AcDbEntity
  8
0
100
AcDbCircle
 62
7
  6
BYLAYER
 10
228.610197884
 20
249.1225
 40
1.5
100
AcDbArc
 50
0.0
 51
90.0
  0
ARC
  5
30E
100
AcDbEntity
  8
0
100
AcDbCircle
 62
7
  6
BYLAYER
 10
255.960197884
 20
250.8725
 40
1.5
100
AcDbArc
 50
35.9628616852
 51
150.0000000001
  0
ARC
  5
30F
100
AcDbEntity
  8
0
100
AcDbCircle
 62
7
  6
BYLAYER
 10
262.360197884
 20
250.8725
 40
1.5
100
AcDbArc
 50
35.9628616852
 51
144.0371383148
  0
ARC
  5
310
100
AcDbEntity
  8
0
100
AcDbCircle
 62
7
  6
BYLAYER
 10
268.760197884
 20
250.8725
 40
1.5
100
AcDbArc
 50
35.9628616852
 51
144.0371383148
  0
ARC
  5
311
100
AcDbEntity
  8
0
100
AcDbCircle
 62
7
  6
BYLAYER
 10
275.160197884
 20
250.8725
 40
1.5
100
AcDbArc
 50
29.9999999999
 51
144.0371383148
  0
ARC
  5
312
100
AcDbEntity
  8
0
100
AcDbCircle
 62
7
  6
BYLAYER
 10
224.560197884
 20
253.6725
 40
1.2
100
AcDbArc
 50
0.0
 51
90.0
  0
ARC
  5
313
100
AcDbEntity
  8
0
100
AcDbCircle
 62
7
  6
BYLAYER
 10
226.760197884
 20
249.1225
 40
1.0
100
AcDbArc
 50
18.1948723388
 51
180.0
  0
ARC
  5
314
100
AcDbEntity
  8
0
100
AcDbCircle
 62
7
  6
BYLAYER
 10
194.310197884
 20
279.6460034129
 40
1.0
100
AcDbArc
 50
0.0
 51
73.2007887054
  0
ARC
  5
315
100
AcDbEntity
  8
0
100
AcDbCircle
 62
7
  6
BYLAYER
 10
228.210197884
 20
250.1225
 40
0.5
100
AcDbArc
 50
90.0
 51
180.0
  0
ARC
  5
316
100
AcDbEntity
  8
0
100
AcDbCircle
 62
7
  6
BYLAYER
 10
231.780197884
 20
267.2825
 40
0.5
100
AcDbArc
 50
0.0
 51
90.0
  0
ARC
  5
317
100
AcDbEntity
  8
0
100
AcDbCircle
 62
7
  6
BYLAYER
 10
225.940197884
 20
267.2825
 40
0.5
100
AcDbArc
 50
90.0
 51
180.0
  0
ARC
  5
318
100
AcDbEntity
  8
0
100
AcDbCircle
 62
7
  6
BYLAYER
 10
219.780197884
 20
267.2825
 40
0.5
100
AcDbArc
 50
0.0
 51
90.0
  0
ARC
  5
319
100
AcDbEntity
  8
0
100
AcDbCircle
 62
7
  6
BYLAYER
 10
213.940197884
 20
267.2825
 40
0.5
100
AcDbArc
 50
90.0
 51
180.0
  0
ARC
  5
31A
100
AcDbEntity
  8
0
100
AcDbCircle
 62
7
  6
BYLAYER
 10
259.160197884
 20
249.697429069
 40
0.4
100
AcDbArc
 50
215.9628616854
 51
324.0371383146
  0
ARC
  5
31B
100
AcDbEntity
  8
0
100
AcDbCircle
 62
7
  6
BYLAYER
 10
265.560197884
 20
249.697429069
 40
0.4
100
AcDbArc
 50
215.9628616854
 51
324.0371383146
  0
ARC
  5
31C
100
AcDbEntity
  8
0
100
AcDbCircle
 62
7
  6
BYLAYER
 10
271.960197884
 20
249.697429069
 40
0.4
100
AcDbArc
 50
215.9628616854
 51
324.0371383146
  0
SPLINE
  5
31D
100
AcDbEntity
  8
0
100
AcDbSpline
 62
7
  6
BYLAYER
 70
0
 71
3
 72
10
 73
6
 74
0
 42
0.0000001
 43
0.0000001
 44
0.0000000001
 40
0.0
 40
0.0
 40
0.0
 40
0.0
 40
0.2332559544
 40
0.4753545163
 40
1.0
 40
1.0
 40
1.0
 40
1.0
 10
62.9953435281
 20
228.8057460733
 30
0.0
 10
63.2744791818
 20
228.8057631868
 30
0.0
 10
63.8466875022
 20
228.8920556688
 30
0.0
 10
64.9432701074
 20
229.4017413604
 30
0.0
 10
65.5880398488
 20
230.1177329433
 30
0.0
 10
65.910197884
 20
230.6566173604
 30
0.0
  0
SPLINE
  5
31E
100
AcDbEntity
  8
0
100
AcDbSpline
 62
7
  6
BYLAYER
 70
0
 71
3
 72
10
 73
6
 74
0
 42
0.0000001
 43
0.0000001
 44
0.0000000001
 40
0.0
 40
0.0
 40
0.0
 40
0.0
 40
0.5614515121
 40
0.8015283976
 40
1.0
 40
1.0
 40
1.0
 40
1.0
 10
65.9102000413
 20
230.6565883918
 30
0.0
 10
65.5637900927
 20
230.8226156165
 30
0.0
 10
65.0482853066
 20
231.0245378091
 30
0.0
 10
64.3753997082
 20
231.1553737255
 30
0.0
 10
64.0733263691
 20
231.1678175288
 30
0.0
 10
63.9380294924
 20
231.1562194262
 30
0.0
  0
SPLINE
  5
31F
100
AcDbEntity
  8
0
100
AcDbSpline
 62
7
  6
BYLAYER
 70
0
 71
3
 72
11
 73
7
 74
0
 42
0.0000001
 43
0.0000001
 44
0.0000000001
 40
0.0
 40
0.0
 40
0.0
 40
0.0
 40
0.2451828756
 40
0.5000544056
 40
0.7548946129
 40
1.0
 40
1.0
 40
1.0
 40
1.0
 10
65.910197884
 20
230.6565874062
 30
0.0
 10
66.249421528
 20
231.0459275357
 30
0.0
 10
66.8010180271
 20
231.9745463788
 30
0.0
 10
67.0821275968
 20
233.5727899002
 30
0.0
 10
66.8008298076
 20
235.1708218554
 30
0.0
 10
66.249314817
 20
236.099195528
 30
0.0
 10
65.910197884
 20
236.4884121747
 30
0.0
  0
SPLINE
  5
320
100
AcDbEntity
  8
0
100
AcDbSpline
 62
7
  6
BYLAYER
 70
0
 71
3
 72
10
 73
6
 74
0
 42
0.0000001
 43
0.0000001
 44
0.0000000001
 40
0.0
 40
0.0
 40
0.0
 40
0.0
 40
0.5649140768
 40
0.8037270285
 40
1.0
 40
1.0
 40
1.0
 40
1.0
 10
65.910194677
 20
236.4884093927
 30
0.0
 10
65.5616526517
 20
236.3213617514
 30
0.0
 10
65.0445806793
 20
236.1190878847
 30
0.0
 10
64.3714958179
 20
235.9892117583
 30
0.0
 10
64.0718316227
 20
235.9773159417
 30
0.0
 10
63.9380353828
 20
235.988785175
 30
0.0
  0
SPLINE
  5
321
100
AcDbEntity
  8
0
100
AcDbSpline
 62
7
  6
BYLAYER
 70
0
 71
3
 72
10
 73
6
 74
0
 42
0.0000001
 43
0.0000001
 44
0.0000000001
 40
0.0
 40
0.0
 40
0.0
 40
0.0
 40
0.5246455168
 40
0.7667440726
 40
1.0
 40
1.0
 40
1.0
 40
1.0
 10
65.910197884
 20
236.4883825944
 30
0.0
 10
65.5880397808
 20
237.0272670226
 30
0.0
 10
64.9432703434
 20
237.7432590092
 30
0.0
 10
63.846687338
 20
238.2529441489
 30
0.0
 10
63.2744791516
 20
238.3392363698
 30
0.0
 10
62.995343528
 20
238.3392539267
 30
0.0
  0
SPLINE
  5
322
100
AcDbEntity
  8
0
100
AcDbSpline
 62
7
  6
BYLAYER
 70
0
 71
3
 72
9
 73
5
 74
0
 42
0.0000001
 43
0.0000001
 44
0.0000000001
 40
0.0
 40
0.0
 40
0.0
 40
0.0
 40
0.537761537
 40
1.0
 40
1.0
 40
1.0
 40
1.0
 10
62.9953440145
 20
238.3392527567
 30
0.0
 10
62.8313928828
 20
238.1011251578
 30
0.0
 10
62.4513485375
 20
237.6960693717
 30
0.0
 10
61.9088033356
 20
237.522495978
 30
0.0
 10
61.6602956595
 20
237.5224959382
 30
0.0
  0
SPLINE
  5
323
100
AcDbEntity
  8
0
100
AcDbSpline
 62
7
  6
BYLAYER
 70
0
 71
3
 72
9
 73
5
 74
0
 42
0.0000001
 43
0.0000001
 44
0.0000000001
 40
0.0
 40
0.0
 40
0.0
 40
0.0
 40
0.5036719784
 40
1.0
 40
1.0
 40
1.0
 40
1.0
 10
61.3778431902
 20
237.8551221294
 30
0.0
 10
61.6199036309
 20
238.0080901625
 30
0.0
 10
62.1415971487
 20
238.2529250231
 30
0.0
 10
62.7131780161
 20
238.3392263107
 30
0.0
 10
62.9953461751
 20
238.3392536366
 30
0.0
  0
SPLINE
  5
324
100
AcDbEntity
  8
0
100
AcDbSpline
 62
7
  6
BYLAYER
 70
0
 71
3
 72
9
 73
5
 74
0
 42
0.0000001
 43
0.0000001
 44
0.0000000001
 40
0.0
 40
0.0
 40
0.0
 40
0.0
 40
0.5
 40
1.0
 40
1.0
 40
1.0
 40
1.0
 10
285.610197884
 20
227.0725
 30
0.0
 10
285.3561678429
 20
228.1347369179
 30
0.0
 10
285.0313851168
 20
230.3224999999
 30
0.0
 10
285.3561678429
 20
232.5102630819
 30
0.0
 10
285.610197884
 20
233.5725
 30
0.0
  0
SPLINE
  5
325
100
AcDbEntity
  8
0
100
AcDbSpline
 62
7
  6
BYLAYER
 70
0
 71
3
 72
9
 73
5
 74
0
 42
0.0000001
 43
0.0000001
 44
0.0000000001
 40
0.0
 40
0.0
 40
0.0
 40
0.0
 40
0.5
 40
1.0
 40
1.0
 40
1.0
 40
1.0
 10
285.610197884
 20
233.5725
 30
0.0
 10
285.3561678429
 20
234.6347369179
 30
0.0
 10
285.0313851168
 20
236.8224999999
 30
0.0
 10
285.3561678429
 20
239.0102630819
 30
0.0
 10
285.610197884
 20
240.0725
 30
0.0
  0
SPLINE
  5
326
100
AcDbEntity
  8
0
100
AcDbSpline
 62
7
  6
BYLAYER
 70
0
 71
3
 72
9
 73
5
 74
0
 42
0.0000001
 43
0.0000001
 44
0.0000000001
 40
0.0
 40
0.0
 40
0.0
 40
0.0
 40
0.5
 40
1.0
 40
1.0
 40
1.0
 40
1.0
 10
287.760197884
 20
240.0725
 30
0.0
 10
288.0142279252
 20
239.0102630819
 30
0.0
 10
288.3390106513
 20
236.8224999999
 30
0.0
 10
288.0142279251
 20
234.6347369179
 30
0.0
 10
287.760197884
 20
233.5725
 30
0.0
  0
SPLINE
  5
327
100
AcDbEntity
  8
0
100
AcDbSpline
 62
7
  6
BYLAYER
 70
0
 71
3
 72
9
 73
5
 74
0
 42
0.0000001
 43
0.0000001
 44
0.0000000001
 40
0.0
 40
0.0
 40
0.0
 40
0.0
 40
0.5
 40
1.0
 40
1.0
 40
1.0
 40
1.0
 10
287.760197884
 20
233.5725
 30
0.0
 10
288.0142279252
 20
232.5102630819
 30
0.0
 10
288.3390106513
 20
230.3224999999
 30
0.0
 10
288.0142279251
 20
228.1347369179
 30
0.0
 10
287.760197884
 20
227.0725
 30
0.0
  0
SPLINE
  5
328
100
AcDbEntity
  8
0
100
AcDbSpline
 62
7
  6
BYLAYER
 70
0
 71
3
 72
9
 73
5
 74
0
 42
0.0000001
 43
0.0000001
 44
0.0000000001
 40
0.0
 40
0.0
 40
0.0
 40
0.0
 40
0.4963331352
 40
1.0
 40
1.0
 40
1.0
 40
1.0
 10
62.9953461084
 20
228.805746888
 30
0.0
 10
62.7132877354
 20
228.8057753047
 30
0.0
 10
62.1419372379
 20
228.892004649
 30
0.0
 10
61.6204161303
 20
229.1366538975
 30
0.0
 10
61.3784244126
 20
229.2895111584
 30
0.0
  0
SPLINE
  5
329
100
AcDbEntity
  8
0
100
AcDbSpline
 62
7
  6
BYLAYER
 70
0
 71
3
 72
9
 73
5
 74
0
 42
0.0000001
 43
0.0000001
 44
0.0000000001
 40
0.0
 40
0.0
 40
0.0
 40
0.0
 40
0.5036724624
 40
1.0
 40
1.0
 40
1.0
 40
1.0
 10
300.7426493363
 20
229.2899390177
 30
0.0
 10
300.5005776374
 20
229.1369526396
 30
0.0
 10
299.9788555143
 20
228.8920865591
 30
0.0
 10
299.4072362403
 20
228.8057736899
 30
0.0
 10
299.1250495921
 20
228.8057463622
 30
0.0
  0
SPLINE
  5
32A
100
AcDbEntity
  8
0
100
AcDbSpline
 62
7
  6
BYLAYER
 70
0
 71
3
 72
9
 73
5
 74
0
 42
0.0000001
 43
0.0000001
 44
0.0000000001
 40
0.0
 40
0.0
 40
0.0
 40
0.0
 40
0.537761537
 40
1.0
 40
1.0
 40
1.0
 40
1.0
 10
299.1250517535
 20
228.8057472433
 30
0.0
 10
299.2890028852
 20
229.0438748422
 30
0.0
 10
299.6690472305
 20
229.4489306283
 30
0.0
 10
300.2115924324
 20
229.622504022
 30
0.0
 10
300.4601001085
 20
229.6225040618
 30
0.0
  0
SPLINE
  5
32B
100
AcDbEntity
  8
0
100
AcDbSpline
 62
7
  6
BYLAYER
 70
0
 71
3
 72
10
 73
6
 74
0
 42
0.0000001
 43
0.0000001
 44
0.0000000001
 40
0.0
 40
0.0
 40
0.0
 40
0.0
 40
0.5246453936
 40
0.7667442347
 40
1.0
 40
1.0
 40
1.0
 40
1.0
 10
296.210197884
 20
230.6566174056
 30
0.0
 10
296.5323556544
 20
230.1177335342
 30
0.0
 10
297.1771292928
 20
229.4017461755
 30
0.0
 10
298.2737095338
 20
228.8920600748
 30
0.0
 10
298.8459170334
 20
228.8057636302
 30
0.0
 10
299.12505224
 20
228.8057460733
 30
0.0
  0
SPLINE
  5
32C
100
AcDbEntity
  8
0
100
AcDbSpline
 62
7
  6
BYLAYER
 70
0
 71
3
 72
10
 73
6
 74
0
 42
0.0000001
 43
0.0000001
 44
0.0000000001
 40
0.0
 40
0.0
 40
0.0
 40
0.0
 40
0.5649111323
 40
0.8037251647
 40
1.0
 40
1.0
 40
1.0
 40
1.0
 10
296.210200922
 20
230.6565905262
 30
0.0
 10
296.5587411602
 20
230.8236373223
 30
0.0
 10
297.0758118435
 20
231.0259109209
 30
0.0
 10
297.7488965921
 20
231.1557878829
 30
0.0
 10
298.0485628617
 20
231.1676841683
 30
0.0
 10
298.1823603851
 20
231.1562148249
 30
0.0
  0
SPLINE
  5
32D
100
AcDbEntity
  8
0
100
AcDbSpline
 62
7
  6
BYLAYER
 70
0
 71
3
 72
11
 73
7
 74
0
 42
0.0000001
 43
0.0000001
 44
0.0000000001
 40
0.0
 40
0.0
 40
0.0
 40
0.0
 40
0.2451881259
 40
0.5000702279
 40
0.7549147021
 40
1.0
 40
1.0
 40
1.0
 40
1.0
 10
296.210197884
 20
236.4884140592
 30
0.0
 10
295.8709729676
 20
236.0990725341
 30
0.0
 10
295.3192495607
 20
235.1704445353
 30
0.0
 10
295.0387777833
 20
233.5721196126
 30
0.0
 10
295.319483609
 20
231.9740673257
 30
0.0
 10
295.8711147367
 20
231.0457642574
 30
0.0
 10
296.210197884
 20
230.6565864485
 30
0.0
  0
SPLINE
  5
32E
100
AcDbEntity
  8
0
100
AcDbSpline
 62
7
  6
BYLAYER
 70
0
 71
3
 72
10
 73
6
 74
0
 42
0.0000001
 43
0.0000001
 44
0.0000000001
 40
0.0
 40
0.0
 40
0.0
 40
0.0
 40
0.5614515121
 40
0.8015283976
 40
1.0
 40
1.0
 40
1.0
 40
1.0
 10
296.2101957267
 20
236.4884116082
 30
0.0
 10
296.5566056753
 20
236.3223843835
 30
0.0
 10
297.0721104615
 20
236.1204621909
 30
0.0
 10
297.7449960598
 20
235.9896262745
 30
0.0
 10
298.0470693989
 20
235.9771824712
 30
0.0
 10
298.1823662756
 20
235.9887805738
 30
0.0
  0
SPLINE
  5
32F
100
AcDbEntity
  8
0
100
AcDbSpline
 62
7
  6
BYLAYER
 70
0
 71
3
 72
10
 73
6
 74
0
 42
0.0000001
 43
0.0000001
 44
0.0000000001
 40
0.0
 40
0.0
 40
0.0
 40
0.0
 40
0.2332557994
 40
0.4753546463
 40
1.0
 40
1.0
 40
1.0
 40
1.0
 10
299.1250522399
 20
238.3392539267
 30
0.0
 10
298.8459169921
 20
238.3392368132
 30
0.0
 10
298.2737093385
 20
238.2529401598
 30
0.0
 10
297.1771294814
 20
237.743253486
 30
0.0
 10
296.5323555849
 20
237.0272664976
 30
0.0
 10
296.210197884
 20
236.4883826396
 30
0.0
  0
SPLINE
  5
330
100
AcDbEntity
  8
0
100
AcDbSpline
 62
7
  6
BYLAYER
 70
0
 71
3
 72
9
 73
5
 74
0
 42
0.0000001
 43
0.0000001
 44
0.0000000001
 40
0.0
 40
0.0
 40
0.0
 40
0.0
 40
0.5357632152
 40
1.0
 40
1.0
 40
1.0
 40
1.0
 10
299.1250509787
 20
238.3392515104
 30
0.0
 10
299.2883901676
 20
238.10201297
 30
0.0
 10
299.6679810359
 20
237.6969079993
 30
0.0
 10
300.210522278
 20
237.5224955339
 30
0.0
 10
300.4600999801
 20
237.5224956655
 30
0.0
  0
SPLINE
  5
331
100
AcDbEntity
  8
0
100
AcDbSpline
 62
7
  6
BYLAYER
 70
0
 71
3
 72
9
 73
5
 74
0
 42
0.0000001
 43
0.0000001
 44
0.0000000001
 40
0.0
 40
0.0
 40
0.0
 40
0.0
 40
0.2622646016
 40
1.0
 40
1.0
 40
1.0
 40
1.0
 10
64.517306308
 20
233.5725
 30
0.0
 10
64.5173063024
 20
233.7909697431
 30
0.0
 10
64.4717267985
 20
234.6215078602
 30
0.0
 10
64.2446883973
 20
235.4562189854
 30
0.0
 10
63.9380358207
 20
235.9887856378
 30
0.0
  0
SPLINE
  5
332
100
AcDbEntity
  8
0
100
AcDbSpline
 62
7
  6
BYLAYER
 70
0
 71
3
 72
9
 73
5
 74
0
 42
0.0000001
 43
0.0000001
 44
0.0000000001
 40
0.0
 40
0.0
 40
0.0
 40
0.0
 40
0.5
 40
1.0
 40
1.0
 40
1.0
 40
1.0
 10
74.360197884
 20
233.5725
 30
0.0
 10
74.106167844
 20
234.6347369135
 30
0.0
 10
73.7813853363
 20
236.8225000001
 30
0.0
 10
74.106167844
 20
239.0102630866
 30
0.0
 10
74.360197884
 20
240.0725
 30
0.0
  0
SPLINE
  5
333
100
AcDbEntity
  8
0
100
AcDbSpline
 62
7
  6
BYLAYER
 70
0
 71
3
 72
9
 73
5
 74
0
 42
0.0000001
 43
0.0000001
 44
0.0000000001
 40
0.0
 40
0.0
 40
0.0
 40
0.0
 40
0.5
 40
1.0
 40
1.0
 40
1.0
 40
1.0
 10
74.360197884
 20
227.0725
 30
0.0
 10
74.106167844
 20
228.1347369135
 30
0.0
 10
73.7813853363
 20
230.3225000001
 30
0.0
 10
74.106167844
 20
232.5102630866
 30
0.0
 10
74.360197884
 20
233.5725
 30
0.0
  0
SPLINE
  5
334
100
AcDbEntity
  8
0
100
AcDbSpline
 62
7
  6
BYLAYER
 70
0
 71
3
 72
9
 73
5
 74
0
 42
0.0000001
 43
0.0000001
 44
0.0000000001
 40
0.0
 40
0.0
 40
0.0
 40
0.0
 40
0.2370326267
 40
1.0
 40
1.0
 40
1.0
 40
1.0
 10
298.1823607352
 20
235.9887857676
 30
0.0
 10
298.0837509164
 20
235.8175292208
 30
0.0
 10
297.7309690982
 20
235.058874301
 30
0.0
 10
297.6030902309
 20
234.2085970431
 30
0.0
 10
297.6030902456
 20
233.5725
 30
0.0
  0
SPLINE
  5
335
100
AcDbEntity
  8
0
100
AcDbSpline
 62
7
  6
BYLAYER
 70
0
 71
3
 72
9
 73
5
 74
0
 42
0.0000001
 43
0.0000001
 44
0.0000000001
 40
0.0
 40
0.0
 40
0.0
 40
0.0
 40
0.461454288
 40
1.0
 40
1.0
 40
1.0
 40
1.0
 10
300.4600987971
 20
237.5224961561
 30
0.0
 10
300.0229310503
 20
237.5224491797
 30
0.0
 10
299.0693125663
 20
237.1843837109
 30
0.0
 10
298.4369952588
 20
236.430899314
 30
0.0
 10
298.1823646903
 20
235.9887803605
 30
0.0
  0
SPLINE
  5
336
100
AcDbEntity
  8
0
100
AcDbSpline
 62
7
  6
BYLAYER
 70
0
 71
3
 72
9
 73
5
 74
0
 42
0.0000001
 43
0.0000001
 44
0.0000000001
 40
0.0
 40
0.0
 40
0.0
 40
0.0
 40
0.5385455207
 40
1.0
 40
1.0
 40
1.0
 40
1.0
 10
298.1823647118
 20
231.1562196438
 30
0.0
 10
298.4369952152
 20
230.7141008687
 30
0.0
 10
299.0693122905
 20
229.9606158204
 30
0.0
 10
300.0229309098
 20
229.6225518018
 30
0.0
 10
300.4600988328
 20
229.6225040618
 30
0.0
  0
SPLINE
  5
337
100
AcDbEntity
  8
0
100
AcDbSpline
 62
7
  6
BYLAYER
 70
0
 71
3
 72
9
 73
5
 74
0
 42
0.0000001
 43
0.0000001
 44
0.0000000001
 40
0.0
 40
0.0
 40
0.0
 40
0.0
 40
0.2622646111
 40
1.0
 40
1.0
 40
1.0
 40
1.0
 10
297.6030902341
 20
233.5725
 30
0.0
 10
297.6030902392
 20
233.3540302392
 30
0.0
 10
297.6486697485
 20
232.5234920852
 30
0.0
 10
297.8757081686
 20
231.6887809225
 30
0.0
 10
298.1823607676
 20
231.1562142604
 30
0.0
  0
SPLINE
  5
338
100
AcDbEntity
  8
0
100
AcDbSpline
 62
7
  6
BYLAYER
 70
0
 71
3
 72
9
 73
5
 74
0
 42
0.0000001
 43
0.0000001
 44
0.0000000001
 40
0.0
 40
0.0
 40
0.0
 40
0.0
 40
0.4963338967
 40
1.0
 40
1.0
 40
1.0
 40
1.0
 10
299.1250496583
 20
238.3392531139
 30
0.0
 10
299.4070789657
 20
238.3392247001
 30
0.0
 10
299.9783690881
 20
238.2530135523
 30
0.0
 10
300.4998452151
 20
238.0084133636
 30
0.0
 10
300.7418192252
 20
237.8555849323
 30
0.0
  0
SPLINE
  5
339
100
AcDbEntity
  8
0
100
AcDbSpline
 62
7
  6
BYLAYER
 70
0
 71
3
 72
9
 73
5
 74
0
 42
0.0000001
 43
0.0000001
 44
0.0000000001
 40
0.0
 40
0.0
 40
0.0
 40
0.0
 40
0.5385455207
 40
1.0
 40
1.0
 40
1.0
 40
1.0
 10
63.9380310562
 20
235.9887803562
 30
0.0
 10
63.6834005529
 20
236.4308991313
 30
0.0
 10
63.0510834775
 20
237.1843841796
 30
0.0
 10
62.0974648582
 20
237.5224481982
 30
0.0
 10
61.6602969352
 20
237.5224959382
 30
0.0
  0
SPLINE
  5
33A
100
AcDbEntity
  8
0
100
AcDbSpline
 62
7
  6
BYLAYER
 70
0
 71
3
 72
9
 73
5
 74
0
 42
0.0000001
 43
0.0000001
 44
0.0000000001
 40
0.0
 40
0.0
 40
0.0
 40
0.0
 40
0.5
 40
1.0
 40
1.0
 40
1.0
 40
1.0
 10
76.510197884
 20
233.5725
 30
0.0
 10
76.764227924
 20
232.5102630866
 30
0.0
 10
77.0890104317
 20
230.3225000001
 30
0.0
 10
76.7642279241
 20
228.1347369135
 30
0.0
 10
76.510197884
 20
227.0725
 30
0.0
  0
SPLINE
  5
33B
100
AcDbEntity
  8
0
100
AcDbSpline
 62
7
  6
BYLAYER
 70
0
 71
3
 72
9
 73
5
 74
0
 42
0.0000001
 43
0.0000001
 44
0.0000000001
 40
0.0
 40
0.0
 40
0.0
 40
0.0
 40
0.461454288
 40
1.0
 40
1.0
 40
1.0
 40
1.0
 10
61.660296971
 20
229.6225038439
 30
0.0
 10
62.0974647177
 20
229.6225508203
 30
0.0
 10
63.0510832017
 20
229.9606162891
 30
0.0
 10
63.6834005092
 20
230.714100686
 30
0.0
 10
63.9380310777
 20
231.1562196395
 30
0.0
  0
SPLINE
  5
33C
100
AcDbEntity
  8
0
100
AcDbSpline
 62
7
  6
BYLAYER
 70
0
 71
3
 72
9
 73
5
 74
0
 42
0.0000001
 43
0.0000001
 44
0.0000000001
 40
0.0
 40
0.0
 40
0.0
 40
0.0
 40
0.237032639
 40
1.0
 40
1.0
 40
1.0
 40
1.0
 10
63.9380358787
 20
231.1562143374
 30
0.0
 10
64.0366456939
 20
231.3274708877
 30
0.0
 10
64.3894274799
 20
232.0861257798
 30
0.0
 10
64.5173063369
 20
232.9364029964
 30
0.0
 10
64.5173063206
 20
233.5725
 30
0.0
  0
SPLINE
  5
33D
100
AcDbEntity
  8
0
100
AcDbSpline
 62
7
  6
BYLAYER
 70
0
 71
3
 72
9
 73
5
 74
0
 42
0.0000001
 43
0.0000001
 44
0.0000000001
 40
0.0
 40
0.0
 40
0.0
 40
0.0
 40
0.5
 40
1.0
 40
1.0
 40
1.0
 40
1.0
 10
76.510197884
 20
240.0725
 30
0.0
 10
76.764227924
 20
239.0102630866
 30
0.0
 10
77.0890104317
 20
236.8225000001
 30
0.0
 10
76.7642279241
 20
234.6347369135
 30
0.0
 10
76.510197884
 20
233.5725
 30
0.0
  0
SPLINE
  5
33E
100
AcDbEntity
  8
0
100
AcDbSpline
 62
7
  6
BYLAYER
 70
0
 71
3
 72
9
 73
5
 74
0
 42
0.0000001
 43
0.0000001
 44
0.0000000001
 40
0.0
 40
0.0
 40
0.0
 40
0.0
 40
0.5357632152
 40
1.0
 40
1.0
 40
1.0
 40
1.0
 10
62.9953447893
 20
228.8057484896
 30
0.0
 10
62.8320056005
 20
229.04298703
 30
0.0
 10
62.4524147321
 20
229.4480920007
 30
0.0
 10
61.90987349
 20
229.6225044661
 30
0.0
 10
61.660295788
 20
229.6225043345
 30
0.0
  0
ENDSEC
  0
SECTION
  2
OBJECTS
  0
DICTIONARY
  5
C
100
AcDbDictionary
280
0
281
1
  3
ACAD_GROUP
350
D
  3
ACAD_MLINESTYLE
350
17
  3
ACAD_LAYOUT
350
1A
  3
ACAD_PLOTSETTINGS
350
19
  3
ACAD_PLOTSTYLENAME
350
E
  0
DICTIONARY
  5
D
102
{ACAD_REACTORS
330
C
102
}
100
AcDbDictionary
280
0
281
1
  0
ACDBDICTIONARYWDFLT
  5
E
102
{ACAD_REACTORS
330
C
102
}
100
AcDbDictionary
281
1
  3
Normal
350
F
100
AcDbDictionaryWithDefault
340
F
  0
DICTIONARY
  5
17
102
{ACAD_REACTORS
330
C
102
}
100
AcDbDictionary
280
0
281
1
  3
Standard
350
18
  0
DICTIONARY
  5
19
102
{ACAD_REACTORS
330
C
102
}
100
AcDbDictionary
281
1
  0
DICTIONARY
  5
1A
102
{ACAD_REACTORS
330
C
102
}
100
AcDbDictionary
281
1
  3
Model
350
33F
  3
Layout1
350
340
  0
ACDBPLACEHOLDER
  5
F
102
{ACAD_REACTORS
330
E
102
}
  0
MLINESTYLE
  5
18
102
{ACAD_REACTORS
330
17
102
}
100
AcDbMlineStyle
  2
STANDARD
 70
0
  3

 62
256
 51
90.0
 52
90.0
 71
2
 49
0.5
 62
256
  6
BYLAYER
 49
-0.5
 62
256
  6
BYLAYER
  0
LAYOUT
  5
33F
102
{ACAD_REACTORS
330
1A
102
}
100
AcDbPlotSettings
  1

  2
none_device
  4

  6

 40
0.0
 41
0.0
 42
0.0
 43
0.0
 44
210.0
 45
297.0
 46
0.0
 47
0.0
 48
0.0
 49
0.0
140
0.0
141
0.0
142
1.0
143
1.0
 70
1024
 72
1
 73
0
 74
0
  7

 75
0
147
1.0
148
0.0
149
0.0
100
AcDbLayout
  1
Model
 70
0
 71
0
 10
0.0
 20
0.0
 11
210.0
 21
297.0
 12
0.0
 22
0.0
 32
0.0
 14
0.0
 24
0.0
 34
0.0
 15
0.0
 25
0.0
 35
0.0
146
0.0
 13
0.0
 23
0.0
 33
0.0
 16
1.0
 26
0.0
 36
0.0
 17
0.0
 27
1.0
 37
0.0
 76
0
330
210
345
0
346
0
  0
LAYOUT
  5
340
102
{ACAD_REACTORS
330
1A
102
}
100
AcDbPlotSettings
  1

  2
none_device
  4

  6

 40
0.0
 41
0.0
 42
0.0
 43
0.0
 44
210.0
 45
297.0
 46
0.0
 47
0.0
 48
0.0
 49
0.0
140
0.0
141
0.0
142
1.0
143
1.0
 70
0
 72
1
 73
0
 74
0
  7

 75
0
147
1.0
148
0.0
149
0.0
100
AcDbLayout
  1
Layout1
 70
0
 71
1
 10
0.0
 20
0.0
 11
210.0
 21
297.0
 12
0.0
 22
0.0
 32
0.0
 14
0.0
 24
0.0
 34
0.0
 15
0.0
 25
0.0
 35
0.0
146
0.0
 13
0.0
 23
0.0
 33
0.0
 16
1.0
 26
0.0
 36
0.0
 17
0.0
 27
1.0
 37
0.0
 76
0
330
211
345
0
346
0
  0
ENDSEC
  0
EOF
