999
DXF file: C:\Users\sesa63760\Dev\_Creo\CAD\MCADUE0001353_3D-CAD\drw0001_2.dxf
999
Pro/ENGINEER 2019471 by Parametric Technology Corporation
  0
SECTION
  2
HEADER
  9
$ACADVER
  1
AC1024
  9
$DWGCODEPAGE
  3
ANSI_1252
  9
$EXTMAX
 10
314.6387623512
 20
444.9891067538
 30
0.0
  9
$EXTMIN
 10
0.0
 20
0.0
 30
0.0
  9
$LIMMIN
 10
0.0
 20
0.0
  9
$LIMMAX
 10
314.6387623512
 20
444.9891067538
  9
$VIEWCTR
 10
157.3193811756
 20
222.4945533769
  9
$VIEWSIZE
 40
444.9891067538
  9
$CLAYER
  8
0
  9
$LTSCALE
 40
29.0066973291
  9
$CELTYPE
  6
BYLAYER
  9
$DIMSCALE
 40
1.0
  9
$DIMASZ
 40
3.7456995518
  9
$DIMEXO
 40
1.0
  9
$DIMDLI
 40
20.0409908819
  9
$DIMEXE
 40
1.0
  9
$DIMCEN
 40
4.746550472
  9
$DIMLFAC
 40
1.0
  9
$DIMBLK
  1
_FILLED
  9
$DIMALT
 70
0
  9
$DIMALTF
 40
0.0393700787
  9
$DIMTXT
 40
5.2439793725
  9
$DIMTOL
 70
1
  9
$DIMLIM
 70
0
  9
$DIMTFAC
 40
1.0
  9
$DIMTP
 40
0.01
  9
$DIMTM
 40
0.01
  9
$DIMGAP
 40
0.625
  9
$DIMDSEP
 70
46
  9
$AUNITS
 70
0
  9
$PDMODE
 70
3
  9
$PDSIZE
 40
0.3125
  9
$HANDSEED
  5
261
  9
$TILEMODE
 70
1
  9
$MEASUREMENT
 70
1
  9
$INSUNITS
 70
4
  0
ENDSEC
  0
SECTION
  2
CLASSES
  0
CLASS
  1
ACDBDICTIONARYWDFLT
  2
AcDbDictionaryWithDefault
  3
AutoCAD 2000
 90
0
 91
1
280
0
281
0
  0
CLASS
  1
ACDBPLACEHOLDER
  2
AcDbPlaceHolder
  3
AutoCAD 2000
 90
0
 91
1
280
0
281
0
  0
CLASS
  1
LAYOUT
  2
AcDbLayout
  3
AutoCAD 2000
 90
0
 91
0
280
0
281
0
  0
ENDSEC
  0
SECTION
  2
TABLES
  0
TABLE
  2
VPORT
  5
8
100
AcDbSymbolTable
 70
2
  0
VPORT
  5
1F4
100
AcDbSymbolTableRecord
100
AcDbViewportTableRecord
  2
*ACTIVE
 70
0
 10
0.0
 20
0.0
 11
1.0
 21
1.0
 12
157.3193811756
 22
222.4945533769
 13
0.0
 23
0.0
 14
1.0
 24
1.0
 15
0.0
 25
0.0
 16
0.0
 26
0.0
 36
1.0
 17
0.0
 27
0.0
 37
0.0
 40
444.9891067538
 41
0.7070707071
 42
50.0
 43
0.0
 44
0.0
 50
0.0
 51
0.0
 71
0
 72
100
 73
1
 74
1
 75
0
 76
0
 77
0
 78
0
  0
ENDTAB
  0
TABLE
  2
LTYPE
  5
5
100
AcDbSymbolTable
 70
6
  0
LTYPE
  5
14
100
AcDbSymbolTableRecord
100
AcDbLinetypeTableRecord
  2
BYBLOCK
 70
0
  3

 72
65
 73
0
 40
0.0
  0
LTYPE
  5
15
100
AcDbSymbolTableRecord
100
AcDbLinetypeTableRecord
  2
BYLAYER
 70
0
  3

 72
65
 73
0
 40
0.0
  0
LTYPE
  5
16
100
AcDbSymbolTableRecord
100
AcDbLinetypeTableRecord
  2
CONTINUOUS
 70
64
  3
Solid line
 72
65
 73
0
 40
0.0
  0
LTYPE
  5
1F5
100
AcDbSymbolTableRecord
100
AcDbLinetypeTableRecord
  2
CENTER
 70
64
  3
____ _ ____ _ ____ _ ____ _ ____ _ ____ _ ____
 72
65
 73
4
 40
0.6
 49
0.375
 74
0
 49
-0.075
 74
0
 49
0.075
 74
0
 49
-0.075
 74
0
  0
LTYPE
  5
1F6
100
AcDbSymbolTableRecord
100
AcDbLinetypeTableRecord
  2
HIDDEN
 70
64
  3
- - - - - - - - - - - - - - - - - - - -
 72
65
 73
2
 40
0.2
 49
0.1
 74
0
 49
-0.1
 74
0
  0
LTYPE
  5
1F7
100
AcDbSymbolTableRecord
100
AcDbLinetypeTableRecord
  2
PHANTOM
 70
64
  3
_____ _ _ _____ _ _ _____ _ _ _____
 72
65
 73
6
 40
0.8
 49
0.45
 74
0
 49
-0.05
 74
0
 49
0.1
 74
0
 49
-0.05
 74
0
 49
0.1
 74
0
 49
-0.05
 74
0
  0
LTYPE
  5
1F8
100
AcDbSymbolTableRecord
100
AcDbLinetypeTableRecord
  2
DOT
 70
64
  3
. . . . . . . . . . . . . . . . . . . .
 72
65
 73
2
 40
0.2
 49
0.1
 74
0
 49
-0.1
 74
0
  0
LTYPE
  5
1F9
100
AcDbSymbolTableRecord
100
AcDbLinetypeTableRecord
  2
DASHED
 70
64
  3
- - - - - - - - - - - - - - - - - - - -
 72
65
 73
2
 40
0.2
 49
0.1
 74
0
 49
-0.1
 74
0
  0
ENDTAB
  0
TABLE
  2
LAYER
  5
2
100
AcDbSymbolTable
 70
36
  0
LAYER
  5
10
100
AcDbSymbolTableRecord
100
AcDbLayerTableRecord
  2
0
 70
0
 62
7
  6
CONTINUOUS
370
-3
390
F
  0
LAYER
  5
1FA
100
AcDbSymbolTableRecord
100
AcDbLayerTableRecord
  2
DEFAULT_1
 70
0
 62
7
  6
CENTER
370
-3
390
F
  0
LAYER
  5
1FB
100
AcDbSymbolTableRecord
100
AcDbLayerTableRecord
  2
DEFAULT_2
 70
0
 62
8
  6
HIDDEN
370
-3
390
F
  0
LAYER
  5
1FC
100
AcDbSymbolTableRecord
100
AcDbLayerTableRecord
  2
DEFAULT_3
 70
0
 62
7
  6
PHANTOM
370
-3
390
F
  0
LAYER
  5
1FD
100
AcDbSymbolTableRecord
100
AcDbLayerTableRecord
  2
00_COMPONENTS
 70
0
 62
7
  6
CONTINUOUS
370
-3
390
F
  0
LAYER
  5
1FE
100
AcDbSymbolTableRecord
100
AcDbLayerTableRecord
  2
01_1_DEFAULT_DATUMS
 70
0
 62
7
  6
CONTINUOUS
370
-3
390
F
  0
LAYER
  5
1FF
100
AcDbSymbolTableRecord
100
AcDbLayerTableRecord
  2
01_PLANES
 70
0
 62
7
  6
CONTINUOUS
370
-3
390
F
  0
LAYER
  5
200
100
AcDbSymbolTableRecord
100
AcDbLayerTableRecord
  2
02_COORD_SYS
 70
0
 62
7
  6
CONTINUOUS
370
-3
390
F
  0
LAYER
  5
201
100
AcDbSymbolTableRecord
100
AcDbLayerTableRecord
  2
03_AXES
 70
0
 62
7
  6
CONTINUOUS
370
-3
390
F
  0
LAYER
  5
202
100
AcDbSymbolTableRecord
100
AcDbLayerTableRecord
  2
04_POINTS
 70
0
 62
7
  6
CONTINUOUS
370
-3
390
F
  0
LAYER
  5
203
100
AcDbSymbolTableRecord
100
AcDbLayerTableRecord
  2
05_CURVES
 70
0
 62
7
  6
CONTINUOUS
370
-3
390
F
  0
LAYER
  5
204
100
AcDbSymbolTableRecord
100
AcDbLayerTableRecord
  2
06_SURFS
 70
0
 62
7
  6
CONTINUOUS
370
-3
390
F
  0
LAYER
  5
205
100
AcDbSymbolTableRecord
100
AcDbLayerTableRecord
  2
07_COSMETICS
 70
0
 62
7
  6
CONTINUOUS
370
-3
390
F
  0
LAYER
  5
206
100
AcDbSymbolTableRecord
100
AcDbLayerTableRecord
  2
10_NOTES
 70
0
 62
7
  6
CONTINUOUS
370
-3
390
F
  0
LAYER
  5
207
100
AcDbSymbolTableRecord
100
AcDbLayerTableRecord
  2
11_NOTES_PUB
 70
0
 62
7
  6
CONTINUOUS
370
-3
390
F
  0
LAYER
  5
208
100
AcDbSymbolTableRecord
100
AcDbLayerTableRecord
  2
13_REF_GTOL
 70
0
 62
7
  6
CONTINUOUS
370
-3
390
F
  0
LAYER
  5
209
100
AcDbSymbolTableRecord
100
AcDbLayerTableRecord
  2
16_MISC
 70
0
 62
7
  6
CONTINUOUS
370
-3
390
F
  0
LAYER
  5
20A
100
AcDbSymbolTableRecord
100
AcDbLayerTableRecord
  2
17_NO_PRINT
 70
0
 62
7
  6
CONTINUOUS
370
-3
390
F
  0
LAYER
  5
20B
100
AcDbSymbolTableRecord
100
AcDbLayerTableRecord
  2
18_DATUM_CAMS_JOINTS
 70
0
 62
7
  6
CONTINUOUS
370
-3
390
F
  0
LAYER
  5
20C
100
AcDbSymbolTableRecord
100
AcDbLayerTableRecord
  2
19_DATUM_FUNCTIONAL
 70
0
 62
7
  6
CONTINUOUS
370
-3
390
F
  0
LAYER
  5
20D
100
AcDbSymbolTableRecord
100
AcDbLayerTableRecord
  2
20_DATUM_KINEMATIC_SCHEME
 70
0
 62
7
  6
CONTINUOUS
370
-3
390
F
  0
ENDTAB
  0
TABLE
  2
STYLE
  5
3
100
AcDbSymbolTable
 70
1
  0
STYLE
  5
11
100
AcDbSymbolTableRecord
100
AcDbTextStyleTableRecord
  2
STANDARD
 70
0
 40
0.0
 41
0.8
 50
0.0
 71
0
 42
0.2
  3
txt
  4

  0
STYLE
  5
20E
100
AcDbSymbolTableRecord
100
AcDbTextStyleTableRecord
  2
TEXTSTYLE_1
 70
0
 40
0.0
 41
0.8
 50
0.0
 71
0
 42
0.2
  3
gdt
  4

  0
ENDTAB
  0
TABLE
  2
VIEW
  5
6
100
AcDbSymbolTable
 70
0
  0
ENDTAB
  0
TABLE
  2
UCS
  5
7
100
AcDbSymbolTable
 70
0
  0
ENDTAB
  0
TABLE
  2
APPID
  5
9
100
AcDbSymbolTable
 70
1
  0
APPID
  5
20F
100
AcDbSymbolTableRecord
100
AcDbRegAppTableRecord
  2
ACAD
 70
0
  0
ENDTAB
  0
TABLE
  2
BLOCK_RECORD
  5
1
100
AcDbSymbolTable
 70
0
  0
BLOCK_RECORD
  5
210
100
AcDbSymbolTableRecord
100
AcDbBlockTableRecord
  2
*Model_Space
  0
BLOCK_RECORD
  5
211
100
AcDbSymbolTableRecord
100
AcDbBlockTableRecord
  2
*Paper_Space
  0
BLOCK_RECORD
  5
212
100
AcDbSymbolTableRecord
100
AcDbBlockTableRecord
  2
_FILLED
  0
ENDTAB
  0
TABLE
  2
DIMSTYLE
  5
A
100
AcDbSymbolTable
 70
1
100
AcDbDimStyleTable
 71
0
  0
DIMSTYLE
105
213
100
AcDbSymbolTableRecord
100
AcDbDimStyleTableRecord
  2
STANDARD
 70
0
  3

  4

 40
1.0
 41
3.7456995518
 42
1.0
 43
0.38
 44
1.0
 45
0.0
 46
0.0
 47
0.01
 48
0.01
140
5.2439793725
141
0.09
142
0.0
143
25.4
144
1.0
145
0.0
146
1.0
147
0.625
 71
1
 72
0
 73
0
 74
0
 75
0
 76
0
 77
1
 78
8
 79
2
170
0
171
1
172
0
173
0
174
0
175
0
176
0
177
0
178
0
270
2
179
2
271
2
272
2
273
2
274
2
275
0
280
0
281
0
282
0
283
1
284
8
285
0
286
0
287
3
288
0
340
11
278
46
341
212
342
212
343
212
344
212
  0
ENDTAB
  0
ENDSEC
  0
SECTION
  2
BLOCKS
  0
BLOCK
  5
20
100
AcDbEntity
  8
0
100
AcDbBlockBegin
  2
*Model_Space
 70
0
 10
0.0
 20
0.0
 30
0.0
  3
*Model_Space
  1

  0
ENDBLK
  5
21
100
AcDbEntity
  8
0
100
AcDbBlockEnd
  0
BLOCK
  5
1C
100
AcDbEntity
  8
0
100
AcDbBlockBegin
  2
*Paper_Space
 70
0
 10
0.0
 20
0.0
 30
0.0
  3
*Paper_Space
  1

  0
ENDBLK
  5
1D
100
AcDbEntity
  8
0
100
AcDbBlockEnd
  0
BLOCK
  5
214
100
AcDbEntity
  8
0
100
AcDbBlockBegin
  2
_FILLED
 70
64
 10
0.0
 20
0.0
  3
_FILLED
  1

  0
SOLID
  5
215
100
AcDbEntity
  8
0
  6
BYBLOCK
 62
0
100
AcDbTrace
 10
0.0
 20
0.0
 11
-1.0
 21
0.25
 12
-1.0
 22
-0.25
 13
-1.0
 23
-0.25
  0
ENDBLK
  5
216
100
AcDbEntity
  8
0
  6
BYBLOCK
 62
0
100
AcDbBlockEnd
  0
ENDSEC
  0
SECTION
  2
ENTITIES
  0
LINE
  5
217
100
AcDbEntity
  8
0
100
AcDbLine
 62
7
  6
CONTINUOUS
 10
35.4980304131
 20
71.6775599129
 11
283.4980304131
 21
71.6775599129
  0
LINE
  5
218
100
AcDbEntity
  8
0
100
AcDbLine
 62
7
  6
CONTINUOUS
 10
34.4980304131
 20
72.6775599129
 11
35.4980304131
 21
72.6775599129
  0
LINE
  5
219
100
AcDbEntity
  8
0
100
AcDbLine
 62
7
  6
CONTINUOUS
 10
283.4980304131
 20
72.6775599129
 11
284.4980304131
 21
72.6775599129
  0
LINE
  5
21A
100
AcDbEntity
  8
0
100
AcDbLine
 62
7
  6
CONTINUOUS
 10
282.4980304131
 20
73.6775599129
 11
36.4980304131
 21
73.6775599129
  0
LINE
  5
21B
100
AcDbEntity
  8
0
100
AcDbLine
 62
7
  6
CONTINUOUS
 10
262.5041667004
 20
92.9775599129
 11
256.4935182366
 21
92.9775599129
  0
LINE
  5
21C
100
AcDbEntity
  8
0
100
AcDbLine
 62
7
  6
CONTINUOUS
 10
62.5041667004
 20
92.9775599129
 11
56.4935182366
 21
92.9775599129
  0
LINE
  5
21D
100
AcDbEntity
  8
0
100
AcDbLine
 62
7
  6
CONTINUOUS
 10
34.4980304131
 20
370.6775599129
 11
34.4980304131
 21
72.6775599129
  0
LINE
  5
21E
100
AcDbEntity
  8
0
100
AcDbLine
 62
7
  6
CONTINUOUS
 10
35.4980304131
 20
371.6775599129
 11
35.4980304131
 21
370.6775599129
  0
LINE
  5
21F
100
AcDbEntity
  8
0
100
AcDbLine
 62
7
  6
CONTINUOUS
 10
35.4980304131
 20
72.6775599129
 11
35.4980304131
 21
71.6775599129
  0
LINE
  5
220
100
AcDbEntity
  8
0
100
AcDbLine
 62
7
  6
CONTINUOUS
 10
36.4980304131
 20
73.6775599129
 11
36.4980304131
 21
369.6775599129
  0
LINE
  5
221
100
AcDbEntity
  8
0
100
AcDbLine
 62
7
  6
CONTINUOUS
 10
259.5980304131
 20
94.3775599129
 11
255.2553695593
 21
94.3775599129
  0
LINE
  5
222
100
AcDbEntity
  8
0
100
AcDbLine
 62
7
  6
CONTINUOUS
 10
63.7465563371
 20
94.3775599129
 11
59.9980304131
 21
94.3775599129
  0
LINE
  5
223
100
AcDbEntity
  8
0
100
AcDbLine
 62
7
  6
CONTINUOUS
 10
263.1980304131
 20
95.3775599129
 11
260.5980304131
 21
95.3775599129
  0
LINE
  5
224
100
AcDbEntity
  8
0
100
AcDbLine
 62
7
  6
CONTINUOUS
 10
58.9980304131
 20
95.3775599129
 11
55.7980304131
 21
95.3775599129
  0
LINE
  5
225
100
AcDbEntity
  8
0
100
AcDbLine
 62
7
  6
CONTINUOUS
 10
55.7980304131
 20
93.4762131429
 11
55.7980304131
 21
99.8730518466
  0
LINE
  5
226
100
AcDbEntity
  8
0
100
AcDbLine
 62
7
  6
CONTINUOUS
 10
55.7980304131
 20
343.4762131429
 11
55.7980304131
 21
349.8733802406
  0
LINE
  5
227
100
AcDbEntity
  8
0
100
AcDbLine
 62
7
  6
CONTINUOUS
 10
58.9980304131
 20
95.3775599129
 11
58.9980304131
 21
101.4360241388
  0
LINE
  5
228
100
AcDbEntity
  8
0
100
AcDbLine
 62
7
  6
CONTINUOUS
 10
58.9980304131
 20
341.9192480332
 11
58.9980304131
 21
346.9775599129
  0
LINE
  5
229
100
AcDbEntity
  8
0
100
AcDbLine
 62
7
  6
CONTINUOUS
 10
59.9980304131
 20
92.9775599129
 11
59.9980304131
 21
94.3775599129
  0
LINE
  5
22A
100
AcDbEntity
  8
0
100
AcDbLine
 62
7
  6
CONTINUOUS
 10
59.9980304131
 20
347.9775599129
 11
59.9980304131
 21
350.3775599129
  0
LINE
  5
22B
100
AcDbEntity
  8
0
100
AcDbLine
 62
7
  6
CONTINUOUS
 10
259.5980304131
 20
350.3775599129
 11
259.5980304131
 21
347.9775599129
  0
LINE
  5
22C
100
AcDbEntity
  8
0
100
AcDbLine
 62
7
  6
CONTINUOUS
 10
259.5980304131
 20
94.3775599129
 11
259.5980304131
 21
92.9775599129
  0
LINE
  5
22D
100
AcDbEntity
  8
0
100
AcDbLine
 62
7
  6
CONTINUOUS
 10
260.5980304131
 20
346.9775599129
 11
260.5980304131
 21
341.9257089087
  0
LINE
  5
22E
100
AcDbEntity
  8
0
100
AcDbLine
 62
7
  6
CONTINUOUS
 10
260.5980304131
 20
101.4382946208
 11
260.5980304131
 21
95.3775599129
  0
LINE
  5
22F
100
AcDbEntity
  8
0
100
AcDbLine
 62
7
  6
CONTINUOUS
 10
263.1980304131
 20
349.8789066828
 11
263.1980304131
 21
343.4817395851
  0
LINE
  5
230
100
AcDbEntity
  8
0
100
AcDbLine
 62
7
  6
CONTINUOUS
 10
263.1980304131
 20
99.8789066828
 11
263.1980304131
 21
93.4817395851
  0
LINE
  5
231
100
AcDbEntity
  8
0
100
AcDbLine
 62
7
  6
CONTINUOUS
 10
282.4980304131
 20
369.6775599129
 11
282.4980304131
 21
73.6775599129
  0
LINE
  5
232
100
AcDbEntity
  8
0
100
AcDbLine
 62
7
  6
CONTINUOUS
 10
283.4980304131
 20
71.6775599129
 11
283.4980304131
 21
72.6775599129
  0
LINE
  5
233
100
AcDbEntity
  8
0
100
AcDbLine
 62
7
  6
CONTINUOUS
 10
283.4980304131
 20
370.6775599129
 11
283.4980304131
 21
371.6775599129
  0
LINE
  5
234
100
AcDbEntity
  8
0
100
AcDbLine
 62
7
  6
CONTINUOUS
 10
284.4980304131
 20
72.6775599129
 11
284.4980304131
 21
370.6775599129
  0
LINE
  5
235
100
AcDbEntity
  8
0
100
AcDbLine
 62
7
  6
CONTINUOUS
 10
55.7980304131
 20
346.9775599129
 11
58.9980304131
 21
346.9775599129
  0
LINE
  5
236
100
AcDbEntity
  8
0
100
AcDbLine
 62
7
  6
CONTINUOUS
 10
260.5980304131
 20
346.9775599129
 11
263.1980304131
 21
346.9775599129
  0
LINE
  5
237
100
AcDbEntity
  8
0
100
AcDbLine
 62
7
  6
CONTINUOUS
 10
59.9980304131
 20
347.9775599129
 11
64.0699691565
 21
347.9775599129
  0
LINE
  5
238
100
AcDbEntity
  8
0
100
AcDbLine
 62
7
  6
CONTINUOUS
 10
254.9227766299
 20
347.9775599129
 11
259.5980304131
 21
347.9775599129
  0
LINE
  5
239
100
AcDbEntity
  8
0
100
AcDbLine
 62
7
  6
CONTINUOUS
 10
56.4918941257
 20
350.3775599129
 11
62.5025425896
 21
350.3775599129
  0
LINE
  5
23A
100
AcDbEntity
  8
0
100
AcDbLine
 62
7
  6
CONTINUOUS
 10
256.4918941257
 20
350.3775599129
 11
262.5025425896
 21
350.3775599129
  0
LINE
  5
23B
100
AcDbEntity
  8
0
100
AcDbLine
 62
7
  6
CONTINUOUS
 10
36.4980304131
 20
369.6775599129
 11
282.4980304131
 21
369.6775599129
  0
LINE
  5
23C
100
AcDbEntity
  8
0
100
AcDbLine
 62
7
  6
CONTINUOUS
 10
284.4980304131
 20
370.6775599129
 11
283.4980304131
 21
370.6775599129
  0
LINE
  5
23D
100
AcDbEntity
  8
0
100
AcDbLine
 62
7
  6
CONTINUOUS
 10
35.4980304131
 20
370.6775599129
 11
34.4980304131
 21
370.6775599129
  0
LINE
  5
23E
100
AcDbEntity
  8
0
100
AcDbLine
 62
7
  6
CONTINUOUS
 10
283.4980304131
 20
371.6775599129
 11
35.4980304131
 21
371.6775599129
  0
CIRCLE
  5
23F
100
AcDbEntity
  8
0
100
AcDbCircle
 62
7
  6
CONTINUOUS
 10
59.4980304131
 20
96.6775599129
 40
5.0
  0
CIRCLE
  5
240
100
AcDbEntity
  8
0
100
AcDbCircle
 62
7
  6
CONTINUOUS
 10
259.4980304131
 20
96.6775599129
 40
5.0
  0
CIRCLE
  5
241
100
AcDbEntity
  8
0
100
AcDbCircle
 62
7
  6
CONTINUOUS
 10
59.4980304131
 20
346.6775599129
 40
5.0
  0
CIRCLE
  5
242
100
AcDbEntity
  8
0
100
AcDbCircle
 62
7
  6
CONTINUOUS
 10
259.4980304131
 20
346.6775599129
 40
5.0
  0
ARC
  5
243
100
AcDbEntity
  8
0
100
AcDbCircle
 62
7
  6
CONTINUOUS
 10
59.9980304131
 20
346.9775599129
 40
1.0
100
AcDbArc
 50
90.0
 51
180.0
  0
ARC
  5
244
100
AcDbEntity
  8
0
100
AcDbCircle
 62
7
  6
CONTINUOUS
 10
259.5980304131
 20
346.9775599129
 40
1.0
100
AcDbArc
 50
0.0
 51
90.0
  0
ARC
  5
245
100
AcDbEntity
  8
0
100
AcDbCircle
 62
7
  6
CONTINUOUS
 10
259.5980304131
 20
95.3775599129
 40
1.0
100
AcDbArc
 50
270.0
 51
360.0
  0
ARC
  5
246
100
AcDbEntity
  8
0
100
AcDbCircle
 62
7
  6
CONTINUOUS
 10
59.9980304131
 20
95.3775599129
 40
1.0
100
AcDbArc
 50
180.0
 51
270.0
  0
SPLINE
  5
247
100
AcDbEntity
  8
0
100
AcDbSpline
 62
7
  6
CONTINUOUS
 70
0
 71
3
 72
10
 73
6
 74
0
 42
0.0000001
 43
0.0000001
 44
0.0000000001
 40
0.0
 40
0.0
 40
0.0
 40
0.0
 40
0.4006986509
 40
0.6839149402
 40
1.0
 40
1.0
 40
1.0
 40
1.0
 10
283.4980304131
 20
370.6775599129
 30
0.0
 10
283.3048734712
 20
370.6775599129
 30
0.0
 10
283.0124891793
 20
370.4316969186
 30
0.0
 10
282.7373248762
 20
370.051774143
 30
0.0
 10
282.579856987
 20
369.8060927947
 30
0.0
 10
282.4980304131
 20
369.6775599129
 30
0.0
  0
SPLINE
  5
248
100
AcDbEntity
  8
0
100
AcDbSpline
 62
7
  6
CONTINUOUS
 70
0
 71
3
 72
10
 73
6
 74
0
 42
0.0000001
 43
0.0000001
 44
0.0000000001
 40
0.0
 40
0.0
 40
0.0
 40
0.0
 40
0.3160850598
 40
0.5993013491
 40
1.0
 40
1.0
 40
1.0
 40
1.0
 10
36.4980304131
 20
369.6775599129
 30
0.0
 10
36.4162038391
 20
369.8060927947
 30
0.0
 10
36.2587359499
 20
370.051774143
 30
0.0
 10
35.9835716468
 20
370.4316969186
 30
0.0
 10
35.6911873549
 20
370.6775599129
 30
0.0
 10
35.4980304131
 20
370.6775599129
 30
0.0
  0
SPLINE
  5
249
100
AcDbEntity
  8
0
100
AcDbSpline
 62
7
  6
CONTINUOUS
 70
0
 71
3
 72
10
 73
6
 74
0
 42
0.0000001
 43
0.0000001
 44
0.0000000001
 40
0.0
 40
0.0
 40
0.0
 40
0.0
 40
0.4006986509
 40
0.6839149402
 40
1.0
 40
1.0
 40
1.0
 40
1.0
 10
35.4980304131
 20
72.6775599129
 30
0.0
 10
35.6911873549
 20
72.6775599129
 30
0.0
 10
35.9835716468
 20
72.9234229071
 30
0.0
 10
36.2587359499
 20
73.3033456827
 30
0.0
 10
36.4162038391
 20
73.549027031
 30
0.0
 10
36.4980304131
 20
73.6775599129
 30
0.0
  0
SPLINE
  5
24A
100
AcDbEntity
  8
0
100
AcDbSpline
 62
7
  6
CONTINUOUS
 70
0
 71
3
 72
10
 73
6
 74
0
 42
0.0000001
 43
0.0000001
 44
0.0000000001
 40
0.0
 40
0.0
 40
0.0
 40
0.0
 40
0.3160850598
 40
0.5993013491
 40
1.0
 40
1.0
 40
1.0
 40
1.0
 10
282.4980304131
 20
73.6775599129
 30
0.0
 10
282.579856987
 20
73.549027031
 30
0.0
 10
282.7373248762
 20
73.3033456827
 30
0.0
 10
283.0124891793
 20
72.9234229071
 30
0.0
 10
283.3048734712
 20
72.6775599129
 30
0.0
 10
283.4980304131
 20
72.6775599129
 30
0.0
  0
SPLINE
  5
24B
100
AcDbEntity
  8
0
100
AcDbSpline
 62
7
  6
CONTINUOUS
 70
0
 71
3
 72
10
 73
6
 74
0
 42
0.0000001
 43
0.0000001
 44
0.0000000001
 40
0.0
 40
0.0
 40
0.0
 40
0.0
 40
0.4006986509
 40
0.6839149402
 40
1.0
 40
1.0
 40
1.0
 40
1.0
 10
35.4980304131
 20
370.6775599129
 30
0.0
 10
35.4980304131
 20
370.484402971
 30
0.0
 10
35.7438934073
 20
370.1920186791
 30
0.0
 10
36.1238161829
 20
369.916854376
 30
0.0
 10
36.3694975312
 20
369.7593864868
 30
0.0
 10
36.4980304131
 20
369.6775599129
 30
0.0
  0
SPLINE
  5
24C
100
AcDbEntity
  8
0
100
AcDbSpline
 62
7
  6
CONTINUOUS
 70
0
 71
3
 72
10
 73
6
 74
0
 42
0.0000001
 43
0.0000001
 44
0.0000000001
 40
0.0
 40
0.0
 40
0.0
 40
0.0
 40
0.3160850598
 40
0.5993013491
 40
1.0
 40
1.0
 40
1.0
 40
1.0
 10
36.4980304131
 20
73.6775599129
 30
0.0
 10
36.3694975312
 20
73.5957333389
 30
0.0
 10
36.1238161829
 20
73.4382654497
 30
0.0
 10
35.7438934073
 20
73.1631011466
 30
0.0
 10
35.4980304131
 20
72.8707168547
 30
0.0
 10
35.4980304131
 20
72.6775599129
 30
0.0
  0
SPLINE
  5
24D
100
AcDbEntity
  8
0
100
AcDbSpline
 62
7
  6
CONTINUOUS
 70
0
 71
3
 72
10
 73
6
 74
0
 42
0.0000001
 43
0.0000001
 44
0.0000000001
 40
0.0
 40
0.0
 40
0.0
 40
0.0
 40
0.4006986509
 40
0.6839149402
 40
1.0
 40
1.0
 40
1.0
 40
1.0
 10
283.4980304131
 20
72.6775599129
 30
0.0
 10
283.4980304131
 20
72.8707168547
 30
0.0
 10
283.2521674188
 20
73.1631011466
 30
0.0
 10
282.8722446432
 20
73.4382654497
 30
0.0
 10
282.6265632949
 20
73.5957333389
 30
0.0
 10
282.4980304131
 20
73.6775599129
 30
0.0
  0
SPLINE
  5
24E
100
AcDbEntity
  8
0
100
AcDbSpline
 62
7
  6
CONTINUOUS
 70
0
 71
3
 72
10
 73
6
 74
0
 42
0.0000001
 43
0.0000001
 44
0.0000000001
 40
0.0
 40
0.0
 40
0.0
 40
0.0
 40
0.3160850598
 40
0.5993013491
 40
1.0
 40
1.0
 40
1.0
 40
1.0
 10
282.4980304131
 20
369.6775599129
 30
0.0
 10
282.6265632949
 20
369.7593864868
 30
0.0
 10
282.8722446432
 20
369.916854376
 30
0.0
 10
283.2521674188
 20
370.1920186791
 30
0.0
 10
283.4980304131
 20
370.484402971
 30
0.0
 10
283.4980304131
 20
370.6775599129
 30
0.0
  0
SPLINE
  5
24F
100
AcDbEntity
  8
0
100
AcDbSpline
 62
7
  6
CONTINUOUS
 70
0
 71
3
 72
9
 73
5
 74
0
 42
0.0000001
 43
0.0000001
 44
0.0000000001
 40
0.0
 40
0.0
 40
0.0
 40
0.0
 40
0.5374639847
 40
1.0
 40
1.0
 40
1.0
 40
1.0
 10
282.4980304131
 20
73.6775599129
 30
0.0
 10
282.7565315004
 20
73.5952764612
 30
0.0
 10
283.2372480027
 20
73.4421319267
 30
0.0
 10
283.7122091066
 20
73.2684656997
 30
0.0
 10
283.9247627842
 20
73.1718982211
 30
0.0
  0
SPLINE
  5
250
100
AcDbEntity
  8
0
100
AcDbSpline
 62
7
  6
CONTINUOUS
 70
0
 71
3
 72
10
 73
6
 74
0
 42
0.0000001
 43
0.0000001
 44
0.0000000001
 40
0.0
 40
0.0
 40
0.0
 40
0.0
 40
0.3497481686
 40
0.6304141619
 40
1.0
 40
1.0
 40
1.0
 40
1.0
 10
283.9247627842
 20
73.1718982211
 30
0.0
 10
284.0076268684
 20
73.1342513746
 30
0.0
 10
284.1560657805
 20
73.0598806734
 30
0.0
 10
284.3704326829
 20
72.9242977993
 30
0.0
 10
284.4980304131
 20
72.773737337
 30
0.0
 10
284.4980304131
 20
72.6775599129
 30
0.0
  0
SPLINE
  5
251
100
AcDbEntity
  8
0
100
AcDbSpline
 62
7
  6
CONTINUOUS
 70
0
 71
3
 72
10
 73
6
 74
0
 42
0.0000001
 43
0.0000001
 44
0.0000000001
 40
0.0
 40
0.0
 40
0.0
 40
0.0
 40
0.3574790078
 40
0.6430185413
 40
1.0
 40
1.0
 40
1.0
 40
1.0
 10
284.4980304131
 20
370.6775599129
 30
0.0
 10
284.4980304131
 20
370.5619394209
 30
0.0
 10
284.3195959473
 20
370.3882074232
 30
0.0
 10
284.0471192055
 20
370.2366590275
 30
0.0
 10
283.8543532153
 20
370.1507056943
 30
0.0
 10
283.7474302887
 20
370.1071350662
 30
0.0
  0
SPLINE
  5
252
100
AcDbEntity
  8
0
100
AcDbSpline
 62
7
  6
CONTINUOUS
 70
0
 71
3
 72
9
 73
5
 74
0
 42
0.0000001
 43
0.0000001
 44
0.0000000001
 40
0.0
 40
0.0
 40
0.0
 40
0.0
 40
0.2269098481
 40
1.0
 40
1.0
 40
1.0
 40
1.0
 10
283.7474302887
 20
370.1071350662
 30
0.0
 10
283.6548718651
 20
370.0694179106
 30
0.0
 10
283.2429001373
 20
369.9131697489
 30
0.0
 10
282.8225155737
 20
369.7808467474
 30
0.0
 10
282.4980304131
 20
369.6775599129
 30
0.0
  0
SPLINE
  5
253
100
AcDbEntity
  8
0
100
AcDbSpline
 62
7
  6
CONTINUOUS
 70
0
 71
3
 72
10
 73
6
 74
0
 42
0.0000001
 43
0.0000001
 44
0.0000000001
 40
0.0
 40
0.0
 40
0.0
 40
0.0
 40
0.3574790078
 40
0.6430185413
 40
1.0
 40
1.0
 40
1.0
 40
1.0
 10
34.4980304131
 20
72.6775599129
 30
0.0
 10
34.4980304131
 20
72.7931804048
 30
0.0
 10
34.6764648788
 20
72.9669124025
 30
0.0
 10
34.9489416207
 20
73.1184607983
 30
0.0
 10
35.1417076108
 20
73.2044141314
 30
0.0
 10
35.2486305374
 20
73.2479847595
 30
0.0
  0
SPLINE
  5
254
100
AcDbEntity
  8
0
100
AcDbSpline
 62
7
  6
CONTINUOUS
 70
0
 71
3
 72
9
 73
5
 74
0
 42
0.0000001
 43
0.0000001
 44
0.0000000001
 40
0.0
 40
0.0
 40
0.0
 40
0.0
 40
0.2269098481
 40
1.0
 40
1.0
 40
1.0
 40
1.0
 10
35.2486305374
 20
73.2479847595
 30
0.0
 10
35.3411889611
 20
73.2857019152
 30
0.0
 10
35.7531606888
 20
73.4419500768
 30
0.0
 10
36.1735452525
 20
73.5742730784
 30
0.0
 10
36.4980304131
 20
73.6775599129
 30
0.0
  0
SPLINE
  5
255
100
AcDbEntity
  8
0
100
AcDbSpline
 62
7
  6
CONTINUOUS
 70
0
 71
3
 72
9
 73
5
 74
0
 42
0.0000001
 43
0.0000001
 44
0.0000000001
 40
0.0
 40
0.0
 40
0.0
 40
0.0
 40
0.5374639847
 40
1.0
 40
1.0
 40
1.0
 40
1.0
 10
36.4980304131
 20
369.6775599129
 30
0.0
 10
36.2395293257
 20
369.7598433645
 30
0.0
 10
35.7588128234
 20
369.912987899
 30
0.0
 10
35.2838517196
 20
370.086654126
 30
0.0
 10
35.0712980419
 20
370.1832216046
 30
0.0
  0
SPLINE
  5
256
100
AcDbEntity
  8
0
100
AcDbSpline
 62
7
  6
CONTINUOUS
 70
0
 71
3
 72
10
 73
6
 74
0
 42
0.0000001
 43
0.0000001
 44
0.0000000001
 40
0.0
 40
0.0
 40
0.0
 40
0.0
 40
0.3497481686
 40
0.6304141619
 40
1.0
 40
1.0
 40
1.0
 40
1.0
 10
35.0712980419
 20
370.1832216046
 30
0.0
 10
34.9884339578
 20
370.2208684511
 30
0.0
 10
34.8399950456
 20
370.2952391523
 30
0.0
 10
34.6256281432
 20
370.4308220264
 30
0.0
 10
34.4980304131
 20
370.5813824887
 30
0.0
 10
34.4980304131
 20
370.6775599129
 30
0.0
  0
SPLINE
  5
257
100
AcDbEntity
  8
0
100
AcDbSpline
 62
7
  6
CONTINUOUS
 70
0
 71
3
 72
10
 73
6
 74
0
 42
0.0000001
 43
0.0000001
 44
0.0000000001
 40
0.0
 40
0.0
 40
0.0
 40
0.0
 40
0.3574790078
 40
0.6430185413
 40
1.0
 40
1.0
 40
1.0
 40
1.0
 10
283.4980304131
 20
71.6775599129
 30
0.0
 10
283.3824099212
 20
71.6775599129
 30
0.0
 10
283.2086779234
 20
71.8559943786
 30
0.0
 10
283.0571295277
 20
72.1284711205
 30
0.0
 10
282.9711761946
 20
72.3212371106
 30
0.0
 10
282.9276055664
 20
72.4281600372
 30
0.0
  0
SPLINE
  5
258
100
AcDbEntity
  8
0
100
AcDbSpline
 62
7
  6
CONTINUOUS
 70
0
 71
3
 72
9
 73
5
 74
0
 42
0.0000001
 43
0.0000001
 44
0.0000000001
 40
0.0
 40
0.0
 40
0.0
 40
0.0
 40
0.2269098481
 40
1.0
 40
1.0
 40
1.0
 40
1.0
 10
282.9276055664
 20
72.4281600372
 30
0.0
 10
282.8898884108
 20
72.5207184609
 30
0.0
 10
282.7336402491
 20
72.9326901886
 30
0.0
 10
282.6013172476
 20
73.3530747522
 30
0.0
 10
282.4980304131
 20
73.6775599129
 30
0.0
  0
SPLINE
  5
259
100
AcDbEntity
  8
0
100
AcDbSpline
 62
7
  6
CONTINUOUS
 70
0
 71
3
 72
9
 73
5
 74
0
 42
0.0000001
 43
0.0000001
 44
0.0000000001
 40
0.0
 40
0.0
 40
0.0
 40
0.0
 40
0.5374639847
 40
1.0
 40
1.0
 40
1.0
 40
1.0
 10
36.4980304131
 20
73.6775599129
 30
0.0
 10
36.4157469614
 20
73.4190588255
 30
0.0
 10
36.2626024269
 20
72.9383423232
 30
0.0
 10
36.0889361999
 20
72.4633812194
 30
0.0
 10
35.9923687213
 20
72.2508275417
 30
0.0
  0
SPLINE
  5
25A
100
AcDbEntity
  8
0
100
AcDbSpline
 62
7
  6
CONTINUOUS
 70
0
 71
3
 72
10
 73
6
 74
0
 42
0.0000001
 43
0.0000001
 44
0.0000000001
 40
0.0
 40
0.0
 40
0.0
 40
0.0
 40
0.3497481686
 40
0.6304141619
 40
1.0
 40
1.0
 40
1.0
 40
1.0
 10
35.9923687213
 20
72.2508275417
 30
0.0
 10
35.9547218748
 20
72.1679634576
 30
0.0
 10
35.8803511736
 20
72.0195245454
 30
0.0
 10
35.7447682995
 20
71.805157643
 30
0.0
 10
35.5942078372
 20
71.6775599129
 30
0.0
 10
35.4980304131
 20
71.6775599129
 30
0.0
  0
SPLINE
  5
25B
100
AcDbEntity
  8
0
100
AcDbSpline
 62
7
  6
CONTINUOUS
 70
0
 71
3
 72
9
 73
5
 74
0
 42
0.0000001
 43
0.0000001
 44
0.0000000001
 40
0.0
 40
0.0
 40
0.0
 40
0.0
 40
0.5374639847
 40
1.0
 40
1.0
 40
1.0
 40
1.0
 10
282.4980304131
 20
369.6775599129
 30
0.0
 10
282.5803138647
 20
369.9360610002
 30
0.0
 10
282.7334583992
 20
370.4167775025
 30
0.0
 10
282.9071246262
 20
370.8917386063
 30
0.0
 10
283.0036921048
 20
371.104292284
 30
0.0
  0
SPLINE
  5
25C
100
AcDbEntity
  8
0
100
AcDbSpline
 62
7
  6
CONTINUOUS
 70
0
 71
3
 72
10
 73
6
 74
0
 42
0.0000001
 43
0.0000001
 44
0.0000000001
 40
0.0
 40
0.0
 40
0.0
 40
0.0
 40
0.3497481686
 40
0.6304141619
 40
1.0
 40
1.0
 40
1.0
 40
1.0
 10
283.0036921048
 20
371.104292284
 30
0.0
 10
283.0413389513
 20
371.1871563682
 30
0.0
 10
283.1157096525
 20
371.3355952803
 30
0.0
 10
283.2512925267
 20
371.5499621827
 30
0.0
 10
283.4018529889
 20
371.6775599129
 30
0.0
 10
283.4980304131
 20
371.6775599129
 30
0.0
  0
SPLINE
  5
25D
100
AcDbEntity
  8
0
100
AcDbSpline
 62
7
  6
CONTINUOUS
 70
0
 71
3
 72
10
 73
6
 74
0
 42
0.0000001
 43
0.0000001
 44
0.0000000001
 40
0.0
 40
0.0
 40
0.0
 40
0.0
 40
0.3574790078
 40
0.6430185413
 40
1.0
 40
1.0
 40
1.0
 40
1.0
 10
35.4980304131
 20
371.6775599129
 30
0.0
 10
35.613650905
 20
371.6775599129
 30
0.0
 10
35.7873829027
 20
371.4991254471
 30
0.0
 10
35.9389312985
 20
371.2266487053
 30
0.0
 10
36.0248846316
 20
371.0338827151
 30
0.0
 10
36.0684552598
 20
370.9269597885
 30
0.0
  0
SPLINE
  5
25E
100
AcDbEntity
  8
0
100
AcDbSpline
 62
7
  6
CONTINUOUS
 70
0
 71
3
 72
9
 73
5
 74
0
 42
0.0000001
 43
0.0000001
 44
0.0000000001
 40
0.0
 40
0.0
 40
0.0
 40
0.0
 40
0.2269098481
 40
1.0
 40
1.0
 40
1.0
 40
1.0
 10
36.0684552598
 20
370.9269597885
 30
0.0
 10
36.1061724154
 20
370.8344013649
 30
0.0
 10
36.262420577
 20
370.4224296371
 30
0.0
 10
36.3947435786
 20
370.0020450735
 30
0.0
 10
36.4980304131
 20
369.6775599129
 30
0.0
  0
ENDSEC
  0
SECTION
  2
OBJECTS
  0
DICTIONARY
  5
C
100
AcDbDictionary
280
0
281
1
  3
ACAD_GROUP
350
D
  3
ACAD_MLINESTYLE
350
17
  3
ACAD_LAYOUT
350
1A
  3
ACAD_PLOTSETTINGS
350
19
  3
ACAD_PLOTSTYLENAME
350
E
  0
DICTIONARY
  5
D
102
{ACAD_REACTORS
330
C
102
}
100
AcDbDictionary
280
0
281
1
  0
ACDBDICTIONARYWDFLT
  5
E
102
{ACAD_REACTORS
330
C
102
}
100
AcDbDictionary
281
1
  3
Normal
350
F
100
AcDbDictionaryWithDefault
340
F
  0
DICTIONARY
  5
17
102
{ACAD_REACTORS
330
C
102
}
100
AcDbDictionary
280
0
281
1
  3
Standard
350
18
  0
DICTIONARY
  5
19
102
{ACAD_REACTORS
330
C
102
}
100
AcDbDictionary
281
1
  0
DICTIONARY
  5
1A
102
{ACAD_REACTORS
330
C
102
}
100
AcDbDictionary
281
1
  3
Model
350
25F
  3
Layout1
350
260
  0
ACDBPLACEHOLDER
  5
F
102
{ACAD_REACTORS
330
E
102
}
  0
MLINESTYLE
  5
18
102
{ACAD_REACTORS
330
17
102
}
100
AcDbMlineStyle
  2
STANDARD
 70
0
  3

 62
256
 51
90.0
 52
90.0
 71
2
 49
0.5
 62
256
  6
BYLAYER
 49
-0.5
 62
256
  6
BYLAYER
  0
LAYOUT
  5
25F
102
{ACAD_REACTORS
330
1A
102
}
100
AcDbPlotSettings
  1

  2
none_device
  4

  6

 40
0.0
 41
0.0
 42
0.0
 43
0.0
 44
210.0
 45
297.0
 46
0.0
 47
0.0
 48
0.0
 49
0.0
140
0.0
141
0.0
142
1.0
143
1.0
 70
1024
 72
1
 73
0
 74
0
  7

 75
0
147
1.0
148
0.0
149
0.0
100
AcDbLayout
  1
Model
 70
0
 71
0
 10
0.0
 20
0.0
 11
210.0
 21
297.0
 12
0.0
 22
0.0
 32
0.0
 14
0.0
 24
0.0
 34
0.0
 15
0.0
 25
0.0
 35
0.0
146
0.0
 13
0.0
 23
0.0
 33
0.0
 16
1.0
 26
0.0
 36
0.0
 17
0.0
 27
1.0
 37
0.0
 76
0
330
210
345
0
346
0
  0
LAYOUT
  5
260
102
{ACAD_REACTORS
330
1A
102
}
100
AcDbPlotSettings
  1

  2
none_device
  4

  6

 40
0.0
 41
0.0
 42
0.0
 43
0.0
 44
210.0
 45
297.0
 46
0.0
 47
0.0
 48
0.0
 49
0.0
140
0.0
141
0.0
142
1.0
143
1.0
 70
0
 72
1
 73
0
 74
0
  7

 75
0
147
1.0
148
0.0
149
0.0
100
AcDbLayout
  1
Layout1
 70
0
 71
1
 10
0.0
 20
0.0
 11
210.0
 21
297.0
 12
0.0
 22
0.0
 32
0.0
 14
0.0
 24
0.0
 34
0.0
 15
0.0
 25
0.0
 35
0.0
146
0.0
 13
0.0
 23
0.0
 33
0.0
 16
1.0
 26
0.0
 36
0.0
 17
0.0
 27
1.0
 37
0.0
 76
0
330
211
345
0
346
0
  0
ENDSEC
  0
EOF
