999
DXF file: C:\Users\sesa63760\Dev\_Creo\CAD\MCADUE0002404_3D-CAD\drw0001_3.dxf
999
Pro/ENGINEER 2019471 by Parametric Technology Corporation
  0
SECTION
  2
HEADER
  9
$ACADVER
  1
AC1024
  9
$DWGCODEPAGE
  3
ANSI_1252
  9
$EXTMAX
 10
758.4377693787
 20
1072.647702407
 30
0.0
  9
$EXTMIN
 10
0.0
 20
0.0
 30
0.0
  9
$LIMMIN
 10
0.0
 20
0.0
  9
$LIMMAX
 10
758.4377693787
 20
1072.647702407
  9
$VIEWCTR
 10
379.2188846894
 20
536.3238512035
  9
$VIEWSIZE
 40
1072.647702407
  9
$CLAYER
  8
0
  9
$LTSCALE
 40
69.9207391199
  9
$CELTYPE
  6
BYLAYER
  9
$DIMSCALE
 40
1.0
  9
$DIMASZ
 40
9.029021064
  9
$DIMEXO
 40
1.0
  9
$DIMDLI
 40
48.308874301
  9
$DIMEXE
 40
1.0
  9
$DIMCEN
 40
11.4415754923
  9
$DIMLFAC
 40
1.0
  9
$DIMBLK
  1
_FILLED
  9
$DIMALT
 70
0
  9
$DIMALTF
 40
0.0393700787
  9
$DIMTXT
 40
12.6406294896
  9
$DIMTOL
 70
1
  9
$DIMLIM
 70
0
  9
$DIMTFAC
 40
1.0
  9
$DIMTP
 40
0.01
  9
$DIMTM
 40
0.01
  9
$DIMGAP
 40
0.625
  9
$DIMDSEP
 70
46
  9
$AUNITS
 70
0
  9
$PDMODE
 70
3
  9
$PDSIZE
 40
0.3125
  9
$HANDSEED
  5
7C8
  9
$TILEMODE
 70
1
  9
$MEASUREMENT
 70
1
  9
$INSUNITS
 70
4
  0
ENDSEC
  0
SECTION
  2
CLASSES
  0
CLASS
  1
ACDBDICTIONARYWDFLT
  2
AcDbDictionaryWithDefault
  3
AutoCAD 2000
 90
0
 91
1
280
0
281
0
  0
CLASS
  1
ACDBPLACEHOLDER
  2
AcDbPlaceHolder
  3
AutoCAD 2000
 90
0
 91
1
280
0
281
0
  0
CLASS
  1
LAYOUT
  2
AcDbLayout
  3
AutoCAD 2000
 90
0
 91
0
280
0
281
0
  0
ENDSEC
  0
SECTION
  2
TABLES
  0
TABLE
  2
VPORT
  5
8
100
AcDbSymbolTable
 70
2
  0
VPORT
  5
1F4
100
AcDbSymbolTableRecord
100
AcDbViewportTableRecord
  2
*ACTIVE
 70
0
 10
0.0
 20
0.0
 11
1.0
 21
1.0
 12
379.2188846894
 22
536.3238512035
 13
0.0
 23
0.0
 14
1.0
 24
1.0
 15
0.0
 25
0.0
 16
0.0
 26
0.0
 36
1.0
 17
0.0
 27
0.0
 37
0.0
 40
1072.647702407
 41
0.7070707071
 42
50.0
 43
0.0
 44
0.0
 50
0.0
 51
0.0
 71
0
 72
100
 73
1
 74
1
 75
0
 76
0
 77
0
 78
0
  0
ENDTAB
  0
TABLE
  2
LTYPE
  5
5
100
AcDbSymbolTable
 70
6
  0
LTYPE
  5
14
100
AcDbSymbolTableRecord
100
AcDbLinetypeTableRecord
  2
BYBLOCK
 70
0
  3

 72
65
 73
0
 40
0.0
  0
LTYPE
  5
15
100
AcDbSymbolTableRecord
100
AcDbLinetypeTableRecord
  2
BYLAYER
 70
0
  3

 72
65
 73
0
 40
0.0
  0
LTYPE
  5
16
100
AcDbSymbolTableRecord
100
AcDbLinetypeTableRecord
  2
CONTINUOUS
 70
64
  3
Solid line
 72
65
 73
0
 40
0.0
  0
LTYPE
  5
1F5
100
AcDbSymbolTableRecord
100
AcDbLinetypeTableRecord
  2
CENTER
 70
64
  3
____ _ ____ _ ____ _ ____ _ ____ _ ____ _ ____
 72
65
 73
4
 40
0.6
 49
0.375
 74
0
 49
-0.075
 74
0
 49
0.075
 74
0
 49
-0.075
 74
0
  0
LTYPE
  5
1F6
100
AcDbSymbolTableRecord
100
AcDbLinetypeTableRecord
  2
HIDDEN
 70
64
  3
- - - - - - - - - - - - - - - - - - - -
 72
65
 73
2
 40
0.2
 49
0.1
 74
0
 49
-0.1
 74
0
  0
LTYPE
  5
1F7
100
AcDbSymbolTableRecord
100
AcDbLinetypeTableRecord
  2
PHANTOM
 70
64
  3
_____ _ _ _____ _ _ _____ _ _ _____
 72
65
 73
6
 40
0.8
 49
0.45
 74
0
 49
-0.05
 74
0
 49
0.1
 74
0
 49
-0.05
 74
0
 49
0.1
 74
0
 49
-0.05
 74
0
  0
LTYPE
  5
1F8
100
AcDbSymbolTableRecord
100
AcDbLinetypeTableRecord
  2
DOT
 70
64
  3
. . . . . . . . . . . . . . . . . . . .
 72
65
 73
2
 40
0.2
 49
0.1
 74
0
 49
-0.1
 74
0
  0
LTYPE
  5
1F9
100
AcDbSymbolTableRecord
100
AcDbLinetypeTableRecord
  2
DASHED
 70
64
  3
- - - - - - - - - - - - - - - - - - - -
 72
65
 73
2
 40
0.2
 49
0.1
 74
0
 49
-0.1
 74
0
  0
ENDTAB
  0
TABLE
  2
LAYER
  5
2
100
AcDbSymbolTable
 70
36
  0
LAYER
  5
10
100
AcDbSymbolTableRecord
100
AcDbLayerTableRecord
  2
0
 70
0
 62
7
  6
CONTINUOUS
370
-3
390
F
  0
LAYER
  5
1FA
100
AcDbSymbolTableRecord
100
AcDbLayerTableRecord
  2
DEFAULT_1
 70
0
 62
7
  6
CENTER
370
-3
390
F
  0
LAYER
  5
1FB
100
AcDbSymbolTableRecord
100
AcDbLayerTableRecord
  2
DEFAULT_2
 70
0
 62
8
  6
HIDDEN
370
-3
390
F
  0
LAYER
  5
1FC
100
AcDbSymbolTableRecord
100
AcDbLayerTableRecord
  2
DEFAULT_3
 70
0
 62
7
  6
PHANTOM
370
-3
390
F
  0
LAYER
  5
1FD
100
AcDbSymbolTableRecord
100
AcDbLayerTableRecord
  2
00_COMPONENTS
 70
0
 62
7
  6
CONTINUOUS
370
-3
390
F
  0
LAYER
  5
1FE
100
AcDbSymbolTableRecord
100
AcDbLayerTableRecord
  2
01_1_DEFAULT_DATUMS
 70
0
 62
7
  6
CONTINUOUS
370
-3
390
F
  0
LAYER
  5
1FF
100
AcDbSymbolTableRecord
100
AcDbLayerTableRecord
  2
01_PLANES
 70
0
 62
7
  6
CONTINUOUS
370
-3
390
F
  0
LAYER
  5
200
100
AcDbSymbolTableRecord
100
AcDbLayerTableRecord
  2
02_COORD_SYS
 70
0
 62
7
  6
CONTINUOUS
370
-3
390
F
  0
LAYER
  5
201
100
AcDbSymbolTableRecord
100
AcDbLayerTableRecord
  2
03_AXES
 70
0
 62
7
  6
CONTINUOUS
370
-3
390
F
  0
LAYER
  5
202
100
AcDbSymbolTableRecord
100
AcDbLayerTableRecord
  2
04_POINTS
 70
0
 62
7
  6
CONTINUOUS
370
-3
390
F
  0
LAYER
  5
203
100
AcDbSymbolTableRecord
100
AcDbLayerTableRecord
  2
05_CURVES
 70
0
 62
7
  6
CONTINUOUS
370
-3
390
F
  0
LAYER
  5
204
100
AcDbSymbolTableRecord
100
AcDbLayerTableRecord
  2
06_SURFS
 70
0
 62
7
  6
CONTINUOUS
370
-3
390
F
  0
LAYER
  5
205
100
AcDbSymbolTableRecord
100
AcDbLayerTableRecord
  2
07_COSMETICS
 70
0
 62
7
  6
CONTINUOUS
370
-3
390
F
  0
LAYER
  5
206
100
AcDbSymbolTableRecord
100
AcDbLayerTableRecord
  2
10_NOTES
 70
0
 62
7
  6
CONTINUOUS
370
-3
390
F
  0
LAYER
  5
207
100
AcDbSymbolTableRecord
100
AcDbLayerTableRecord
  2
11_NOTES_PUB
 70
0
 62
7
  6
CONTINUOUS
370
-3
390
F
  0
LAYER
  5
208
100
AcDbSymbolTableRecord
100
AcDbLayerTableRecord
  2
13_REF_GTOL
 70
0
 62
7
  6
CONTINUOUS
370
-3
390
F
  0
LAYER
  5
209
100
AcDbSymbolTableRecord
100
AcDbLayerTableRecord
  2
16_MISC
 70
0
 62
7
  6
CONTINUOUS
370
-3
390
F
  0
LAYER
  5
20A
100
AcDbSymbolTableRecord
100
AcDbLayerTableRecord
  2
17_NO_PRINT
 70
0
 62
7
  6
CONTINUOUS
370
-3
390
F
  0
LAYER
  5
20B
100
AcDbSymbolTableRecord
100
AcDbLayerTableRecord
  2
18_DATUM_CAMS_JOINTS
 70
0
 62
7
  6
CONTINUOUS
370
-3
390
F
  0
LAYER
  5
20C
100
AcDbSymbolTableRecord
100
AcDbLayerTableRecord
  2
19_DATUM_FUNCTIONAL
 70
0
 62
7
  6
CONTINUOUS
370
-3
390
F
  0
LAYER
  5
20D
100
AcDbSymbolTableRecord
100
AcDbLayerTableRecord
  2
20_DATUM_KINEMATIC_SCHEME
 70
0
 62
7
  6
CONTINUOUS
370
-3
390
F
  0
ENDTAB
  0
TABLE
  2
STYLE
  5
3
100
AcDbSymbolTable
 70
1
  0
STYLE
  5
11
100
AcDbSymbolTableRecord
100
AcDbTextStyleTableRecord
  2
STANDARD
 70
0
 40
0.0
 41
0.8
 50
0.0
 71
0
 42
0.2
  3
txt
  4

  0
STYLE
  5
20E
100
AcDbSymbolTableRecord
100
AcDbTextStyleTableRecord
  2
TEXTSTYLE_1
 70
0
 40
0.0
 41
0.8
 50
0.0
 71
0
 42
0.2
  3
gdt
  4

  0
ENDTAB
  0
TABLE
  2
VIEW
  5
6
100
AcDbSymbolTable
 70
0
  0
ENDTAB
  0
TABLE
  2
UCS
  5
7
100
AcDbSymbolTable
 70
0
  0
ENDTAB
  0
TABLE
  2
APPID
  5
9
100
AcDbSymbolTable
 70
1
  0
APPID
  5
20F
100
AcDbSymbolTableRecord
100
AcDbRegAppTableRecord
  2
ACAD
 70
0
  0
ENDTAB
  0
TABLE
  2
BLOCK_RECORD
  5
1
100
AcDbSymbolTable
 70
0
  0
BLOCK_RECORD
  5
210
100
AcDbSymbolTableRecord
100
AcDbBlockTableRecord
  2
*Model_Space
  0
BLOCK_RECORD
  5
211
100
AcDbSymbolTableRecord
100
AcDbBlockTableRecord
  2
*Paper_Space
  0
BLOCK_RECORD
  5
212
100
AcDbSymbolTableRecord
100
AcDbBlockTableRecord
  2
_FILLED
  0
ENDTAB
  0
TABLE
  2
DIMSTYLE
  5
A
100
AcDbSymbolTable
 70
1
100
AcDbDimStyleTable
 71
0
  0
DIMSTYLE
105
213
100
AcDbSymbolTableRecord
100
AcDbDimStyleTableRecord
  2
STANDARD
 70
0
  3

  4

 40
1.0
 41
9.029021064
 42
1.0
 43
0.38
 44
1.0
 45
0.0
 46
0.0
 47
0.01
 48
0.01
140
12.6406294896
141
0.09
142
0.0
143
25.4
144
1.0
145
0.0
146
1.0
147
0.625
 71
1
 72
0
 73
0
 74
0
 75
0
 76
0
 77
1
 78
8
 79
2
170
0
171
1
172
0
173
0
174
0
175
0
176
0
177
0
178
0
270
2
179
2
271
2
272
2
273
2
274
2
275
0
280
0
281
0
282
0
283
1
284
8
285
0
286
0
287
3
288
0
340
11
278
46
341
212
342
212
343
212
344
212
  0
ENDTAB
  0
ENDSEC
  0
SECTION
  2
BLOCKS
  0
BLOCK
  5
20
100
AcDbEntity
  8
0
100
AcDbBlockBegin
  2
*Model_Space
 70
0
 10
0.0
 20
0.0
 30
0.0
  3
*Model_Space
  1

  0
ENDBLK
  5
21
100
AcDbEntity
  8
0
100
AcDbBlockEnd
  0
BLOCK
  5
1C
100
AcDbEntity
  8
0
100
AcDbBlockBegin
  2
*Paper_Space
 70
0
 10
0.0
 20
0.0
 30
0.0
  3
*Paper_Space
  1

  0
ENDBLK
  5
1D
100
AcDbEntity
  8
0
100
AcDbBlockEnd
  0
BLOCK
  5
214
100
AcDbEntity
  8
0
100
AcDbBlockBegin
  2
_FILLED
 70
64
 10
0.0
 20
0.0
  3
_FILLED
  1

  0
SOLID
  5
215
100
AcDbEntity
  8
0
  6
BYBLOCK
 62
0
100
AcDbTrace
 10
0.0
 20
0.0
 11
-1.0
 21
0.25
 12
-1.0
 22
-0.25
 13
-1.0
 23
-0.25
  0
ENDBLK
  5
216
100
AcDbEntity
  8
0
  6
BYBLOCK
 62
0
100
AcDbBlockEnd
  0
ENDSEC
  0
SECTION
  2
ENTITIES
  0
LINE
  5
217
100
AcDbEntity
  8
0
100
AcDbLine
 62
7
  6
CONTINUOUS
 10
93.2344785855
 20
730.89150029
 11
92.7227703091
 21
729.9085178368
  0
LINE
  5
218
100
AcDbEntity
  8
0
100
AcDbLine
 62
7
  6
CONTINUOUS
 10
92.5461868619
 20
731.8744827431
 11
100.9029039552
 21
737.7259190465
  0
LINE
  5
219
100
AcDbEntity
  8
0
100
AcDbLine
 62
7
  6
CONTINUOUS
 10
100.1873512477
 20
735.7599541402
 11
93.2344785855
 21
730.89150029
  0
LINE
  5
21A
100
AcDbEntity
  8
0
100
AcDbLine
 62
7
  6
CONTINUOUS
 10
89.7221669651
 20
708.7496575288
 11
89.7221669651
 21
337.3496575288
  0
LINE
  5
21B
100
AcDbEntity
  8
0
100
AcDbLine
 62
7
  6
CONTINUOUS
 10
90.9221669651
 20
708.7496575288
 11
90.9221669651
 21
337.3496575288
  0
LINE
  5
21C
100
AcDbEntity
  8
0
100
AcDbLine
 62
7
  6
CONTINUOUS
 10
91.5227703091
 20
719.4599541402
 11
91.5227703091
 21
729.9085178368
  0
LINE
  5
21D
100
AcDbEntity
  8
0
100
AcDbLine
 62
7
  6
CONTINUOUS
 10
92.7227703091
 20
719.4599541402
 11
92.7227703091
 21
729.9085178368
  0
LINE
  5
21E
100
AcDbEntity
  8
0
100
AcDbLine
 62
7
  6
CONTINUOUS
 10
105.2221669651
 20
334.9496575288
 11
105.2221669651
 21
334.7496575288
  0
LINE
  5
21F
100
AcDbEntity
  8
0
100
AcDbLine
 62
7
  6
CONTINUOUS
 10
118.2221669651
 20
334.9496575288
 11
118.2221669651
 21
334.7496575288
  0
LINE
  5
220
100
AcDbEntity
  8
0
100
AcDbLine
 62
7
  6
CONTINUOUS
 10
125.5974867172
 20
740.299552127
 11
125.5227703091
 21
738.1599541402
  0
LINE
  5
221
100
AcDbEntity
  8
0
100
AcDbLine
 62
7
  6
CONTINUOUS
 10
153.8633018384
 20
744.0855232446
 11
153.9772821239
 21
744.1251137439
  0
LINE
  5
222
100
AcDbEntity
  8
0
100
AcDbLine
 62
7
  6
CONTINUOUS
 10
147.9903114465
 20
400.3875076378
 11
147.9431615555
 21
400.4346575288
  0
LINE
  5
223
100
AcDbEntity
  8
0
100
AcDbLine
 62
7
  6
CONTINUOUS
 10
148.2071669651
 20
400.1706521193
 11
148.160017074
 21
400.2178020103
  0
LINE
  5
224
100
AcDbEntity
  8
0
100
AcDbLine
 62
7
  6
CONTINUOUS
 10
147.8998692621
 20
401.6022496043
 11
147.9903114465
 21
401.5118074199
  0
LINE
  5
225
100
AcDbEntity
  8
0
100
AcDbLine
 62
7
  6
CONTINUOUS
 10
149.2843168561
 20
400.2178020103
 11
149.3747590405
 21
400.1273598259
  0
LINE
  5
226
100
AcDbEntity
  8
0
100
AcDbLine
 62
7
  6
CONTINUOUS
 10
147.9902306085
 20
401.6815938854
 11
147.3324024841
 21
402.3394220098
  0
LINE
  5
227
100
AcDbEntity
  8
0
100
AcDbLine
 62
7
  6
CONTINUOUS
 10
149.4541033216
 20
400.2177211723
 11
150.111931446
 21
399.5598930479
  0
LINE
  5
228
100
AcDbEntity
  8
0
100
AcDbLine
 62
7
  6
CONTINUOUS
 10
149.544464668
 20
400.2970654534
 11
149.4540224836
 21
400.3875076378
  0
LINE
  5
229
100
AcDbEntity
  8
0
100
AcDbLine
 62
7
  6
CONTINUOUS
 10
148.0695748896
 20
401.7719552318
 11
148.160017074
 21
401.6815130474
  0
LINE
  5
22A
100
AcDbEntity
  8
0
100
AcDbLine
 62
7
  6
CONTINUOUS
 10
149.2371669651
 20
401.7286629384
 11
149.2843168561
 21
401.6815130474
  0
LINE
  5
22B
100
AcDbEntity
  8
0
100
AcDbLine
 62
7
  6
CONTINUOUS
 10
149.4540224836
 20
401.5118074199
 11
149.5011723746
 21
401.4646575288
  0
LINE
  5
22C
100
AcDbEntity
  8
0
100
AcDbLine
 62
7
  6
CONTINUOUS
 10
147.9037863519
 20
400.1312769156
 11
147.8999967369
 21
400.239637165
  0
LINE
  5
22D
100
AcDbEntity
  8
0
100
AcDbLine
 62
7
  6
CONTINUOUS
 10
149.5405475783
 20
401.768038142
 11
149.5443371932
 21
401.6596778927
  0
LINE
  5
22E
100
AcDbEntity
  8
0
100
AcDbLine
 62
7
  6
CONTINUOUS
 10
147.9037863519
 20
520.1312769156
 11
147.8999967369
 21
520.239637165
  0
LINE
  5
22F
100
AcDbEntity
  8
0
100
AcDbLine
 62
7
  6
CONTINUOUS
 10
149.5405475783
 20
521.768038142
 11
149.5443371932
 21
521.6596778927
  0
LINE
  5
230
100
AcDbEntity
  8
0
100
AcDbLine
 62
7
  6
CONTINUOUS
 10
147.9902306085
 20
401.6815938854
 11
147.9903114465
 21
401.5118074199
  0
LINE
  5
231
100
AcDbEntity
  8
0
100
AcDbLine
 62
7
  6
CONTINUOUS
 10
147.9902306085
 20
521.6815938854
 11
147.9903114465
 21
521.5118074199
  0
LINE
  5
232
100
AcDbEntity
  8
0
100
AcDbLine
 62
7
  6
CONTINUOUS
 10
149.4540224836
 20
400.3875076378
 11
149.4541033216
 21
400.2177211723
  0
LINE
  5
233
100
AcDbEntity
  8
0
100
AcDbLine
 62
7
  6
CONTINUOUS
 10
149.4540224836
 20
520.3875076378
 11
149.4541033216
 21
520.2177211723
  0
LINE
  5
234
100
AcDbEntity
  8
0
100
AcDbLine
 62
7
  6
CONTINUOUS
 10
136.9721669651
 20
549.1996575288
 11
136.9721669651
 21
372.6996575288
  0
LINE
  5
235
100
AcDbEntity
  8
0
100
AcDbLine
 62
7
  6
CONTINUOUS
 10
137.4721669651
 20
549.1996575288
 11
137.4721669651
 21
372.6996575288
  0
LINE
  5
236
100
AcDbEntity
  8
0
100
AcDbLine
 62
7
  6
CONTINUOUS
 10
138.2939677027
 20
548.1996575281
 11
138.2939677027
 21
373.6996575296
  0
LINE
  5
237
100
AcDbEntity
  8
0
100
AcDbLine
 62
7
  6
CONTINUOUS
 10
140.2635832086
 20
373.6996575357
 11
140.2635832087
 21
548.1996575237
  0
LINE
  5
238
100
AcDbEntity
  8
0
100
AcDbLine
 62
7
  6
CONTINUOUS
 10
140.3554397856
 20
548.1996575182
 11
140.3554397857
 21
373.699657536
  0
LINE
  5
239
100
AcDbEntity
  8
0
100
AcDbLine
 62
7
  6
CONTINUOUS
 10
141.3402475384
 20
373.6996575288
 11
141.3402475384
 21
548.1996575288
  0
LINE
  5
23A
100
AcDbEntity
  8
0
100
AcDbLine
 62
7
  6
CONTINUOUS
 10
142.2221669651
 20
375.9496575288
 11
142.2221669651
 21
545.9496575288
  0
LINE
  5
23B
100
AcDbEntity
  8
0
100
AcDbLine
 62
7
  6
CONTINUOUS
 10
148.2071669651
 20
520.1706521193
 11
148.2071669651
 21
518.3994580214
  0
LINE
  5
23C
100
AcDbEntity
  8
0
100
AcDbLine
 62
7
  6
CONTINUOUS
 10
148.2071669651
 20
400.1706521193
 11
148.2071669651
 21
398.3994580214
  0
LINE
  5
23D
100
AcDbEntity
  8
0
100
AcDbLine
 62
7
  6
CONTINUOUS
 10
148.2071669651
 20
401.7286629384
 11
148.2071669651
 21
403.4998567984
  0
LINE
  5
23E
100
AcDbEntity
  8
0
100
AcDbLine
 62
7
  6
CONTINUOUS
 10
148.2071669651
 20
521.7286629384
 11
148.2071669651
 21
523.4998567984
  0
LINE
  5
23F
100
AcDbEntity
  8
0
100
AcDbLine
 62
7
  6
CONTINUOUS
 10
149.2371669651
 20
523.4998568371
 11
149.2371669651
 21
521.7286629384
  0
LINE
  5
240
100
AcDbEntity
  8
0
100
AcDbLine
 62
7
  6
CONTINUOUS
 10
149.2371669651
 20
403.4998568371
 11
149.2371669651
 21
401.7286629384
  0
LINE
  5
241
100
AcDbEntity
  8
0
100
AcDbLine
 62
7
  6
CONTINUOUS
 10
149.2371669651
 20
398.399458371
 11
149.2371669651
 21
400.1706521193
  0
LINE
  5
242
100
AcDbEntity
  8
0
100
AcDbLine
 62
7
  6
CONTINUOUS
 10
149.2371669651
 20
518.399458371
 11
149.2371669651
 21
520.1706521193
  0
LINE
  5
243
100
AcDbEntity
  8
0
100
AcDbLine
 62
7
  6
CONTINUOUS
 10
147.9902306085
 20
520.2177211723
 11
147.9903114465
 21
520.3875076378
  0
LINE
  5
244
100
AcDbEntity
  8
0
100
AcDbLine
 62
7
  6
CONTINUOUS
 10
147.9902306085
 20
400.2177211723
 11
147.9903114465
 21
400.3875076378
  0
LINE
  5
245
100
AcDbEntity
  8
0
100
AcDbLine
 62
7
  6
CONTINUOUS
 10
149.4540224836
 20
521.5118074199
 11
149.4541033216
 21
521.6815938854
  0
LINE
  5
246
100
AcDbEntity
  8
0
100
AcDbLine
 62
7
  6
CONTINUOUS
 10
149.4540224836
 20
401.5118074199
 11
149.4541033216
 21
401.6815938854
  0
LINE
  5
247
100
AcDbEntity
  8
0
100
AcDbLine
 62
7
  6
CONTINUOUS
 10
147.9053299993
 20
521.7664944946
 11
147.8998875665
 21
521.6108735734
  0
LINE
  5
248
100
AcDbEntity
  8
0
100
AcDbLine
 62
7
  6
CONTINUOUS
 10
149.5444463636
 20
520.2884414843
 11
149.5390039308
 21
520.1328205631
  0
LINE
  5
249
100
AcDbEntity
  8
0
100
AcDbLine
 62
7
  6
CONTINUOUS
 10
208.9903114465
 20
356.8875076378
 11
208.9431615555
 21
356.9346575288
  0
LINE
  5
24A
100
AcDbEntity
  8
0
100
AcDbLine
 62
7
  6
CONTINUOUS
 10
209.2071669651
 20
356.6706521193
 11
209.160017074
 21
356.7178020103
  0
LINE
  5
24B
100
AcDbEntity
  8
0
100
AcDbLine
 62
7
  6
CONTINUOUS
 10
208.8998692621
 20
358.1022496043
 11
208.9903114465
 21
358.0118074199
  0
LINE
  5
24C
100
AcDbEntity
  8
0
100
AcDbLine
 62
7
  6
CONTINUOUS
 10
210.2843168561
 20
356.7178020103
 11
210.3747590405
 21
356.6273598259
  0
LINE
  5
24D
100
AcDbEntity
  8
0
100
AcDbLine
 62
7
  6
CONTINUOUS
 10
208.9902306085
 20
358.1815938854
 11
208.3324024841
 21
358.8394220098
  0
LINE
  5
24E
100
AcDbEntity
  8
0
100
AcDbLine
 62
7
  6
CONTINUOUS
 10
210.4541033216
 20
356.7177211723
 11
211.111931446
 21
356.0598930479
  0
LINE
  5
24F
100
AcDbEntity
  8
0
100
AcDbLine
 62
7
  6
CONTINUOUS
 10
210.544464668
 20
356.7970654534
 11
210.4540224836
 21
356.8875076378
  0
LINE
  5
250
100
AcDbEntity
  8
0
100
AcDbLine
 62
7
  6
CONTINUOUS
 10
209.0695748896
 20
358.2719552318
 11
209.160017074
 21
358.1815130474
  0
LINE
  5
251
100
AcDbEntity
  8
0
100
AcDbLine
 62
7
  6
CONTINUOUS
 10
210.2371669651
 20
358.2286629384
 11
210.2843168561
 21
358.1815130474
  0
LINE
  5
252
100
AcDbEntity
  8
0
100
AcDbLine
 62
7
  6
CONTINUOUS
 10
210.4540224836
 20
358.0118074199
 11
210.5011723746
 21
357.9646575288
  0
LINE
  5
253
100
AcDbEntity
  8
0
100
AcDbLine
 62
7
  6
CONTINUOUS
 10
109.2592273238
 20
714.3312755196
 11
108.5150075899
 21
718.1599541402
  0
LINE
  5
254
100
AcDbEntity
  8
0
100
AcDbLine
 62
7
  6
CONTINUOUS
 10
109.69296021
 20
718.1599541402
 11
110.4371799439
 21
714.3312755196
  0
LINE
  5
255
100
AcDbEntity
  8
0
100
AcDbLine
 62
7
  6
CONTINUOUS
 10
157.448053901
 20
740.2995521271
 11
157.5227703091
 21
738.1599541402
  0
LINE
  5
256
100
AcDbEntity
  8
0
100
AcDbLine
 62
7
  6
CONTINUOUS
 10
163.9721669651
 20
345.6996575288
 11
163.9721669651
 21
346.1996575288
  0
LINE
  5
257
100
AcDbEntity
  8
0
100
AcDbLine
 62
7
  6
CONTINUOUS
 10
163.9721669651
 20
575.6996575288
 11
163.9721669651
 21
576.1996575288
  0
LINE
  5
258
100
AcDbEntity
  8
0
100
AcDbLine
 62
7
  6
CONTINUOUS
 10
164.9721669718
 20
347.0214582665
 11
164.9721669661
 21
350.0677381021
  0
LINE
  5
259
100
AcDbEntity
  8
0
100
AcDbLine
 62
7
  6
CONTINUOUS
 10
164.9721669651
 20
571.8315769555
 11
164.9721669651
 21
574.8778567912
  0
LINE
  5
25A
100
AcDbEntity
  8
0
100
AcDbLine
 62
7
  6
CONTINUOUS
 10
147.9053299993
 20
401.7664944946
 11
147.8998875665
 21
401.6108735734
  0
LINE
  5
25B
100
AcDbEntity
  8
0
100
AcDbLine
 62
7
  6
CONTINUOUS
 10
149.5444463636
 20
400.2884414843
 11
149.5390039308
 21
400.1328205631
  0
LINE
  5
25C
100
AcDbEntity
  8
0
100
AcDbLine
 62
7
  6
CONTINUOUS
 10
674.2221669651
 20
334.7496575288
 11
661.2221669651
 21
334.7496575288
  0
LINE
  5
25D
100
AcDbEntity
  8
0
100
AcDbLine
 62
7
  6
CONTINUOUS
 10
118.2221669651
 20
334.7496575288
 11
105.2221669651
 21
334.7496575288
  0
LINE
  5
25E
100
AcDbEntity
  8
0
100
AcDbLine
 62
7
  6
CONTINUOUS
 10
92.1221669651
 20
334.9496575288
 11
687.3221669651
 21
334.9496575288
  0
LINE
  5
25F
100
AcDbEntity
  8
0
100
AcDbLine
 62
7
  6
CONTINUOUS
 10
689.7221669651
 20
337.3496575288
 11
89.7221669651
 21
337.3496575288
  0
LINE
  5
260
100
AcDbEntity
  8
0
100
AcDbLine
 62
7
  6
CONTINUOUS
 10
163.9721669651
 20
345.6996575288
 11
615.4721669651
 21
345.6996575288
  0
LINE
  5
261
100
AcDbEntity
  8
0
100
AcDbLine
 62
7
  6
CONTINUOUS
 10
163.9721669651
 20
346.1996575288
 11
615.4721669651
 21
346.1996575288
  0
LINE
  5
262
100
AcDbEntity
  8
0
100
AcDbLine
 62
7
  6
CONTINUOUS
 10
164.9721669654
 20
347.0214582665
 11
614.4721669648
 21
347.0214582665
  0
LINE
  5
263
100
AcDbEntity
  8
0
100
AcDbLine
 62
7
  6
CONTINUOUS
 10
208.9037863519
 20
356.6312769156
 11
208.8999967369
 21
356.739637165
  0
LINE
  5
264
100
AcDbEntity
  8
0
100
AcDbLine
 62
7
  6
CONTINUOUS
 10
210.5405475783
 20
358.268038142
 11
210.5443371932
 21
358.1596778927
  0
LINE
  5
265
100
AcDbEntity
  8
0
100
AcDbLine
 62
7
  6
CONTINUOUS
 10
208.9037863519
 20
563.6312769156
 11
208.8999967369
 21
563.739637165
  0
LINE
  5
266
100
AcDbEntity
  8
0
100
AcDbLine
 62
7
  6
CONTINUOUS
 10
210.5405475783
 20
565.268038142
 11
210.5443371932
 21
565.1596778927
  0
LINE
  5
267
100
AcDbEntity
  8
0
100
AcDbLine
 62
7
  6
CONTINUOUS
 10
208.9902306085
 20
358.1815938854
 11
208.9903114465
 21
358.0118074199
  0
LINE
  5
268
100
AcDbEntity
  8
0
100
AcDbLine
 62
7
  6
CONTINUOUS
 10
208.9902306085
 20
565.1815938854
 11
208.9903114465
 21
565.0118074199
  0
LINE
  5
269
100
AcDbEntity
  8
0
100
AcDbLine
 62
7
  6
CONTINUOUS
 10
210.4540224836
 20
356.8875076378
 11
210.4541033216
 21
356.7177211723
  0
LINE
  5
26A
100
AcDbEntity
  8
0
100
AcDbLine
 62
7
  6
CONTINUOUS
 10
210.4540224836
 20
563.8875076378
 11
210.4541033216
 21
563.7177211723
  0
LINE
  5
26B
100
AcDbEntity
  8
0
100
AcDbLine
 62
7
  6
CONTINUOUS
 10
209.2071669651
 20
563.6706521193
 11
209.2071669651
 21
561.8994580214
  0
LINE
  5
26C
100
AcDbEntity
  8
0
100
AcDbLine
 62
7
  6
CONTINUOUS
 10
209.2071669651
 20
356.6706521193
 11
209.2071669651
 21
354.8994580214
  0
LINE
  5
26D
100
AcDbEntity
  8
0
100
AcDbLine
 62
7
  6
CONTINUOUS
 10
209.2071669651
 20
358.2286629384
 11
209.2071669651
 21
359.9998567984
  0
LINE
  5
26E
100
AcDbEntity
  8
0
100
AcDbLine
 62
7
  6
CONTINUOUS
 10
209.2071669651
 20
565.2286629384
 11
209.2071669651
 21
566.9998567984
  0
LINE
  5
26F
100
AcDbEntity
  8
0
100
AcDbLine
 62
7
  6
CONTINUOUS
 10
210.2371669651
 20
566.9998568371
 11
210.2371669651
 21
565.2286629384
  0
LINE
  5
270
100
AcDbEntity
  8
0
100
AcDbLine
 62
7
  6
CONTINUOUS
 10
210.2371669651
 20
359.9998568371
 11
210.2371669651
 21
358.2286629384
  0
LINE
  5
271
100
AcDbEntity
  8
0
100
AcDbLine
 62
7
  6
CONTINUOUS
 10
210.2371669651
 20
354.899458371
 11
210.2371669651
 21
356.6706521193
  0
LINE
  5
272
100
AcDbEntity
  8
0
100
AcDbLine
 62
7
  6
CONTINUOUS
 10
210.2371669651
 20
561.899458371
 11
210.2371669651
 21
563.6706521193
  0
LINE
  5
273
100
AcDbEntity
  8
0
100
AcDbLine
 62
7
  6
CONTINUOUS
 10
208.9902306085
 20
563.7177211723
 11
208.9903114465
 21
563.8875076378
  0
LINE
  5
274
100
AcDbEntity
  8
0
100
AcDbLine
 62
7
  6
CONTINUOUS
 10
208.9902306085
 20
356.7177211723
 11
208.9903114465
 21
356.8875076378
  0
LINE
  5
275
100
AcDbEntity
  8
0
100
AcDbLine
 62
7
  6
CONTINUOUS
 10
210.4540224836
 20
565.0118074199
 11
210.4541033216
 21
565.1815938854
  0
LINE
  5
276
100
AcDbEntity
  8
0
100
AcDbLine
 62
7
  6
CONTINUOUS
 10
210.4540224836
 20
358.0118074199
 11
210.4541033216
 21
358.1815938854
  0
LINE
  5
277
100
AcDbEntity
  8
0
100
AcDbLine
 62
7
  6
CONTINUOUS
 10
208.9053299993
 20
565.2664944946
 11
208.8998875665
 21
565.1108735734
  0
LINE
  5
278
100
AcDbEntity
  8
0
100
AcDbLine
 62
7
  6
CONTINUOUS
 10
210.5444463636
 20
563.7884414843
 11
210.5390039308
 21
563.6328205631
  0
LINE
  5
279
100
AcDbEntity
  8
0
100
AcDbLine
 62
7
  6
CONTINUOUS
 10
208.9053299993
 20
358.2664944946
 11
208.8998875665
 21
358.1108735734
  0
LINE
  5
27A
100
AcDbEntity
  8
0
100
AcDbLine
 62
7
  6
CONTINUOUS
 10
210.5444463636
 20
356.7884414843
 11
210.5390039308
 21
356.6328205631
  0
LINE
  5
27B
100
AcDbEntity
  8
0
100
AcDbLine
 62
7
  6
CONTINUOUS
 10
570.5390039308
 20
356.6328205631
 11
570.3833830096
 21
356.6273781303
  0
LINE
  5
27C
100
AcDbEntity
  8
0
100
AcDbLine
 62
7
  6
CONTINUOUS
 10
568.9053299993
 20
358.2664944946
 11
569.0609509205
 21
358.2719369274
  0
LINE
  5
27D
100
AcDbEntity
  8
0
100
AcDbLine
 62
7
  6
CONTINUOUS
 10
450.5390039308
 20
356.6328205631
 11
450.3833830096
 21
356.6273781303
  0
LINE
  5
27E
100
AcDbEntity
  8
0
100
AcDbLine
 62
7
  6
CONTINUOUS
 10
448.9053299993
 20
358.2664944946
 11
449.0609509205
 21
358.2719369274
  0
LINE
  5
27F
100
AcDbEntity
  8
0
100
AcDbLine
 62
7
  6
CONTINUOUS
 10
330.5390039308
 20
356.6328205631
 11
330.3833830096
 21
356.6273781303
  0
LINE
  5
280
100
AcDbEntity
  8
0
100
AcDbLine
 62
7
  6
CONTINUOUS
 10
328.9053299993
 20
358.2664944946
 11
329.0609509205
 21
358.2719369274
  0
LINE
  5
281
100
AcDbEntity
  8
0
100
AcDbLine
 62
7
  6
CONTINUOUS
 10
210.5390039308
 20
356.6328205631
 11
210.3833830096
 21
356.6273781303
  0
LINE
  5
282
100
AcDbEntity
  8
0
100
AcDbLine
 62
7
  6
CONTINUOUS
 10
208.9053299993
 20
358.2664944946
 11
209.0609509205
 21
358.2719369274
  0
LINE
  5
283
100
AcDbEntity
  8
0
100
AcDbLine
 62
7
  6
CONTINUOUS
 10
569.160017074
 20
356.7178020103
 11
568.9902306085
 21
356.7177211723
  0
LINE
  5
284
100
AcDbEntity
  8
0
100
AcDbLine
 62
7
  6
CONTINUOUS
 10
449.160017074
 20
356.7178020103
 11
448.9902306085
 21
356.7177211723
  0
LINE
  5
285
100
AcDbEntity
  8
0
100
AcDbLine
 62
7
  6
CONTINUOUS
 10
329.160017074
 20
356.7178020103
 11
328.9902306085
 21
356.7177211723
  0
LINE
  5
286
100
AcDbEntity
  8
0
100
AcDbLine
 62
7
  6
CONTINUOUS
 10
209.160017074
 20
356.7178020103
 11
208.9902306085
 21
356.7177211723
  0
LINE
  5
287
100
AcDbEntity
  8
0
100
AcDbLine
 62
7
  6
CONTINUOUS
 10
570.4541033216
 20
358.1815938854
 11
570.2843168561
 21
358.1815130474
  0
LINE
  5
288
100
AcDbEntity
  8
0
100
AcDbLine
 62
7
  6
CONTINUOUS
 10
450.4541033216
 20
358.1815938854
 11
450.2843168561
 21
358.1815130474
  0
LINE
  5
289
100
AcDbEntity
  8
0
100
AcDbLine
 62
7
  6
CONTINUOUS
 10
330.4541033216
 20
358.1815938854
 11
330.2843168561
 21
358.1815130474
  0
LINE
  5
28A
100
AcDbEntity
  8
0
100
AcDbLine
 62
7
  6
CONTINUOUS
 10
210.4541033216
 20
358.1815938854
 11
210.2843168561
 21
358.1815130474
  0
LINE
  5
28B
100
AcDbEntity
  8
0
100
AcDbLine
 62
7
  6
CONTINUOUS
 10
614.4721669583
 20
348.9910737724
 11
164.9721669702
 21
348.9910737724
  0
LINE
  5
28C
100
AcDbEntity
  8
0
100
AcDbLine
 62
7
  6
CONTINUOUS
 10
164.9721669757
 20
349.0829303494
 11
614.4721669579
 21
349.0829303494
  0
LINE
  5
28D
100
AcDbEntity
  8
0
100
AcDbLine
 62
7
  6
CONTINUOUS
 10
614.4721669651
 20
350.0677381021
 11
164.9721669651
 21
350.0677381021
  0
LINE
  5
28E
100
AcDbEntity
  8
0
100
AcDbLine
 62
7
  6
CONTINUOUS
 10
612.2221669651
 20
350.9496575288
 11
167.2221669651
 21
350.9496575288
  0
LINE
  5
28F
100
AcDbEntity
  8
0
100
AcDbLine
 62
7
  6
CONTINUOUS
 10
572.2723656313
 20
356.9346575288
 11
570.5011723746
 21
356.9346575288
  0
LINE
  5
290
100
AcDbEntity
  8
0
100
AcDbLine
 62
7
  6
CONTINUOUS
 10
452.2723656313
 20
356.9346575288
 11
450.5011723746
 21
356.9346575288
  0
LINE
  5
291
100
AcDbEntity
  8
0
100
AcDbLine
 62
7
  6
CONTINUOUS
 10
332.2723656313
 20
356.9346575288
 11
330.5011723746
 21
356.9346575288
  0
LINE
  5
292
100
AcDbEntity
  8
0
100
AcDbLine
 62
7
  6
CONTINUOUS
 10
212.2723656313
 20
356.9346575288
 11
210.5011723746
 21
356.9346575288
  0
LINE
  5
293
100
AcDbEntity
  8
0
100
AcDbLine
 62
7
  6
CONTINUOUS
 10
207.1719671127
 20
356.9346575288
 11
208.9431615555
 21
356.9346575288
  0
LINE
  5
294
100
AcDbEntity
  8
0
100
AcDbLine
 62
7
  6
CONTINUOUS
 10
327.1719671127
 20
356.9346575288
 11
328.9431615555
 21
356.9346575288
  0
LINE
  5
295
100
AcDbEntity
  8
0
100
AcDbLine
 62
7
  6
CONTINUOUS
 10
447.1719671127
 20
356.9346575288
 11
448.9431615555
 21
356.9346575288
  0
LINE
  5
296
100
AcDbEntity
  8
0
100
AcDbLine
 62
7
  6
CONTINUOUS
 10
567.1719671127
 20
356.9346575288
 11
568.9431615555
 21
356.9346575288
  0
LINE
  5
297
100
AcDbEntity
  8
0
100
AcDbLine
 62
7
  6
CONTINUOUS
 10
567.3622725011
 20
357.4496575287
 11
567.1159244759
 21
357.4496575247
  0
LINE
  5
298
100
AcDbEntity
  8
0
100
AcDbLine
 62
7
  6
CONTINUOUS
 10
447.3622725011
 20
357.4496575287
 11
447.1159244759
 21
357.4496575247
  0
LINE
  5
299
100
AcDbEntity
  8
0
100
AcDbLine
 62
7
  6
CONTINUOUS
 10
327.3622725011
 20
357.4496575287
 11
327.1159244759
 21
357.4496575247
  0
LINE
  5
29A
100
AcDbEntity
  8
0
100
AcDbLine
 62
7
  6
CONTINUOUS
 10
207.3622725011
 20
357.4496575287
 11
207.1159244759
 21
357.4496575247
  0
LINE
  5
29B
100
AcDbEntity
  8
0
100
AcDbLine
 62
7
  6
CONTINUOUS
 10
212.0820628947
 20
357.4496575286
 11
212.3284095885
 21
357.4496575296
  0
LINE
  5
29C
100
AcDbEntity
  8
0
100
AcDbLine
 62
7
  6
CONTINUOUS
 10
332.0820628947
 20
357.4496575286
 11
332.3284095885
 21
357.4496575296
  0
LINE
  5
29D
100
AcDbEntity
  8
0
100
AcDbLine
 62
7
  6
CONTINUOUS
 10
452.0820628947
 20
357.4496575286
 11
452.3284095885
 21
357.4496575296
  0
LINE
  5
29E
100
AcDbEntity
  8
0
100
AcDbLine
 62
7
  6
CONTINUOUS
 10
572.0820628947
 20
357.4496575286
 11
572.3284095885
 21
357.4496575296
  0
LINE
  5
29F
100
AcDbEntity
  8
0
100
AcDbLine
 62
7
  6
CONTINUOUS
 10
207.1719671611
 20
357.9646575288
 11
208.9431615555
 21
357.9646575288
  0
LINE
  5
2A0
100
AcDbEntity
  8
0
100
AcDbLine
 62
7
  6
CONTINUOUS
 10
210.5011723746
 20
357.9646575288
 11
212.2723660792
 21
357.9646575288
  0
LINE
  5
2A1
100
AcDbEntity
  8
0
100
AcDbLine
 62
7
  6
CONTINUOUS
 10
327.1719671611
 20
357.9646575288
 11
328.9431615555
 21
357.9646575288
  0
LINE
  5
2A2
100
AcDbEntity
  8
0
100
AcDbLine
 62
7
  6
CONTINUOUS
 10
330.5011723746
 20
357.9646575288
 11
332.2723660792
 21
357.9646575288
  0
LINE
  5
2A3
100
AcDbEntity
  8
0
100
AcDbLine
 62
7
  6
CONTINUOUS
 10
447.1719671611
 20
357.9646575288
 11
448.9431615555
 21
357.9646575288
  0
LINE
  5
2A4
100
AcDbEntity
  8
0
100
AcDbLine
 62
7
  6
CONTINUOUS
 10
450.5011723746
 20
357.9646575288
 11
452.2723660792
 21
357.9646575288
  0
LINE
  5
2A5
100
AcDbEntity
  8
0
100
AcDbLine
 62
7
  6
CONTINUOUS
 10
567.1719671611
 20
357.9646575288
 11
568.9431615555
 21
357.9646575288
  0
LINE
  5
2A6
100
AcDbEntity
  8
0
100
AcDbLine
 62
7
  6
CONTINUOUS
 10
570.5011723746
 20
357.9646575288
 11
572.2723660792
 21
357.9646575288
  0
LINE
  5
2A7
100
AcDbEntity
  8
0
100
AcDbLine
 62
7
  6
CONTINUOUS
 10
210.4541033216
 20
356.7177211723
 11
210.2843168561
 21
356.7178020103
  0
LINE
  5
2A8
100
AcDbEntity
  8
0
100
AcDbLine
 62
7
  6
CONTINUOUS
 10
330.4541033216
 20
356.7177211723
 11
330.2843168561
 21
356.7178020103
  0
LINE
  5
2A9
100
AcDbEntity
  8
0
100
AcDbLine
 62
7
  6
CONTINUOUS
 10
450.4541033216
 20
356.7177211723
 11
450.2843168561
 21
356.7178020103
  0
LINE
  5
2AA
100
AcDbEntity
  8
0
100
AcDbLine
 62
7
  6
CONTINUOUS
 10
570.4541033216
 20
356.7177211723
 11
570.2843168561
 21
356.7178020103
  0
LINE
  5
2AB
100
AcDbEntity
  8
0
100
AcDbLine
 62
7
  6
CONTINUOUS
 10
209.160017074
 20
358.1815130474
 11
208.9902306085
 21
358.1815938854
  0
LINE
  5
2AC
100
AcDbEntity
  8
0
100
AcDbLine
 62
7
  6
CONTINUOUS
 10
329.160017074
 20
358.1815130474
 11
328.9902306085
 21
358.1815938854
  0
LINE
  5
2AD
100
AcDbEntity
  8
0
100
AcDbLine
 62
7
  6
CONTINUOUS
 10
449.160017074
 20
358.1815130474
 11
448.9902306085
 21
358.1815938854
  0
LINE
  5
2AE
100
AcDbEntity
  8
0
100
AcDbLine
 62
7
  6
CONTINUOUS
 10
569.160017074
 20
358.1815130474
 11
568.9902306085
 21
358.1815938854
  0
LINE
  5
2AF
100
AcDbEntity
  8
0
100
AcDbLine
 62
7
  6
CONTINUOUS
 10
208.9037863519
 20
356.6312769156
 11
209.0121466012
 21
356.6274873007
  0
LINE
  5
2B0
100
AcDbEntity
  8
0
100
AcDbLine
 62
7
  6
CONTINUOUS
 10
210.5405475783
 20
358.268038142
 11
210.4321873289
 21
358.271827757
  0
LINE
  5
2B1
100
AcDbEntity
  8
0
100
AcDbLine
 62
7
  6
CONTINUOUS
 10
328.9037863519
 20
356.6312769156
 11
329.0121466012
 21
356.6274873007
  0
LINE
  5
2B2
100
AcDbEntity
  8
0
100
AcDbLine
 62
7
  6
CONTINUOUS
 10
330.5405475783
 20
358.268038142
 11
330.4321873289
 21
358.271827757
  0
LINE
  5
2B3
100
AcDbEntity
  8
0
100
AcDbLine
 62
7
  6
CONTINUOUS
 10
448.9037863519
 20
356.6312769156
 11
449.0121466012
 21
356.6274873007
  0
LINE
  5
2B4
100
AcDbEntity
  8
0
100
AcDbLine
 62
7
  6
CONTINUOUS
 10
450.5405475783
 20
358.268038142
 11
450.4321873289
 21
358.271827757
  0
LINE
  5
2B5
100
AcDbEntity
  8
0
100
AcDbLine
 62
7
  6
CONTINUOUS
 10
568.9037863519
 20
356.6312769156
 11
569.0121466012
 21
356.6274873007
  0
LINE
  5
2B6
100
AcDbEntity
  8
0
100
AcDbLine
 62
7
  6
CONTINUOUS
 10
570.5405475783
 20
358.268038142
 11
570.4321873289
 21
358.271827757
  0
LINE
  5
2B7
100
AcDbEntity
  8
0
100
AcDbLine
 62
7
  6
CONTINUOUS
 10
147.9903114465
 20
520.3875076378
 11
147.9431615555
 21
520.4346575288
  0
LINE
  5
2B8
100
AcDbEntity
  8
0
100
AcDbLine
 62
7
  6
CONTINUOUS
 10
148.2071669651
 20
520.1706521193
 11
148.160017074
 21
520.2178020103
  0
LINE
  5
2B9
100
AcDbEntity
  8
0
100
AcDbLine
 62
7
  6
CONTINUOUS
 10
147.8998692621
 20
521.6022496043
 11
147.9903114465
 21
521.5118074199
  0
LINE
  5
2BA
100
AcDbEntity
  8
0
100
AcDbLine
 62
7
  6
CONTINUOUS
 10
149.2843168561
 20
520.2178020103
 11
149.3747590405
 21
520.1273598259
  0
LINE
  5
2BB
100
AcDbEntity
  8
0
100
AcDbLine
 62
7
  6
CONTINUOUS
 10
150.111931446
 20
519.5598930479
 11
149.4541033216
 21
520.2177211723
  0
LINE
  5
2BC
100
AcDbEntity
  8
0
100
AcDbLine
 62
7
  6
CONTINUOUS
 10
147.9902306085
 20
521.6815938854
 11
147.3324024841
 21
522.3394220098
  0
LINE
  5
2BD
100
AcDbEntity
  8
0
100
AcDbLine
 62
7
  6
CONTINUOUS
 10
148.0695748896
 20
521.7719552318
 11
148.160017074
 21
521.6815130474
  0
LINE
  5
2BE
100
AcDbEntity
  8
0
100
AcDbLine
 62
7
  6
CONTINUOUS
 10
149.544464668
 20
520.2970654534
 11
149.4540224836
 21
520.3875076378
  0
LINE
  5
2BF
100
AcDbEntity
  8
0
100
AcDbLine
 62
7
  6
CONTINUOUS
 10
149.2371669651
 20
521.7286629384
 11
149.2843168561
 21
521.6815130474
  0
LINE
  5
2C0
100
AcDbEntity
  8
0
100
AcDbLine
 62
7
  6
CONTINUOUS
 10
149.4540224836
 20
521.5118074199
 11
149.5011723746
 21
521.4646575288
  0
LINE
  5
2C1
100
AcDbEntity
  8
0
100
AcDbLine
 62
7
  6
CONTINUOUS
 10
328.9903114465
 20
356.8875076378
 11
328.9431615555
 21
356.9346575288
  0
LINE
  5
2C2
100
AcDbEntity
  8
0
100
AcDbLine
 62
7
  6
CONTINUOUS
 10
329.2071669651
 20
356.6706521193
 11
329.160017074
 21
356.7178020103
  0
LINE
  5
2C3
100
AcDbEntity
  8
0
100
AcDbLine
 62
7
  6
CONTINUOUS
 10
328.8998692621
 20
358.1022496043
 11
328.9903114465
 21
358.0118074199
  0
LINE
  5
2C4
100
AcDbEntity
  8
0
100
AcDbLine
 62
7
  6
CONTINUOUS
 10
330.2843168561
 20
356.7178020103
 11
330.3747590405
 21
356.6273598259
  0
LINE
  5
2C5
100
AcDbEntity
  8
0
100
AcDbLine
 62
7
  6
CONTINUOUS
 10
328.9902306085
 20
358.1815938854
 11
328.3324024841
 21
358.8394220098
  0
LINE
  5
2C6
100
AcDbEntity
  8
0
100
AcDbLine
 62
7
  6
CONTINUOUS
 10
330.4541033216
 20
356.7177211723
 11
331.111931446
 21
356.0598930479
  0
LINE
  5
2C7
100
AcDbEntity
  8
0
100
AcDbLine
 62
7
  6
CONTINUOUS
 10
330.544464668
 20
356.7970654534
 11
330.4540224836
 21
356.8875076378
  0
LINE
  5
2C8
100
AcDbEntity
  8
0
100
AcDbLine
 62
7
  6
CONTINUOUS
 10
329.0695748896
 20
358.2719552318
 11
329.160017074
 21
358.1815130474
  0
LINE
  5
2C9
100
AcDbEntity
  8
0
100
AcDbLine
 62
7
  6
CONTINUOUS
 10
330.2371669651
 20
358.2286629384
 11
330.2843168561
 21
358.1815130474
  0
LINE
  5
2CA
100
AcDbEntity
  8
0
100
AcDbLine
 62
7
  6
CONTINUOUS
 10
330.4540224836
 20
358.0118074199
 11
330.5011723746
 21
357.9646575288
  0
LINE
  5
2CB
100
AcDbEntity
  8
0
100
AcDbLine
 62
7
  6
CONTINUOUS
 10
148.160017074
 20
521.6815130474
 11
148.2071669651
 21
521.7286629384
  0
LINE
  5
2CC
100
AcDbEntity
  8
0
100
AcDbLine
 62
7
  6
CONTINUOUS
 10
147.9431615555
 20
521.4646575288
 11
147.9903114465
 21
521.5118074199
  0
LINE
  5
2CD
100
AcDbEntity
  8
0
100
AcDbLine
 62
7
  6
CONTINUOUS
 10
149.3747590405
 20
521.7719552318
 11
149.2843168561
 21
521.6815130474
  0
LINE
  5
2CE
100
AcDbEntity
  8
0
100
AcDbLine
 62
7
  6
CONTINUOUS
 10
147.8998692621
 20
520.2970654534
 11
147.9903114465
 21
520.3875076378
  0
LINE
  5
2CF
100
AcDbEntity
  8
0
100
AcDbLine
 62
7
  6
CONTINUOUS
 10
147.4771142553
 20
519.7046048191
 11
147.9902306085
 21
520.2177211723
  0
LINE
  5
2D0
100
AcDbEntity
  8
0
100
AcDbLine
 62
7
  6
CONTINUOUS
 10
149.4541033216
 20
521.6815938854
 11
149.9672196748
 21
522.1947102386
  0
LINE
  5
2D1
100
AcDbEntity
  8
0
100
AcDbLine
 62
7
  6
CONTINUOUS
 10
149.544464668
 20
521.6022496043
 11
149.4540224836
 21
521.5118074199
  0
LINE
  5
2D2
100
AcDbEntity
  8
0
100
AcDbLine
 62
7
  6
CONTINUOUS
 10
148.0695748896
 20
520.1273598259
 11
148.160017074
 21
520.2178020103
  0
LINE
  5
2D3
100
AcDbEntity
  8
0
100
AcDbLine
 62
7
  6
CONTINUOUS
 10
149.5011723746
 20
520.4346575288
 11
149.4540224836
 21
520.3875076378
  0
LINE
  5
2D4
100
AcDbEntity
  8
0
100
AcDbLine
 62
7
  6
CONTINUOUS
 10
149.2843168561
 20
520.2178020103
 11
149.2371669651
 21
520.1706521193
  0
LINE
  5
2D5
100
AcDbEntity
  8
0
100
AcDbLine
 62
7
  6
CONTINUOUS
 10
209.160017074
 20
565.1815130474
 11
209.2071669651
 21
565.2286629384
  0
LINE
  5
2D6
100
AcDbEntity
  8
0
100
AcDbLine
 62
7
  6
CONTINUOUS
 10
208.9431615555
 20
564.9646575288
 11
208.9903114465
 21
565.0118074199
  0
LINE
  5
2D7
100
AcDbEntity
  8
0
100
AcDbLine
 62
7
  6
CONTINUOUS
 10
210.3747590405
 20
565.2719552318
 11
210.2843168561
 21
565.1815130474
  0
LINE
  5
2D8
100
AcDbEntity
  8
0
100
AcDbLine
 62
7
  6
CONTINUOUS
 10
208.8998692621
 20
563.7970654534
 11
208.9903114465
 21
563.8875076378
  0
LINE
  5
2D9
100
AcDbEntity
  8
0
100
AcDbLine
 62
7
  6
CONTINUOUS
 10
208.4771142553
 20
563.2046048191
 11
208.9902306085
 21
563.7177211723
  0
LINE
  5
2DA
100
AcDbEntity
  8
0
100
AcDbLine
 62
7
  6
CONTINUOUS
 10
210.4541033216
 20
565.1815938854
 11
210.9672196748
 21
565.6947102386
  0
LINE
  5
2DB
100
AcDbEntity
  8
0
100
AcDbLine
 62
7
  6
CONTINUOUS
 10
210.544464668
 20
565.1022496043
 11
210.4540224836
 21
565.0118074199
  0
LINE
  5
2DC
100
AcDbEntity
  8
0
100
AcDbLine
 62
7
  6
CONTINUOUS
 10
209.0695748896
 20
563.6273598259
 11
209.160017074
 21
563.7178020103
  0
LINE
  5
2DD
100
AcDbEntity
  8
0
100
AcDbLine
 62
7
  6
CONTINUOUS
 10
210.5011723746
 20
563.9346575288
 11
210.4540224836
 21
563.8875076378
  0
LINE
  5
2DE
100
AcDbEntity
  8
0
100
AcDbLine
 62
7
  6
CONTINUOUS
 10
210.2843168561
 20
563.7178020103
 11
210.2371669651
 21
563.6706521193
  0
LINE
  5
2DF
100
AcDbEntity
  8
0
100
AcDbLine
 62
7
  6
CONTINUOUS
 10
631.5390039308
 20
400.1328205631
 11
631.3833830096
 21
400.1273781303
  0
LINE
  5
2E0
100
AcDbEntity
  8
0
100
AcDbLine
 62
7
  6
CONTINUOUS
 10
629.9053299993
 20
401.7664944946
 11
630.0609509205
 21
401.7719369274
  0
LINE
  5
2E1
100
AcDbEntity
  8
0
100
AcDbLine
 62
7
  6
CONTINUOUS
 10
642.4721669651
 20
372.6996575288
 11
641.9721669651
 21
372.6996575288
  0
LINE
  5
2E2
100
AcDbEntity
  8
0
100
AcDbLine
 62
7
  6
CONTINUOUS
 10
137.4721669651
 20
372.6996575288
 11
136.9721669651
 21
372.6996575288
  0
LINE
  5
2E3
100
AcDbEntity
  8
0
100
AcDbLine
 62
7
  6
CONTINUOUS
 10
141.3402475384
 20
373.6996575288
 11
138.2939677027
 21
373.6996575288
  0
LINE
  5
2E4
100
AcDbEntity
  8
0
100
AcDbLine
 62
7
  6
CONTINUOUS
 10
638.1040863918
 20
373.6996575299
 11
641.1503662275
 21
373.6996575356
  0
LINE
  5
2E5
100
AcDbEntity
  8
0
100
AcDbLine
 62
7
  6
CONTINUOUS
 10
147.9037863519
 20
400.1312769156
 11
148.0121466012
 21
400.1274873007
  0
LINE
  5
2E6
100
AcDbEntity
  8
0
100
AcDbLine
 62
7
  6
CONTINUOUS
 10
149.5405475783
 20
401.768038142
 11
149.4321873289
 21
401.771827757
  0
LINE
  5
2E7
100
AcDbEntity
  8
0
100
AcDbLine
 62
7
  6
CONTINUOUS
 10
149.5390039308
 20
400.1328205631
 11
149.3833830096
 21
400.1273781303
  0
LINE
  5
2E8
100
AcDbEntity
  8
0
100
AcDbLine
 62
7
  6
CONTINUOUS
 10
147.9053299993
 20
401.7664944946
 11
148.0609509205
 21
401.7719369274
  0
LINE
  5
2E9
100
AcDbEntity
  8
0
100
AcDbLine
 62
7
  6
CONTINUOUS
 10
630.160017074
 20
400.2178020103
 11
629.9902306085
 21
400.2177211723
  0
LINE
  5
2EA
100
AcDbEntity
  8
0
100
AcDbLine
 62
7
  6
CONTINUOUS
 10
148.160017074
 20
400.2178020103
 11
147.9902306085
 21
400.2177211723
  0
LINE
  5
2EB
100
AcDbEntity
  8
0
100
AcDbLine
 62
7
  6
CONTINUOUS
 10
631.4541033216
 20
401.6815938854
 11
631.2843168561
 21
401.6815130474
  0
LINE
  5
2EC
100
AcDbEntity
  8
0
100
AcDbLine
 62
7
  6
CONTINUOUS
 10
149.4541033216
 20
401.6815938854
 11
149.2843168561
 21
401.6815130474
  0
LINE
  5
2ED
100
AcDbEntity
  8
0
100
AcDbLine
 62
7
  6
CONTINUOUS
 10
633.2723656313
 20
400.4346575288
 11
631.5011723746
 21
400.4346575288
  0
LINE
  5
2EE
100
AcDbEntity
  8
0
100
AcDbLine
 62
7
  6
CONTINUOUS
 10
151.2723656313
 20
400.4346575288
 11
149.5011723746
 21
400.4346575288
  0
LINE
  5
2EF
100
AcDbEntity
  8
0
100
AcDbLine
 62
7
  6
CONTINUOUS
 10
146.1719671127
 20
400.4346575288
 11
147.9431615555
 21
400.4346575288
  0
LINE
  5
2F0
100
AcDbEntity
  8
0
100
AcDbLine
 62
7
  6
CONTINUOUS
 10
628.1719671127
 20
400.4346575288
 11
629.9431615555
 21
400.4346575288
  0
LINE
  5
2F1
100
AcDbEntity
  8
0
100
AcDbLine
 62
7
  6
CONTINUOUS
 10
628.3622725011
 20
400.9496575287
 11
628.1159244759
 21
400.9496575247
  0
LINE
  5
2F2
100
AcDbEntity
  8
0
100
AcDbLine
 62
7
  6
CONTINUOUS
 10
633.0820628947
 20
400.9496575286
 11
633.3284095885
 21
400.9496575296
  0
LINE
  5
2F3
100
AcDbEntity
  8
0
100
AcDbLine
 62
7
  6
CONTINUOUS
 10
146.3622725011
 20
400.9496575287
 11
146.1159244759
 21
400.9496575247
  0
LINE
  5
2F4
100
AcDbEntity
  8
0
100
AcDbLine
 62
7
  6
CONTINUOUS
 10
151.0820628947
 20
400.9496575286
 11
151.3284095885
 21
400.9496575296
  0
LINE
  5
2F5
100
AcDbEntity
  8
0
100
AcDbLine
 62
7
  6
CONTINUOUS
 10
146.1719671611
 20
401.4646575288
 11
147.9431615555
 21
401.4646575288
  0
LINE
  5
2F6
100
AcDbEntity
  8
0
100
AcDbLine
 62
7
  6
CONTINUOUS
 10
149.5011723746
 20
401.4646575288
 11
151.2723660792
 21
401.4646575288
  0
LINE
  5
2F7
100
AcDbEntity
  8
0
100
AcDbLine
 62
7
  6
CONTINUOUS
 10
628.1719671611
 20
401.4646575288
 11
629.9431615555
 21
401.4646575288
  0
LINE
  5
2F8
100
AcDbEntity
  8
0
100
AcDbLine
 62
7
  6
CONTINUOUS
 10
631.5011723746
 20
401.4646575288
 11
633.2723660792
 21
401.4646575288
  0
LINE
  5
2F9
100
AcDbEntity
  8
0
100
AcDbLine
 62
7
  6
CONTINUOUS
 10
149.4541033216
 20
400.2177211723
 11
149.2843168561
 21
400.2178020103
  0
LINE
  5
2FA
100
AcDbEntity
  8
0
100
AcDbLine
 62
7
  6
CONTINUOUS
 10
631.4541033216
 20
400.2177211723
 11
631.2843168561
 21
400.2178020103
  0
LINE
  5
2FB
100
AcDbEntity
  8
0
100
AcDbLine
 62
7
  6
CONTINUOUS
 10
148.160017074
 20
401.6815130474
 11
147.9902306085
 21
401.6815938854
  0
LINE
  5
2FC
100
AcDbEntity
  8
0
100
AcDbLine
 62
7
  6
CONTINUOUS
 10
630.160017074
 20
401.6815130474
 11
629.9902306085
 21
401.6815938854
  0
LINE
  5
2FD
100
AcDbEntity
  8
0
100
AcDbLine
 62
7
  6
CONTINUOUS
 10
629.9037863519
 20
400.1312769156
 11
630.0121466012
 21
400.1274873007
  0
LINE
  5
2FE
100
AcDbEntity
  8
0
100
AcDbLine
 62
7
  6
CONTINUOUS
 10
631.5405475783
 20
401.768038142
 11
631.4321873289
 21
401.771827757
  0
LINE
  5
2FF
100
AcDbEntity
  8
0
100
AcDbLine
 62
7
  6
CONTINUOUS
 10
98.7835068165
 20
734.7769716871
 11
98.0952150929
 21
735.7599541402
  0
LINE
  5
300
100
AcDbEntity
  8
0
100
AcDbLine
 62
7
  6
CONTINUOUS
 10
100.9029039552
 20
737.7259190465
 11
101.2262977992
 21
737.2640647728
  0
LINE
  5
301
100
AcDbEntity
  8
0
100
AcDbLine
 62
7
  6
CONTINUOUS
 10
208.9903114465
 20
563.8875076378
 11
208.9431615555
 21
563.9346575288
  0
LINE
  5
302
100
AcDbEntity
  8
0
100
AcDbLine
 62
7
  6
CONTINUOUS
 10
209.2071669651
 20
563.6706521193
 11
209.160017074
 21
563.7178020103
  0
LINE
  5
303
100
AcDbEntity
  8
0
100
AcDbLine
 62
7
  6
CONTINUOUS
 10
208.8998692621
 20
565.1022496043
 11
208.9903114465
 21
565.0118074199
  0
LINE
  5
304
100
AcDbEntity
  8
0
100
AcDbLine
 62
7
  6
CONTINUOUS
 10
210.2843168561
 20
563.7178020103
 11
210.3747590405
 21
563.6273598259
  0
LINE
  5
305
100
AcDbEntity
  8
0
100
AcDbLine
 62
7
  6
CONTINUOUS
 10
211.111931446
 20
563.0598930479
 11
210.4541033216
 21
563.7177211723
  0
LINE
  5
306
100
AcDbEntity
  8
0
100
AcDbLine
 62
7
  6
CONTINUOUS
 10
208.9902306085
 20
565.1815938854
 11
208.3324024841
 21
565.8394220098
  0
LINE
  5
307
100
AcDbEntity
  8
0
100
AcDbLine
 62
7
  6
CONTINUOUS
 10
209.0695748896
 20
565.2719552318
 11
209.160017074
 21
565.1815130474
  0
LINE
  5
308
100
AcDbEntity
  8
0
100
AcDbLine
 62
7
  6
CONTINUOUS
 10
210.544464668
 20
563.7970654534
 11
210.4540224836
 21
563.8875076378
  0
LINE
  5
309
100
AcDbEntity
  8
0
100
AcDbLine
 62
7
  6
CONTINUOUS
 10
210.2371669651
 20
565.2286629384
 11
210.2843168561
 21
565.1815130474
  0
LINE
  5
30A
100
AcDbEntity
  8
0
100
AcDbLine
 62
7
  6
CONTINUOUS
 10
210.4540224836
 20
565.0118074199
 11
210.5011723746
 21
564.9646575288
  0
LINE
  5
30B
100
AcDbEntity
  8
0
100
AcDbLine
 62
7
  6
CONTINUOUS
 10
148.160017074
 20
401.6815130474
 11
148.2071669651
 21
401.7286629384
  0
LINE
  5
30C
100
AcDbEntity
  8
0
100
AcDbLine
 62
7
  6
CONTINUOUS
 10
147.9431615555
 20
401.4646575288
 11
147.9903114465
 21
401.5118074199
  0
LINE
  5
30D
100
AcDbEntity
  8
0
100
AcDbLine
 62
7
  6
CONTINUOUS
 10
149.3747590405
 20
401.7719552318
 11
149.2843168561
 21
401.6815130474
  0
LINE
  5
30E
100
AcDbEntity
  8
0
100
AcDbLine
 62
7
  6
CONTINUOUS
 10
147.8998692621
 20
400.2970654534
 11
147.9903114465
 21
400.3875076378
  0
LINE
  5
30F
100
AcDbEntity
  8
0
100
AcDbLine
 62
7
  6
CONTINUOUS
 10
147.4771142553
 20
399.7046048191
 11
147.9902306085
 21
400.2177211723
  0
LINE
  5
310
100
AcDbEntity
  8
0
100
AcDbLine
 62
7
  6
CONTINUOUS
 10
149.4541033216
 20
401.6815938854
 11
149.9672196748
 21
402.1947102386
  0
LINE
  5
311
100
AcDbEntity
  8
0
100
AcDbLine
 62
7
  6
CONTINUOUS
 10
149.544464668
 20
401.6022496043
 11
149.4540224836
 21
401.5118074199
  0
LINE
  5
312
100
AcDbEntity
  8
0
100
AcDbLine
 62
7
  6
CONTINUOUS
 10
148.0695748896
 20
400.1273598259
 11
148.160017074
 21
400.2178020103
  0
LINE
  5
313
100
AcDbEntity
  8
0
100
AcDbLine
 62
7
  6
CONTINUOUS
 10
149.5011723746
 20
400.4346575288
 11
149.4540224836
 21
400.3875076378
  0
LINE
  5
314
100
AcDbEntity
  8
0
100
AcDbLine
 62
7
  6
CONTINUOUS
 10
149.2843168561
 20
400.2178020103
 11
149.2371669651
 21
400.1706521193
  0
LINE
  5
315
100
AcDbEntity
  8
0
100
AcDbLine
 62
7
  6
CONTINUOUS
 10
449.2071669651
 20
356.6706521193
 11
449.160017074
 21
356.7178020103
  0
LINE
  5
316
100
AcDbEntity
  8
0
100
AcDbLine
 62
7
  6
CONTINUOUS
 10
448.9903114465
 20
356.8875076378
 11
448.9431615555
 21
356.9346575288
  0
LINE
  5
317
100
AcDbEntity
  8
0
100
AcDbLine
 62
7
  6
CONTINUOUS
 10
448.8998692621
 20
358.1022496043
 11
448.9903114465
 21
358.0118074199
  0
LINE
  5
318
100
AcDbEntity
  8
0
100
AcDbLine
 62
7
  6
CONTINUOUS
 10
450.2843168561
 20
356.7178020103
 11
450.3747590405
 21
356.6273598259
  0
LINE
  5
319
100
AcDbEntity
  8
0
100
AcDbLine
 62
7
  6
CONTINUOUS
 10
448.9902306085
 20
358.1815938854
 11
448.3324024841
 21
358.8394220098
  0
LINE
  5
31A
100
AcDbEntity
  8
0
100
AcDbLine
 62
7
  6
CONTINUOUS
 10
450.4541033216
 20
356.7177211723
 11
451.111931446
 21
356.0598930479
  0
LINE
  5
31B
100
AcDbEntity
  8
0
100
AcDbLine
 62
7
  6
CONTINUOUS
 10
450.544464668
 20
356.7970654534
 11
450.4540224836
 21
356.8875076378
  0
LINE
  5
31C
100
AcDbEntity
  8
0
100
AcDbLine
 62
7
  6
CONTINUOUS
 10
449.0695748896
 20
358.2719552318
 11
449.160017074
 21
358.1815130474
  0
LINE
  5
31D
100
AcDbEntity
  8
0
100
AcDbLine
 62
7
  6
CONTINUOUS
 10
450.2371669651
 20
358.2286629384
 11
450.2843168561
 21
358.1815130474
  0
LINE
  5
31E
100
AcDbEntity
  8
0
100
AcDbLine
 62
7
  6
CONTINUOUS
 10
450.4540224836
 20
358.0118074199
 11
450.5011723746
 21
357.9646575288
  0
LINE
  5
31F
100
AcDbEntity
  8
0
100
AcDbLine
 62
7
  6
CONTINUOUS
 10
328.9037863519
 20
356.6312769156
 11
328.8999967369
 21
356.739637165
  0
LINE
  5
320
100
AcDbEntity
  8
0
100
AcDbLine
 62
7
  6
CONTINUOUS
 10
330.5405475783
 20
358.268038142
 11
330.5443371932
 21
358.1596778927
  0
LINE
  5
321
100
AcDbEntity
  8
0
100
AcDbLine
 62
7
  6
CONTINUOUS
 10
328.9037863519
 20
563.6312769156
 11
328.8999967369
 21
563.739637165
  0
LINE
  5
322
100
AcDbEntity
  8
0
100
AcDbLine
 62
7
  6
CONTINUOUS
 10
330.5405475783
 20
565.268038142
 11
330.5443371932
 21
565.1596778927
  0
LINE
  5
323
100
AcDbEntity
  8
0
100
AcDbLine
 62
7
  6
CONTINUOUS
 10
328.9902306085
 20
358.1815938854
 11
328.9903114465
 21
358.0118074199
  0
LINE
  5
324
100
AcDbEntity
  8
0
100
AcDbLine
 62
7
  6
CONTINUOUS
 10
328.9902306085
 20
565.1815938854
 11
328.9903114465
 21
565.0118074199
  0
LINE
  5
325
100
AcDbEntity
  8
0
100
AcDbLine
 62
7
  6
CONTINUOUS
 10
330.4540224836
 20
356.8875076378
 11
330.4541033216
 21
356.7177211723
  0
LINE
  5
326
100
AcDbEntity
  8
0
100
AcDbLine
 62
7
  6
CONTINUOUS
 10
330.4540224836
 20
563.8875076378
 11
330.4541033216
 21
563.7177211723
  0
LINE
  5
327
100
AcDbEntity
  8
0
100
AcDbLine
 62
7
  6
CONTINUOUS
 10
329.2071669651
 20
563.6706521193
 11
329.2071669651
 21
561.8994580214
  0
LINE
  5
328
100
AcDbEntity
  8
0
100
AcDbLine
 62
7
  6
CONTINUOUS
 10
329.2071669651
 20
356.6706521193
 11
329.2071669651
 21
354.8994580214
  0
LINE
  5
329
100
AcDbEntity
  8
0
100
AcDbLine
 62
7
  6
CONTINUOUS
 10
329.2071669651
 20
358.2286629384
 11
329.2071669651
 21
359.9998567984
  0
LINE
  5
32A
100
AcDbEntity
  8
0
100
AcDbLine
 62
7
  6
CONTINUOUS
 10
329.2071669651
 20
565.2286629384
 11
329.2071669651
 21
566.9998567984
  0
LINE
  5
32B
100
AcDbEntity
  8
0
100
AcDbLine
 62
7
  6
CONTINUOUS
 10
330.2371669651
 20
566.9998568371
 11
330.2371669651
 21
565.2286629384
  0
LINE
  5
32C
100
AcDbEntity
  8
0
100
AcDbLine
 62
7
  6
CONTINUOUS
 10
330.2371669651
 20
359.9998568371
 11
330.2371669651
 21
358.2286629384
  0
LINE
  5
32D
100
AcDbEntity
  8
0
100
AcDbLine
 62
7
  6
CONTINUOUS
 10
330.2371669651
 20
354.899458371
 11
330.2371669651
 21
356.6706521193
  0
LINE
  5
32E
100
AcDbEntity
  8
0
100
AcDbLine
 62
7
  6
CONTINUOUS
 10
330.2371669651
 20
561.899458371
 11
330.2371669651
 21
563.6706521193
  0
LINE
  5
32F
100
AcDbEntity
  8
0
100
AcDbLine
 62
7
  6
CONTINUOUS
 10
328.9902306085
 20
563.7177211723
 11
328.9903114465
 21
563.8875076378
  0
LINE
  5
330
100
AcDbEntity
  8
0
100
AcDbLine
 62
7
  6
CONTINUOUS
 10
328.9902306085
 20
356.7177211723
 11
328.9903114465
 21
356.8875076378
  0
LINE
  5
331
100
AcDbEntity
  8
0
100
AcDbLine
 62
7
  6
CONTINUOUS
 10
330.4540224836
 20
565.0118074199
 11
330.4541033216
 21
565.1815938854
  0
LINE
  5
332
100
AcDbEntity
  8
0
100
AcDbLine
 62
7
  6
CONTINUOUS
 10
330.4540224836
 20
358.0118074199
 11
330.4541033216
 21
358.1815938854
  0
LINE
  5
333
100
AcDbEntity
  8
0
100
AcDbLine
 62
7
  6
CONTINUOUS
 10
328.9053299993
 20
565.2664944946
 11
328.8998875665
 21
565.1108735734
  0
LINE
  5
334
100
AcDbEntity
  8
0
100
AcDbLine
 62
7
  6
CONTINUOUS
 10
330.5444463636
 20
563.7884414843
 11
330.5390039308
 21
563.6328205631
  0
LINE
  5
335
100
AcDbEntity
  8
0
100
AcDbLine
 62
7
  6
CONTINUOUS
 10
328.9053299993
 20
358.2664944946
 11
328.8998875665
 21
358.1108735734
  0
LINE
  5
336
100
AcDbEntity
  8
0
100
AcDbLine
 62
7
  6
CONTINUOUS
 10
330.5444463636
 20
356.7884414843
 11
330.5390039308
 21
356.6328205631
  0
LINE
  5
337
100
AcDbEntity
  8
0
100
AcDbLine
 62
7
  6
CONTINUOUS
 10
328.9431615555
 20
564.9646575288
 11
328.9903114465
 21
565.0118074199
  0
LINE
  5
338
100
AcDbEntity
  8
0
100
AcDbLine
 62
7
  6
CONTINUOUS
 10
329.160017074
 20
565.1815130474
 11
329.2071669651
 21
565.2286629384
  0
LINE
  5
339
100
AcDbEntity
  8
0
100
AcDbLine
 62
7
  6
CONTINUOUS
 10
330.3747590405
 20
565.2719552318
 11
330.2843168561
 21
565.1815130474
  0
LINE
  5
33A
100
AcDbEntity
  8
0
100
AcDbLine
 62
7
  6
CONTINUOUS
 10
328.8998692621
 20
563.7970654534
 11
328.9903114465
 21
563.8875076378
  0
LINE
  5
33B
100
AcDbEntity
  8
0
100
AcDbLine
 62
7
  6
CONTINUOUS
 10
328.4771142553
 20
563.2046048191
 11
328.9902306085
 21
563.7177211723
  0
LINE
  5
33C
100
AcDbEntity
  8
0
100
AcDbLine
 62
7
  6
CONTINUOUS
 10
330.4541033216
 20
565.1815938854
 11
330.9672196748
 21
565.6947102386
  0
LINE
  5
33D
100
AcDbEntity
  8
0
100
AcDbLine
 62
7
  6
CONTINUOUS
 10
330.544464668
 20
565.1022496043
 11
330.4540224836
 21
565.0118074199
  0
LINE
  5
33E
100
AcDbEntity
  8
0
100
AcDbLine
 62
7
  6
CONTINUOUS
 10
329.0695748896
 20
563.6273598259
 11
329.160017074
 21
563.7178020103
  0
LINE
  5
33F
100
AcDbEntity
  8
0
100
AcDbLine
 62
7
  6
CONTINUOUS
 10
330.5011723746
 20
563.9346575288
 11
330.4540224836
 21
563.8875076378
  0
LINE
  5
340
100
AcDbEntity
  8
0
100
AcDbLine
 62
7
  6
CONTINUOUS
 10
330.2843168561
 20
563.7178020103
 11
330.2371669651
 21
563.6706521193
  0
LINE
  5
341
100
AcDbEntity
  8
0
100
AcDbLine
 62
7
  6
CONTINUOUS
 10
631.5390039308
 20
520.1328205631
 11
631.3833830096
 21
520.1273781303
  0
LINE
  5
342
100
AcDbEntity
  8
0
100
AcDbLine
 62
7
  6
CONTINUOUS
 10
629.9053299993
 20
521.7664944946
 11
630.0609509205
 21
521.7719369274
  0
LINE
  5
343
100
AcDbEntity
  8
0
100
AcDbLine
 62
7
  6
CONTINUOUS
 10
147.9037863519
 20
520.1312769156
 11
148.0121466012
 21
520.1274873007
  0
LINE
  5
344
100
AcDbEntity
  8
0
100
AcDbLine
 62
7
  6
CONTINUOUS
 10
149.5405475783
 20
521.768038142
 11
149.4321873289
 21
521.771827757
  0
LINE
  5
345
100
AcDbEntity
  8
0
100
AcDbLine
 62
7
  6
CONTINUOUS
 10
329.2071669651
 20
563.6706521193
 11
329.160017074
 21
563.7178020103
  0
LINE
  5
346
100
AcDbEntity
  8
0
100
AcDbLine
 62
7
  6
CONTINUOUS
 10
328.9903114465
 20
563.8875076378
 11
328.9431615555
 21
563.9346575288
  0
LINE
  5
347
100
AcDbEntity
  8
0
100
AcDbLine
 62
7
  6
CONTINUOUS
 10
328.8998692621
 20
565.1022496043
 11
328.9903114465
 21
565.0118074199
  0
LINE
  5
348
100
AcDbEntity
  8
0
100
AcDbLine
 62
7
  6
CONTINUOUS
 10
330.2843168561
 20
563.7178020103
 11
330.3747590405
 21
563.6273598259
  0
LINE
  5
349
100
AcDbEntity
  8
0
100
AcDbLine
 62
7
  6
CONTINUOUS
 10
328.9902306085
 20
565.1815938854
 11
328.3324024841
 21
565.8394220098
  0
LINE
  5
34A
100
AcDbEntity
  8
0
100
AcDbLine
 62
7
  6
CONTINUOUS
 10
330.4541033216
 20
563.7177211723
 11
331.111931446
 21
563.0598930479
  0
LINE
  5
34B
100
AcDbEntity
  8
0
100
AcDbLine
 62
7
  6
CONTINUOUS
 10
330.544464668
 20
563.7970654534
 11
330.4540224836
 21
563.8875076378
  0
LINE
  5
34C
100
AcDbEntity
  8
0
100
AcDbLine
 62
7
  6
CONTINUOUS
 10
329.0695748896
 20
565.2719552318
 11
329.160017074
 21
565.1815130474
  0
LINE
  5
34D
100
AcDbEntity
  8
0
100
AcDbLine
 62
7
  6
CONTINUOUS
 10
330.2371669651
 20
565.2286629384
 11
330.2843168561
 21
565.1815130474
  0
LINE
  5
34E
100
AcDbEntity
  8
0
100
AcDbLine
 62
7
  6
CONTINUOUS
 10
330.4540224836
 20
565.0118074199
 11
330.5011723746
 21
564.9646575288
  0
LINE
  5
34F
100
AcDbEntity
  8
0
100
AcDbLine
 62
7
  6
CONTINUOUS
 10
209.160017074
 20
358.1815130474
 11
209.2071669651
 21
358.2286629384
  0
LINE
  5
350
100
AcDbEntity
  8
0
100
AcDbLine
 62
7
  6
CONTINUOUS
 10
208.9431615555
 20
357.9646575288
 11
208.9903114465
 21
358.0118074199
  0
LINE
  5
351
100
AcDbEntity
  8
0
100
AcDbLine
 62
7
  6
CONTINUOUS
 10
210.3747590405
 20
358.2719552318
 11
210.2843168561
 21
358.1815130474
  0
LINE
  5
352
100
AcDbEntity
  8
0
100
AcDbLine
 62
7
  6
CONTINUOUS
 10
208.8998692621
 20
356.7970654534
 11
208.9903114465
 21
356.8875076378
  0
LINE
  5
353
100
AcDbEntity
  8
0
100
AcDbLine
 62
7
  6
CONTINUOUS
 10
208.4771142553
 20
356.2046048191
 11
208.9902306085
 21
356.7177211723
  0
LINE
  5
354
100
AcDbEntity
  8
0
100
AcDbLine
 62
7
  6
CONTINUOUS
 10
210.4541033216
 20
358.1815938854
 11
210.9672196748
 21
358.6947102386
  0
LINE
  5
355
100
AcDbEntity
  8
0
100
AcDbLine
 62
7
  6
CONTINUOUS
 10
210.544464668
 20
358.1022496043
 11
210.4540224836
 21
358.0118074199
  0
LINE
  5
356
100
AcDbEntity
  8
0
100
AcDbLine
 62
7
  6
CONTINUOUS
 10
209.0695748896
 20
356.6273598259
 11
209.160017074
 21
356.7178020103
  0
LINE
  5
357
100
AcDbEntity
  8
0
100
AcDbLine
 62
7
  6
CONTINUOUS
 10
210.5011723746
 20
356.9346575288
 11
210.4540224836
 21
356.8875076378
  0
LINE
  5
358
100
AcDbEntity
  8
0
100
AcDbLine
 62
7
  6
CONTINUOUS
 10
210.2843168561
 20
356.7178020103
 11
210.2371669651
 21
356.6706521193
  0
LINE
  5
359
100
AcDbEntity
  8
0
100
AcDbLine
 62
7
  6
CONTINUOUS
 10
149.5390039308
 20
520.1328205631
 11
149.3833830096
 21
520.1273781303
  0
LINE
  5
35A
100
AcDbEntity
  8
0
100
AcDbLine
 62
7
  6
CONTINUOUS
 10
147.9053299993
 20
521.7664944946
 11
148.0609509205
 21
521.7719369274
  0
LINE
  5
35B
100
AcDbEntity
  8
0
100
AcDbLine
 62
7
  6
CONTINUOUS
 10
630.160017074
 20
520.2178020103
 11
629.9902306085
 21
520.2177211723
  0
LINE
  5
35C
100
AcDbEntity
  8
0
100
AcDbLine
 62
7
  6
CONTINUOUS
 10
148.160017074
 20
520.2178020103
 11
147.9902306085
 21
520.2177211723
  0
LINE
  5
35D
100
AcDbEntity
  8
0
100
AcDbLine
 62
7
  6
CONTINUOUS
 10
631.4541033216
 20
521.6815938854
 11
631.2843168561
 21
521.6815130474
  0
LINE
  5
35E
100
AcDbEntity
  8
0
100
AcDbLine
 62
7
  6
CONTINUOUS
 10
149.4541033216
 20
521.6815938854
 11
149.2843168561
 21
521.6815130474
  0
LINE
  5
35F
100
AcDbEntity
  8
0
100
AcDbLine
 62
7
  6
CONTINUOUS
 10
633.2723656313
 20
520.4346575288
 11
631.5011723746
 21
520.4346575288
  0
LINE
  5
360
100
AcDbEntity
  8
0
100
AcDbLine
 62
7
  6
CONTINUOUS
 10
151.2723656313
 20
520.4346575288
 11
149.5011723746
 21
520.4346575288
  0
LINE
  5
361
100
AcDbEntity
  8
0
100
AcDbLine
 62
7
  6
CONTINUOUS
 10
146.1719671127
 20
520.4346575288
 11
147.9431615555
 21
520.4346575288
  0
LINE
  5
362
100
AcDbEntity
  8
0
100
AcDbLine
 62
7
  6
CONTINUOUS
 10
628.1719671127
 20
520.4346575288
 11
629.9431615555
 21
520.4346575288
  0
LINE
  5
363
100
AcDbEntity
  8
0
100
AcDbLine
 62
7
  6
CONTINUOUS
 10
628.3622725011
 20
520.9496575287
 11
628.1159244759
 21
520.9496575247
  0
LINE
  5
364
100
AcDbEntity
  8
0
100
AcDbLine
 62
7
  6
CONTINUOUS
 10
633.0820628947
 20
520.9496575286
 11
633.3284095885
 21
520.9496575296
  0
LINE
  5
365
100
AcDbEntity
  8
0
100
AcDbLine
 62
7
  6
CONTINUOUS
 10
151.0820628947
 20
520.9496575286
 11
151.3284095885
 21
520.9496575296
  0
LINE
  5
366
100
AcDbEntity
  8
0
100
AcDbLine
 62
7
  6
CONTINUOUS
 10
146.3622725011
 20
520.9496575287
 11
146.1159244759
 21
520.9496575247
  0
LINE
  5
367
100
AcDbEntity
  8
0
100
AcDbLine
 62
7
  6
CONTINUOUS
 10
146.1719671611
 20
521.4646575288
 11
147.9431615555
 21
521.4646575288
  0
LINE
  5
368
100
AcDbEntity
  8
0
100
AcDbLine
 62
7
  6
CONTINUOUS
 10
149.5011723746
 20
521.4646575288
 11
151.2723660792
 21
521.4646575288
  0
LINE
  5
369
100
AcDbEntity
  8
0
100
AcDbLine
 62
7
  6
CONTINUOUS
 10
628.1719671611
 20
521.4646575288
 11
629.9431615555
 21
521.4646575288
  0
LINE
  5
36A
100
AcDbEntity
  8
0
100
AcDbLine
 62
7
  6
CONTINUOUS
 10
631.5011723746
 20
521.4646575288
 11
633.2723660792
 21
521.4646575288
  0
LINE
  5
36B
100
AcDbEntity
  8
0
100
AcDbLine
 62
7
  6
CONTINUOUS
 10
149.4541033216
 20
520.2177211723
 11
149.2843168561
 21
520.2178020103
  0
LINE
  5
36C
100
AcDbEntity
  8
0
100
AcDbLine
 62
7
  6
CONTINUOUS
 10
631.4541033216
 20
520.2177211723
 11
631.2843168561
 21
520.2178020103
  0
LINE
  5
36D
100
AcDbEntity
  8
0
100
AcDbLine
 62
7
  6
CONTINUOUS
 10
148.160017074
 20
521.6815130474
 11
147.9902306085
 21
521.6815938854
  0
LINE
  5
36E
100
AcDbEntity
  8
0
100
AcDbLine
 62
7
  6
CONTINUOUS
 10
630.160017074
 20
521.6815130474
 11
629.9902306085
 21
521.6815938854
  0
LINE
  5
36F
100
AcDbEntity
  8
0
100
AcDbLine
 62
7
  6
CONTINUOUS
 10
629.9037863519
 20
520.1312769156
 11
630.0121466012
 21
520.1274873007
  0
LINE
  5
370
100
AcDbEntity
  8
0
100
AcDbLine
 62
7
  6
CONTINUOUS
 10
631.5405475783
 20
521.768038142
 11
631.4321873289
 21
521.771827757
  0
LINE
  5
371
100
AcDbEntity
  8
0
100
AcDbLine
 62
7
  6
CONTINUOUS
 10
568.9903114465
 20
356.8875076378
 11
568.9431615555
 21
356.9346575288
  0
LINE
  5
372
100
AcDbEntity
  8
0
100
AcDbLine
 62
7
  6
CONTINUOUS
 10
569.2071669651
 20
356.6706521193
 11
569.160017074
 21
356.7178020103
  0
LINE
  5
373
100
AcDbEntity
  8
0
100
AcDbLine
 62
7
  6
CONTINUOUS
 10
568.8998692621
 20
358.1022496043
 11
568.9903114465
 21
358.0118074199
  0
LINE
  5
374
100
AcDbEntity
  8
0
100
AcDbLine
 62
7
  6
CONTINUOUS
 10
570.2843168561
 20
356.7178020103
 11
570.3747590405
 21
356.6273598259
  0
LINE
  5
375
100
AcDbEntity
  8
0
100
AcDbLine
 62
7
  6
CONTINUOUS
 10
568.9902306085
 20
358.1815938854
 11
568.3324024841
 21
358.8394220098
  0
LINE
  5
376
100
AcDbEntity
  8
0
100
AcDbLine
 62
7
  6
CONTINUOUS
 10
570.4541033216
 20
356.7177211723
 11
571.111931446
 21
356.0598930479
  0
LINE
  5
377
100
AcDbEntity
  8
0
100
AcDbLine
 62
7
  6
CONTINUOUS
 10
570.544464668
 20
356.7970654534
 11
570.4540224836
 21
356.8875076378
  0
LINE
  5
378
100
AcDbEntity
  8
0
100
AcDbLine
 62
7
  6
CONTINUOUS
 10
569.0695748896
 20
358.2719552318
 11
569.160017074
 21
358.1815130474
  0
LINE
  5
379
100
AcDbEntity
  8
0
100
AcDbLine
 62
7
  6
CONTINUOUS
 10
570.2371669651
 20
358.2286629384
 11
570.2843168561
 21
358.1815130474
  0
LINE
  5
37A
100
AcDbEntity
  8
0
100
AcDbLine
 62
7
  6
CONTINUOUS
 10
570.4540224836
 20
358.0118074199
 11
570.5011723746
 21
357.9646575288
  0
LINE
  5
37B
100
AcDbEntity
  8
0
100
AcDbLine
 62
7
  6
CONTINUOUS
 10
449.160017074
 20
565.1815130474
 11
449.2071669651
 21
565.2286629384
  0
LINE
  5
37C
100
AcDbEntity
  8
0
100
AcDbLine
 62
7
  6
CONTINUOUS
 10
448.9431615555
 20
564.9646575288
 11
448.9903114465
 21
565.0118074199
  0
LINE
  5
37D
100
AcDbEntity
  8
0
100
AcDbLine
 62
7
  6
CONTINUOUS
 10
450.3747590405
 20
565.2719552318
 11
450.2843168561
 21
565.1815130474
  0
LINE
  5
37E
100
AcDbEntity
  8
0
100
AcDbLine
 62
7
  6
CONTINUOUS
 10
448.8998692621
 20
563.7970654534
 11
448.9903114465
 21
563.8875076378
  0
LINE
  5
37F
100
AcDbEntity
  8
0
100
AcDbLine
 62
7
  6
CONTINUOUS
 10
448.4771142553
 20
563.2046048191
 11
448.9902306085
 21
563.7177211723
  0
LINE
  5
380
100
AcDbEntity
  8
0
100
AcDbLine
 62
7
  6
CONTINUOUS
 10
450.4541033216
 20
565.1815938854
 11
450.9672196748
 21
565.6947102386
  0
LINE
  5
381
100
AcDbEntity
  8
0
100
AcDbLine
 62
7
  6
CONTINUOUS
 10
450.544464668
 20
565.1022496043
 11
450.4540224836
 21
565.0118074199
  0
LINE
  5
382
100
AcDbEntity
  8
0
100
AcDbLine
 62
7
  6
CONTINUOUS
 10
449.0695748896
 20
563.6273598259
 11
449.160017074
 21
563.7178020103
  0
LINE
  5
383
100
AcDbEntity
  8
0
100
AcDbLine
 62
7
  6
CONTINUOUS
 10
450.5011723746
 20
563.9346575288
 11
450.4540224836
 21
563.8875076378
  0
LINE
  5
384
100
AcDbEntity
  8
0
100
AcDbLine
 62
7
  6
CONTINUOUS
 10
450.2843168561
 20
563.7178020103
 11
450.2371669651
 21
563.6706521193
  0
LINE
  5
385
100
AcDbEntity
  8
0
100
AcDbLine
 62
7
  6
CONTINUOUS
 10
570.5390039308
 20
563.6328205631
 11
570.3833830096
 21
563.6273781303
  0
LINE
  5
386
100
AcDbEntity
  8
0
100
AcDbLine
 62
7
  6
CONTINUOUS
 10
568.9053299993
 20
565.2664944946
 11
569.0609509205
 21
565.2719369274
  0
LINE
  5
387
100
AcDbEntity
  8
0
100
AcDbLine
 62
7
  6
CONTINUOUS
 10
450.5390039308
 20
563.6328205631
 11
450.3833830096
 21
563.6273781303
  0
LINE
  5
388
100
AcDbEntity
  8
0
100
AcDbLine
 62
7
  6
CONTINUOUS
 10
448.9053299993
 20
565.2664944946
 11
449.0609509205
 21
565.2719369274
  0
LINE
  5
389
100
AcDbEntity
  8
0
100
AcDbLine
 62
7
  6
CONTINUOUS
 10
330.5390039308
 20
563.6328205631
 11
330.3833830096
 21
563.6273781303
  0
LINE
  5
38A
100
AcDbEntity
  8
0
100
AcDbLine
 62
7
  6
CONTINUOUS
 10
569.160017074
 20
563.7178020103
 11
568.9902306085
 21
563.7177211723
  0
LINE
  5
38B
100
AcDbEntity
  8
0
100
AcDbLine
 62
7
  6
CONTINUOUS
 10
449.160017074
 20
563.7178020103
 11
448.9902306085
 21
563.7177211723
  0
LINE
  5
38C
100
AcDbEntity
  8
0
100
AcDbLine
 62
7
  6
CONTINUOUS
 10
329.160017074
 20
563.7178020103
 11
328.9902306085
 21
563.7177211723
  0
LINE
  5
38D
100
AcDbEntity
  8
0
100
AcDbLine
 62
7
  6
CONTINUOUS
 10
209.160017074
 20
563.7178020103
 11
208.9902306085
 21
563.7177211723
  0
LINE
  5
38E
100
AcDbEntity
  8
0
100
AcDbLine
 62
7
  6
CONTINUOUS
 10
570.4541033216
 20
565.1815938854
 11
570.2843168561
 21
565.1815130474
  0
LINE
  5
38F
100
AcDbEntity
  8
0
100
AcDbLine
 62
7
  6
CONTINUOUS
 10
450.4541033216
 20
565.1815938854
 11
450.2843168561
 21
565.1815130474
  0
LINE
  5
390
100
AcDbEntity
  8
0
100
AcDbLine
 62
7
  6
CONTINUOUS
 10
330.4541033216
 20
565.1815938854
 11
330.2843168561
 21
565.1815130474
  0
LINE
  5
391
100
AcDbEntity
  8
0
100
AcDbLine
 62
7
  6
CONTINUOUS
 10
210.4541033216
 20
565.1815938854
 11
210.2843168561
 21
565.1815130474
  0
LINE
  5
392
100
AcDbEntity
  8
0
100
AcDbLine
 62
7
  6
CONTINUOUS
 10
138.2939677027
 20
548.1996575222
 11
141.3402475384
 21
548.1996575278
  0
LINE
  5
393
100
AcDbEntity
  8
0
100
AcDbLine
 62
7
  6
CONTINUOUS
 10
638.1040863918
 20
548.1996575288
 11
641.1503662275
 21
548.1996575288
  0
LINE
  5
394
100
AcDbEntity
  8
0
100
AcDbLine
 62
7
  6
CONTINUOUS
 10
136.9721669651
 20
549.1996575288
 11
137.4721669651
 21
549.1996575288
  0
LINE
  5
395
100
AcDbEntity
  8
0
100
AcDbLine
 62
7
  6
CONTINUOUS
 10
641.9721669651
 20
549.1996575288
 11
642.4721669651
 21
549.1996575288
  0
LINE
  5
396
100
AcDbEntity
  8
0
100
AcDbLine
 62
7
  6
CONTINUOUS
 10
572.2723656313
 20
563.9346575288
 11
570.5011723746
 21
563.9346575288
  0
LINE
  5
397
100
AcDbEntity
  8
0
100
AcDbLine
 62
7
  6
CONTINUOUS
 10
452.2723656313
 20
563.9346575288
 11
450.5011723746
 21
563.9346575288
  0
LINE
  5
398
100
AcDbEntity
  8
0
100
AcDbLine
 62
7
  6
CONTINUOUS
 10
332.2723656313
 20
563.9346575288
 11
330.5011723746
 21
563.9346575288
  0
LINE
  5
399
100
AcDbEntity
  8
0
100
AcDbLine
 62
7
  6
CONTINUOUS
 10
212.2723656313
 20
563.9346575288
 11
210.5011723746
 21
563.9346575288
  0
LINE
  5
39A
100
AcDbEntity
  8
0
100
AcDbLine
 62
7
  6
CONTINUOUS
 10
207.1719671127
 20
563.9346575288
 11
208.9431615555
 21
563.9346575288
  0
LINE
  5
39B
100
AcDbEntity
  8
0
100
AcDbLine
 62
7
  6
CONTINUOUS
 10
327.1719671127
 20
563.9346575288
 11
328.9431615555
 21
563.9346575288
  0
LINE
  5
39C
100
AcDbEntity
  8
0
100
AcDbLine
 62
7
  6
CONTINUOUS
 10
447.1719671127
 20
563.9346575288
 11
448.9431615555
 21
563.9346575288
  0
LINE
  5
39D
100
AcDbEntity
  8
0
100
AcDbLine
 62
7
  6
CONTINUOUS
 10
567.1719671127
 20
563.9346575288
 11
568.9431615555
 21
563.9346575288
  0
LINE
  5
39E
100
AcDbEntity
  8
0
100
AcDbLine
 62
7
  6
CONTINUOUS
 10
567.3622725011
 20
564.4496575287
 11
567.1159244759
 21
564.4496575247
  0
LINE
  5
39F
100
AcDbEntity
  8
0
100
AcDbLine
 62
7
  6
CONTINUOUS
 10
447.3622725011
 20
564.4496575287
 11
447.1159244759
 21
564.4496575247
  0
LINE
  5
3A0
100
AcDbEntity
  8
0
100
AcDbLine
 62
7
  6
CONTINUOUS
 10
332.0820628947
 20
564.4496575286
 11
332.3284095885
 21
564.4496575296
  0
LINE
  5
3A1
100
AcDbEntity
  8
0
100
AcDbLine
 62
7
  6
CONTINUOUS
 10
452.0820628947
 20
564.4496575286
 11
452.3284095885
 21
564.4496575296
  0
LINE
  5
3A2
100
AcDbEntity
  8
0
100
AcDbLine
 62
7
  6
CONTINUOUS
 10
572.0820628947
 20
564.4496575286
 11
572.3284095885
 21
564.4496575296
  0
LINE
  5
3A3
100
AcDbEntity
  8
0
100
AcDbLine
 62
7
  6
CONTINUOUS
 10
327.3622725011
 20
564.4496575287
 11
327.1159244759
 21
564.4496575247
  0
LINE
  5
3A4
100
AcDbEntity
  8
0
100
AcDbLine
 62
7
  6
CONTINUOUS
 10
212.0820628947
 20
564.4496575286
 11
212.3284095885
 21
564.4496575296
  0
LINE
  5
3A5
100
AcDbEntity
  8
0
100
AcDbLine
 62
7
  6
CONTINUOUS
 10
207.3622725011
 20
564.4496575287
 11
207.1159244759
 21
564.4496575247
  0
LINE
  5
3A6
100
AcDbEntity
  8
0
100
AcDbLine
 62
7
  6
CONTINUOUS
 10
207.1719671611
 20
564.9646575288
 11
208.9431615555
 21
564.9646575288
  0
LINE
  5
3A7
100
AcDbEntity
  8
0
100
AcDbLine
 62
7
  6
CONTINUOUS
 10
210.5011723746
 20
564.9646575288
 11
212.2723660792
 21
564.9646575288
  0
LINE
  5
3A8
100
AcDbEntity
  8
0
100
AcDbLine
 62
7
  6
CONTINUOUS
 10
327.1719671611
 20
564.9646575288
 11
328.9431615555
 21
564.9646575288
  0
LINE
  5
3A9
100
AcDbEntity
  8
0
100
AcDbLine
 62
7
  6
CONTINUOUS
 10
330.5011723746
 20
564.9646575288
 11
332.2723660792
 21
564.9646575288
  0
LINE
  5
3AA
100
AcDbEntity
  8
0
100
AcDbLine
 62
7
  6
CONTINUOUS
 10
447.1719671611
 20
564.9646575288
 11
448.9431615555
 21
564.9646575288
  0
LINE
  5
3AB
100
AcDbEntity
  8
0
100
AcDbLine
 62
7
  6
CONTINUOUS
 10
450.5011723746
 20
564.9646575288
 11
452.2723660792
 21
564.9646575288
  0
LINE
  5
3AC
100
AcDbEntity
  8
0
100
AcDbLine
 62
7
  6
CONTINUOUS
 10
567.1719671611
 20
564.9646575288
 11
568.9431615555
 21
564.9646575288
  0
LINE
  5
3AD
100
AcDbEntity
  8
0
100
AcDbLine
 62
7
  6
CONTINUOUS
 10
570.5011723746
 20
564.9646575288
 11
572.2723660792
 21
564.9646575288
  0
LINE
  5
3AE
100
AcDbEntity
  8
0
100
AcDbLine
 62
7
  6
CONTINUOUS
 10
210.4541033216
 20
563.7177211723
 11
210.2843168561
 21
563.7178020103
  0
LINE
  5
3AF
100
AcDbEntity
  8
0
100
AcDbLine
 62
7
  6
CONTINUOUS
 10
330.4541033216
 20
563.7177211723
 11
330.2843168561
 21
563.7178020103
  0
LINE
  5
3B0
100
AcDbEntity
  8
0
100
AcDbLine
 62
7
  6
CONTINUOUS
 10
450.4541033216
 20
563.7177211723
 11
450.2843168561
 21
563.7178020103
  0
LINE
  5
3B1
100
AcDbEntity
  8
0
100
AcDbLine
 62
7
  6
CONTINUOUS
 10
570.4541033216
 20
563.7177211723
 11
570.2843168561
 21
563.7178020103
  0
LINE
  5
3B2
100
AcDbEntity
  8
0
100
AcDbLine
 62
7
  6
CONTINUOUS
 10
209.160017074
 20
565.1815130474
 11
208.9902306085
 21
565.1815938854
  0
LINE
  5
3B3
100
AcDbEntity
  8
0
100
AcDbLine
 62
7
  6
CONTINUOUS
 10
329.160017074
 20
565.1815130474
 11
328.9902306085
 21
565.1815938854
  0
LINE
  5
3B4
100
AcDbEntity
  8
0
100
AcDbLine
 62
7
  6
CONTINUOUS
 10
449.160017074
 20
565.1815130474
 11
448.9902306085
 21
565.1815938854
  0
LINE
  5
3B5
100
AcDbEntity
  8
0
100
AcDbLine
 62
7
  6
CONTINUOUS
 10
569.160017074
 20
565.1815130474
 11
568.9902306085
 21
565.1815938854
  0
LINE
  5
3B6
100
AcDbEntity
  8
0
100
AcDbLine
 62
7
  6
CONTINUOUS
 10
208.9037863519
 20
563.6312769156
 11
209.0121466012
 21
563.6274873007
  0
LINE
  5
3B7
100
AcDbEntity
  8
0
100
AcDbLine
 62
7
  6
CONTINUOUS
 10
210.5405475783
 20
565.268038142
 11
210.4321873289
 21
565.271827757
  0
LINE
  5
3B8
100
AcDbEntity
  8
0
100
AcDbLine
 62
7
  6
CONTINUOUS
 10
328.9037863519
 20
563.6312769156
 11
329.0121466012
 21
563.6274873007
  0
LINE
  5
3B9
100
AcDbEntity
  8
0
100
AcDbLine
 62
7
  6
CONTINUOUS
 10
330.5405475783
 20
565.268038142
 11
330.4321873289
 21
565.271827757
  0
LINE
  5
3BA
100
AcDbEntity
  8
0
100
AcDbLine
 62
7
  6
CONTINUOUS
 10
448.9037863519
 20
563.6312769156
 11
449.0121466012
 21
563.6274873007
  0
LINE
  5
3BB
100
AcDbEntity
  8
0
100
AcDbLine
 62
7
  6
CONTINUOUS
 10
328.9053299993
 20
565.2664944946
 11
329.0609509205
 21
565.2719369274
  0
LINE
  5
3BC
100
AcDbEntity
  8
0
100
AcDbLine
 62
7
  6
CONTINUOUS
 10
210.5390039308
 20
563.6328205631
 11
210.3833830096
 21
563.6273781303
  0
LINE
  5
3BD
100
AcDbEntity
  8
0
100
AcDbLine
 62
7
  6
CONTINUOUS
 10
208.9053299993
 20
565.2664944946
 11
209.0609509205
 21
565.2719369274
  0
LINE
  5
3BE
100
AcDbEntity
  8
0
100
AcDbLine
 62
7
  6
CONTINUOUS
 10
167.2221669651
 20
570.9496575288
 11
612.2221669651
 21
570.9496575288
  0
LINE
  5
3BF
100
AcDbEntity
  8
0
100
AcDbLine
 62
7
  6
CONTINUOUS
 10
164.9721669651
 20
571.8315769555
 11
614.4721669651
 21
571.8315769555
  0
LINE
  5
3C0
100
AcDbEntity
  8
0
100
AcDbLine
 62
7
  6
CONTINUOUS
 10
614.4721669545
 20
572.8163847083
 11
164.9721669722
 21
572.8163847082
  0
LINE
  5
3C1
100
AcDbEntity
  8
0
100
AcDbLine
 62
7
  6
CONTINUOUS
 10
164.9721669719
 20
572.9082412853
 11
614.47216696
 21
572.9082412852
  0
LINE
  5
3C2
100
AcDbEntity
  8
0
100
AcDbLine
 62
7
  6
CONTINUOUS
 10
614.4721669643
 20
574.8778567912
 11
164.9721669658
 21
574.8778567912
  0
LINE
  5
3C3
100
AcDbEntity
  8
0
100
AcDbLine
 62
7
  6
CONTINUOUS
 10
615.4721669651
 20
575.6996575288
 11
163.9721669651
 21
575.6996575288
  0
LINE
  5
3C4
100
AcDbEntity
  8
0
100
AcDbLine
 62
7
  6
CONTINUOUS
 10
615.4721669651
 20
576.1996575288
 11
163.9721669651
 21
576.1996575288
  0
LINE
  5
3C5
100
AcDbEntity
  8
0
100
AcDbLine
 62
7
  6
CONTINUOUS
 10
450.5405475783
 20
565.268038142
 11
450.4321873289
 21
565.271827757
  0
LINE
  5
3C6
100
AcDbEntity
  8
0
100
AcDbLine
 62
7
  6
CONTINUOUS
 10
568.9037863519
 20
563.6312769156
 11
569.0121466012
 21
563.6274873007
  0
LINE
  5
3C7
100
AcDbEntity
  8
0
100
AcDbLine
 62
7
  6
CONTINUOUS
 10
570.5405475783
 20
565.268038142
 11
570.4321873289
 21
565.271827757
  0
LINE
  5
3C8
100
AcDbEntity
  8
0
100
AcDbLine
 62
7
  6
CONTINUOUS
 10
448.9037863519
 20
356.6312769156
 11
448.8999967369
 21
356.739637165
  0
LINE
  5
3C9
100
AcDbEntity
  8
0
100
AcDbLine
 62
7
  6
CONTINUOUS
 10
450.5405475783
 20
358.268038142
 11
450.5443371932
 21
358.1596778927
  0
LINE
  5
3CA
100
AcDbEntity
  8
0
100
AcDbLine
 62
7
  6
CONTINUOUS
 10
448.9037863519
 20
563.6312769156
 11
448.8999967369
 21
563.739637165
  0
LINE
  5
3CB
100
AcDbEntity
  8
0
100
AcDbLine
 62
7
  6
CONTINUOUS
 10
450.5405475783
 20
565.268038142
 11
450.5443371932
 21
565.1596778927
  0
LINE
  5
3CC
100
AcDbEntity
  8
0
100
AcDbLine
 62
7
  6
CONTINUOUS
 10
448.9902306085
 20
358.1815938854
 11
448.9903114465
 21
358.0118074199
  0
LINE
  5
3CD
100
AcDbEntity
  8
0
100
AcDbLine
 62
7
  6
CONTINUOUS
 10
448.9902306085
 20
565.1815938854
 11
448.9903114465
 21
565.0118074199
  0
LINE
  5
3CE
100
AcDbEntity
  8
0
100
AcDbLine
 62
7
  6
CONTINUOUS
 10
450.4540224836
 20
356.8875076378
 11
450.4541033216
 21
356.7177211723
  0
LINE
  5
3CF
100
AcDbEntity
  8
0
100
AcDbLine
 62
7
  6
CONTINUOUS
 10
450.4540224836
 20
563.8875076378
 11
450.4541033216
 21
563.7177211723
  0
LINE
  5
3D0
100
AcDbEntity
  8
0
100
AcDbLine
 62
7
  6
CONTINUOUS
 10
449.2071669651
 20
563.6706521193
 11
449.2071669651
 21
561.8994580214
  0
LINE
  5
3D1
100
AcDbEntity
  8
0
100
AcDbLine
 62
7
  6
CONTINUOUS
 10
449.2071669651
 20
356.6706521193
 11
449.2071669651
 21
354.8994580214
  0
LINE
  5
3D2
100
AcDbEntity
  8
0
100
AcDbLine
 62
7
  6
CONTINUOUS
 10
449.2071669651
 20
358.2286629384
 11
449.2071669651
 21
359.9998567984
  0
LINE
  5
3D3
100
AcDbEntity
  8
0
100
AcDbLine
 62
7
  6
CONTINUOUS
 10
449.2071669651
 20
565.2286629384
 11
449.2071669651
 21
566.9998567984
  0
LINE
  5
3D4
100
AcDbEntity
  8
0
100
AcDbLine
 62
7
  6
CONTINUOUS
 10
450.2371669651
 20
566.9998568371
 11
450.2371669651
 21
565.2286629384
  0
LINE
  5
3D5
100
AcDbEntity
  8
0
100
AcDbLine
 62
7
  6
CONTINUOUS
 10
450.2371669651
 20
359.9998568371
 11
450.2371669651
 21
358.2286629384
  0
LINE
  5
3D6
100
AcDbEntity
  8
0
100
AcDbLine
 62
7
  6
CONTINUOUS
 10
450.2371669651
 20
354.899458371
 11
450.2371669651
 21
356.6706521193
  0
LINE
  5
3D7
100
AcDbEntity
  8
0
100
AcDbLine
 62
7
  6
CONTINUOUS
 10
450.2371669651
 20
561.899458371
 11
450.2371669651
 21
563.6706521193
  0
LINE
  5
3D8
100
AcDbEntity
  8
0
100
AcDbLine
 62
7
  6
CONTINUOUS
 10
448.9902306085
 20
563.7177211723
 11
448.9903114465
 21
563.8875076378
  0
LINE
  5
3D9
100
AcDbEntity
  8
0
100
AcDbLine
 62
7
  6
CONTINUOUS
 10
448.9902306085
 20
356.7177211723
 11
448.9903114465
 21
356.8875076378
  0
LINE
  5
3DA
100
AcDbEntity
  8
0
100
AcDbLine
 62
7
  6
CONTINUOUS
 10
450.4540224836
 20
565.0118074199
 11
450.4541033216
 21
565.1815938854
  0
LINE
  5
3DB
100
AcDbEntity
  8
0
100
AcDbLine
 62
7
  6
CONTINUOUS
 10
450.4540224836
 20
358.0118074199
 11
450.4541033216
 21
358.1815938854
  0
LINE
  5
3DC
100
AcDbEntity
  8
0
100
AcDbLine
 62
7
  6
CONTINUOUS
 10
448.9053299993
 20
565.2664944946
 11
448.8998875665
 21
565.1108735734
  0
LINE
  5
3DD
100
AcDbEntity
  8
0
100
AcDbLine
 62
7
  6
CONTINUOUS
 10
450.5444463636
 20
563.7884414843
 11
450.5390039308
 21
563.6328205631
  0
LINE
  5
3DE
100
AcDbEntity
  8
0
100
AcDbLine
 62
7
  6
CONTINUOUS
 10
448.9053299993
 20
358.2664944946
 11
448.8998875665
 21
358.1108735734
  0
LINE
  5
3DF
100
AcDbEntity
  8
0
100
AcDbLine
 62
7
  6
CONTINUOUS
 10
450.5444463636
 20
356.7884414843
 11
450.5390039308
 21
356.6328205631
  0
LINE
  5
3E0
100
AcDbEntity
  8
0
100
AcDbLine
 62
7
  6
CONTINUOUS
 10
448.9903114465
 20
563.8875076378
 11
448.9431615555
 21
563.9346575288
  0
LINE
  5
3E1
100
AcDbEntity
  8
0
100
AcDbLine
 62
7
  6
CONTINUOUS
 10
449.2071669651
 20
563.6706521193
 11
449.160017074
 21
563.7178020103
  0
LINE
  5
3E2
100
AcDbEntity
  8
0
100
AcDbLine
 62
7
  6
CONTINUOUS
 10
448.8998692621
 20
565.1022496043
 11
448.9903114465
 21
565.0118074199
  0
LINE
  5
3E3
100
AcDbEntity
  8
0
100
AcDbLine
 62
7
  6
CONTINUOUS
 10
450.2843168561
 20
563.7178020103
 11
450.3747590405
 21
563.6273598259
  0
LINE
  5
3E4
100
AcDbEntity
  8
0
100
AcDbLine
 62
7
  6
CONTINUOUS
 10
448.9902306085
 20
565.1815938854
 11
448.3324024841
 21
565.8394220098
  0
LINE
  5
3E5
100
AcDbEntity
  8
0
100
AcDbLine
 62
7
  6
CONTINUOUS
 10
450.4541033216
 20
563.7177211723
 11
451.111931446
 21
563.0598930479
  0
LINE
  5
3E6
100
AcDbEntity
  8
0
100
AcDbLine
 62
7
  6
CONTINUOUS
 10
450.544464668
 20
563.7970654534
 11
450.4540224836
 21
563.8875076378
  0
LINE
  5
3E7
100
AcDbEntity
  8
0
100
AcDbLine
 62
7
  6
CONTINUOUS
 10
449.0695748896
 20
565.2719552318
 11
449.160017074
 21
565.1815130474
  0
LINE
  5
3E8
100
AcDbEntity
  8
0
100
AcDbLine
 62
7
  6
CONTINUOUS
 10
450.2371669651
 20
565.2286629384
 11
450.2843168561
 21
565.1815130474
  0
LINE
  5
3E9
100
AcDbEntity
  8
0
100
AcDbLine
 62
7
  6
CONTINUOUS
 10
450.4540224836
 20
565.0118074199
 11
450.5011723746
 21
564.9646575288
  0
LINE
  5
3EA
100
AcDbEntity
  8
0
100
AcDbLine
 62
7
  6
CONTINUOUS
 10
629.9903114465
 20
400.3875076378
 11
629.9431615555
 21
400.4346575288
  0
LINE
  5
3EB
100
AcDbEntity
  8
0
100
AcDbLine
 62
7
  6
CONTINUOUS
 10
630.2071669651
 20
400.1706521193
 11
630.160017074
 21
400.2178020103
  0
LINE
  5
3EC
100
AcDbEntity
  8
0
100
AcDbLine
 62
7
  6
CONTINUOUS
 10
629.8998692621
 20
401.6022496043
 11
629.9903114465
 21
401.5118074199
  0
LINE
  5
3ED
100
AcDbEntity
  8
0
100
AcDbLine
 62
7
  6
CONTINUOUS
 10
631.2843168561
 20
400.2178020103
 11
631.3747590405
 21
400.1273598259
  0
LINE
  5
3EE
100
AcDbEntity
  8
0
100
AcDbLine
 62
7
  6
CONTINUOUS
 10
629.9902306085
 20
401.6815938854
 11
629.3324024841
 21
402.3394220098
  0
LINE
  5
3EF
100
AcDbEntity
  8
0
100
AcDbLine
 62
7
  6
CONTINUOUS
 10
631.4541033216
 20
400.2177211723
 11
632.111931446
 21
399.5598930479
  0
LINE
  5
3F0
100
AcDbEntity
  8
0
100
AcDbLine
 62
7
  6
CONTINUOUS
 10
631.544464668
 20
400.2970654534
 11
631.4540224836
 21
400.3875076378
  0
LINE
  5
3F1
100
AcDbEntity
  8
0
100
AcDbLine
 62
7
  6
CONTINUOUS
 10
630.0695748896
 20
401.7719552318
 11
630.160017074
 21
401.6815130474
  0
LINE
  5
3F2
100
AcDbEntity
  8
0
100
AcDbLine
 62
7
  6
CONTINUOUS
 10
631.2371669651
 20
401.7286629384
 11
631.2843168561
 21
401.6815130474
  0
LINE
  5
3F3
100
AcDbEntity
  8
0
100
AcDbLine
 62
7
  6
CONTINUOUS
 10
631.4540224836
 20
401.5118074199
 11
631.5011723746
 21
401.4646575288
  0
LINE
  5
3F4
100
AcDbEntity
  8
0
100
AcDbLine
 62
7
  6
CONTINUOUS
 10
329.160017074
 20
358.1815130474
 11
329.2071669651
 21
358.2286629384
  0
LINE
  5
3F5
100
AcDbEntity
  8
0
100
AcDbLine
 62
7
  6
CONTINUOUS
 10
328.9431615555
 20
357.9646575288
 11
328.9903114465
 21
358.0118074199
  0
LINE
  5
3F6
100
AcDbEntity
  8
0
100
AcDbLine
 62
7
  6
CONTINUOUS
 10
330.3747590405
 20
358.2719552318
 11
330.2843168561
 21
358.1815130474
  0
LINE
  5
3F7
100
AcDbEntity
  8
0
100
AcDbLine
 62
7
  6
CONTINUOUS
 10
328.8998692621
 20
356.7970654534
 11
328.9903114465
 21
356.8875076378
  0
LINE
  5
3F8
100
AcDbEntity
  8
0
100
AcDbLine
 62
7
  6
CONTINUOUS
 10
328.4771142553
 20
356.2046048191
 11
328.9902306085
 21
356.7177211723
  0
LINE
  5
3F9
100
AcDbEntity
  8
0
100
AcDbLine
 62
7
  6
CONTINUOUS
 10
330.4541033216
 20
358.1815938854
 11
330.9672196748
 21
358.6947102386
  0
LINE
  5
3FA
100
AcDbEntity
  8
0
100
AcDbLine
 62
7
  6
CONTINUOUS
 10
330.544464668
 20
358.1022496043
 11
330.4540224836
 21
358.0118074199
  0
LINE
  5
3FB
100
AcDbEntity
  8
0
100
AcDbLine
 62
7
  6
CONTINUOUS
 10
329.0695748896
 20
356.6273598259
 11
329.160017074
 21
356.7178020103
  0
LINE
  5
3FC
100
AcDbEntity
  8
0
100
AcDbLine
 62
7
  6
CONTINUOUS
 10
330.5011723746
 20
356.9346575288
 11
330.4540224836
 21
356.8875076378
  0
LINE
  5
3FD
100
AcDbEntity
  8
0
100
AcDbLine
 62
7
  6
CONTINUOUS
 10
330.2843168561
 20
356.7178020103
 11
330.2371669651
 21
356.6706521193
  0
LINE
  5
3FE
100
AcDbEntity
  8
0
100
AcDbLine
 62
7
  6
CONTINUOUS
 10
678.142636663
 20
737.7259190465
 11
677.819242819
 21
737.2640647728
  0
LINE
  5
3FF
100
AcDbEntity
  8
0
100
AcDbLine
 62
7
  6
CONTINUOUS
 10
569.160017074
 20
565.1815130474
 11
569.2071669651
 21
565.2286629384
  0
LINE
  5
400
100
AcDbEntity
  8
0
100
AcDbLine
 62
7
  6
CONTINUOUS
 10
568.9431615555
 20
564.9646575288
 11
568.9903114465
 21
565.0118074199
  0
LINE
  5
401
100
AcDbEntity
  8
0
100
AcDbLine
 62
7
  6
CONTINUOUS
 10
570.3747590405
 20
565.2719552318
 11
570.2843168561
 21
565.1815130474
  0
LINE
  5
402
100
AcDbEntity
  8
0
100
AcDbLine
 62
7
  6
CONTINUOUS
 10
568.8998692621
 20
563.7970654534
 11
568.9903114465
 21
563.8875076378
  0
LINE
  5
403
100
AcDbEntity
  8
0
100
AcDbLine
 62
7
  6
CONTINUOUS
 10
568.4771142553
 20
563.2046048191
 11
568.9902306085
 21
563.7177211723
  0
LINE
  5
404
100
AcDbEntity
  8
0
100
AcDbLine
 62
7
  6
CONTINUOUS
 10
570.4541033216
 20
565.1815938854
 11
570.9672196748
 21
565.6947102386
  0
LINE
  5
405
100
AcDbEntity
  8
0
100
AcDbLine
 62
7
  6
CONTINUOUS
 10
570.544464668
 20
565.1022496043
 11
570.4540224836
 21
565.0118074199
  0
LINE
  5
406
100
AcDbEntity
  8
0
100
AcDbLine
 62
7
  6
CONTINUOUS
 10
569.0695748896
 20
563.6273598259
 11
569.160017074
 21
563.7178020103
  0
LINE
  5
407
100
AcDbEntity
  8
0
100
AcDbLine
 62
7
  6
CONTINUOUS
 10
570.5011723746
 20
563.9346575288
 11
570.4540224836
 21
563.8875076378
  0
LINE
  5
408
100
AcDbEntity
  8
0
100
AcDbLine
 62
7
  6
CONTINUOUS
 10
570.2843168561
 20
563.7178020103
 11
570.2371669651
 21
563.6706521193
  0
LINE
  5
409
100
AcDbEntity
  8
0
100
AcDbLine
 62
7
  6
CONTINUOUS
 10
134.2802433186
 20
744.0801341679
 11
134.0707512802
 21
744.1420929282
  0
LINE
  5
40A
100
AcDbEntity
  8
0
100
AcDbLine
 62
7
  6
CONTINUOUS
 10
134.2800172523
 20
744.0802363212
 11
134.0814575749
 21
744.1409308071
  0
LINE
  5
40B
100
AcDbEntity
  8
0
100
AcDbLine
 62
7
  6
CONTINUOUS
 10
144.0242163876
 20
744.1494382197
 11
144.0266973514
 21
744.1486586889
  0
LINE
  5
40C
100
AcDbEntity
  8
0
100
AcDbLine
 62
7
  6
CONTINUOUS
 10
134.0821595848
 20
744.1406996734
 11
134.0836531097
 21
744.140228807
  0
LINE
  5
40D
100
AcDbEntity
  8
0
100
AcDbLine
 62
7
  6
CONTINUOUS
 10
144.0242163876
 20
744.1494382197
 11
144.0257255377
 21
744.1489536175
  0
LINE
  5
40E
100
AcDbEntity
  8
0
100
AcDbLine
 62
7
  6
CONTINUOUS
 10
129.0682584942
 20
744.1251137439
 11
129.1822505855
 21
744.0855185111
  0
LINE
  5
40F
100
AcDbEntity
  8
0
100
AcDbLine
 62
7
  6
CONTINUOUS
 10
680.2620338017
 20
734.7769716871
 11
680.9503255253
 21
735.7599541402
  0
LINE
  5
410
100
AcDbEntity
  8
0
100
AcDbLine
 62
7
  6
CONTINUOUS
 10
134.0699451872
 20
744.1440775527
 11
134.0713429108
 21
744.1437329615
  0
LINE
  5
411
100
AcDbEntity
  8
0
100
AcDbLine
 62
7
  6
CONTINUOUS
 10
134.0713429108
 20
744.1437329615
 11
134.0821595848
 21
744.1406996734
  0
LINE
  5
412
100
AcDbEntity
  8
0
100
AcDbLine
 62
7
  6
CONTINUOUS
 10
149.0271285505
 20
744.1494332589
 11
149.081364178
 21
744.1327780239
  0
LINE
  5
413
100
AcDbEntity
  8
0
100
AcDbLine
 62
7
  6
CONTINUOUS
 10
568.9903114465
 20
563.8875076378
 11
568.9431615555
 21
563.9346575288
  0
LINE
  5
414
100
AcDbEntity
  8
0
100
AcDbLine
 62
7
  6
CONTINUOUS
 10
569.2071669651
 20
563.6706521193
 11
569.160017074
 21
563.7178020103
  0
LINE
  5
415
100
AcDbEntity
  8
0
100
AcDbLine
 62
7
  6
CONTINUOUS
 10
568.8998692621
 20
565.1022496043
 11
568.9903114465
 21
565.0118074199
  0
LINE
  5
416
100
AcDbEntity
  8
0
100
AcDbLine
 62
7
  6
CONTINUOUS
 10
570.2843168561
 20
563.7178020103
 11
570.3747590405
 21
563.6273598259
  0
LINE
  5
417
100
AcDbEntity
  8
0
100
AcDbLine
 62
7
  6
CONTINUOUS
 10
568.9902306085
 20
565.1815938854
 11
568.3324024841
 21
565.8394220098
  0
LINE
  5
418
100
AcDbEntity
  8
0
100
AcDbLine
 62
7
  6
CONTINUOUS
 10
570.4541033216
 20
563.7177211723
 11
571.111931446
 21
563.0598930479
  0
LINE
  5
419
100
AcDbEntity
  8
0
100
AcDbLine
 62
7
  6
CONTINUOUS
 10
570.544464668
 20
563.7970654534
 11
570.4540224836
 21
563.8875076378
  0
LINE
  5
41A
100
AcDbEntity
  8
0
100
AcDbLine
 62
7
  6
CONTINUOUS
 10
569.0695748896
 20
565.2719552318
 11
569.160017074
 21
565.1815130474
  0
LINE
  5
41B
100
AcDbEntity
  8
0
100
AcDbLine
 62
7
  6
CONTINUOUS
 10
570.2371669651
 20
565.2286629384
 11
570.2843168561
 21
565.1815130474
  0
LINE
  5
41C
100
AcDbEntity
  8
0
100
AcDbLine
 62
7
  6
CONTINUOUS
 10
570.4540224836
 20
565.0118074199
 11
570.5011723746
 21
564.9646575288
  0
LINE
  5
41D
100
AcDbEntity
  8
0
100
AcDbLine
 62
7
  6
CONTINUOUS
 10
568.9037863519
 20
356.6312769156
 11
568.8999967369
 21
356.739637165
  0
LINE
  5
41E
100
AcDbEntity
  8
0
100
AcDbLine
 62
7
  6
CONTINUOUS
 10
449.160017074
 20
358.1815130474
 11
449.2071669651
 21
358.2286629384
  0
LINE
  5
41F
100
AcDbEntity
  8
0
100
AcDbLine
 62
7
  6
CONTINUOUS
 10
448.9431615555
 20
357.9646575288
 11
448.9903114465
 21
358.0118074199
  0
LINE
  5
420
100
AcDbEntity
  8
0
100
AcDbLine
 62
7
  6
CONTINUOUS
 10
450.3747590405
 20
358.2719552318
 11
450.2843168561
 21
358.1815130474
  0
LINE
  5
421
100
AcDbEntity
  8
0
100
AcDbLine
 62
7
  6
CONTINUOUS
 10
448.8998692621
 20
356.7970654534
 11
448.9903114465
 21
356.8875076378
  0
LINE
  5
422
100
AcDbEntity
  8
0
100
AcDbLine
 62
7
  6
CONTINUOUS
 10
448.4771142553
 20
356.2046048191
 11
448.9902306085
 21
356.7177211723
  0
LINE
  5
423
100
AcDbEntity
  8
0
100
AcDbLine
 62
7
  6
CONTINUOUS
 10
450.4541033216
 20
358.1815938854
 11
450.9672196748
 21
358.6947102386
  0
LINE
  5
424
100
AcDbEntity
  8
0
100
AcDbLine
 62
7
  6
CONTINUOUS
 10
450.544464668
 20
358.1022496043
 11
450.4540224836
 21
358.0118074199
  0
LINE
  5
425
100
AcDbEntity
  8
0
100
AcDbLine
 62
7
  6
CONTINUOUS
 10
449.0695748896
 20
356.6273598259
 11
449.160017074
 21
356.7178020103
  0
LINE
  5
426
100
AcDbEntity
  8
0
100
AcDbLine
 62
7
  6
CONTINUOUS
 10
450.5011723746
 20
356.9346575288
 11
450.4540224836
 21
356.8875076378
  0
LINE
  5
427
100
AcDbEntity
  8
0
100
AcDbLine
 62
7
  6
CONTINUOUS
 10
450.2843168561
 20
356.7178020103
 11
450.2371669651
 21
356.6706521193
  0
LINE
  5
428
100
AcDbEntity
  8
0
100
AcDbLine
 62
7
  6
CONTINUOUS
 10
89.7221669651
 20
708.7496575288
 11
689.7221669651
 21
708.7496575288
  0
LWPOLYLINE
  5
429
100
AcDbEntity
  8
0
100
AcDbPolyline
 62
7
  6
CONTINUOUS
 90
3
 70
0
 10
129.1536948987
 20
744.1182053487
 10
129.0858669746
 20
744.1269586149
 10
129.0682197239
 20
744.1254055673
  0
LINE
  5
42A
100
AcDbEntity
  8
0
100
AcDbLine
 62
7
  6
CONTINUOUS
 10
629.9903114465
 20
520.3875076378
 11
629.9431615555
 21
520.4346575288
  0
LINE
  5
42B
100
AcDbEntity
  8
0
100
AcDbLine
 62
7
  6
CONTINUOUS
 10
630.2071669651
 20
520.1706521193
 11
630.160017074
 21
520.2178020103
  0
LINE
  5
42C
100
AcDbEntity
  8
0
100
AcDbLine
 62
7
  6
CONTINUOUS
 10
629.8998692621
 20
521.6022496043
 11
629.9903114465
 21
521.5118074199
  0
LINE
  5
42D
100
AcDbEntity
  8
0
100
AcDbLine
 62
7
  6
CONTINUOUS
 10
631.2843168561
 20
520.2178020103
 11
631.3747590405
 21
520.1273598259
  0
LINE
  5
42E
100
AcDbEntity
  8
0
100
AcDbLine
 62
7
  6
CONTINUOUS
 10
629.9902306085
 20
521.6815938854
 11
629.3324024841
 21
522.3394220098
  0
LINE
  5
42F
100
AcDbEntity
  8
0
100
AcDbLine
 62
7
  6
CONTINUOUS
 10
631.4541033216
 20
520.2177211723
 11
632.111931446
 21
519.5598930479
  0
LINE
  5
430
100
AcDbEntity
  8
0
100
AcDbLine
 62
7
  6
CONTINUOUS
 10
631.544464668
 20
520.2970654534
 11
631.4540224836
 21
520.3875076378
  0
LINE
  5
431
100
AcDbEntity
  8
0
100
AcDbLine
 62
7
  6
CONTINUOUS
 10
630.0695748896
 20
521.7719552318
 11
630.160017074
 21
521.6815130474
  0
LINE
  5
432
100
AcDbEntity
  8
0
100
AcDbLine
 62
7
  6
CONTINUOUS
 10
631.2371669651
 20
521.7286629384
 11
631.2843168561
 21
521.6815130474
  0
LINE
  5
433
100
AcDbEntity
  8
0
100
AcDbLine
 62
7
  6
CONTINUOUS
 10
631.4540224836
 20
521.5118074199
 11
631.5011723746
 21
521.4646575288
  0
LINE
  5
434
100
AcDbEntity
  8
0
100
AcDbLine
 62
7
  6
CONTINUOUS
 10
570.5405475783
 20
358.268038142
 11
570.5443371932
 21
358.1596778927
  0
LINE
  5
435
100
AcDbEntity
  8
0
100
AcDbLine
 62
7
  6
CONTINUOUS
 10
568.9037863519
 20
563.6312769156
 11
568.8999967369
 21
563.739637165
  0
LINE
  5
436
100
AcDbEntity
  8
0
100
AcDbLine
 62
7
  6
CONTINUOUS
 10
570.5405475783
 20
565.268038142
 11
570.5443371932
 21
565.1596778927
  0
LINE
  5
437
100
AcDbEntity
  8
0
100
AcDbLine
 62
7
  6
CONTINUOUS
 10
568.9902306085
 20
358.1815938854
 11
568.9903114465
 21
358.0118074199
  0
LINE
  5
438
100
AcDbEntity
  8
0
100
AcDbLine
 62
7
  6
CONTINUOUS
 10
568.9902306085
 20
565.1815938854
 11
568.9903114465
 21
565.0118074199
  0
LINE
  5
439
100
AcDbEntity
  8
0
100
AcDbLine
 62
7
  6
CONTINUOUS
 10
570.4540224836
 20
356.8875076378
 11
570.4541033216
 21
356.7177211723
  0
LINE
  5
43A
100
AcDbEntity
  8
0
100
AcDbLine
 62
7
  6
CONTINUOUS
 10
570.4540224836
 20
563.8875076378
 11
570.4541033216
 21
563.7177211723
  0
LINE
  5
43B
100
AcDbEntity
  8
0
100
AcDbLine
 62
7
  6
CONTINUOUS
 10
569.2071669651
 20
563.6706521193
 11
569.2071669651
 21
561.8994580214
  0
LINE
  5
43C
100
AcDbEntity
  8
0
100
AcDbLine
 62
7
  6
CONTINUOUS
 10
569.2071669651
 20
356.6706521193
 11
569.2071669651
 21
354.8994580214
  0
LINE
  5
43D
100
AcDbEntity
  8
0
100
AcDbLine
 62
7
  6
CONTINUOUS
 10
569.2071669651
 20
358.2286629384
 11
569.2071669651
 21
359.9998567984
  0
LINE
  5
43E
100
AcDbEntity
  8
0
100
AcDbLine
 62
7
  6
CONTINUOUS
 10
569.2071669651
 20
565.2286629384
 11
569.2071669651
 21
566.9998567984
  0
LINE
  5
43F
100
AcDbEntity
  8
0
100
AcDbLine
 62
7
  6
CONTINUOUS
 10
570.2371669651
 20
566.9998568371
 11
570.2371669651
 21
565.2286629384
  0
LINE
  5
440
100
AcDbEntity
  8
0
100
AcDbLine
 62
7
  6
CONTINUOUS
 10
570.2371669651
 20
359.9998568371
 11
570.2371669651
 21
358.2286629384
  0
LINE
  5
441
100
AcDbEntity
  8
0
100
AcDbLine
 62
7
  6
CONTINUOUS
 10
570.2371669651
 20
354.899458371
 11
570.2371669651
 21
356.6706521193
  0
LINE
  5
442
100
AcDbEntity
  8
0
100
AcDbLine
 62
7
  6
CONTINUOUS
 10
570.2371669651
 20
561.899458371
 11
570.2371669651
 21
563.6706521193
  0
LINE
  5
443
100
AcDbEntity
  8
0
100
AcDbLine
 62
7
  6
CONTINUOUS
 10
568.9902306085
 20
563.7177211723
 11
568.9903114465
 21
563.8875076378
  0
LINE
  5
444
100
AcDbEntity
  8
0
100
AcDbLine
 62
7
  6
CONTINUOUS
 10
568.9902306085
 20
356.7177211723
 11
568.9903114465
 21
356.8875076378
  0
LINE
  5
445
100
AcDbEntity
  8
0
100
AcDbLine
 62
7
  6
CONTINUOUS
 10
570.4540224836
 20
565.0118074199
 11
570.4541033216
 21
565.1815938854
  0
LINE
  5
446
100
AcDbEntity
  8
0
100
AcDbLine
 62
7
  6
CONTINUOUS
 10
570.4540224836
 20
358.0118074199
 11
570.4541033216
 21
358.1815938854
  0
LINE
  5
447
100
AcDbEntity
  8
0
100
AcDbLine
 62
7
  6
CONTINUOUS
 10
568.9053299993
 20
565.2664944946
 11
568.8998875665
 21
565.1108735734
  0
LINE
  5
448
100
AcDbEntity
  8
0
100
AcDbLine
 62
7
  6
CONTINUOUS
 10
570.5444463636
 20
563.7884414843
 11
570.5390039308
 21
563.6328205631
  0
LINE
  5
449
100
AcDbEntity
  8
0
100
AcDbLine
 62
7
  6
CONTINUOUS
 10
568.9053299993
 20
358.2664944946
 11
568.8998875665
 21
358.1108735734
  0
LINE
  5
44A
100
AcDbEntity
  8
0
100
AcDbLine
 62
7
  6
CONTINUOUS
 10
570.5444463636
 20
356.7884414843
 11
570.5390039308
 21
356.6328205631
  0
LINE
  5
44B
100
AcDbEntity
  8
0
100
AcDbLine
 62
7
  6
CONTINUOUS
 10
630.160017074
 20
521.6815130474
 11
630.2071669651
 21
521.7286629384
  0
LINE
  5
44C
100
AcDbEntity
  8
0
100
AcDbLine
 62
7
  6
CONTINUOUS
 10
629.9431615555
 20
521.4646575288
 11
629.9903114465
 21
521.5118074199
  0
LINE
  5
44D
100
AcDbEntity
  8
0
100
AcDbLine
 62
7
  6
CONTINUOUS
 10
631.3747590405
 20
521.7719552318
 11
631.2843168561
 21
521.6815130474
  0
LINE
  5
44E
100
AcDbEntity
  8
0
100
AcDbLine
 62
7
  6
CONTINUOUS
 10
629.8998692621
 20
520.2970654534
 11
629.9903114465
 21
520.3875076378
  0
LINE
  5
44F
100
AcDbEntity
  8
0
100
AcDbLine
 62
7
  6
CONTINUOUS
 10
629.4771142553
 20
519.7046048191
 11
629.9902306085
 21
520.2177211723
  0
LINE
  5
450
100
AcDbEntity
  8
0
100
AcDbLine
 62
7
  6
CONTINUOUS
 10
631.4541033216
 20
521.6815938854
 11
631.9672196748
 21
522.1947102386
  0
LINE
  5
451
100
AcDbEntity
  8
0
100
AcDbLine
 62
7
  6
CONTINUOUS
 10
631.544464668
 20
521.6022496043
 11
631.4540224836
 21
521.5118074199
  0
LINE
  5
452
100
AcDbEntity
  8
0
100
AcDbLine
 62
7
  6
CONTINUOUS
 10
630.0695748896
 20
520.1273598259
 11
630.160017074
 21
520.2178020103
  0
LINE
  5
453
100
AcDbEntity
  8
0
100
AcDbLine
 62
7
  6
CONTINUOUS
 10
631.5011723746
 20
520.4346575288
 11
631.4540224836
 21
520.3875076378
  0
LINE
  5
454
100
AcDbEntity
  8
0
100
AcDbLine
 62
7
  6
CONTINUOUS
 10
631.2843168561
 20
520.2178020103
 11
631.2371669651
 21
520.1706521193
  0
LINE
  5
455
100
AcDbEntity
  8
0
100
AcDbLine
 62
7
  6
CONTINUOUS
 10
686.5221669651
 20
711.9496575288
 11
92.9221669651
 21
711.9496575288
  0
LINE
  5
456
100
AcDbEntity
  8
0
100
AcDbLine
 62
7
  6
CONTINUOUS
 10
672.9352639692
 20
713.4496575288
 11
685.4221669651
 21
713.4496575288
  0
LINE
  5
457
100
AcDbEntity
  8
0
100
AcDbLine
 62
7
  6
CONTINUOUS
 10
677.9415751285
 20
713.9779418001
 11
683.8347321111
 21
713.9779418001
  0
LINE
  5
458
100
AcDbEntity
  8
0
100
AcDbLine
 62
7
  6
CONTINUOUS
 10
683.834299407
 20
714.1496575288
 11
677.9415751285
 21
714.1496575288
  0
LINE
  5
459
100
AcDbEntity
  8
0
100
AcDbLine
 62
7
  6
CONTINUOUS
 10
669.0071539862
 20
714.3312755196
 11
110.4371799439
 21
714.3312755196
  0
LINE
  5
45A
100
AcDbEntity
  8
0
100
AcDbLine
 62
7
  6
CONTINUOUS
 10
685.4312608634
 20
718.1599541403
 11
93.6142797548
 21
718.1599541402
  0
LINE
  5
45B
100
AcDbEntity
  8
0
100
AcDbLine
 62
7
  6
CONTINUOUS
 10
687.5227703091
 20
719.4599541403
 11
91.5227703091
 21
719.4599541402
  0
LINE
  5
45C
100
AcDbEntity
  8
0
100
AcDbLine
 62
7
  6
CONTINUOUS
 10
100.1873512477
 20
735.7599541402
 11
678.8581893705
 21
735.7599541403
  0
LWPOLYLINE
  5
45D
100
AcDbEntity
  8
0
100
AcDbPolyline
 62
7
  6
CONTINUOUS
 90
3
 70
0
 10
153.9773208943
 20
744.1254055673
 10
153.9595826403
 20
744.1269625531
 10
153.8918457194
 20
744.1182053487
  0
LINE
  5
45E
100
AcDbEntity
  8
0
100
AcDbLine
 62
7
  6
CONTINUOUS
 10
676.7660532158
 20
738.1599541403
 11
102.2794874024
 21
738.1599541402
  0
LINE
  5
45F
100
AcDbEntity
  8
0
100
AcDbLine
 62
7
  6
CONTINUOUS
 10
129.901932021
 20
738.9985694241
 11
153.1436088968
 21
738.9985694241
  0
LINE
  5
460
100
AcDbEntity
  8
0
100
AcDbLine
 62
7
  6
CONTINUOUS
 10
153.0640647084
 20
739.7410213322
 11
129.9814828543
 21
739.7410213322
  0
LINE
  5
461
100
AcDbEntity
  8
0
100
AcDbLine
 62
7
  6
CONTINUOUS
 10
125.5974867234
 20
740.2995523051
 11
126.9548589501
 21
740.2995523051
  0
LINE
  5
462
100
AcDbEntity
  8
0
100
AcDbLine
 62
7
  6
CONTINUOUS
 10
156.090681668
 20
740.2995523051
 11
157.4480538947
 21
740.2995523051
  0
LINE
  5
463
100
AcDbEntity
  8
0
100
AcDbLine
 62
7
  6
CONTINUOUS
 10
629.9037863519
 20
400.1312769156
 11
629.8999967369
 21
400.239637165
  0
LINE
  5
464
100
AcDbEntity
  8
0
100
AcDbLine
 62
7
  6
CONTINUOUS
 10
631.5405475783
 20
401.768038142
 11
631.5443371932
 21
401.6596778927
  0
LINE
  5
465
100
AcDbEntity
  8
0
100
AcDbLine
 62
7
  6
CONTINUOUS
 10
629.9037863519
 20
520.1312769156
 11
629.8999967369
 21
520.239637165
  0
LINE
  5
466
100
AcDbEntity
  8
0
100
AcDbLine
 62
7
  6
CONTINUOUS
 10
631.5405475783
 20
521.768038142
 11
631.5443371932
 21
521.6596778927
  0
LINE
  5
467
100
AcDbEntity
  8
0
100
AcDbLine
 62
7
  6
CONTINUOUS
 10
629.9902306085
 20
401.6815938854
 11
629.9903114465
 21
401.5118074199
  0
LINE
  5
468
100
AcDbEntity
  8
0
100
AcDbLine
 62
7
  6
CONTINUOUS
 10
629.9902306085
 20
521.6815938854
 11
629.9903114465
 21
521.5118074199
  0
LINE
  5
469
100
AcDbEntity
  8
0
100
AcDbLine
 62
7
  6
CONTINUOUS
 10
631.4540224836
 20
400.3875076378
 11
631.4541033216
 21
400.2177211723
  0
LINE
  5
46A
100
AcDbEntity
  8
0
100
AcDbLine
 62
7
  6
CONTINUOUS
 10
631.4540224836
 20
520.3875076378
 11
631.4541033216
 21
520.2177211723
  0
LINE
  5
46B
100
AcDbEntity
  8
0
100
AcDbLine
 62
7
  6
CONTINUOUS
 10
614.4721669651
 20
350.0677381021
 11
614.4721669651
 21
347.0214582665
  0
LINE
  5
46C
100
AcDbEntity
  8
0
100
AcDbLine
 62
7
  6
CONTINUOUS
 10
614.472166964
 20
571.8315769555
 11
614.4721669584
 21
574.8778567912
  0
LINE
  5
46D
100
AcDbEntity
  8
0
100
AcDbLine
 62
7
  6
CONTINUOUS
 10
615.4721669651
 20
576.1996575288
 11
615.4721669651
 21
575.6996575288
  0
LINE
  5
46E
100
AcDbEntity
  8
0
100
AcDbLine
 62
7
  6
CONTINUOUS
 10
615.4721669651
 20
346.1996575288
 11
615.4721669651
 21
345.6996575288
  0
LINE
  5
46F
100
AcDbEntity
  8
0
100
AcDbLine
 62
7
  6
CONTINUOUS
 10
630.2071669651
 20
520.1706521193
 11
630.2071669651
 21
518.3994580214
  0
LINE
  5
470
100
AcDbEntity
  8
0
100
AcDbLine
 62
7
  6
CONTINUOUS
 10
630.2071669651
 20
400.1706521193
 11
630.2071669651
 21
398.3994580214
  0
LINE
  5
471
100
AcDbEntity
  8
0
100
AcDbLine
 62
7
  6
CONTINUOUS
 10
630.2071669651
 20
401.7286629384
 11
630.2071669651
 21
403.4998567984
  0
LINE
  5
472
100
AcDbEntity
  8
0
100
AcDbLine
 62
7
  6
CONTINUOUS
 10
630.2071669651
 20
521.7286629384
 11
630.2071669651
 21
523.4998567984
  0
LINE
  5
473
100
AcDbEntity
  8
0
100
AcDbLine
 62
7
  6
CONTINUOUS
 10
631.2371669651
 20
523.4998568371
 11
631.2371669651
 21
521.7286629384
  0
LINE
  5
474
100
AcDbEntity
  8
0
100
AcDbLine
 62
7
  6
CONTINUOUS
 10
631.2371669651
 20
403.4998568371
 11
631.2371669651
 21
401.7286629384
  0
LINE
  5
475
100
AcDbEntity
  8
0
100
AcDbLine
 62
7
  6
CONTINUOUS
 10
631.2371669651
 20
398.399458371
 11
631.2371669651
 21
400.1706521193
  0
LINE
  5
476
100
AcDbEntity
  8
0
100
AcDbLine
 62
7
  6
CONTINUOUS
 10
631.2371669651
 20
518.399458371
 11
631.2371669651
 21
520.1706521193
  0
LINE
  5
477
100
AcDbEntity
  8
0
100
AcDbLine
 62
7
  6
CONTINUOUS
 10
629.9902306085
 20
520.2177211723
 11
629.9903114465
 21
520.3875076378
  0
LINE
  5
478
100
AcDbEntity
  8
0
100
AcDbLine
 62
7
  6
CONTINUOUS
 10
629.9902306085
 20
400.2177211723
 11
629.9903114465
 21
400.3875076378
  0
LINE
  5
479
100
AcDbEntity
  8
0
100
AcDbLine
 62
7
  6
CONTINUOUS
 10
631.4540224836
 20
521.5118074199
 11
631.4541033216
 21
521.6815938854
  0
LINE
  5
47A
100
AcDbEntity
  8
0
100
AcDbLine
 62
7
  6
CONTINUOUS
 10
631.4540224836
 20
401.5118074199
 11
631.4541033216
 21
401.6815938854
  0
LINE
  5
47B
100
AcDbEntity
  8
0
100
AcDbLine
 62
7
  6
CONTINUOUS
 10
629.9053299993
 20
521.7664944946
 11
629.8998875665
 21
521.6108735734
  0
LINE
  5
47C
100
AcDbEntity
  8
0
100
AcDbLine
 62
7
  6
CONTINUOUS
 10
631.5444463636
 20
520.2884414843
 11
631.5390039308
 21
520.1328205631
  0
LINE
  5
47D
100
AcDbEntity
  8
0
100
AcDbLine
 62
7
  6
CONTINUOUS
 10
629.9053299993
 20
401.7664944946
 11
629.8998875665
 21
401.6108735734
  0
LINE
  5
47E
100
AcDbEntity
  8
0
100
AcDbLine
 62
7
  6
CONTINUOUS
 10
669.0071539862
 20
714.3312755196
 11
669.7513737201
 21
718.1599541403
  0
LINE
  5
47F
100
AcDbEntity
  8
0
100
AcDbLine
 62
7
  6
CONTINUOUS
 10
670.9293263402
 20
718.1599541403
 11
670.1851066063
 21
714.3312755196
  0
LINE
  5
480
100
AcDbEntity
  8
0
100
AcDbLine
 62
7
  6
CONTINUOUS
 10
671.1096808341
 20
718.1599541403
 11
670.4811960105
 21
714.9266800173
  0
LINE
  5
481
100
AcDbEntity
  8
0
100
AcDbLine
 62
7
  6
CONTINUOUS
 10
671.9536367857
 20
714.6404665242
 11
672.6377558765
 21
718.1599541403
  0
LINE
  5
482
100
AcDbEntity
  8
0
100
AcDbLine
 62
7
  6
CONTINUOUS
 10
677.5907148459
 20
713.4496575288
 11
677.749270339
 21
714.0046017544
  0
LINE
  5
483
100
AcDbEntity
  8
0
100
AcDbLine
 62
7
  6
CONTINUOUS
 10
677.9415751285
 20
713.9779418001
 11
677.7906367653
 21
713.4496575288
  0
LINE
  5
484
100
AcDbEntity
  8
0
100
AcDbLine
 62
7
  6
CONTINUOUS
 10
110.4371799439
 20
714.5602463141
 11
109.2592273238
 21
714.3312755196
  0
LINE
  5
485
100
AcDbEntity
  8
0
100
AcDbLine
 62
7
  6
CONTINUOUS
 10
670.1851066063
 20
714.3312755196
 11
669.0071539862
 21
714.5602463141
  0
LINE
  5
486
100
AcDbEntity
  8
0
100
AcDbLine
 62
7
  6
CONTINUOUS
 10
637.2221669651
 20
545.9496575288
 11
637.2221669651
 21
375.9496575288
  0
LINE
  5
487
100
AcDbEntity
  8
0
100
AcDbLine
 62
7
  6
CONTINUOUS
 10
638.1040863918
 20
548.1996575288
 11
638.1040863918
 21
373.6996575288
  0
LINE
  5
488
100
AcDbEntity
  8
0
100
AcDbLine
 62
7
  6
CONTINUOUS
 10
639.0888941445
 20
373.6996575395
 11
639.0888941445
 21
548.1996575217
  0
LINE
  5
489
100
AcDbEntity
  8
0
100
AcDbLine
 62
7
  6
CONTINUOUS
 10
639.1807507216
 20
548.199657522
 11
639.1807507215
 21
373.699657534
  0
LINE
  5
48A
100
AcDbEntity
  8
0
100
AcDbLine
 62
7
  6
CONTINUOUS
 10
641.1503662275
 20
373.6996575296
 11
641.1503662275
 21
548.1996575281
  0
LINE
  5
48B
100
AcDbEntity
  8
0
100
AcDbLine
 62
7
  6
CONTINUOUS
 10
641.9721669651
 20
372.6996575288
 11
641.9721669651
 21
549.1996575288
  0
LINE
  5
48C
100
AcDbEntity
  8
0
100
AcDbLine
 62
7
  6
CONTINUOUS
 10
642.4721669651
 20
372.6996575288
 11
642.4721669651
 21
549.1996575288
  0
LINE
  5
48D
100
AcDbEntity
  8
0
100
AcDbLine
 62
7
  6
CONTINUOUS
 10
631.5444463636
 20
400.2884414843
 11
631.5390039308
 21
400.1328205631
  0
LINE
  5
48E
100
AcDbEntity
  8
0
100
AcDbLine
 62
7
  6
CONTINUOUS
 10
569.160017074
 20
358.1815130474
 11
569.2071669651
 21
358.2286629384
  0
LINE
  5
48F
100
AcDbEntity
  8
0
100
AcDbLine
 62
7
  6
CONTINUOUS
 10
568.9431615555
 20
357.9646575288
 11
568.9903114465
 21
358.0118074199
  0
LINE
  5
490
100
AcDbEntity
  8
0
100
AcDbLine
 62
7
  6
CONTINUOUS
 10
570.3747590405
 20
358.2719552318
 11
570.2843168561
 21
358.1815130474
  0
LINE
  5
491
100
AcDbEntity
  8
0
100
AcDbLine
 62
7
  6
CONTINUOUS
 10
568.8998692621
 20
356.7970654534
 11
568.9903114465
 21
356.8875076378
  0
LINE
  5
492
100
AcDbEntity
  8
0
100
AcDbLine
 62
7
  6
CONTINUOUS
 10
568.4771142553
 20
356.2046048191
 11
568.9902306085
 21
356.7177211723
  0
LINE
  5
493
100
AcDbEntity
  8
0
100
AcDbLine
 62
7
  6
CONTINUOUS
 10
570.4541033216
 20
358.1815938854
 11
570.9672196748
 21
358.6947102386
  0
LINE
  5
494
100
AcDbEntity
  8
0
100
AcDbLine
 62
7
  6
CONTINUOUS
 10
570.544464668
 20
358.1022496043
 11
570.4540224836
 21
358.0118074199
  0
LINE
  5
495
100
AcDbEntity
  8
0
100
AcDbLine
 62
7
  6
CONTINUOUS
 10
569.0695748896
 20
356.6273598259
 11
569.160017074
 21
356.7178020103
  0
LINE
  5
496
100
AcDbEntity
  8
0
100
AcDbLine
 62
7
  6
CONTINUOUS
 10
570.5011723746
 20
356.9346575288
 11
570.4540224836
 21
356.8875076378
  0
LINE
  5
497
100
AcDbEntity
  8
0
100
AcDbLine
 62
7
  6
CONTINUOUS
 10
570.2843168561
 20
356.7178020103
 11
570.2371669651
 21
356.6706521193
  0
LINE
  5
498
100
AcDbEntity
  8
0
100
AcDbLine
 62
7
  6
CONTINUOUS
 10
630.160017074
 20
401.6815130474
 11
630.2071669651
 21
401.7286629384
  0
LINE
  5
499
100
AcDbEntity
  8
0
100
AcDbLine
 62
7
  6
CONTINUOUS
 10
629.9431615555
 20
401.4646575288
 11
629.9903114465
 21
401.5118074199
  0
LINE
  5
49A
100
AcDbEntity
  8
0
100
AcDbLine
 62
7
  6
CONTINUOUS
 10
631.3747590405
 20
401.7719552318
 11
631.2843168561
 21
401.6815130474
  0
LINE
  5
49B
100
AcDbEntity
  8
0
100
AcDbLine
 62
7
  6
CONTINUOUS
 10
629.8998692621
 20
400.2970654534
 11
629.9903114465
 21
400.3875076378
  0
LINE
  5
49C
100
AcDbEntity
  8
0
100
AcDbLine
 62
7
  6
CONTINUOUS
 10
629.4771142553
 20
399.7046048191
 11
629.9902306085
 21
400.2177211723
  0
LINE
  5
49D
100
AcDbEntity
  8
0
100
AcDbLine
 62
7
  6
CONTINUOUS
 10
631.4541033216
 20
401.6815938854
 11
631.9672196748
 21
402.1947102386
  0
LINE
  5
49E
100
AcDbEntity
  8
0
100
AcDbLine
 62
7
  6
CONTINUOUS
 10
631.544464668
 20
401.6022496043
 11
631.4540224836
 21
401.5118074199
  0
LINE
  5
49F
100
AcDbEntity
  8
0
100
AcDbLine
 62
7
  6
CONTINUOUS
 10
630.0695748896
 20
400.1273598259
 11
630.160017074
 21
400.2178020103
  0
LINE
  5
4A0
100
AcDbEntity
  8
0
100
AcDbLine
 62
7
  6
CONTINUOUS
 10
631.5011723746
 20
400.4346575288
 11
631.4540224836
 21
400.3875076378
  0
LINE
  5
4A1
100
AcDbEntity
  8
0
100
AcDbLine
 62
7
  6
CONTINUOUS
 10
631.2843168561
 20
400.2178020103
 11
631.2371669651
 21
400.1706521193
  0
LINE
  5
4A2
100
AcDbEntity
  8
0
100
AcDbLine
 62
7
  6
CONTINUOUS
 10
661.2221669651
 20
334.9496575288
 11
661.2221669651
 21
334.7496575288
  0
LINE
  5
4A3
100
AcDbEntity
  8
0
100
AcDbLine
 62
7
  6
CONTINUOUS
 10
674.2221669651
 20
334.9496575288
 11
674.2221669651
 21
334.7496575288
  0
LINE
  5
4A4
100
AcDbEntity
  8
0
100
AcDbLine
 62
7
  6
CONTINUOUS
 10
677.9415751285
 20
713.9779418001
 11
677.9415751285
 21
714.1496575288
  0
LINE
  5
4A5
100
AcDbEntity
  8
0
100
AcDbLine
 62
7
  6
CONTINUOUS
 10
683.8342994076
 20
714.1496575288
 11
683.8342994076
 21
713.9779418001
  0
LINE
  5
4A6
100
AcDbEntity
  8
0
100
AcDbLine
 62
7
  6
CONTINUOUS
 10
685.2221669651
 20
713.4496575288
 11
685.2221669651
 21
711.9496575288
  0
LINE
  5
4A7
100
AcDbEntity
  8
0
100
AcDbLine
 62
7
  6
CONTINUOUS
 10
686.3227703091
 20
719.4599541403
 11
686.3227703091
 21
729.9085178368
  0
LINE
  5
4A8
100
AcDbEntity
  8
0
100
AcDbLine
 62
7
  6
CONTINUOUS
 10
687.2221669651
 20
711.9496575288
 11
687.2221669651
 21
712.4496575288
  0
LINE
  5
4A9
100
AcDbEntity
  8
0
100
AcDbLine
 62
7
  6
CONTINUOUS
 10
687.5227703091
 20
719.4599541403
 11
687.5227703091
 21
729.9085178368
  0
LINE
  5
4AA
100
AcDbEntity
  8
0
100
AcDbLine
 62
7
  6
CONTINUOUS
 10
688.5221669651
 20
708.7496575288
 11
688.5221669651
 21
337.3496575288
  0
LINE
  5
4AB
100
AcDbEntity
  8
0
100
AcDbLine
 62
7
  6
CONTINUOUS
 10
689.7221669651
 20
708.7496575288
 11
689.7221669651
 21
337.3496575288
  0
LINE
  5
4AC
100
AcDbEntity
  8
0
100
AcDbLine
 62
7
  6
CONTINUOUS
 10
685.8110620327
 20
730.89150029
 11
678.8581893705
 21
735.7599541403
  0
LINE
  5
4AD
100
AcDbEntity
  8
0
100
AcDbLine
 62
7
  6
CONTINUOUS
 10
686.4993537563
 20
731.8744827431
 11
678.142636663
 21
737.7259190465
  0
LINE
  5
4AE
100
AcDbEntity
  8
0
100
AcDbLine
 62
7
  6
CONTINUOUS
 10
685.1143760689
 20
713.4496575288
 11
685.0199397501
 21
713.5322893078
  0
LINE
  5
4AF
100
AcDbEntity
  8
0
100
AcDbLine
 62
7
  6
CONTINUOUS
 10
685.1513086229
 20
713.6548109182
 11
685.3857696392
 21
713.4496575288
  0
LINE
  5
4B0
100
AcDbEntity
  8
0
100
AcDbLine
 62
7
  6
CONTINUOUS
 10
686.3227703091
 20
729.9085178368
 11
685.8110620327
 21
730.89150029
  0
ARC
  5
4B1
100
AcDbEntity
  8
0
100
AcDbCircle
 62
7
  6
CONTINUOUS
 10
111.7221669651
 20
355.3746575288
 40
21.625
100
AcDbArc
 50
252.5076754749
 51
287.4923245251
  0
ARC
  5
4B2
100
AcDbEntity
  8
0
100
AcDbCircle
 62
7
  6
CONTINUOUS
 10
92.1221669651
 20
337.3496575288
 40
2.4
100
AcDbArc
 50
180.0
 51
270.0
  0
ARC
  5
4B3
100
AcDbEntity
  8
0
100
AcDbCircle
 62
7
  6
CONTINUOUS
 10
140.4120414247
 20
392.7035223709
 40
11.863471627
100
AcDbArc
 50
49.8534694092
 51
54.3146497659
  0
ARC
  5
4B4
100
AcDbEntity
  8
0
100
AcDbCircle
 62
7
  6
CONTINUOUS
 10
140.4763436898
 20
392.6397749219
 40
11.8630765945
100
AcDbArc
 50
35.6852759194
 51
40.1466049055
  0
ARC
  5
4B5
100
AcDbEntity
  8
0
100
AcDbCircle
 62
7
  6
CONTINUOUS
 10
140.4305107105
 20
409.2977621936
 40
11.8912642282
100
AcDbArc
 50
320.0344157591
 51
323.3208297367
  0
ARC
  5
4B6
100
AcDbEntity
  8
0
100
AcDbCircle
 62
7
  6
CONTINUOUS
 10
140.4323114047
 20
409.1676168196
 40
11.7973659486
100
AcDbArc
 50
306.666087925
 51
309.9786665792
  0
ARC
  5
4B7
100
AcDbEntity
  8
0
100
AcDbCircle
 62
7
  6
CONTINUOUS
 10
148.7221671197
 20
400.7372960658
 40
2.3938857585
100
AcDbArc
 50
257.576759711
 51
282.4232327053
  0
ARC
  5
4B8
100
AcDbEntity
  8
0
100
AcDbCircle
 62
7
  6
CONTINUOUS
 10
148.7221670858
 20
400.7620703654
 40
2.172304673
100
AcDbArc
 50
256.2860055781
 51
283.713988487
  0
CIRCLE
  5
4B9
100
AcDbEntity
  8
0
100
AcDbCircle
 62
7
  6
CONTINUOUS
 10
148.7221669651
 20
400.9496575288
 40
4.75
  0
ARC
  5
4BA
100
AcDbEntity
  8
0
100
AcDbCircle
 62
7
  6
CONTINUOUS
 10
148.7221807307
 20
400.9469500428
 40
4.6689496232
100
AcDbArc
 50
179.9667746396
 51
180.2815904105
  0
ARC
  5
4BB
100
AcDbEntity
  8
0
100
AcDbCircle
 62
7
  6
CONTINUOUS
 10
148.7221669651
 20
400.9496575288
 40
4.6689421051
100
AcDbArc
 50
180.3148161975
 51
180.0
  0
ARC
  5
4BC
100
AcDbEntity
  8
0
100
AcDbCircle
 62
7
  6
CONTINUOUS
 10
148.5177325113
 20
400.9504791448
 40
2.40180841
100
AcDbArc
 50
180.019599868
 51
192.4016731518
  0
ARC
  5
4BD
100
AcDbEntity
  8
0
100
AcDbCircle
 62
7
  6
CONTINUOUS
 10
148.5177156897
 20
400.9488379416
 40
2.4017915876
100
AcDbArc
 50
167.5982881565
 51
179.9804483915
  0
ARC
  5
4BE
100
AcDbEntity
  8
0
100
AcDbCircle
 62
7
  6
CONTINUOUS
 10
148.5430736448
 20
400.9506941006
 40
2.1808013901
100
AcDbArc
 50
180.0272336482
 51
193.6875455161
  0
ARC
  5
4BF
100
AcDbEntity
  8
0
100
AcDbCircle
 62
7
  6
CONTINUOUS
 10
148.5430531664
 20
400.9486229439
 40
2.1807810223
100
AcDbArc
 50
166.3123781982
 51
179.9728182924
  0
ARC
  5
4C0
100
AcDbEntity
  8
0
100
AcDbCircle
 62
7
  6
CONTINUOUS
 10
148.7221827305
 20
400.9496575288
 40
1.1699888785
100
AcDbArc
 50
153.8855515291
 51
206.1144484708
  0
ARC
  5
4C1
100
AcDbEntity
  8
0
100
AcDbCircle
 62
7
  6
CONTINUOUS
 10
148.7221511996
 20
400.9496575288
 40
1.1699888785
100
AcDbArc
 50
333.8855515292
 51
26.1144484708
  0
ARC
  5
4C2
100
AcDbEntity
  8
0
100
AcDbCircle
 62
7
  6
CONTINUOUS
 10
148.7221669651
 20
400.9496740593
 40
1.1699883389
100
AcDbArc
 50
243.8855680188
 51
296.1144319812
  0
ARC
  5
4C3
100
AcDbEntity
  8
0
100
AcDbCircle
 62
7
  6
CONTINUOUS
 10
148.7221669651
 20
400.9496409984
 40
1.1699883389
100
AcDbArc
 50
63.8855680186
 51
116.1144319814
  0
ARC
  5
4C4
100
AcDbEntity
  8
0
100
AcDbCircle
 62
7
  6
CONTINUOUS
 10
148.926613414
 20
400.9488248075
 40
2.4017964186
100
AcDbArc
 50
0.0198648888
 51
12.4020073073
  0
ARC
  5
4C5
100
AcDbEntity
  8
0
100
AcDbCircle
 62
7
  6
CONTINUOUS
 10
148.9269954446
 20
400.9504378571
 40
2.4014143704
100
AcDbArc
 50
347.5972681399
 51
359.9813820073
  0
ARC
  5
4C6
100
AcDbEntity
  8
0
100
AcDbCircle
 62
7
  6
CONTINUOUS
 10
148.9013932744
 20
400.9486348446
 40
2.1806698601
100
AcDbArc
 50
0.0268704084
 51
13.6880163366
  0
ARC
  5
4C7
100
AcDbEntity
  8
0
100
AcDbCircle
 62
7
  6
CONTINUOUS
 10
148.9018595573
 20
400.9506256689
 40
2.1802035809
100
AcDbArc
 50
346.310475677
 51
359.9745572644
  0
ARC
  5
4C8
100
AcDbEntity
  8
0
100
AcDbCircle
 62
7
  6
CONTINUOUS
 10
148.7221668075
 20
401.1620198162
 40
2.3938849576
100
AcDbArc
 50
77.576755418
 51
102.4232368574
  0
ARC
  5
4C9
100
AcDbEntity
  8
0
100
AcDbCircle
 62
7
  6
CONTINUOUS
 10
148.7221668431
 20
401.1372454912
 40
2.1723039023
100
AcDbArc
 50
76.2860005535
 51
103.7139934443
  0
ARC
  5
4CA
100
AcDbEntity
  8
0
100
AcDbCircle
 62
7
  6
CONTINUOUS
 10
163.9721669651
 20
372.6996575288
 40
27.0
100
AcDbArc
 50
180.0
 51
270.0
  0
ARC
  5
4CB
100
AcDbEntity
  8
0
100
AcDbCircle
 62
7
  6
CONTINUOUS
 10
164.9721669651
 20
373.6996575288
 40
26.6781992623
100
AcDbArc
 50
179.9999999983
 51
270.0000000007
  0
ARC
  5
4CC
100
AcDbEntity
  8
0
100
AcDbCircle
 62
7
  6
CONTINUOUS
 10
163.9721669651
 20
372.6996575288
 40
26.5
100
AcDbArc
 50
180.0
 51
270.0
  0
ARC
  5
4CD
100
AcDbEntity
  8
0
100
AcDbCircle
 62
7
  6
CONTINUOUS
 10
167.2221669651
 20
375.9496575288
 40
25.0
100
AcDbArc
 50
180.0
 51
270.0
  0
ARC
  5
4CE
100
AcDbEntity
  8
0
100
AcDbCircle
 62
7
  6
CONTINUOUS
 10
164.9721669651
 20
373.6996575288
 40
24.7085837563
100
AcDbArc
 50
179.9999999837
 51
270.0
  0
ARC
  5
4CF
100
AcDbEntity
  8
0
100
AcDbCircle
 62
7
  6
CONTINUOUS
 10
164.9721669651
 20
373.6996575288
 40
24.6167271797
100
AcDbArc
 50
179.9999999837
 51
270.0
  0
ARC
  5
4D0
100
AcDbEntity
  8
0
100
AcDbCircle
 62
7
  6
CONTINUOUS
 10
164.9721669651
 20
373.6996575288
 40
23.6319194267
100
AcDbArc
 50
180.0
 51
270.0
  0
ARC
  5
4D1
100
AcDbEntity
  8
0
100
AcDbCircle
 62
7
  6
CONTINUOUS
 10
201.4120414248
 20
349.203522371
 40
11.8634716269
100
AcDbArc
 50
49.8534694092
 51
54.3146497659
  0
ARC
  5
4D2
100
AcDbEntity
  8
0
100
AcDbCircle
 62
7
  6
CONTINUOUS
 10
201.4763436898
 20
349.1397749219
 40
11.8630765944
100
AcDbArc
 50
35.6852759194
 51
40.1466049055
  0
ARC
  5
4D3
100
AcDbEntity
  8
0
100
AcDbCircle
 62
7
  6
CONTINUOUS
 10
209.5177325113
 20
357.4504791448
 40
2.40180841
100
AcDbArc
 50
180.019599868
 51
192.4016731518
  0
ARC
  5
4D4
100
AcDbEntity
  8
0
100
AcDbCircle
 62
7
  6
CONTINUOUS
 10
209.5177156897
 20
357.4488379416
 40
2.4017915876
100
AcDbArc
 50
167.5982881565
 51
179.9804483915
  0
ARC
  5
4D5
100
AcDbEntity
  8
0
100
AcDbCircle
 62
7
  6
CONTINUOUS
 10
209.5430736448
 20
357.4506941006
 40
2.1808013901
100
AcDbArc
 50
180.0272336482
 51
193.6875455161
  0
ARC
  5
4D6
100
AcDbEntity
  8
0
100
AcDbCircle
 62
7
  6
CONTINUOUS
 10
209.5430531664
 20
357.4486229439
 40
2.1807810223
100
AcDbArc
 50
166.3123781983
 51
179.9728182923
  0
ARC
  5
4D7
100
AcDbEntity
  8
0
100
AcDbCircle
 62
7
  6
CONTINUOUS
 10
218.0138232197
 20
349.101552864
 40
11.8912642283
100
AcDbArc
 50
140.0344157591
 51
143.3208297367
  0
ARC
  5
4D8
100
AcDbEntity
  8
0
100
AcDbCircle
 62
7
  6
CONTINUOUS
 10
218.0120225256
 20
349.2316982379
 40
11.7973659488
100
AcDbArc
 50
126.666087925
 51
129.9786665792
  0
CIRCLE
  5
4D9
100
AcDbEntity
  8
0
100
AcDbCircle
 62
7
  6
CONTINUOUS
 10
209.7221669651
 20
357.4496575288
 40
4.75
  0
ARC
  5
4DA
100
AcDbEntity
  8
0
100
AcDbCircle
 62
7
  6
CONTINUOUS
 10
209.7221807307
 20
357.4469500428
 40
4.6689496232
100
AcDbArc
 50
179.9667746396
 51
180.2815904105
  0
ARC
  5
4DB
100
AcDbEntity
  8
0
100
AcDbCircle
 62
7
  6
CONTINUOUS
 10
209.7221669651
 20
357.4496575288
 40
4.6689421051
100
AcDbArc
 50
180.3148161975
 51
180.0
  0
ARC
  5
4DC
100
AcDbEntity
  8
0
100
AcDbCircle
 62
7
  6
CONTINUOUS
 10
209.926613414
 20
357.4488248075
 40
2.4017964186
100
AcDbArc
 50
0.0198648888
 51
12.4020073073
  0
ARC
  5
4DD
100
AcDbEntity
  8
0
100
AcDbCircle
 62
7
  6
CONTINUOUS
 10
209.9269954446
 20
357.4504378571
 40
2.4014143704
100
AcDbArc
 50
347.5972681399
 51
359.9813820074
  0
ARC
  5
4DE
100
AcDbEntity
  8
0
100
AcDbCircle
 62
7
  6
CONTINUOUS
 10
209.7221671197
 20
357.2372960658
 40
2.3938857585
100
AcDbArc
 50
257.576759711
 51
282.4232327053
  0
ARC
  5
4DF
100
AcDbEntity
  8
0
100
AcDbCircle
 62
7
  6
CONTINUOUS
 10
209.7221668075
 20
357.6620198162
 40
2.3938849576
100
AcDbArc
 50
77.576755418
 51
102.4232368575
  0
ARC
  5
4E0
100
AcDbEntity
  8
0
100
AcDbCircle
 62
7
  6
CONTINUOUS
 10
209.9013932744
 20
357.4486348446
 40
2.1806698601
100
AcDbArc
 50
0.0268704085
 51
13.6880163365
  0
ARC
  5
4E1
100
AcDbEntity
  8
0
100
AcDbCircle
 62
7
  6
CONTINUOUS
 10
209.9018595572
 20
357.4506256689
 40
2.180203581
100
AcDbArc
 50
346.3104756771
 51
359.9745572643
  0
ARC
  5
4E2
100
AcDbEntity
  8
0
100
AcDbCircle
 62
7
  6
CONTINUOUS
 10
209.7221670858
 20
357.2620703654
 40
2.172304673
100
AcDbArc
 50
256.2860055781
 51
283.713988487
  0
ARC
  5
4E3
100
AcDbEntity
  8
0
100
AcDbCircle
 62
7
  6
CONTINUOUS
 10
209.7221668431
 20
357.6372454912
 40
2.1723039023
100
AcDbArc
 50
76.2860005536
 51
103.7139934443
  0
ARC
  5
4E4
100
AcDbEntity
  8
0
100
AcDbCircle
 62
7
  6
CONTINUOUS
 10
209.7221827305
 20
357.4496575288
 40
1.1699888785
100
AcDbArc
 50
153.8855515292
 51
206.1144484708
  0
ARC
  5
4E5
100
AcDbEntity
  8
0
100
AcDbCircle
 62
7
  6
CONTINUOUS
 10
209.7221511996
 20
357.4496575288
 40
1.1699888785
100
AcDbArc
 50
333.8855515292
 51
26.1144484708
  0
ARC
  5
4E6
100
AcDbEntity
  8
0
100
AcDbCircle
 62
7
  6
CONTINUOUS
 10
209.7221669651
 20
357.4496740593
 40
1.1699883389
100
AcDbArc
 50
243.8855680188
 51
296.1144319812
  0
ARC
  5
4E7
100
AcDbEntity
  8
0
100
AcDbCircle
 62
7
  6
CONTINUOUS
 10
209.7221669651
 20
357.4496409984
 40
1.1699883389
100
AcDbArc
 50
63.8855680186
 51
116.1144319814
  0
ARC
  5
4E8
100
AcDbEntity
  8
0
100
AcDbCircle
 62
7
  6
CONTINUOUS
 10
201.4305107102
 20
365.7977621938
 40
11.8912642286
100
AcDbArc
 50
320.0344157591
 51
323.3208297366
  0
ARC
  5
4E9
100
AcDbEntity
  8
0
100
AcDbCircle
 62
7
  6
CONTINUOUS
 10
218.0322925054
 20
365.6957926868
 40
11.863471627
100
AcDbArc
 50
229.8534694092
 51
234.3146497659
  0
ARC
  5
4EA
100
AcDbEntity
  8
0
100
AcDbCircle
 62
7
  6
CONTINUOUS
 10
201.4323114047
 20
365.6676168196
 40
11.7973659486
100
AcDbArc
 50
306.666087925
 51
309.9786665793
  0
ARC
  5
4EB
100
AcDbEntity
  8
0
100
AcDbCircle
 62
7
  6
CONTINUOUS
 10
217.862359044
 20
365.6772612849
 40
11.7292846323
100
AcDbArc
 50
215.6598184033
 51
220.1720624216
  0
ARC
  5
4EC
100
AcDbEntity
  8
0
100
AcDbCircle
 62
7
  6
CONTINUOUS
 10
157.0138232199
 20
392.601552864
 40
11.8912642285
100
AcDbArc
 50
140.0344157591
 51
143.3208297366
  0
ARC
  5
4ED
100
AcDbEntity
  8
0
100
AcDbCircle
 62
7
  6
CONTINUOUS
 10
157.0322925053
 20
409.1957926866
 40
11.8634716268
100
AcDbArc
 50
229.8534694092
 51
234.3146497659
  0
ARC
  5
4EE
100
AcDbEntity
  8
0
100
AcDbCircle
 62
7
  6
CONTINUOUS
 10
157.0120225255
 20
392.731698238
 40
11.7973659487
100
AcDbArc
 50
126.666087925
 51
129.9786665792
  0
ARC
  5
4EF
100
AcDbEntity
  8
0
100
AcDbCircle
 62
7
  6
CONTINUOUS
 10
156.862359044
 20
409.177261285
 40
11.7292846324
100
AcDbArc
 50
215.6598184033
 51
220.1720624216
  0
CIRCLE
  5
4F0
100
AcDbEntity
  8
0
100
AcDbCircle
 62
7
  6
CONTINUOUS
 10
189.7221669651
 20
423.4496575288
 40
0.8660254038
  0
CIRCLE
  5
4F1
100
AcDbEntity
  8
0
100
AcDbCircle
 62
7
  6
CONTINUOUS
 10
189.7221669651
 20
398.4496575288
 40
0.8660254038
  0
CIRCLE
  5
4F2
100
AcDbEntity
  8
0
100
AcDbCircle
 62
7
  6
CONTINUOUS
 10
214.7221669651
 20
423.4496575288
 40
0.8660254038
  0
CIRCLE
  5
4F3
100
AcDbEntity
  8
0
100
AcDbCircle
 62
7
  6
CONTINUOUS
 10
214.7221669651
 20
398.4496575288
 40
0.8660254038
  0
ARC
  5
4F4
100
AcDbEntity
  8
0
100
AcDbCircle
 62
7
  6
CONTINUOUS
 10
140.4120414247
 20
512.703522371
 40
11.8634716269
100
AcDbArc
 50
49.8534694092
 51
54.3146497659
  0
ARC
  5
4F5
100
AcDbEntity
  8
0
100
AcDbCircle
 62
7
  6
CONTINUOUS
 10
140.4763436898
 20
512.6397749219
 40
11.8630765945
100
AcDbArc
 50
35.6852759194
 51
40.1466049055
  0
ARC
  5
4F6
100
AcDbEntity
  8
0
100
AcDbCircle
 62
7
  6
CONTINUOUS
 10
140.4305107102
 20
529.2977621938
 40
11.8912642286
100
AcDbArc
 50
320.0344157591
 51
323.3208297366
  0
ARC
  5
4F7
100
AcDbEntity
  8
0
100
AcDbCircle
 62
7
  6
CONTINUOUS
 10
140.4323114048
 20
529.1676168195
 40
11.7973659485
100
AcDbArc
 50
306.666087925
 51
309.9786665793
  0
ARC
  5
4F8
100
AcDbEntity
  8
0
100
AcDbCircle
 62
7
  6
CONTINUOUS
 10
148.7221671197
 20
520.7372960658
 40
2.3938857585
100
AcDbArc
 50
257.576759711
 51
282.4232327053
  0
ARC
  5
4F9
100
AcDbEntity
  8
0
100
AcDbCircle
 62
7
  6
CONTINUOUS
 10
148.7221670858
 20
520.7620703654
 40
2.172304673
100
AcDbArc
 50
256.2860055782
 51
283.713988487
  0
CIRCLE
  5
4FA
100
AcDbEntity
  8
0
100
AcDbCircle
 62
7
  6
CONTINUOUS
 10
148.7221669651
 20
520.9496575288
 40
4.75
  0
ARC
  5
4FB
100
AcDbEntity
  8
0
100
AcDbCircle
 62
7
  6
CONTINUOUS
 10
148.7221807403
 20
520.9469500428
 40
4.6689496327
100
AcDbArc
 50
179.9667746398
 51
180.28159041
  0
ARC
  5
4FC
100
AcDbEntity
  8
0
100
AcDbCircle
 62
7
  6
CONTINUOUS
 10
148.7221669651
 20
520.9496575288
 40
4.6689421051
100
AcDbArc
 50
180.3148161975
 51
180.0
  0
ARC
  5
4FD
100
AcDbEntity
  8
0
100
AcDbCircle
 62
7
  6
CONTINUOUS
 10
148.5177325113
 20
520.9504791448
 40
2.40180841
100
AcDbArc
 50
180.019599868
 51
192.4016731518
  0
ARC
  5
4FE
100
AcDbEntity
  8
0
100
AcDbCircle
 62
7
  6
CONTINUOUS
 10
148.5177156897
 20
520.9488379416
 40
2.4017915876
100
AcDbArc
 50
167.5982881565
 51
179.9804483915
  0
ARC
  5
4FF
100
AcDbEntity
  8
0
100
AcDbCircle
 62
7
  6
CONTINUOUS
 10
148.5430736448
 20
520.9506941006
 40
2.1808013901
100
AcDbArc
 50
180.0272336481
 51
193.6875455162
  0
ARC
  5
500
100
AcDbEntity
  8
0
100
AcDbCircle
 62
7
  6
CONTINUOUS
 10
148.5430531664
 20
520.9486229439
 40
2.1807810223
100
AcDbArc
 50
166.3123781982
 51
179.9728182924
  0
ARC
  5
501
100
AcDbEntity
  8
0
100
AcDbCircle
 62
7
  6
CONTINUOUS
 10
148.7221827305
 20
520.9496575288
 40
1.1699888785
100
AcDbArc
 50
153.8855515292
 51
206.1144484708
  0
ARC
  5
502
100
AcDbEntity
  8
0
100
AcDbCircle
 62
7
  6
CONTINUOUS
 10
148.7221511996
 20
520.9496575288
 40
1.1699888785
100
AcDbArc
 50
333.8855515292
 51
26.1144484709
  0
ARC
  5
503
100
AcDbEntity
  8
0
100
AcDbCircle
 62
7
  6
CONTINUOUS
 10
148.7221669651
 20
520.9496740593
 40
1.1699883389
100
AcDbArc
 50
243.8855680189
 51
296.1144319811
  0
ARC
  5
504
100
AcDbEntity
  8
0
100
AcDbCircle
 62
7
  6
CONTINUOUS
 10
148.7221669651
 20
520.9496409984
 40
1.1699883389
100
AcDbArc
 50
63.8855680186
 51
116.1144319814
  0
ARC
  5
505
100
AcDbEntity
  8
0
100
AcDbCircle
 62
7
  6
CONTINUOUS
 10
148.926613414
 20
520.9488248075
 40
2.4017964185
100
AcDbArc
 50
0.0198648887
 51
12.4020073073
  0
ARC
  5
506
100
AcDbEntity
  8
0
100
AcDbCircle
 62
7
  6
CONTINUOUS
 10
148.9269954446
 20
520.9504378571
 40
2.4014143704
100
AcDbArc
 50
347.5972681399
 51
359.9813820073
  0
ARC
  5
507
100
AcDbEntity
  8
0
100
AcDbCircle
 62
7
  6
CONTINUOUS
 10
148.9013932744
 20
520.9486348446
 40
2.1806698601
100
AcDbArc
 50
0.0268704084
 51
13.6880163366
  0
ARC
  5
508
100
AcDbEntity
  8
0
100
AcDbCircle
 62
7
  6
CONTINUOUS
 10
148.9018595572
 20
520.9506256689
 40
2.180203581
100
AcDbArc
 50
346.3104756771
 51
359.9745572642
  0
ARC
  5
509
100
AcDbEntity
  8
0
100
AcDbCircle
 62
7
  6
CONTINUOUS
 10
148.7221668075
 20
521.1620198162
 40
2.3938849576
100
AcDbArc
 50
77.576755418
 51
102.4232368575
  0
ARC
  5
50A
100
AcDbEntity
  8
0
100
AcDbCircle
 62
7
  6
CONTINUOUS
 10
148.7221668431
 20
521.1372454912
 40
2.1723039023
100
AcDbArc
 50
76.2860005535
 51
103.7139934442
  0
ARC
  5
50B
100
AcDbEntity
  8
0
100
AcDbCircle
 62
7
  6
CONTINUOUS
 10
157.0138232198
 20
512.601552864
 40
11.8912642284
100
AcDbArc
 50
140.0344157591
 51
143.3208297366
  0
ARC
  5
50C
100
AcDbEntity
  8
0
100
AcDbCircle
 62
7
  6
CONTINUOUS
 10
157.0322925054
 20
529.1957926868
 40
11.8634716269
100
AcDbArc
 50
229.8534694092
 51
234.3146497659
  0
ARC
  5
50D
100
AcDbEntity
  8
0
100
AcDbCircle
 62
7
  6
CONTINUOUS
 10
157.0120225256
 20
512.7316982379
 40
11.7973659488
100
AcDbArc
 50
126.666087925
 51
129.9786665792
  0
ARC
  5
50E
100
AcDbEntity
  8
0
100
AcDbCircle
 62
7
  6
CONTINUOUS
 10
156.862359044
 20
529.1772612849
 40
11.7292846323
100
AcDbArc
 50
215.6598184033
 51
220.1720624216
  0
ARC
  5
50F
100
AcDbEntity
  8
0
100
AcDbCircle
 62
7
  6
CONTINUOUS
 10
163.9721669651
 20
549.1996575288
 40
27.0
100
AcDbArc
 50
90.0
 51
180.0
  0
ARC
  5
510
100
AcDbEntity
  8
0
100
AcDbCircle
 62
7
  6
CONTINUOUS
 10
164.9721669651
 20
548.1996575288
 40
26.6781992623
100
AcDbArc
 50
89.9999999984
 51
180.0000000017
  0
ARC
  5
511
100
AcDbEntity
  8
0
100
AcDbCircle
 62
7
  6
CONTINUOUS
 10
163.9721669651
 20
549.1996575288
 40
26.5
100
AcDbArc
 50
90.0
 51
180.0
  0
ARC
  5
512
100
AcDbEntity
  8
0
100
AcDbCircle
 62
7
  6
CONTINUOUS
 10
167.2221669651
 20
545.9496575288
 40
25.0
100
AcDbArc
 50
90.0
 51
180.0
  0
ARC
  5
513
100
AcDbEntity
  8
0
100
AcDbCircle
 62
7
  6
CONTINUOUS
 10
164.9721669651
 20
548.1996575288
 40
24.7085837563
100
AcDbArc
 50
89.9999999838
 51
180.0
  0
ARC
  5
514
100
AcDbEntity
  8
0
100
AcDbCircle
 62
7
  6
CONTINUOUS
 10
164.9721669651
 20
548.1996575288
 40
24.6167271797
100
AcDbArc
 50
89.9999999838
 51
180.0
  0
ARC
  5
515
100
AcDbEntity
  8
0
100
AcDbCircle
 62
7
  6
CONTINUOUS
 10
164.9721669651
 20
548.1996575288
 40
23.6319194267
100
AcDbArc
 50
90.0
 51
180.0
  0
CIRCLE
  5
516
100
AcDbEntity
  8
0
100
AcDbCircle
 62
7
  6
CONTINUOUS
 10
189.7221669651
 20
473.4496575288
 40
0.8660254038
  0
CIRCLE
  5
517
100
AcDbEntity
  8
0
100
AcDbCircle
 62
7
  6
CONTINUOUS
 10
189.7221669651
 20
448.4496575288
 40
0.8660254038
  0
CIRCLE
  5
518
100
AcDbEntity
  8
0
100
AcDbCircle
 62
7
  6
CONTINUOUS
 10
214.7221669651
 20
498.4496575288
 40
0.8660254038
  0
CIRCLE
  5
519
100
AcDbEntity
  8
0
100
AcDbCircle
 62
7
  6
CONTINUOUS
 10
214.7221669651
 20
473.4496575288
 40
0.8660254038
  0
CIRCLE
  5
51A
100
AcDbEntity
  8
0
100
AcDbCircle
 62
7
  6
CONTINUOUS
 10
214.7221669651
 20
448.4496575288
 40
0.8660254038
  0
CIRCLE
  5
51B
100
AcDbEntity
  8
0
100
AcDbCircle
 62
7
  6
CONTINUOUS
 10
189.7221669651
 20
498.4496575288
 40
0.8660254038
  0
CIRCLE
  5
51C
100
AcDbEntity
  8
0
100
AcDbCircle
 62
7
  6
CONTINUOUS
 10
214.7221669651
 20
523.4496575288
 40
0.8660254038
  0
CIRCLE
  5
51D
100
AcDbEntity
  8
0
100
AcDbCircle
 62
7
  6
CONTINUOUS
 10
189.7221669651
 20
523.4496575288
 40
0.8660254038
  0
CIRCLE
  5
51E
100
AcDbEntity
  8
0
100
AcDbCircle
 62
7
  6
CONTINUOUS
 10
239.7221669651
 20
423.4496575288
 40
0.8660254038
  0
CIRCLE
  5
51F
100
AcDbEntity
  8
0
100
AcDbCircle
 62
7
  6
CONTINUOUS
 10
239.7221669651
 20
398.4496575288
 40
0.8660254038
  0
CIRCLE
  5
520
100
AcDbEntity
  8
0
100
AcDbCircle
 62
7
  6
CONTINUOUS
 10
264.7221669651
 20
423.4496575288
 40
0.8660254038
  0
CIRCLE
  5
521
100
AcDbEntity
  8
0
100
AcDbCircle
 62
7
  6
CONTINUOUS
 10
264.7221669651
 20
398.4496575288
 40
0.8660254038
  0
CIRCLE
  5
522
100
AcDbEntity
  8
0
100
AcDbCircle
 62
7
  6
CONTINUOUS
 10
289.7221669651
 20
423.4496575288
 40
0.8660254038
  0
CIRCLE
  5
523
100
AcDbEntity
  8
0
100
AcDbCircle
 62
7
  6
CONTINUOUS
 10
289.7221669651
 20
398.4496575288
 40
0.8660254038
  0
ARC
  5
524
100
AcDbEntity
  8
0
100
AcDbCircle
 62
7
  6
CONTINUOUS
 10
321.4120414246
 20
349.2035223708
 40
11.8634716271
100
AcDbArc
 50
49.8534694092
 51
54.3146497658
  0
ARC
  5
525
100
AcDbEntity
  8
0
100
AcDbCircle
 62
7
  6
CONTINUOUS
 10
321.4763436898
 20
349.1397749219
 40
11.8630765945
100
AcDbArc
 50
35.6852759194
 51
40.1466049055
  0
ARC
  5
526
100
AcDbEntity
  8
0
100
AcDbCircle
 62
7
  6
CONTINUOUS
 10
329.5177156897
 20
357.4488379416
 40
2.4017915876
100
AcDbArc
 50
167.5982881565
 51
179.9804483914
  0
ARC
  5
527
100
AcDbEntity
  8
0
100
AcDbCircle
 62
7
  6
CONTINUOUS
 10
329.5430531664
 20
357.4486229439
 40
2.1807810223
100
AcDbArc
 50
166.3123781982
 51
179.9728182923
  0
ARC
  5
528
100
AcDbEntity
  8
0
100
AcDbCircle
 62
7
  6
CONTINUOUS
 10
321.4305107105
 20
365.7977621936
 40
11.8912642282
100
AcDbArc
 50
320.0344157591
 51
323.3208297367
  0
ARC
  5
529
100
AcDbEntity
  8
0
100
AcDbCircle
 62
7
  6
CONTINUOUS
 10
321.4323114047
 20
365.6676168195
 40
11.7973659485
100
AcDbArc
 50
306.666087925
 51
309.9786665793
  0
ARC
  5
52A
100
AcDbEntity
  8
0
100
AcDbCircle
 62
7
  6
CONTINUOUS
 10
329.5177325113
 20
357.4504791448
 40
2.40180841
100
AcDbArc
 50
180.019599868
 51
192.4016731518
  0
ARC
  5
52B
100
AcDbEntity
  8
0
100
AcDbCircle
 62
7
  6
CONTINUOUS
 10
329.7221668075
 20
357.6620198162
 40
2.3938849576
100
AcDbArc
 50
77.576755418
 51
102.4232368574
  0
ARC
  5
52C
100
AcDbEntity
  8
0
100
AcDbCircle
 62
7
  6
CONTINUOUS
 10
329.5430736448
 20
357.4506941006
 40
2.1808013901
100
AcDbArc
 50
180.0272336482
 51
193.6875455162
  0
ARC
  5
52D
100
AcDbEntity
  8
0
100
AcDbCircle
 62
7
  6
CONTINUOUS
 10
329.7221668431
 20
357.6372454912
 40
2.1723039023
100
AcDbArc
 50
76.2860005536
 51
103.7139934443
  0
ARC
  5
52E
100
AcDbEntity
  8
0
100
AcDbCircle
 62
7
  6
CONTINUOUS
 10
329.7221511996
 20
357.4496575288
 40
1.1699888785
100
AcDbArc
 50
333.8855515292
 51
26.1144484708
  0
ARC
  5
52F
100
AcDbEntity
  8
0
100
AcDbCircle
 62
7
  6
CONTINUOUS
 10
338.0138232199
 20
349.1015528639
 40
11.8912642285
100
AcDbArc
 50
140.0344157591
 51
143.3208297366
  0
ARC
  5
530
100
AcDbEntity
  8
0
100
AcDbCircle
 62
7
  6
CONTINUOUS
 10
338.0120225254
 20
349.2316982382
 40
11.7973659485
100
AcDbArc
 50
126.666087925
 51
129.9786665793
  0
ARC
  5
531
100
AcDbEntity
  8
0
100
AcDbCircle
 62
7
  6
CONTINUOUS
 10
329.7221807307
 20
357.4469500428
 40
4.6689496232
100
AcDbArc
 50
179.9667746396
 51
180.2815904105
  0
ARC
  5
532
100
AcDbEntity
  8
0
100
AcDbCircle
 62
7
  6
CONTINUOUS
 10
329.9266134141
 20
357.4488248075
 40
2.4017964185
100
AcDbArc
 50
0.0198648886
 51
12.4020073074
  0
ARC
  5
533
100
AcDbEntity
  8
0
100
AcDbCircle
 62
7
  6
CONTINUOUS
 10
329.7221671197
 20
357.2372960658
 40
2.3938857585
100
AcDbArc
 50
257.576759711
 51
282.4232327053
  0
ARC
  5
534
100
AcDbEntity
  8
0
100
AcDbCircle
 62
7
  6
CONTINUOUS
 10
329.9013932744
 20
357.4486348446
 40
2.1806698601
100
AcDbArc
 50
0.0268704084
 51
13.6880163367
  0
ARC
  5
535
100
AcDbEntity
  8
0
100
AcDbCircle
 62
7
  6
CONTINUOUS
 10
329.7221670858
 20
357.2620703653
 40
2.172304673
100
AcDbArc
 50
256.2860055781
 51
283.713988487
  0
ARC
  5
536
100
AcDbEntity
  8
0
100
AcDbCircle
 62
7
  6
CONTINUOUS
 10
329.7221669651
 20
357.4496409984
 40
1.1699883389
100
AcDbArc
 50
63.8855680186
 51
116.1144319814
  0
ARC
  5
537
100
AcDbEntity
  8
0
100
AcDbCircle
 62
7
  6
CONTINUOUS
 10
338.0322925054
 20
365.6957926867
 40
11.8634716269
100
AcDbArc
 50
229.8534694092
 51
234.3146497659
  0
ARC
  5
538
100
AcDbEntity
  8
0
100
AcDbCircle
 62
7
  6
CONTINUOUS
 10
337.862359044
 20
365.6772612849
 40
11.7292846323
100
AcDbArc
 50
215.6598184033
 51
220.1720624216
  0
CIRCLE
  5
539
100
AcDbEntity
  8
0
100
AcDbCircle
 62
7
  6
CONTINUOUS
 10
329.7221669651
 20
357.4496575288
 40
4.75
  0
ARC
  5
53A
100
AcDbEntity
  8
0
100
AcDbCircle
 62
7
  6
CONTINUOUS
 10
329.7221669651
 20
357.4496575288
 40
4.6689421051
100
AcDbArc
 50
180.3148161975
 51
180.0
  0
ARC
  5
53B
100
AcDbEntity
  8
0
100
AcDbCircle
 62
7
  6
CONTINUOUS
 10
329.9269954446
 20
357.4504378571
 40
2.4014143704
100
AcDbArc
 50
347.5972681399
 51
359.9813820074
  0
ARC
  5
53C
100
AcDbEntity
  8
0
100
AcDbCircle
 62
7
  6
CONTINUOUS
 10
329.9018595574
 20
357.4506256689
 40
2.1802035808
100
AcDbArc
 50
346.3104756765
 51
359.9745572649
  0
ARC
  5
53D
100
AcDbEntity
  8
0
100
AcDbCircle
 62
7
  6
CONTINUOUS
 10
329.7221827305
 20
357.4496575288
 40
1.1699888785
100
AcDbArc
 50
153.8855515293
 51
206.1144484707
  0
ARC
  5
53E
100
AcDbEntity
  8
0
100
AcDbCircle
 62
7
  6
CONTINUOUS
 10
329.7221669651
 20
357.4496740593
 40
1.1699883389
100
AcDbArc
 50
243.8855680188
 51
296.1144319812
  0
CIRCLE
  5
53F
100
AcDbEntity
  8
0
100
AcDbCircle
 62
7
  6
CONTINUOUS
 10
314.7221669651
 20
423.4496575288
 40
0.8660254038
  0
CIRCLE
  5
540
100
AcDbEntity
  8
0
100
AcDbCircle
 62
7
  6
CONTINUOUS
 10
314.7221669651
 20
398.4496575288
 40
0.8660254038
  0
CIRCLE
  5
541
100
AcDbEntity
  8
0
100
AcDbCircle
 62
7
  6
CONTINUOUS
 10
339.7221669651
 20
423.4496575288
 40
0.8660254038
  0
CIRCLE
  5
542
100
AcDbEntity
  8
0
100
AcDbCircle
 62
7
  6
CONTINUOUS
 10
339.7221669651
 20
398.4496575288
 40
0.8660254038
  0
CIRCLE
  5
543
100
AcDbEntity
  8
0
100
AcDbCircle
 62
7
  6
CONTINUOUS
 10
364.7221669651
 20
423.4496575288
 40
0.8660254038
  0
CIRCLE
  5
544
100
AcDbEntity
  8
0
100
AcDbCircle
 62
7
  6
CONTINUOUS
 10
364.7221669651
 20
398.4496575288
 40
0.8660254038
  0
CIRCLE
  5
545
100
AcDbEntity
  8
0
100
AcDbCircle
 62
7
  6
CONTINUOUS
 10
239.7221669651
 20
473.4496575288
 40
0.8660254038
  0
CIRCLE
  5
546
100
AcDbEntity
  8
0
100
AcDbCircle
 62
7
  6
CONTINUOUS
 10
239.7221669651
 20
448.4496575288
 40
0.8660254038
  0
CIRCLE
  5
547
100
AcDbEntity
  8
0
100
AcDbCircle
 62
7
  6
CONTINUOUS
 10
264.7221669651
 20
473.4496575288
 40
0.8660254038
  0
CIRCLE
  5
548
100
AcDbEntity
  8
0
100
AcDbCircle
 62
7
  6
CONTINUOUS
 10
264.7221669651
 20
448.4496575288
 40
0.8660254038
  0
CIRCLE
  5
549
100
AcDbEntity
  8
0
100
AcDbCircle
 62
7
  6
CONTINUOUS
 10
289.7221669651
 20
473.4496575288
 40
0.8660254038
  0
CIRCLE
  5
54A
100
AcDbEntity
  8
0
100
AcDbCircle
 62
7
  6
CONTINUOUS
 10
289.7221669651
 20
448.4496575288
 40
0.8660254038
  0
CIRCLE
  5
54B
100
AcDbEntity
  8
0
100
AcDbCircle
 62
7
  6
CONTINUOUS
 10
239.7221669651
 20
523.4496575288
 40
0.8660254038
  0
CIRCLE
  5
54C
100
AcDbEntity
  8
0
100
AcDbCircle
 62
7
  6
CONTINUOUS
 10
239.7221669651
 20
498.4496575288
 40
0.8660254038
  0
CIRCLE
  5
54D
100
AcDbEntity
  8
0
100
AcDbCircle
 62
7
  6
CONTINUOUS
 10
264.7221669651
 20
523.4496575288
 40
0.8660254038
  0
CIRCLE
  5
54E
100
AcDbEntity
  8
0
100
AcDbCircle
 62
7
  6
CONTINUOUS
 10
264.7221669651
 20
498.4496575288
 40
0.8660254038
  0
CIRCLE
  5
54F
100
AcDbEntity
  8
0
100
AcDbCircle
 62
7
  6
CONTINUOUS
 10
289.7221669651
 20
523.4496575288
 40
0.8660254038
  0
CIRCLE
  5
550
100
AcDbEntity
  8
0
100
AcDbCircle
 62
7
  6
CONTINUOUS
 10
289.7221669651
 20
498.4496575288
 40
0.8660254038
  0
CIRCLE
  5
551
100
AcDbEntity
  8
0
100
AcDbCircle
 62
7
  6
CONTINUOUS
 10
314.7221669651
 20
473.4496575288
 40
0.8660254038
  0
CIRCLE
  5
552
100
AcDbEntity
  8
0
100
AcDbCircle
 62
7
  6
CONTINUOUS
 10
314.7221669651
 20
448.4496575288
 40
0.8660254038
  0
CIRCLE
  5
553
100
AcDbEntity
  8
0
100
AcDbCircle
 62
7
  6
CONTINUOUS
 10
339.7221669651
 20
473.4496575288
 40
0.8660254038
  0
CIRCLE
  5
554
100
AcDbEntity
  8
0
100
AcDbCircle
 62
7
  6
CONTINUOUS
 10
339.7221669651
 20
448.4496575288
 40
0.8660254038
  0
CIRCLE
  5
555
100
AcDbEntity
  8
0
100
AcDbCircle
 62
7
  6
CONTINUOUS
 10
364.7221669651
 20
473.4496575288
 40
0.8660254038
  0
CIRCLE
  5
556
100
AcDbEntity
  8
0
100
AcDbCircle
 62
7
  6
CONTINUOUS
 10
364.7221669651
 20
448.4496575288
 40
0.8660254038
  0
CIRCLE
  5
557
100
AcDbEntity
  8
0
100
AcDbCircle
 62
7
  6
CONTINUOUS
 10
314.7221669651
 20
523.4496575288
 40
0.8660254038
  0
CIRCLE
  5
558
100
AcDbEntity
  8
0
100
AcDbCircle
 62
7
  6
CONTINUOUS
 10
314.7221669651
 20
498.4496575288
 40
0.8660254038
  0
CIRCLE
  5
559
100
AcDbEntity
  8
0
100
AcDbCircle
 62
7
  6
CONTINUOUS
 10
339.7221669651
 20
523.4496575288
 40
0.8660254038
  0
CIRCLE
  5
55A
100
AcDbEntity
  8
0
100
AcDbCircle
 62
7
  6
CONTINUOUS
 10
339.7221669651
 20
498.4496575288
 40
0.8660254038
  0
CIRCLE
  5
55B
100
AcDbEntity
  8
0
100
AcDbCircle
 62
7
  6
CONTINUOUS
 10
364.7221669651
 20
523.4496575288
 40
0.8660254038
  0
CIRCLE
  5
55C
100
AcDbEntity
  8
0
100
AcDbCircle
 62
7
  6
CONTINUOUS
 10
364.7221669651
 20
498.4496575288
 40
0.8660254038
  0
ARC
  5
55D
100
AcDbEntity
  8
0
100
AcDbCircle
 62
7
  6
CONTINUOUS
 10
92.9221669651
 20
708.7496575288
 40
3.2
100
AcDbArc
 50
90.0
 51
180.0
  0
ARC
  5
55E
100
AcDbEntity
  8
0
100
AcDbCircle
 62
7
  6
CONTINUOUS
 10
92.9221669651
 20
708.7496575288
 40
2.0
100
AcDbArc
 50
137.2231896862
 51
180.0
  0
ARC
  5
55F
100
AcDbEntity
  8
0
100
AcDbCircle
 62
7
  6
CONTINUOUS
 10
92.8227703091
 20
719.4599541402
 40
1.3
100
AcDbArc
 50
180.0
 51
292.8153916795
  0
ARC
  5
560
100
AcDbEntity
  8
0
100
AcDbCircle
 62
7
  6
CONTINUOUS
 10
42.4109035056
 20
774.1807106624
 40
90.6031530519
100
AcDbArc
 50
318.1376140057
 51
318.3346350829
  0
ARC
  5
561
100
AcDbEntity
  8
0
100
AcDbCircle
 62
7
  6
CONTINUOUS
 10
102.2794874024
 20
735.7599541402
 40
2.4
100
AcDbArc
 50
90.0
 51
124.9999999992
  0
ARC
  5
562
100
AcDbEntity
  8
0
100
AcDbCircle
 62
7
  6
CONTINUOUS
 10
93.9227703091
 20
729.9085178368
 40
2.4
100
AcDbArc
 50
124.9999999992
 51
180.0
  0
ARC
  5
563
100
AcDbEntity
  8
0
100
AcDbCircle
 62
7
  6
CONTINUOUS
 10
93.9227703091
 20
729.9085178368
 40
1.2
100
AcDbArc
 50
124.9999999983
 51
180.0
  0
ARC
  5
564
100
AcDbEntity
  8
0
100
AcDbCircle
 62
7
  6
CONTINUOUS
 10
164.89933965
 20
665.2142438587
 40
73.339241324
100
AcDbArc
 50
138.048487304
 51
138.3544775393
  0
ARC
  5
565
100
AcDbEntity
  8
0
100
AcDbCircle
 62
7
  6
CONTINUOUS
 10
133.2386927508
 20
693.6392634396
 40
30.7907185723
100
AcDbArc
 50
137.7767546539
 51
138.0016052206
  0
CIRCLE
  5
566
100
AcDbEntity
  8
0
100
AcDbCircle
 62
7
  6
CONTINUOUS
 10
104.7221669651
 20
696.9496575288
 40
6.5
  0
ARC
  5
567
100
AcDbEntity
  8
0
100
AcDbCircle
 62
7
  6
CONTINUOUS
 10
107.2959729569
 20
713.9496575288
 40
2.0
100
AcDbArc
 50
270.0
 51
11.0
  0
ARC
  5
568
100
AcDbEntity
  8
0
100
AcDbCircle
 62
7
  6
CONTINUOUS
 10
106.7544714835
 20
732.7707078465
 40
7.1301949284
100
AcDbArc
 50
141.666411551
 51
142.5374435281
  0
ARC
  5
569
100
AcDbEntity
  8
0
100
AcDbCircle
 62
7
  6
CONTINUOUS
 10
103.7346207254
 20
735.4220472807
 40
3.1080055887
100
AcDbArc
 50
132.1602745411
 51
134.5340169807
  0
ARC
  5
56A
100
AcDbEntity
  8
0
100
AcDbCircle
 62
7
  6
CONTINUOUS
 10
128.537526707
 20
761.7660155652
 40
18.449486449
100
AcDbArc
 50
286.8509656958
 51
287.1452015444
  0
ARC
  5
56B
100
AcDbEntity
  8
0
100
AcDbCircle
 62
7
  6
CONTINUOUS
 10
129.5950500253
 20
740.1599541402
 40
4.0
100
AcDbArc
 50
97.5677174962
 51
177.9999974478
  0
ARC
  5
56C
100
AcDbEntity
  8
0
100
AcDbCircle
 62
7
  6
CONTINUOUS
 10
153.4504905929
 20
740.1599541402
 40
4.0
100
AcDbArc
 50
2.0000025522
 51
82.4322825039
  0
ARC
  5
56D
100
AcDbEntity
  8
0
100
AcDbCircle
 62
7
  6
CONTINUOUS
 10
133.5703020423
 20
742.5992667677
 40
1.6123746663
100
AcDbArc
 50
72.6821295818
 51
72.9172580841
  0
ARC
  5
56E
100
AcDbEntity
  8
0
100
AcDbCircle
 62
7
  6
CONTINUOUS
 10
134.0227703091
 20
743.9497208423
 40
0.2
100
AcDbArc
 50
76.3568293037
 51
107.7222926073
  0
ARC
  5
56F
100
AcDbEntity
  8
0
100
AcDbCircle
 62
7
  6
CONTINUOUS
 10
139.0227703091
 20
743.9497208423
 40
0.2
100
AcDbArc
 50
72.2770875914
 51
107.723355938
  0
ARC
  5
570
100
AcDbEntity
  8
0
100
AcDbCircle
 62
7
  6
CONTINUOUS
 10
144.0227703091
 20
743.9497208423
 40
0.2
100
AcDbArc
 50
72.2770396722
 51
107.7229124086
  0
ARC
  5
571
100
AcDbEntity
  8
0
100
AcDbCircle
 62
7
  6
CONTINUOUS
 10
149.0227703091
 20
743.9497208423
 40
0.2
100
AcDbArc
 50
72.2773254554
 51
107.7229124086
  0
ARC
  5
572
100
AcDbEntity
  8
0
100
AcDbCircle
 62
7
  6
CONTINUOUS
 10
149.0216895412
 20
743.952260699
 40
0.1972518111
100
AcDbArc
 50
88.4163716414
 51
107.6496947619
  0
ARC
  5
573
100
AcDbEntity
  8
0
100
AcDbCircle
 62
7
  6
CONTINUOUS
 10
139.0242187015
 20
743.9534456761
 40
0.1959881334
100
AcDbArc
 50
72.346876873
 51
90.8643551665
  0
ARC
  5
574
100
AcDbEntity
  8
0
100
AcDbCircle
 62
7
  6
CONTINUOUS
 10
144.0213241646
 20
743.953468912
 40
0.195981474
100
AcDbArc
 50
89.1500905399
 51
107.6547242182
  0
ARC
  5
575
100
AcDbEntity
  8
0
100
AcDbCircle
 62
7
  6
CONTINUOUS
 10
149.0242720876
 20
743.953864463
 40
0.1955954374
100
AcDbArc
 50
72.3172336683
 51
89.1671452354
  0
ARC
  5
576
100
AcDbEntity
  8
0
100
AcDbCircle
 62
7
  6
CONTINUOUS
 10
144.0243827077
 20
743.9540851296
 40
0.195351869
100
AcDbArc
 50
72.3190162075
 51
90.0444698885
  0
ARC
  5
577
100
AcDbEntity
  8
0
100
AcDbCircle
 62
7
  6
CONTINUOUS
 10
139.0211507739
 20
743.954070511
 40
0.1953501966
100
AcDbArc
 50
89.9671325185
 51
107.6925497679
  0
ARC
  5
578
100
AcDbEntity
  8
0
100
AcDbCircle
 62
7
  6
CONTINUOUS
 10
134.0249825261
 20
743.9585176699
 40
0.190929586
100
AcDbArc
 50
76.3707953205
 51
86.8755922031
  0
ARC
  5
579
100
AcDbEntity
  8
0
100
AcDbCircle
 62
7
  6
CONTINUOUS
 10
141.5227101601
 20
751.7931298492
 40
8.0442190511
100
AcDbArc
 50
269.017524961
 51
270.980246866
  0
ARC
  5
57A
100
AcDbEntity
  8
0
100
AcDbCircle
 62
7
  6
CONTINUOUS
 10
141.5228753017
 20
751.7892127166
 40
8.0402996672
100
AcDbArc
 50
270.9795477673
 51
276.2014298743
  0
ARC
  5
57B
100
AcDbEntity
  8
0
100
AcDbCircle
 62
7
  6
CONTINUOUS
 10
141.5225713889
 20
751.7871718391
 40
8.0382595375
100
AcDbArc
 50
263.7975852668
 51
269.017785779
  0
ARC
  5
57C
100
AcDbEntity
  8
0
100
AcDbCircle
 62
7
  6
CONTINUOUS
 10
141.5227703091
 20
751.7724541402
 40
8.0125
100
AcDbArc
 50
252.2771001284
 51
287.7229095751
  0
ARC
  5
57D
100
AcDbEntity
  8
0
100
AcDbCircle
 62
7
  6
CONTINUOUS
 10
131.5227703091
 20
751.7724541402
 40
8.0125
100
AcDbArc
 50
252.797375198
 51
287.7229278793
  0
ARC
  5
57E
100
AcDbEntity
  8
0
100
AcDbCircle
 62
7
  6
CONTINUOUS
 10
136.5227703091
 20
751.7724541402
 40
8.0125
100
AcDbArc
 50
253.7453590057
 51
287.7229013377
  0
ARC
  5
57F
100
AcDbEntity
  8
0
100
AcDbCircle
 62
7
  6
CONTINUOUS
 10
131.4808702632
 20
751.6551449082
 40
7.9058116522
100
AcDbArc
 50
262.8614301665
 51
263.2343272505
  0
ARC
  5
580
100
AcDbEntity
  8
0
100
AcDbCircle
 62
7
  6
CONTINUOUS
 10
141.7801446237
 20
750.8890298277
 40
7.1034244348
100
AcDbArc
 50
287.1030861796
 51
288.0409346802
  0
ARC
  5
581
100
AcDbEntity
  8
0
100
AcDbCircle
 62
7
  6
CONTINUOUS
 10
141.1885548528
 20
750.6458272996
 40
6.8483784344
100
AcDbArc
 50
251.9408014665
 51
252.9068733667
  0
ARC
  5
582
100
AcDbEntity
  8
0
100
AcDbCircle
 62
7
  6
CONTINUOUS
 10
140.9524981863
 20
749.9202422685
 40
6.0853606743
100
AcDbArc
 50
251.5115864056
 51
251.9360633648
  0
ARC
  5
583
100
AcDbEntity
  8
0
100
AcDbCircle
 62
7
  6
CONTINUOUS
 10
130.6475786927
 20
748.2356736131
 40
4.3986780591
100
AcDbArc
 50
256.7752939847
 51
257.6247725486
  0
ARC
  5
584
100
AcDbEntity
  8
0
100
AcDbCircle
 62
7
  6
CONTINUOUS
 10
130.5664610321
 20
755.2308167456
 40
11.6065952238
100
AcDbArc
 50
287.0848243593
 51
287.2898450676
  0
ARC
  5
585
100
AcDbEntity
  8
0
100
AcDbCircle
 62
7
  6
CONTINUOUS
 10
151.5227703091
 20
751.7724541402
 40
8.0125
100
AcDbArc
 50
252.2770816541
 51
287.2026248032
  0
ARC
  5
586
100
AcDbEntity
  8
0
100
AcDbCircle
 62
7
  6
CONTINUOUS
 10
146.5227703091
 20
751.7724541402
 40
8.0125
100
AcDbArc
 50
252.2770887875
 51
287.7230532959
  0
ARC
  5
587
100
AcDbEntity
  8
0
100
AcDbCircle
 62
7
  6
CONTINUOUS
 10
151.564290863
 20
751.6578676374
 40
7.9085556192
100
AcDbArc
 50
276.7664558828
 51
277.1395236776
  0
ARC
  5
588
100
AcDbEntity
  8
0
100
AcDbCircle
 62
7
  6
CONTINUOUS
 10
147.057761194
 20
749.9083694079
 40
6.0865335068
100
AcDbArc
 50
287.1561321759
 51
288.4358427823
  0
ARC
  5
589
100
AcDbEntity
  8
0
100
AcDbCircle
 62
7
  6
CONTINUOUS
 10
142.2039799934
 20
749.5832349542
 40
5.7305682024
100
AcDbArc
 50
288.0549547313
 51
288.5049735611
  0
ARC
  5
58A
100
AcDbEntity
  8
0
100
AcDbCircle
 62
7
  6
CONTINUOUS
 10
152.3798312097
 20
748.3159951772
 40
4.4810172296
100
AcDbArc
 50
282.3837841203
 51
283.215428217
  0
ARC
  5
58B
100
AcDbEntity
  8
0
100
AcDbCircle
 62
7
  6
CONTINUOUS
 10
153.1362767109
 20
757.2731843016
 40
13.7519307835
100
AcDbArc
 50
252.7969399009
 51
253.1702675251
  0
ARC
  5
58C
100
AcDbEntity
  8
0
100
AcDbCircle
 62
7
  6
CONTINUOUS
 10
148.1986373187
 20
757.1391178643
 40
13.6439569
100
AcDbArc
 50
252.1910984692
 51
252.3761611858
  0
ARC
  5
58D
100
AcDbEntity
  8
0
100
AcDbCircle
 62
7
  6
CONTINUOUS
 10
146.8935125699
 20
753.0331753079
 40
9.3355796981
100
AcDbArc
 50
252.3806215731
 51
252.988309676
  0
ARC
  5
58E
100
AcDbEntity
  8
0
100
AcDbCircle
 62
7
  6
CONTINUOUS
 10
218.0138232199
 20
556.1015528639
 40
11.8912642285
100
AcDbArc
 50
140.0344157591
 51
143.3208297366
  0
ARC
  5
58F
100
AcDbEntity
  8
0
100
AcDbCircle
 62
7
  6
CONTINUOUS
 10
201.4120414246
 20
556.2035223708
 40
11.8634716271
100
AcDbArc
 50
49.8534694092
 51
54.3146497658
  0
ARC
  5
590
100
AcDbEntity
  8
0
100
AcDbCircle
 62
7
  6
CONTINUOUS
 10
201.4763436898
 20
556.1397749219
 40
11.8630765944
100
AcDbArc
 50
35.6852759194
 51
40.1466049055
  0
ARC
  5
591
100
AcDbEntity
  8
0
100
AcDbCircle
 62
7
  6
CONTINUOUS
 10
218.0120225255
 20
556.2316982381
 40
11.7973659487
100
AcDbArc
 50
126.666087925
 51
129.9786665792
  0
ARC
  5
592
100
AcDbEntity
  8
0
100
AcDbCircle
 62
7
  6
CONTINUOUS
 10
209.7221807306
 20
564.4469500428
 40
4.6689496231
100
AcDbArc
 50
179.9667746396
 51
180.2815904105
  0
ARC
  5
593
100
AcDbEntity
  8
0
100
AcDbCircle
 62
7
  6
CONTINUOUS
 10
209.926613414
 20
564.4488248075
 40
2.4017964186
100
AcDbArc
 50
0.0198648888
 51
12.4020073073
  0
ARC
  5
594
100
AcDbEntity
  8
0
100
AcDbCircle
 62
7
  6
CONTINUOUS
 10
209.5177156897
 20
564.4488379416
 40
2.4017915876
100
AcDbArc
 50
167.5982881564
 51
179.9804483915
  0
ARC
  5
595
100
AcDbEntity
  8
0
100
AcDbCircle
 62
7
  6
CONTINUOUS
 10
209.7221671197
 20
564.2372960658
 40
2.3938857585
100
AcDbArc
 50
257.576759711
 51
282.4232327053
  0
ARC
  5
596
100
AcDbEntity
  8
0
100
AcDbCircle
 62
7
  6
CONTINUOUS
 10
209.5430531664
 20
564.4486229439
 40
2.1807810223
100
AcDbArc
 50
166.3123781982
 51
179.9728182924
  0
ARC
  5
597
100
AcDbEntity
  8
0
100
AcDbCircle
 62
7
  6
CONTINUOUS
 10
209.9013932744
 20
564.4486348446
 40
2.1806698601
100
AcDbArc
 50
0.0268704084
 51
13.6880163366
  0
ARC
  5
598
100
AcDbEntity
  8
0
100
AcDbCircle
 62
7
  6
CONTINUOUS
 10
209.7221670858
 20
564.2620703654
 40
2.172304673
100
AcDbArc
 50
256.2860055782
 51
283.7139884869
  0
ARC
  5
599
100
AcDbEntity
  8
0
100
AcDbCircle
 62
7
  6
CONTINUOUS
 10
209.7221669651
 20
564.4496409984
 40
1.1699883389
100
AcDbArc
 50
63.8855680186
 51
116.1144319814
  0
ARC
  5
59A
100
AcDbEntity
  8
0
100
AcDbCircle
 62
7
  6
CONTINUOUS
 10
201.4305107104
 20
572.7977621937
 40
11.8912642284
100
AcDbArc
 50
320.0344157591
 51
323.3208297366
  0
ARC
  5
59B
100
AcDbEntity
  8
0
100
AcDbCircle
 62
7
  6
CONTINUOUS
 10
218.0322925055
 20
572.6957926868
 40
11.863471627
100
AcDbArc
 50
229.8534694092
 51
234.3146497658
  0
ARC
  5
59C
100
AcDbEntity
  8
0
100
AcDbCircle
 62
7
  6
CONTINUOUS
 10
201.4323114046
 20
572.6676168196
 40
11.7973659487
100
AcDbArc
 50
306.666087925
 51
309.9786665792
  0
ARC
  5
59D
100
AcDbEntity
  8
0
100
AcDbCircle
 62
7
  6
CONTINUOUS
 10
217.862359044
 20
572.6772612849
 40
11.7292846323
100
AcDbArc
 50
215.6598184033
 51
220.1720624216
  0
CIRCLE
  5
59E
100
AcDbEntity
  8
0
100
AcDbCircle
 62
7
  6
CONTINUOUS
 10
209.7221669651
 20
564.4496575288
 40
4.75
  0
ARC
  5
59F
100
AcDbEntity
  8
0
100
AcDbCircle
 62
7
  6
CONTINUOUS
 10
209.7221669651
 20
564.4496575288
 40
4.6689421051
100
AcDbArc
 50
180.3148161975
 51
180.0
  0
ARC
  5
5A0
100
AcDbEntity
  8
0
100
AcDbCircle
 62
7
  6
CONTINUOUS
 10
209.5177325113
 20
564.4504791448
 40
2.40180841
100
AcDbArc
 50
180.019599868
 51
192.4016731518
  0
ARC
  5
5A1
100
AcDbEntity
  8
0
100
AcDbCircle
 62
7
  6
CONTINUOUS
 10
209.9269954446
 20
564.4504378571
 40
2.4014143704
100
AcDbArc
 50
347.5972681399
 51
359.9813820073
  0
ARC
  5
5A2
100
AcDbEntity
  8
0
100
AcDbCircle
 62
7
  6
CONTINUOUS
 10
209.7221668075
 20
564.6620198162
 40
2.3938849576
100
AcDbArc
 50
77.576755418
 51
102.4232368574
  0
ARC
  5
5A3
100
AcDbEntity
  8
0
100
AcDbCircle
 62
7
  6
CONTINUOUS
 10
209.5430736448
 20
564.4506941006
 40
2.1808013901
100
AcDbArc
 50
180.0272336482
 51
193.6875455161
  0
ARC
  5
5A4
100
AcDbEntity
  8
0
100
AcDbCircle
 62
7
  6
CONTINUOUS
 10
209.9018595572
 20
564.4506256689
 40
2.180203581
100
AcDbArc
 50
346.3104756771
 51
359.9745572642
  0
ARC
  5
5A5
100
AcDbEntity
  8
0
100
AcDbCircle
 62
7
  6
CONTINUOUS
 10
209.7221668431
 20
564.6372454912
 40
2.1723039023
100
AcDbArc
 50
76.2860005535
 51
103.7139934443
  0
ARC
  5
5A6
100
AcDbEntity
  8
0
100
AcDbCircle
 62
7
  6
CONTINUOUS
 10
209.7221827305
 20
564.4496575288
 40
1.1699888785
100
AcDbArc
 50
153.8855515292
 51
206.1144484708
  0
ARC
  5
5A7
100
AcDbEntity
  8
0
100
AcDbCircle
 62
7
  6
CONTINUOUS
 10
209.7221511996
 20
564.4496575288
 40
1.1699888785
100
AcDbArc
 50
333.8855515292
 51
26.1144484708
  0
ARC
  5
5A8
100
AcDbEntity
  8
0
100
AcDbCircle
 62
7
  6
CONTINUOUS
 10
209.7221669651
 20
564.4496740593
 40
1.1699883389
100
AcDbArc
 50
243.8855680189
 51
296.1144319811
  0
ARC
  5
5A9
100
AcDbEntity
  8
0
100
AcDbCircle
 62
7
  6
CONTINUOUS
 10
338.0138232199
 20
556.1015528639
 40
11.8912642285
100
AcDbArc
 50
140.0344157591
 51
143.3208297366
  0
ARC
  5
5AA
100
AcDbEntity
  8
0
100
AcDbCircle
 62
7
  6
CONTINUOUS
 10
321.4120414247
 20
556.203522371
 40
11.8634716269
100
AcDbArc
 50
49.8534694092
 51
54.3146497659
  0
ARC
  5
5AB
100
AcDbEntity
  8
0
100
AcDbCircle
 62
7
  6
CONTINUOUS
 10
321.4763436897
 20
556.1397749218
 40
11.8630765945
100
AcDbArc
 50
35.6852759194
 51
40.1466049055
  0
ARC
  5
5AC
100
AcDbEntity
  8
0
100
AcDbCircle
 62
7
  6
CONTINUOUS
 10
338.0120225254
 20
556.2316982381
 40
11.7973659486
100
AcDbArc
 50
126.666087925
 51
129.9786665793
  0
ARC
  5
5AD
100
AcDbEntity
  8
0
100
AcDbCircle
 62
7
  6
CONTINUOUS
 10
329.7221807306
 20
564.4469500428
 40
4.6689496231
100
AcDbArc
 50
179.9667746396
 51
180.2815904105
  0
ARC
  5
5AE
100
AcDbEntity
  8
0
100
AcDbCircle
 62
7
  6
CONTINUOUS
 10
329.9266134141
 20
564.4488248075
 40
2.4017964185
100
AcDbArc
 50
0.0198648885
 51
12.4020073075
  0
ARC
  5
5AF
100
AcDbEntity
  8
0
100
AcDbCircle
 62
7
  6
CONTINUOUS
 10
329.5177156897
 20
564.4488379416
 40
2.4017915876
100
AcDbArc
 50
167.5982881565
 51
179.9804483915
  0
ARC
  5
5B0
100
AcDbEntity
  8
0
100
AcDbCircle
 62
7
  6
CONTINUOUS
 10
329.7221671197
 20
564.2372960658
 40
2.3938857585
100
AcDbArc
 50
257.576759711
 51
282.4232327053
  0
ARC
  5
5B1
100
AcDbEntity
  8
0
100
AcDbCircle
 62
7
  6
CONTINUOUS
 10
329.5430531664
 20
564.4486229439
 40
2.1807810223
100
AcDbArc
 50
166.3123781982
 51
179.9728182923
  0
ARC
  5
5B2
100
AcDbEntity
  8
0
100
AcDbCircle
 62
7
  6
CONTINUOUS
 10
329.9013932744
 20
564.4486348446
 40
2.1806698601
100
AcDbArc
 50
0.0268704084
 51
13.6880163366
  0
ARC
  5
5B3
100
AcDbEntity
  8
0
100
AcDbCircle
 62
7
  6
CONTINUOUS
 10
329.7221670858
 20
564.2620703654
 40
2.172304673
100
AcDbArc
 50
256.2860055782
 51
283.713988487
  0
ARC
  5
5B4
100
AcDbEntity
  8
0
100
AcDbCircle
 62
7
  6
CONTINUOUS
 10
329.7221669651
 20
564.4496409984
 40
1.1699883389
100
AcDbArc
 50
63.8855680187
 51
116.1144319813
  0
ARC
  5
5B5
100
AcDbEntity
  8
0
100
AcDbCircle
 62
7
  6
CONTINUOUS
 10
321.4305107104
 20
572.7977621937
 40
11.8912642284
100
AcDbArc
 50
320.0344157591
 51
323.3208297366
  0
ARC
  5
5B6
100
AcDbEntity
  8
0
100
AcDbCircle
 62
7
  6
CONTINUOUS
 10
338.0322925054
 20
572.6957926868
 40
11.863471627
100
AcDbArc
 50
229.8534694092
 51
234.3146497659
  0
ARC
  5
5B7
100
AcDbEntity
  8
0
100
AcDbCircle
 62
7
  6
CONTINUOUS
 10
321.4323114048
 20
572.6676168195
 40
11.7973659485
100
AcDbArc
 50
306.666087925
 51
309.9786665793
  0
ARC
  5
5B8
100
AcDbEntity
  8
0
100
AcDbCircle
 62
7
  6
CONTINUOUS
 10
337.8623590439
 20
572.6772612848
 40
11.7292846322
100
AcDbArc
 50
215.6598184033
 51
220.1720624216
  0
CIRCLE
  5
5B9
100
AcDbEntity
  8
0
100
AcDbCircle
 62
7
  6
CONTINUOUS
 10
329.7221669651
 20
564.4496575288
 40
4.75
  0
ARC
  5
5BA
100
AcDbEntity
  8
0
100
AcDbCircle
 62
7
  6
CONTINUOUS
 10
329.7221669651
 20
564.4496575288
 40
4.6689421051
100
AcDbArc
 50
180.3148161975
 51
180.0
  0
ARC
  5
5BB
100
AcDbEntity
  8
0
100
AcDbCircle
 62
7
  6
CONTINUOUS
 10
329.5177325113
 20
564.4504791448
 40
2.4018084099
100
AcDbArc
 50
180.019599868
 51
192.4016731518
  0
ARC
  5
5BC
100
AcDbEntity
  8
0
100
AcDbCircle
 62
7
  6
CONTINUOUS
 10
329.9269954446
 20
564.4504378571
 40
2.4014143704
100
AcDbArc
 50
347.5972681398
 51
359.9813820074
  0
ARC
  5
5BD
100
AcDbEntity
  8
0
100
AcDbCircle
 62
7
  6
CONTINUOUS
 10
329.7221668075
 20
564.6620198162
 40
2.3938849576
100
AcDbArc
 50
77.576755418
 51
102.4232368574
  0
ARC
  5
5BE
100
AcDbEntity
  8
0
100
AcDbCircle
 62
7
  6
CONTINUOUS
 10
329.5430736448
 20
564.4506941006
 40
2.1808013901
100
AcDbArc
 50
180.0272336483
 51
193.6875455161
  0
ARC
  5
5BF
100
AcDbEntity
  8
0
100
AcDbCircle
 62
7
  6
CONTINUOUS
 10
329.9018595574
 20
564.4506256689
 40
2.1802035808
100
AcDbArc
 50
346.3104756766
 51
359.9745572648
  0
ARC
  5
5C0
100
AcDbEntity
  8
0
100
AcDbCircle
 62
7
  6
CONTINUOUS
 10
329.7221668431
 20
564.6372454912
 40
2.1723039023
100
AcDbArc
 50
76.2860005536
 51
103.7139934443
  0
ARC
  5
5C1
100
AcDbEntity
  8
0
100
AcDbCircle
 62
7
  6
CONTINUOUS
 10
329.7221827305
 20
564.4496575288
 40
1.1699888785
100
AcDbArc
 50
153.8855515293
 51
206.1144484707
  0
ARC
  5
5C2
100
AcDbEntity
  8
0
100
AcDbCircle
 62
7
  6
CONTINUOUS
 10
329.7221511996
 20
564.4496575288
 40
1.1699888785
100
AcDbArc
 50
333.8855515292
 51
26.1144484708
  0
ARC
  5
5C3
100
AcDbEntity
  8
0
100
AcDbCircle
 62
7
  6
CONTINUOUS
 10
329.7221669651
 20
564.4496740593
 40
1.1699883389
100
AcDbArc
 50
243.8855680189
 51
296.1144319811
  0
ARC
  5
5C4
100
AcDbEntity
  8
0
100
AcDbCircle
 62
7
  6
CONTINUOUS
 10
441.4120414246
 20
349.2035223708
 40
11.8634716271
100
AcDbArc
 50
49.8534694092
 51
54.3146497658
  0
ARC
  5
5C5
100
AcDbEntity
  8
0
100
AcDbCircle
 62
7
  6
CONTINUOUS
 10
441.4763436901
 20
349.1397749221
 40
11.8630765941
100
AcDbArc
 50
35.6852759194
 51
40.1466049056
  0
ARC
  5
5C6
100
AcDbEntity
  8
0
100
AcDbCircle
 62
7
  6
CONTINUOUS
 10
441.43051071
 20
365.797762194
 40
11.8912642289
100
AcDbArc
 50
320.0344157592
 51
323.3208297366
  0
ARC
  5
5C7
100
AcDbEntity
  8
0
100
AcDbCircle
 62
7
  6
CONTINUOUS
 10
441.4323114046
 20
365.6676168197
 40
11.7973659487
100
AcDbArc
 50
306.666087925
 51
309.9786665792
  0
ARC
  5
5C8
100
AcDbEntity
  8
0
100
AcDbCircle
 62
7
  6
CONTINUOUS
 10
449.7221671197
 20
357.2372960658
 40
2.3938857585
100
AcDbArc
 50
257.576759711
 51
282.4232327053
  0
ARC
  5
5C9
100
AcDbEntity
  8
0
100
AcDbCircle
 62
7
  6
CONTINUOUS
 10
449.7221670858
 20
357.2620703653
 40
2.172304673
100
AcDbArc
 50
256.2860055781
 51
283.713988487
  0
CIRCLE
  5
5CA
100
AcDbEntity
  8
0
100
AcDbCircle
 62
7
  6
CONTINUOUS
 10
449.7221669651
 20
357.4496575288
 40
4.75
  0
ARC
  5
5CB
100
AcDbEntity
  8
0
100
AcDbCircle
 62
7
  6
CONTINUOUS
 10
449.7221807307
 20
357.4469500428
 40
4.6689496232
100
AcDbArc
 50
179.9667746396
 51
180.2815904105
  0
ARC
  5
5CC
100
AcDbEntity
  8
0
100
AcDbCircle
 62
7
  6
CONTINUOUS
 10
449.7221669651
 20
357.4496575288
 40
4.6689421051
100
AcDbArc
 50
180.3148161975
 51
180.0
  0
ARC
  5
5CD
100
AcDbEntity
  8
0
100
AcDbCircle
 62
7
  6
CONTINUOUS
 10
449.5177325114
 20
357.4504791448
 40
2.40180841
100
AcDbArc
 50
180.0195998681
 51
192.4016731517
  0
ARC
  5
5CE
100
AcDbEntity
  8
0
100
AcDbCircle
 62
7
  6
CONTINUOUS
 10
449.5177156897
 20
357.4488379416
 40
2.4017915876
100
AcDbArc
 50
167.5982881565
 51
179.9804483914
  0
ARC
  5
5CF
100
AcDbEntity
  8
0
100
AcDbCircle
 62
7
  6
CONTINUOUS
 10
449.5430736448
 20
357.4506941006
 40
2.1808013901
100
AcDbArc
 50
180.0272336482
 51
193.6875455162
  0
ARC
  5
5D0
100
AcDbEntity
  8
0
100
AcDbCircle
 62
7
  6
CONTINUOUS
 10
449.5430531664
 20
357.4486229439
 40
2.1807810224
100
AcDbArc
 50
166.3123781982
 51
179.9728182923
  0
ARC
  5
5D1
100
AcDbEntity
  8
0
100
AcDbCircle
 62
7
  6
CONTINUOUS
 10
449.7221827305
 20
357.4496575288
 40
1.1699888785
100
AcDbArc
 50
153.8855515293
 51
206.1144484707
  0
ARC
  5
5D2
100
AcDbEntity
  8
0
100
AcDbCircle
 62
7
  6
CONTINUOUS
 10
449.7221511996
 20
357.4496575288
 40
1.1699888785
100
AcDbArc
 50
333.8855515292
 51
26.1144484708
  0
ARC
  5
5D3
100
AcDbEntity
  8
0
100
AcDbCircle
 62
7
  6
CONTINUOUS
 10
449.7221669651
 20
357.4496740593
 40
1.1699883389
100
AcDbArc
 50
243.8855680188
 51
296.1144319812
  0
ARC
  5
5D4
100
AcDbEntity
  8
0
100
AcDbCircle
 62
7
  6
CONTINUOUS
 10
449.7221669651
 20
357.4496409984
 40
1.1699883389
100
AcDbArc
 50
63.8855680186
 51
116.1144319814
  0
ARC
  5
5D5
100
AcDbEntity
  8
0
100
AcDbCircle
 62
7
  6
CONTINUOUS
 10
449.9266134141
 20
357.4488248075
 40
2.4017964185
100
AcDbArc
 50
0.0198648886
 51
12.4020073074
  0
ARC
  5
5D6
100
AcDbEntity
  8
0
100
AcDbCircle
 62
7
  6
CONTINUOUS
 10
449.9269954446
 20
357.4504378571
 40
2.4014143704
100
AcDbArc
 50
347.5972681398
 51
359.9813820074
  0
ARC
  5
5D7
100
AcDbEntity
  8
0
100
AcDbCircle
 62
7
  6
CONTINUOUS
 10
449.9013932744
 20
357.4486348446
 40
2.1806698601
100
AcDbArc
 50
0.0268704084
 51
13.6880163367
  0
ARC
  5
5D8
100
AcDbEntity
  8
0
100
AcDbCircle
 62
7
  6
CONTINUOUS
 10
449.9018595574
 20
357.4506256689
 40
2.1802035808
100
AcDbArc
 50
346.3104756764
 51
359.974557265
  0
ARC
  5
5D9
100
AcDbEntity
  8
0
100
AcDbCircle
 62
7
  6
CONTINUOUS
 10
449.7221668075
 20
357.6620198162
 40
2.3938849576
100
AcDbArc
 50
77.576755418
 51
102.4232368574
  0
ARC
  5
5DA
100
AcDbEntity
  8
0
100
AcDbCircle
 62
7
  6
CONTINUOUS
 10
449.7221668431
 20
357.6372454912
 40
2.1723039023
100
AcDbArc
 50
76.2860005535
 51
103.7139934443
  0
CIRCLE
  5
5DB
100
AcDbEntity
  8
0
100
AcDbCircle
 62
7
  6
CONTINUOUS
 10
389.7221669651
 20
423.4496575288
 40
0.8660254038
  0
CIRCLE
  5
5DC
100
AcDbEntity
  8
0
100
AcDbCircle
 62
7
  6
CONTINUOUS
 10
389.7221669651
 20
398.4496575288
 40
0.8660254038
  0
CIRCLE
  5
5DD
100
AcDbEntity
  8
0
100
AcDbCircle
 62
7
  6
CONTINUOUS
 10
414.7221669651
 20
423.4496575288
 40
0.8660254038
  0
CIRCLE
  5
5DE
100
AcDbEntity
  8
0
100
AcDbCircle
 62
7
  6
CONTINUOUS
 10
414.7221669651
 20
398.4496575288
 40
0.8660254038
  0
CIRCLE
  5
5DF
100
AcDbEntity
  8
0
100
AcDbCircle
 62
7
  6
CONTINUOUS
 10
439.7221669651
 20
423.4496575288
 40
0.8660254038
  0
CIRCLE
  5
5E0
100
AcDbEntity
  8
0
100
AcDbCircle
 62
7
  6
CONTINUOUS
 10
439.7221669651
 20
398.4496575288
 40
0.8660254038
  0
ARC
  5
5E1
100
AcDbEntity
  8
0
100
AcDbCircle
 62
7
  6
CONTINUOUS
 10
458.0138232199
 20
349.1015528639
 40
11.8912642285
100
AcDbArc
 50
140.0344157591
 51
143.3208297366
  0
ARC
  5
5E2
100
AcDbEntity
  8
0
100
AcDbCircle
 62
7
  6
CONTINUOUS
 10
458.0322925054
 20
365.6957926867
 40
11.8634716269
100
AcDbArc
 50
229.8534694092
 51
234.3146497659
  0
ARC
  5
5E3
100
AcDbEntity
  8
0
100
AcDbCircle
 62
7
  6
CONTINUOUS
 10
458.0120225255
 20
349.231698238
 40
11.7973659487
100
AcDbArc
 50
126.666087925
 51
129.9786665792
  0
ARC
  5
5E4
100
AcDbEntity
  8
0
100
AcDbCircle
 62
7
  6
CONTINUOUS
 10
457.862359044
 20
365.6772612849
 40
11.7292846324
100
AcDbArc
 50
215.6598184033
 51
220.1720624216
  0
CIRCLE
  5
5E5
100
AcDbEntity
  8
0
100
AcDbCircle
 62
7
  6
CONTINUOUS
 10
464.7221669651
 20
423.4496575288
 40
0.8660254038
  0
CIRCLE
  5
5E6
100
AcDbEntity
  8
0
100
AcDbCircle
 62
7
  6
CONTINUOUS
 10
464.7221669651
 20
398.4496575288
 40
0.8660254038
  0
CIRCLE
  5
5E7
100
AcDbEntity
  8
0
100
AcDbCircle
 62
7
  6
CONTINUOUS
 10
489.7221669651
 20
423.4496575288
 40
0.8660254038
  0
CIRCLE
  5
5E8
100
AcDbEntity
  8
0
100
AcDbCircle
 62
7
  6
CONTINUOUS
 10
489.7221669651
 20
398.4496575288
 40
0.8660254038
  0
CIRCLE
  5
5E9
100
AcDbEntity
  8
0
100
AcDbCircle
 62
7
  6
CONTINUOUS
 10
514.7221669651
 20
423.4496575288
 40
0.8660254038
  0
CIRCLE
  5
5EA
100
AcDbEntity
  8
0
100
AcDbCircle
 62
7
  6
CONTINUOUS
 10
514.7221669651
 20
398.4496575288
 40
0.8660254038
  0
CIRCLE
  5
5EB
100
AcDbEntity
  8
0
100
AcDbCircle
 62
7
  6
CONTINUOUS
 10
389.7221669651
 20
473.4496575288
 40
0.8660254038
  0
CIRCLE
  5
5EC
100
AcDbEntity
  8
0
100
AcDbCircle
 62
7
  6
CONTINUOUS
 10
389.7221669651
 20
448.4496575288
 40
0.8660254038
  0
CIRCLE
  5
5ED
100
AcDbEntity
  8
0
100
AcDbCircle
 62
7
  6
CONTINUOUS
 10
414.7221669651
 20
473.4496575288
 40
0.8660254038
  0
CIRCLE
  5
5EE
100
AcDbEntity
  8
0
100
AcDbCircle
 62
7
  6
CONTINUOUS
 10
414.7221669651
 20
448.4496575288
 40
0.8660254038
  0
CIRCLE
  5
5EF
100
AcDbEntity
  8
0
100
AcDbCircle
 62
7
  6
CONTINUOUS
 10
439.7221669651
 20
473.4496575288
 40
0.8660254038
  0
CIRCLE
  5
5F0
100
AcDbEntity
  8
0
100
AcDbCircle
 62
7
  6
CONTINUOUS
 10
439.7221669651
 20
448.4496575288
 40
0.8660254038
  0
CIRCLE
  5
5F1
100
AcDbEntity
  8
0
100
AcDbCircle
 62
7
  6
CONTINUOUS
 10
389.7221669651
 20
523.4496575288
 40
0.8660254038
  0
CIRCLE
  5
5F2
100
AcDbEntity
  8
0
100
AcDbCircle
 62
7
  6
CONTINUOUS
 10
389.7221669651
 20
498.4496575288
 40
0.8660254038
  0
CIRCLE
  5
5F3
100
AcDbEntity
  8
0
100
AcDbCircle
 62
7
  6
CONTINUOUS
 10
414.7221669651
 20
523.4496575288
 40
0.8660254038
  0
CIRCLE
  5
5F4
100
AcDbEntity
  8
0
100
AcDbCircle
 62
7
  6
CONTINUOUS
 10
414.7221669651
 20
498.4496575288
 40
0.8660254038
  0
CIRCLE
  5
5F5
100
AcDbEntity
  8
0
100
AcDbCircle
 62
7
  6
CONTINUOUS
 10
439.7221669651
 20
523.4496575288
 40
0.8660254038
  0
CIRCLE
  5
5F6
100
AcDbEntity
  8
0
100
AcDbCircle
 62
7
  6
CONTINUOUS
 10
439.7221669651
 20
498.4496575288
 40
0.8660254038
  0
CIRCLE
  5
5F7
100
AcDbEntity
  8
0
100
AcDbCircle
 62
7
  6
CONTINUOUS
 10
464.7221669651
 20
473.4496575288
 40
0.8660254038
  0
CIRCLE
  5
5F8
100
AcDbEntity
  8
0
100
AcDbCircle
 62
7
  6
CONTINUOUS
 10
464.7221669651
 20
448.4496575288
 40
0.8660254038
  0
CIRCLE
  5
5F9
100
AcDbEntity
  8
0
100
AcDbCircle
 62
7
  6
CONTINUOUS
 10
489.7221669651
 20
473.4496575288
 40
0.8660254038
  0
CIRCLE
  5
5FA
100
AcDbEntity
  8
0
100
AcDbCircle
 62
7
  6
CONTINUOUS
 10
489.7221669651
 20
448.4496575288
 40
0.8660254038
  0
CIRCLE
  5
5FB
100
AcDbEntity
  8
0
100
AcDbCircle
 62
7
  6
CONTINUOUS
 10
514.7221669651
 20
473.4496575288
 40
0.8660254038
  0
CIRCLE
  5
5FC
100
AcDbEntity
  8
0
100
AcDbCircle
 62
7
  6
CONTINUOUS
 10
514.7221669651
 20
448.4496575288
 40
0.8660254038
  0
CIRCLE
  5
5FD
100
AcDbEntity
  8
0
100
AcDbCircle
 62
7
  6
CONTINUOUS
 10
464.7221669651
 20
523.4496575288
 40
0.8660254038
  0
CIRCLE
  5
5FE
100
AcDbEntity
  8
0
100
AcDbCircle
 62
7
  6
CONTINUOUS
 10
464.7221669651
 20
498.4496575288
 40
0.8660254038
  0
CIRCLE
  5
5FF
100
AcDbEntity
  8
0
100
AcDbCircle
 62
7
  6
CONTINUOUS
 10
489.7221669651
 20
523.4496575288
 40
0.8660254038
  0
CIRCLE
  5
600
100
AcDbEntity
  8
0
100
AcDbCircle
 62
7
  6
CONTINUOUS
 10
489.7221669651
 20
498.4496575288
 40
0.8660254038
  0
CIRCLE
  5
601
100
AcDbEntity
  8
0
100
AcDbCircle
 62
7
  6
CONTINUOUS
 10
514.7221669651
 20
523.4496575288
 40
0.8660254038
  0
CIRCLE
  5
602
100
AcDbEntity
  8
0
100
AcDbCircle
 62
7
  6
CONTINUOUS
 10
514.7221669651
 20
498.4496575288
 40
0.8660254038
  0
ARC
  5
603
100
AcDbEntity
  8
0
100
AcDbCircle
 62
7
  6
CONTINUOUS
 10
561.4120414249
 20
349.2035223712
 40
11.8634716266
100
AcDbArc
 50
49.8534694091
 51
54.3146497659
  0
ARC
  5
604
100
AcDbEntity
  8
0
100
AcDbCircle
 62
7
  6
CONTINUOUS
 10
561.47634369
 20
349.139774922
 40
11.8630765942
100
AcDbArc
 50
35.6852759194
 51
40.1466049055
  0
ARC
  5
605
100
AcDbEntity
  8
0
100
AcDbCircle
 62
7
  6
CONTINUOUS
 10
569.5177325113
 20
357.4504791448
 40
2.40180841
100
AcDbArc
 50
180.019599868
 51
192.4016731518
  0
ARC
  5
606
100
AcDbEntity
  8
0
100
AcDbCircle
 62
7
  6
CONTINUOUS
 10
569.5177156897
 20
357.4488379416
 40
2.4017915876
100
AcDbArc
 50
167.5982881565
 51
179.9804483914
  0
ARC
  5
607
100
AcDbEntity
  8
0
100
AcDbCircle
 62
7
  6
CONTINUOUS
 10
569.5430736448
 20
357.4506941006
 40
2.1808013901
100
AcDbArc
 50
180.0272336482
 51
193.6875455161
  0
ARC
  5
608
100
AcDbEntity
  8
0
100
AcDbCircle
 62
7
  6
CONTINUOUS
 10
569.5430531664
 20
357.4486229439
 40
2.1807810223
100
AcDbArc
 50
166.3123781982
 51
179.9728182924
  0
ARC
  5
609
100
AcDbEntity
  8
0
100
AcDbCircle
 62
7
  6
CONTINUOUS
 10
578.0138232193
 20
349.1015528643
 40
11.8912642278
100
AcDbArc
 50
140.034415759
 51
143.3208297367
  0
ARC
  5
60A
100
AcDbEntity
  8
0
100
AcDbCircle
 62
7
  6
CONTINUOUS
 10
578.0120225255
 20
349.2316982381
 40
11.7973659486
100
AcDbArc
 50
126.666087925
 51
129.9786665792
  0
CIRCLE
  5
60B
100
AcDbEntity
  8
0
100
AcDbCircle
 62
7
  6
CONTINUOUS
 10
569.7221669651
 20
357.4496575288
 40
4.75
  0
ARC
  5
60C
100
AcDbEntity
  8
0
100
AcDbCircle
 62
7
  6
CONTINUOUS
 10
569.7221807307
 20
357.4469500428
 40
4.6689496232
100
AcDbArc
 50
179.9667746396
 51
180.2815904105
  0
ARC
  5
60D
100
AcDbEntity
  8
0
100
AcDbCircle
 62
7
  6
CONTINUOUS
 10
569.7221669651
 20
357.4496575288
 40
4.6689421051
100
AcDbArc
 50
180.3148161975
 51
180.0
  0
ARC
  5
60E
100
AcDbEntity
  8
0
100
AcDbCircle
 62
7
  6
CONTINUOUS
 10
569.926613414
 20
357.4488248075
 40
2.4017964186
100
AcDbArc
 50
0.0198648888
 51
12.4020073072
  0
ARC
  5
60F
100
AcDbEntity
  8
0
100
AcDbCircle
 62
7
  6
CONTINUOUS
 10
569.9269954445
 20
357.4504378571
 40
2.4014143705
100
AcDbArc
 50
347.59726814
 51
359.9813820073
  0
ARC
  5
610
100
AcDbEntity
  8
0
100
AcDbCircle
 62
7
  6
CONTINUOUS
 10
569.7221671197
 20
357.2372960658
 40
2.3938857585
100
AcDbArc
 50
257.576759711
 51
282.4232327053
  0
ARC
  5
611
100
AcDbEntity
  8
0
100
AcDbCircle
 62
7
  6
CONTINUOUS
 10
569.7221668075
 20
357.6620198162
 40
2.3938849576
100
AcDbArc
 50
77.576755418
 51
102.4232368574
  0
ARC
  5
612
100
AcDbEntity
  8
0
100
AcDbCircle
 62
7
  6
CONTINUOUS
 10
569.9013932744
 20
357.4486348446
 40
2.1806698601
100
AcDbArc
 50
0.0268704085
 51
13.6880163366
  0
ARC
  5
613
100
AcDbEntity
  8
0
100
AcDbCircle
 62
7
  6
CONTINUOUS
 10
569.9018595573
 20
357.4506256689
 40
2.180203581
100
AcDbArc
 50
346.310475677
 51
359.9745572643
  0
ARC
  5
614
100
AcDbEntity
  8
0
100
AcDbCircle
 62
7
  6
CONTINUOUS
 10
569.7221670858
 20
357.2620703654
 40
2.172304673
100
AcDbArc
 50
256.2860055781
 51
283.713988487
  0
ARC
  5
615
100
AcDbEntity
  8
0
100
AcDbCircle
 62
7
  6
CONTINUOUS
 10
569.7221668431
 20
357.6372454912
 40
2.1723039023
100
AcDbArc
 50
76.2860005536
 51
103.7139934443
  0
ARC
  5
616
100
AcDbEntity
  8
0
100
AcDbCircle
 62
7
  6
CONTINUOUS
 10
569.7221827305
 20
357.4496575288
 40
1.1699888785
100
AcDbArc
 50
153.8855515292
 51
206.1144484708
  0
ARC
  5
617
100
AcDbEntity
  8
0
100
AcDbCircle
 62
7
  6
CONTINUOUS
 10
569.7221511996
 20
357.4496575288
 40
1.1699888785
100
AcDbArc
 50
333.8855515292
 51
26.1144484709
  0
ARC
  5
618
100
AcDbEntity
  8
0
100
AcDbCircle
 62
7
  6
CONTINUOUS
 10
569.7221669651
 20
357.4496740593
 40
1.1699883389
100
AcDbArc
 50
243.8855680188
 51
296.1144319812
  0
ARC
  5
619
100
AcDbEntity
  8
0
100
AcDbCircle
 62
7
  6
CONTINUOUS
 10
569.7221669651
 20
357.4496409984
 40
1.1699883389
100
AcDbArc
 50
63.8855680186
 51
116.1144319814
  0
ARC
  5
61A
100
AcDbEntity
  8
0
100
AcDbCircle
 62
7
  6
CONTINUOUS
 10
561.4305107102
 20
365.7977621938
 40
11.8912642286
100
AcDbArc
 50
320.0344157591
 51
323.3208297366
  0
ARC
  5
61B
100
AcDbEntity
  8
0
100
AcDbCircle
 62
7
  6
CONTINUOUS
 10
578.0322925053
 20
365.6957926866
 40
11.8634716267
100
AcDbArc
 50
229.8534694092
 51
234.3146497659
  0
ARC
  5
61C
100
AcDbEntity
  8
0
100
AcDbCircle
 62
7
  6
CONTINUOUS
 10
561.4323114048
 20
365.6676168194
 40
11.7973659484
100
AcDbArc
 50
306.666087925
 51
309.9786665793
  0
ARC
  5
61D
100
AcDbEntity
  8
0
100
AcDbCircle
 62
7
  6
CONTINUOUS
 10
577.8623590439
 20
365.6772612848
 40
11.7292846322
100
AcDbArc
 50
215.6598184033
 51
220.1720624216
  0
ARC
  5
61E
100
AcDbEntity
  8
0
100
AcDbCircle
 62
7
  6
CONTINUOUS
 10
612.2221669651
 20
375.9496575288
 40
25.0
100
AcDbArc
 50
270.0
 51
360.0
  0
CIRCLE
  5
61F
100
AcDbEntity
  8
0
100
AcDbCircle
 62
7
  6
CONTINUOUS
 10
539.7221669651
 20
423.4496575288
 40
0.8660254038
  0
CIRCLE
  5
620
100
AcDbEntity
  8
0
100
AcDbCircle
 62
7
  6
CONTINUOUS
 10
539.7221669651
 20
398.4496575288
 40
0.8660254038
  0
CIRCLE
  5
621
100
AcDbEntity
  8
0
100
AcDbCircle
 62
7
  6
CONTINUOUS
 10
564.7221669651
 20
423.4496575288
 40
0.8660254038
  0
CIRCLE
  5
622
100
AcDbEntity
  8
0
100
AcDbCircle
 62
7
  6
CONTINUOUS
 10
564.7221669651
 20
398.4496575288
 40
0.8660254038
  0
CIRCLE
  5
623
100
AcDbEntity
  8
0
100
AcDbCircle
 62
7
  6
CONTINUOUS
 10
589.7221669651
 20
423.4496575288
 40
0.8660254038
  0
CIRCLE
  5
624
100
AcDbEntity
  8
0
100
AcDbCircle
 62
7
  6
CONTINUOUS
 10
589.7221669651
 20
398.4496575288
 40
0.8660254038
  0
ARC
  5
625
100
AcDbEntity
  8
0
100
AcDbCircle
 62
7
  6
CONTINUOUS
 10
615.4721669651
 20
372.6996575288
 40
27.0
100
AcDbArc
 50
270.0
 51
360.0
  0
ARC
  5
626
100
AcDbEntity
  8
0
100
AcDbCircle
 62
7
  6
CONTINUOUS
 10
614.4721669651
 20
373.6996575288
 40
26.6781992623
100
AcDbArc
 50
269.9999999994
 51
360.0
  0
ARC
  5
627
100
AcDbEntity
  8
0
100
AcDbCircle
 62
7
  6
CONTINUOUS
 10
615.4721669651
 20
372.6996575288
 40
26.5
100
AcDbArc
 50
270.0
 51
360.0
  0
ARC
  5
628
100
AcDbEntity
  8
0
100
AcDbCircle
 62
7
  6
CONTINUOUS
 10
614.4721669651
 20
373.6996575288
 40
24.7085837563
100
AcDbArc
 50
269.9999999838
 51
360.0
  0
ARC
  5
629
100
AcDbEntity
  8
0
100
AcDbCircle
 62
7
  6
CONTINUOUS
 10
614.4721669651
 20
373.6996575288
 40
24.6167271797
100
AcDbArc
 50
269.9999999838
 51
360.0
  0
ARC
  5
62A
100
AcDbEntity
  8
0
100
AcDbCircle
 62
7
  6
CONTINUOUS
 10
614.4721669651
 20
373.6996575288
 40
23.6319194267
100
AcDbArc
 50
270.0
 51
360.0
  0
ARC
  5
62B
100
AcDbEntity
  8
0
100
AcDbCircle
 62
7
  6
CONTINUOUS
 10
667.7221669651
 20
355.3746575288
 40
21.625
100
AcDbArc
 50
252.5076754749
 51
287.4923245251
  0
ARC
  5
62C
100
AcDbEntity
  8
0
100
AcDbCircle
 62
7
  6
CONTINUOUS
 10
687.3221669651
 20
337.3496575288
 40
2.4
100
AcDbArc
 50
270.0
 51
360.0
  0
ARC
  5
62D
100
AcDbEntity
  8
0
100
AcDbCircle
 62
7
  6
CONTINUOUS
 10
622.4120414246
 20
392.7035223708
 40
11.8634716271
100
AcDbArc
 50
49.8534694092
 51
54.3146497658
  0
ARC
  5
62E
100
AcDbEntity
  8
0
100
AcDbCircle
 62
7
  6
CONTINUOUS
 10
622.4763436896
 20
392.6397749217
 40
11.8630765947
100
AcDbArc
 50
35.6852759195
 51
40.1466049055
  0
ARC
  5
62F
100
AcDbEntity
  8
0
100
AcDbCircle
 62
7
  6
CONTINUOUS
 10
630.5177156897
 20
400.9488379416
 40
2.4017915876
100
AcDbArc
 50
167.5982881565
 51
179.9804483914
  0
ARC
  5
630
100
AcDbEntity
  8
0
100
AcDbCircle
 62
7
  6
CONTINUOUS
 10
630.5430531664
 20
400.9486229439
 40
2.1807810223
100
AcDbArc
 50
166.3123781982
 51
179.9728182924
  0
ARC
  5
631
100
AcDbEntity
  8
0
100
AcDbCircle
 62
7
  6
CONTINUOUS
 10
622.4305107102
 20
409.2977621938
 40
11.8912642285
100
AcDbArc
 50
320.0344157591
 51
323.3208297366
  0
ARC
  5
632
100
AcDbEntity
  8
0
100
AcDbCircle
 62
7
  6
CONTINUOUS
 10
622.4323114042
 20
409.1676168202
 40
11.7973659494
100
AcDbArc
 50
306.6660879251
 51
309.9786665791
  0
ARC
  5
633
100
AcDbEntity
  8
0
100
AcDbCircle
 62
7
  6
CONTINUOUS
 10
630.5177325113
 20
400.9504791448
 40
2.4018084099
100
AcDbArc
 50
180.019599868
 51
192.4016731518
  0
ARC
  5
634
100
AcDbEntity
  8
0
100
AcDbCircle
 62
7
  6
CONTINUOUS
 10
630.7221668075
 20
401.1620198162
 40
2.3938849576
100
AcDbArc
 50
77.576755418
 51
102.4232368575
  0
ARC
  5
635
100
AcDbEntity
  8
0
100
AcDbCircle
 62
7
  6
CONTINUOUS
 10
630.5430736448
 20
400.9506941006
 40
2.1808013901
100
AcDbArc
 50
180.0272336482
 51
193.6875455161
  0
ARC
  5
636
100
AcDbEntity
  8
0
100
AcDbCircle
 62
7
  6
CONTINUOUS
 10
630.7221668431
 20
401.1372454912
 40
2.1723039023
100
AcDbArc
 50
76.2860005536
 51
103.7139934443
  0
ARC
  5
637
100
AcDbEntity
  8
0
100
AcDbCircle
 62
7
  6
CONTINUOUS
 10
630.7221511996
 20
400.9496575288
 40
1.1699888785
100
AcDbArc
 50
333.8855515292
 51
26.1144484709
  0
ARC
  5
638
100
AcDbEntity
  8
0
100
AcDbCircle
 62
7
  6
CONTINUOUS
 10
639.0138232197
 20
392.601552864
 40
11.8912642283
100
AcDbArc
 50
140.0344157591
 51
143.3208297366
  0
ARC
  5
639
100
AcDbEntity
  8
0
100
AcDbCircle
 62
7
  6
CONTINUOUS
 10
639.0120225255
 20
392.731698238
 40
11.7973659487
100
AcDbArc
 50
126.666087925
 51
129.9786665792
  0
ARC
  5
63A
100
AcDbEntity
  8
0
100
AcDbCircle
 62
7
  6
CONTINUOUS
 10
630.7221807307
 20
400.9469500428
 40
4.6689496232
100
AcDbArc
 50
179.9667746396
 51
180.2815904105
  0
ARC
  5
63B
100
AcDbEntity
  8
0
100
AcDbCircle
 62
7
  6
CONTINUOUS
 10
630.926613414
 20
400.9488248075
 40
2.4017964186
100
AcDbArc
 50
0.0198648888
 51
12.4020073073
  0
ARC
  5
63C
100
AcDbEntity
  8
0
100
AcDbCircle
 62
7
  6
CONTINUOUS
 10
630.7221671197
 20
400.7372960658
 40
2.3938857585
100
AcDbArc
 50
257.576759711
 51
282.4232327054
  0
ARC
  5
63D
100
AcDbEntity
  8
0
100
AcDbCircle
 62
7
  6
CONTINUOUS
 10
630.9013932744
 20
400.9486348446
 40
2.1806698601
100
AcDbArc
 50
0.0268704084
 51
13.6880163366
  0
ARC
  5
63E
100
AcDbEntity
  8
0
100
AcDbCircle
 62
7
  6
CONTINUOUS
 10
630.7221670858
 20
400.7620703654
 40
2.172304673
100
AcDbArc
 50
256.2860055781
 51
283.713988487
  0
ARC
  5
63F
100
AcDbEntity
  8
0
100
AcDbCircle
 62
7
  6
CONTINUOUS
 10
630.7221669651
 20
400.9496409984
 40
1.1699883389
100
AcDbArc
 50
63.8855680186
 51
116.1144319814
  0
ARC
  5
640
100
AcDbEntity
  8
0
100
AcDbCircle
 62
7
  6
CONTINUOUS
 10
639.0322925054
 20
409.1957926868
 40
11.8634716269
100
AcDbArc
 50
229.8534694092
 51
234.3146497659
  0
ARC
  5
641
100
AcDbEntity
  8
0
100
AcDbCircle
 62
7
  6
CONTINUOUS
 10
638.8623590439
 20
409.1772612848
 40
11.7292846321
100
AcDbArc
 50
215.6598184033
 51
220.1720624216
  0
CIRCLE
  5
642
100
AcDbEntity
  8
0
100
AcDbCircle
 62
7
  6
CONTINUOUS
 10
630.7221669651
 20
400.9496575288
 40
4.75
  0
ARC
  5
643
100
AcDbEntity
  8
0
100
AcDbCircle
 62
7
  6
CONTINUOUS
 10
630.7221669651
 20
400.9496575288
 40
4.6689421051
100
AcDbArc
 50
180.3148161975
 51
180.0
  0
ARC
  5
644
100
AcDbEntity
  8
0
100
AcDbCircle
 62
7
  6
CONTINUOUS
 10
630.9269954446
 20
400.9504378571
 40
2.4014143704
100
AcDbArc
 50
347.5972681399
 51
359.9813820073
  0
ARC
  5
645
100
AcDbEntity
  8
0
100
AcDbCircle
 62
7
  6
CONTINUOUS
 10
630.9018595573
 20
400.9506256689
 40
2.1802035809
100
AcDbArc
 50
346.310475677
 51
359.9745572644
  0
ARC
  5
646
100
AcDbEntity
  8
0
100
AcDbCircle
 62
7
  6
CONTINUOUS
 10
630.7221827305
 20
400.9496575288
 40
1.1699888785
100
AcDbArc
 50
153.8855515292
 51
206.1144484708
  0
ARC
  5
647
100
AcDbEntity
  8
0
100
AcDbCircle
 62
7
  6
CONTINUOUS
 10
630.7221669651
 20
400.9496740593
 40
1.1699883389
100
AcDbArc
 50
243.8855680188
 51
296.1144319812
  0
CIRCLE
  5
648
100
AcDbEntity
  8
0
100
AcDbCircle
 62
7
  6
CONTINUOUS
 10
539.7221669651
 20
498.4496575288
 40
0.8660254038
  0
CIRCLE
  5
649
100
AcDbEntity
  8
0
100
AcDbCircle
 62
7
  6
CONTINUOUS
 10
539.7221669651
 20
473.4496575288
 40
0.8660254038
  0
CIRCLE
  5
64A
100
AcDbEntity
  8
0
100
AcDbCircle
 62
7
  6
CONTINUOUS
 10
539.7221669651
 20
448.4496575288
 40
0.8660254038
  0
CIRCLE
  5
64B
100
AcDbEntity
  8
0
100
AcDbCircle
 62
7
  6
CONTINUOUS
 10
564.7221669651
 20
498.4496575288
 40
0.8660254038
  0
CIRCLE
  5
64C
100
AcDbEntity
  8
0
100
AcDbCircle
 62
7
  6
CONTINUOUS
 10
564.7221669651
 20
473.4496575288
 40
0.8660254038
  0
CIRCLE
  5
64D
100
AcDbEntity
  8
0
100
AcDbCircle
 62
7
  6
CONTINUOUS
 10
564.7221669651
 20
448.4496575288
 40
0.8660254038
  0
CIRCLE
  5
64E
100
AcDbEntity
  8
0
100
AcDbCircle
 62
7
  6
CONTINUOUS
 10
539.7221669651
 20
523.4496575288
 40
0.8660254038
  0
CIRCLE
  5
64F
100
AcDbEntity
  8
0
100
AcDbCircle
 62
7
  6
CONTINUOUS
 10
564.7221669651
 20
523.4496575288
 40
0.8660254038
  0
CIRCLE
  5
650
100
AcDbEntity
  8
0
100
AcDbCircle
 62
7
  6
CONTINUOUS
 10
589.7221669651
 20
498.4496575288
 40
0.8660254038
  0
CIRCLE
  5
651
100
AcDbEntity
  8
0
100
AcDbCircle
 62
7
  6
CONTINUOUS
 10
589.7221669651
 20
473.4496575288
 40
0.8660254038
  0
CIRCLE
  5
652
100
AcDbEntity
  8
0
100
AcDbCircle
 62
7
  6
CONTINUOUS
 10
589.7221669651
 20
448.4496575288
 40
0.8660254038
  0
CIRCLE
  5
653
100
AcDbEntity
  8
0
100
AcDbCircle
 62
7
  6
CONTINUOUS
 10
589.7221669651
 20
523.4496575288
 40
0.8660254038
  0
ARC
  5
654
100
AcDbEntity
  8
0
100
AcDbCircle
 62
7
  6
CONTINUOUS
 10
612.2221669651
 20
545.9496575288
 40
25.0
100
AcDbArc
 50
0.0
 51
90.0
  0
ARC
  5
655
100
AcDbEntity
  8
0
100
AcDbCircle
 62
7
  6
CONTINUOUS
 10
622.4120414248
 20
512.703522371
 40
11.8634716268
100
AcDbArc
 50
49.8534694092
 51
54.3146497659
  0
ARC
  5
656
100
AcDbEntity
  8
0
100
AcDbCircle
 62
7
  6
CONTINUOUS
 10
622.47634369
 20
512.639774922
 40
11.8630765942
100
AcDbArc
 50
35.6852759194
 51
40.1466049055
  0
ARC
  5
657
100
AcDbEntity
  8
0
100
AcDbCircle
 62
7
  6
CONTINUOUS
 10
630.5177156897
 20
520.9488379416
 40
2.4017915876
100
AcDbArc
 50
167.5982881564
 51
179.9804483915
  0
ARC
  5
658
100
AcDbEntity
  8
0
100
AcDbCircle
 62
7
  6
CONTINUOUS
 10
630.5430531664
 20
520.9486229439
 40
2.1807810223
100
AcDbArc
 50
166.3123781982
 51
179.9728182924
  0
ARC
  5
659
100
AcDbEntity
  8
0
100
AcDbCircle
 62
7
  6
CONTINUOUS
 10
622.4305107105
 20
529.2977621936
 40
11.8912642283
100
AcDbArc
 50
320.0344157591
 51
323.3208297367
  0
ARC
  5
65A
100
AcDbEntity
  8
0
100
AcDbCircle
 62
7
  6
CONTINUOUS
 10
622.4323114048
 20
529.1676168194
 40
11.7973659484
100
AcDbArc
 50
306.666087925
 51
309.9786665793
  0
ARC
  5
65B
100
AcDbEntity
  8
0
100
AcDbCircle
 62
7
  6
CONTINUOUS
 10
630.5177325113
 20
520.9504791448
 40
2.4018084099
100
AcDbArc
 50
180.019599868
 51
192.4016731518
  0
ARC
  5
65C
100
AcDbEntity
  8
0
100
AcDbCircle
 62
7
  6
CONTINUOUS
 10
630.7221668075
 20
521.1620198162
 40
2.3938849576
100
AcDbArc
 50
77.576755418
 51
102.4232368575
  0
ARC
  5
65D
100
AcDbEntity
  8
0
100
AcDbCircle
 62
7
  6
CONTINUOUS
 10
630.5430736448
 20
520.9506941006
 40
2.1808013901
100
AcDbArc
 50
180.0272336482
 51
193.6875455162
  0
ARC
  5
65E
100
AcDbEntity
  8
0
100
AcDbCircle
 62
7
  6
CONTINUOUS
 10
630.7221668431
 20
521.1372454912
 40
2.1723039023
100
AcDbArc
 50
76.2860005536
 51
103.7139934442
  0
ARC
  5
65F
100
AcDbEntity
  8
0
100
AcDbCircle
 62
7
  6
CONTINUOUS
 10
630.7221511996
 20
520.9496575288
 40
1.1699888785
100
AcDbArc
 50
333.8855515292
 51
26.1144484708
  0
ARC
  5
660
100
AcDbEntity
  8
0
100
AcDbCircle
 62
7
  6
CONTINUOUS
 10
639.01382322
 20
512.6015528638
 40
11.8912642287
100
AcDbArc
 50
140.0344157591
 51
143.3208297366
  0
ARC
  5
661
100
AcDbEntity
  8
0
100
AcDbCircle
 62
7
  6
CONTINUOUS
 10
639.0120225255
 20
512.731698238
 40
11.7973659488
100
AcDbArc
 50
126.666087925
 51
129.9786665792
  0
ARC
  5
662
100
AcDbEntity
  8
0
100
AcDbCircle
 62
7
  6
CONTINUOUS
 10
630.7221807307
 20
520.9469500428
 40
4.6689496232
100
AcDbArc
 50
179.9667746396
 51
180.2815904105
  0
ARC
  5
663
100
AcDbEntity
  8
0
100
AcDbCircle
 62
7
  6
CONTINUOUS
 10
630.926613414
 20
520.9488248075
 40
2.4017964185
100
AcDbArc
 50
0.0198648887
 51
12.4020073073
  0
ARC
  5
664
100
AcDbEntity
  8
0
100
AcDbCircle
 62
7
  6
CONTINUOUS
 10
630.7221671197
 20
520.7372960658
 40
2.3938857585
100
AcDbArc
 50
257.576759711
 51
282.4232327053
  0
ARC
  5
665
100
AcDbEntity
  8
0
100
AcDbCircle
 62
7
  6
CONTINUOUS
 10
630.9013932744
 20
520.9486348446
 40
2.1806698601
100
AcDbArc
 50
0.0268704084
 51
13.6880163365
  0
ARC
  5
666
100
AcDbEntity
  8
0
100
AcDbCircle
 62
7
  6
CONTINUOUS
 10
630.7221670858
 20
520.7620703654
 40
2.172304673
100
AcDbArc
 50
256.2860055782
 51
283.7139884869
  0
ARC
  5
667
100
AcDbEntity
  8
0
100
AcDbCircle
 62
7
  6
CONTINUOUS
 10
630.7221669651
 20
520.9496409984
 40
1.1699883389
100
AcDbArc
 50
63.8855680186
 51
116.1144319814
  0
ARC
  5
668
100
AcDbEntity
  8
0
100
AcDbCircle
 62
7
  6
CONTINUOUS
 10
639.0322925053
 20
529.1957926865
 40
11.8634716266
100
AcDbArc
 50
229.8534694091
 51
234.3146497659
  0
ARC
  5
669
100
AcDbEntity
  8
0
100
AcDbCircle
 62
7
  6
CONTINUOUS
 10
638.8623590441
 20
529.177261285
 40
11.7292846324
100
AcDbArc
 50
215.6598184033
 51
220.1720624216
  0
CIRCLE
  5
66A
100
AcDbEntity
  8
0
100
AcDbCircle
 62
7
  6
CONTINUOUS
 10
630.7221669651
 20
520.9496575288
 40
4.75
  0
ARC
  5
66B
100
AcDbEntity
  8
0
100
AcDbCircle
 62
7
  6
CONTINUOUS
 10
630.7221669651
 20
520.9496575288
 40
4.6689421051
100
AcDbArc
 50
180.3148161975
 51
180.0
  0
ARC
  5
66C
100
AcDbEntity
  8
0
100
AcDbCircle
 62
7
  6
CONTINUOUS
 10
630.9269954446
 20
520.9504378571
 40
2.4014143704
100
AcDbArc
 50
347.5972681399
 51
359.9813820073
  0
ARC
  5
66D
100
AcDbEntity
  8
0
100
AcDbCircle
 62
7
  6
CONTINUOUS
 10
630.9018595572
 20
520.9506256689
 40
2.180203581
100
AcDbArc
 50
346.3104756772
 51
359.9745572642
  0
ARC
  5
66E
100
AcDbEntity
  8
0
100
AcDbCircle
 62
7
  6
CONTINUOUS
 10
630.7221827305
 20
520.9496575288
 40
1.1699888785
100
AcDbArc
 50
153.8855515292
 51
206.1144484708
  0
ARC
  5
66F
100
AcDbEntity
  8
0
100
AcDbCircle
 62
7
  6
CONTINUOUS
 10
630.7221669651
 20
520.9496740593
 40
1.1699883389
100
AcDbArc
 50
243.8855680189
 51
296.1144319811
  0
ARC
  5
670
100
AcDbEntity
  8
0
100
AcDbCircle
 62
7
  6
CONTINUOUS
 10
615.4721669651
 20
549.1996575288
 40
27.0
100
AcDbArc
 50
0.0
 51
90.0
  0
ARC
  5
671
100
AcDbEntity
  8
0
100
AcDbCircle
 62
7
  6
CONTINUOUS
 10
614.4721669651
 20
548.1996575288
 40
26.6781992623
100
AcDbArc
 50
0.0
 51
90.0000000017
  0
ARC
  5
672
100
AcDbEntity
  8
0
100
AcDbCircle
 62
7
  6
CONTINUOUS
 10
615.4721669651
 20
549.1996575288
 40
26.5
100
AcDbArc
 50
0.0
 51
90.0
  0
ARC
  5
673
100
AcDbEntity
  8
0
100
AcDbCircle
 62
7
  6
CONTINUOUS
 10
614.4721669651
 20
548.1996575288
 40
24.7085837563
100
AcDbArc
 50
0.0
 51
90.0
  0
ARC
  5
674
100
AcDbEntity
  8
0
100
AcDbCircle
 62
7
  6
CONTINUOUS
 10
614.4721669651
 20
548.1996575288
 40
24.6167271797
100
AcDbArc
 50
0.0
 51
90.0
  0
ARC
  5
675
100
AcDbEntity
  8
0
100
AcDbCircle
 62
7
  6
CONTINUOUS
 10
614.4721669651
 20
548.1996575288
 40
23.6319194267
100
AcDbArc
 50
0.0
 51
90.0
  0
ARC
  5
676
100
AcDbEntity
  8
0
100
AcDbCircle
 62
7
  6
CONTINUOUS
 10
458.0138232196
 20
556.1015528641
 40
11.8912642282
100
AcDbArc
 50
140.0344157591
 51
143.3208297367
  0
ARC
  5
677
100
AcDbEntity
  8
0
100
AcDbCircle
 62
7
  6
CONTINUOUS
 10
441.4120414248
 20
556.203522371
 40
11.8634716268
100
AcDbArc
 50
49.8534694092
 51
54.3146497659
  0
ARC
  5
678
100
AcDbEntity
  8
0
100
AcDbCircle
 62
7
  6
CONTINUOUS
 10
441.4763436899
 20
556.1397749219
 40
11.8630765943
100
AcDbArc
 50
35.6852759194
 51
40.1466049055
  0
ARC
  5
679
100
AcDbEntity
  8
0
100
AcDbCircle
 62
7
  6
CONTINUOUS
 10
458.0120225253
 20
556.2316982383
 40
11.7973659484
100
AcDbArc
 50
126.666087925
 51
129.9786665793
  0
ARC
  5
67A
100
AcDbEntity
  8
0
100
AcDbCircle
 62
7
  6
CONTINUOUS
 10
449.7221807306
 20
564.4469500428
 40
4.6689496231
100
AcDbArc
 50
179.9667746396
 51
180.2815904105
  0
ARC
  5
67B
100
AcDbEntity
  8
0
100
AcDbCircle
 62
7
  6
CONTINUOUS
 10
449.9266134141
 20
564.4488248075
 40
2.4017964185
100
AcDbArc
 50
0.0198648886
 51
12.4020073074
  0
ARC
  5
67C
100
AcDbEntity
  8
0
100
AcDbCircle
 62
7
  6
CONTINUOUS
 10
449.5177156897
 20
564.4488379416
 40
2.4017915876
100
AcDbArc
 50
167.5982881565
 51
179.9804483914
  0
ARC
  5
67D
100
AcDbEntity
  8
0
100
AcDbCircle
 62
7
  6
CONTINUOUS
 10
449.7221671197
 20
564.2372960658
 40
2.3938857585
100
AcDbArc
 50
257.576759711
 51
282.4232327053
  0
ARC
  5
67E
100
AcDbEntity
  8
0
100
AcDbCircle
 62
7
  6
CONTINUOUS
 10
449.5430531664
 20
564.4486229439
 40
2.1807810223
100
AcDbArc
 50
166.3123781981
 51
179.9728182923
  0
ARC
  5
67F
100
AcDbEntity
  8
0
100
AcDbCircle
 62
7
  6
CONTINUOUS
 10
449.9013932744
 20
564.4486348446
 40
2.18066986
100
AcDbArc
 50
0.0268704084
 51
13.6880163367
  0
ARC
  5
680
100
AcDbEntity
  8
0
100
AcDbCircle
 62
7
  6
CONTINUOUS
 10
449.7221670858
 20
564.2620703654
 40
2.172304673
100
AcDbArc
 50
256.2860055782
 51
283.7139884869
  0
ARC
  5
681
100
AcDbEntity
  8
0
100
AcDbCircle
 62
7
  6
CONTINUOUS
 10
449.7221669651
 20
564.4496409984
 40
1.1699883389
100
AcDbArc
 50
63.8855680187
 51
116.1144319813
  0
ARC
  5
682
100
AcDbEntity
  8
0
100
AcDbCircle
 62
7
  6
CONTINUOUS
 10
441.43051071
 20
572.797762194
 40
11.8912642289
100
AcDbArc
 50
320.0344157592
 51
323.3208297366
  0
ARC
  5
683
100
AcDbEntity
  8
0
100
AcDbCircle
 62
7
  6
CONTINUOUS
 10
458.0322925055
 20
572.6957926868
 40
11.863471627
100
AcDbArc
 50
229.8534694092
 51
234.3146497659
  0
ARC
  5
684
100
AcDbEntity
  8
0
100
AcDbCircle
 62
7
  6
CONTINUOUS
 10
441.4323114049
 20
572.6676168194
 40
11.7973659484
100
AcDbArc
 50
306.666087925
 51
309.9786665793
  0
ARC
  5
685
100
AcDbEntity
  8
0
100
AcDbCircle
 62
7
  6
CONTINUOUS
 10
457.8623590441
 20
572.677261285
 40
11.7292846324
100
AcDbArc
 50
215.6598184033
 51
220.1720624216
  0
CIRCLE
  5
686
100
AcDbEntity
  8
0
100
AcDbCircle
 62
7
  6
CONTINUOUS
 10
449.7221669651
 20
564.4496575288
 40
4.75
  0
ARC
  5
687
100
AcDbEntity
  8
0
100
AcDbCircle
 62
7
  6
CONTINUOUS
 10
449.7221669651
 20
564.4496575288
 40
4.6689421051
100
AcDbArc
 50
180.3148161975
 51
180.0
  0
ARC
  5
688
100
AcDbEntity
  8
0
100
AcDbCircle
 62
7
  6
CONTINUOUS
 10
449.5177325113
 20
564.4504791448
 40
2.4018084099
100
AcDbArc
 50
180.019599868
 51
192.4016731518
  0
ARC
  5
689
100
AcDbEntity
  8
0
100
AcDbCircle
 62
7
  6
CONTINUOUS
 10
449.9269954446
 20
564.4504378571
 40
2.4014143704
100
AcDbArc
 50
347.5972681398
 51
359.9813820074
  0
ARC
  5
68A
100
AcDbEntity
  8
0
100
AcDbCircle
 62
7
  6
CONTINUOUS
 10
449.7221668075
 20
564.6620198162
 40
2.3938849576
100
AcDbArc
 50
77.576755418
 51
102.4232368574
  0
ARC
  5
68B
100
AcDbEntity
  8
0
100
AcDbCircle
 62
7
  6
CONTINUOUS
 10
449.5430736448
 20
564.4506941006
 40
2.1808013901
100
AcDbArc
 50
180.0272336483
 51
193.6875455162
  0
ARC
  5
68C
100
AcDbEntity
  8
0
100
AcDbCircle
 62
7
  6
CONTINUOUS
 10
449.9018595574
 20
564.4506256689
 40
2.1802035808
100
AcDbArc
 50
346.3104756765
 51
359.9745572649
  0
ARC
  5
68D
100
AcDbEntity
  8
0
100
AcDbCircle
 62
7
  6
CONTINUOUS
 10
449.7221668431
 20
564.6372454912
 40
2.1723039023
100
AcDbArc
 50
76.2860005535
 51
103.7139934443
  0
ARC
  5
68E
100
AcDbEntity
  8
0
100
AcDbCircle
 62
7
  6
CONTINUOUS
 10
449.7221827305
 20
564.4496575288
 40
1.1699888785
100
AcDbArc
 50
153.8855515293
 51
206.1144484707
  0
ARC
  5
68F
100
AcDbEntity
  8
0
100
AcDbCircle
 62
7
  6
CONTINUOUS
 10
449.7221511996
 20
564.4496575288
 40
1.1699888785
100
AcDbArc
 50
333.8855515292
 51
26.1144484708
  0
ARC
  5
690
100
AcDbEntity
  8
0
100
AcDbCircle
 62
7
  6
CONTINUOUS
 10
449.7221669651
 20
564.4496740593
 40
1.1699883389
100
AcDbArc
 50
243.8855680189
 51
296.1144319811
  0
ARC
  5
691
100
AcDbEntity
  8
0
100
AcDbCircle
 62
7
  6
CONTINUOUS
 10
578.0138232199
 20
556.1015528639
 40
11.8912642285
100
AcDbArc
 50
140.0344157591
 51
143.3208297366
  0
ARC
  5
692
100
AcDbEntity
  8
0
100
AcDbCircle
 62
7
  6
CONTINUOUS
 10
561.4120414247
 20
556.2035223709
 40
11.863471627
100
AcDbArc
 50
49.8534694092
 51
54.3146497659
  0
ARC
  5
693
100
AcDbEntity
  8
0
100
AcDbCircle
 62
7
  6
CONTINUOUS
 10
561.4763436898
 20
556.1397749219
 40
11.8630765945
100
AcDbArc
 50
35.6852759194
 51
40.1466049055
  0
ARC
  5
694
100
AcDbEntity
  8
0
100
AcDbCircle
 62
7
  6
CONTINUOUS
 10
578.0120225255
 20
556.2316982381
 40
11.7973659487
100
AcDbArc
 50
126.666087925
 51
129.9786665792
  0
ARC
  5
695
100
AcDbEntity
  8
0
100
AcDbCircle
 62
7
  6
CONTINUOUS
 10
569.7221807306
 20
564.4469500428
 40
4.6689496231
100
AcDbArc
 50
179.9667746396
 51
180.2815904105
  0
ARC
  5
696
100
AcDbEntity
  8
0
100
AcDbCircle
 62
7
  6
CONTINUOUS
 10
569.926613414
 20
564.4488248075
 40
2.4017964186
100
AcDbArc
 50
0.0198648888
 51
12.4020073073
  0
ARC
  5
697
100
AcDbEntity
  8
0
100
AcDbCircle
 62
7
  6
CONTINUOUS
 10
569.5177156897
 20
564.4488379416
 40
2.4017915876
100
AcDbArc
 50
167.5982881564
 51
179.9804483915
  0
ARC
  5
698
100
AcDbEntity
  8
0
100
AcDbCircle
 62
7
  6
CONTINUOUS
 10
569.7221671197
 20
564.2372960658
 40
2.3938857585
100
AcDbArc
 50
257.576759711
 51
282.4232327053
  0
ARC
  5
699
100
AcDbEntity
  8
0
100
AcDbCircle
 62
7
  6
CONTINUOUS
 10
569.5430531664
 20
564.4486229439
 40
2.1807810223
100
AcDbArc
 50
166.3123781982
 51
179.9728182924
  0
ARC
  5
69A
100
AcDbEntity
  8
0
100
AcDbCircle
 62
7
  6
CONTINUOUS
 10
569.9013932744
 20
564.4486348446
 40
2.1806698601
100
AcDbArc
 50
0.0268704084
 51
13.6880163366
  0
ARC
  5
69B
100
AcDbEntity
  8
0
100
AcDbCircle
 62
7
  6
CONTINUOUS
 10
569.7221670858
 20
564.2620703654
 40
2.172304673
100
AcDbArc
 50
256.2860055782
 51
283.7139884869
  0
ARC
  5
69C
100
AcDbEntity
  8
0
100
AcDbCircle
 62
7
  6
CONTINUOUS
 10
569.7221669651
 20
564.4496409984
 40
1.1699883389
100
AcDbArc
 50
63.8855680186
 51
116.1144319814
  0
ARC
  5
69D
100
AcDbEntity
  8
0
100
AcDbCircle
 62
7
  6
CONTINUOUS
 10
561.4305107102
 20
572.7977621938
 40
11.8912642285
100
AcDbArc
 50
320.0344157591
 51
323.3208297366
  0
ARC
  5
69E
100
AcDbEntity
  8
0
100
AcDbCircle
 62
7
  6
CONTINUOUS
 10
578.0322925054
 20
572.6957926867
 40
11.8634716268
100
AcDbArc
 50
229.8534694092
 51
234.3146497659
  0
ARC
  5
69F
100
AcDbEntity
  8
0
100
AcDbCircle
 62
7
  6
CONTINUOUS
 10
561.4323114047
 20
572.6676168195
 40
11.7973659486
100
AcDbArc
 50
306.666087925
 51
309.9786665793
  0
ARC
  5
6A0
100
AcDbEntity
  8
0
100
AcDbCircle
 62
7
  6
CONTINUOUS
 10
577.8623590438
 20
572.6772612847
 40
11.729284632
100
AcDbArc
 50
215.6598184033
 51
220.1720624217
  0
CIRCLE
  5
6A1
100
AcDbEntity
  8
0
100
AcDbCircle
 62
7
  6
CONTINUOUS
 10
569.7221669651
 20
564.4496575288
 40
4.75
  0
ARC
  5
6A2
100
AcDbEntity
  8
0
100
AcDbCircle
 62
7
  6
CONTINUOUS
 10
569.7221669651
 20
564.4496575288
 40
4.6689421051
100
AcDbArc
 50
180.3148161975
 51
180.0
  0
ARC
  5
6A3
100
AcDbEntity
  8
0
100
AcDbCircle
 62
7
  6
CONTINUOUS
 10
569.5177325113
 20
564.4504791448
 40
2.4018084099
100
AcDbArc
 50
180.019599868
 51
192.4016731518
  0
ARC
  5
6A4
100
AcDbEntity
  8
0
100
AcDbCircle
 62
7
  6
CONTINUOUS
 10
569.9269954446
 20
564.4504378571
 40
2.4014143704
100
AcDbArc
 50
347.5972681399
 51
359.9813820073
  0
ARC
  5
6A5
100
AcDbEntity
  8
0
100
AcDbCircle
 62
7
  6
CONTINUOUS
 10
569.7221668075
 20
564.6620198162
 40
2.3938849576
100
AcDbArc
 50
77.576755418
 51
102.4232368574
  0
ARC
  5
6A6
100
AcDbEntity
  8
0
100
AcDbCircle
 62
7
  6
CONTINUOUS
 10
569.5430736448
 20
564.4506941006
 40
2.1808013901
100
AcDbArc
 50
180.0272336482
 51
193.6875455161
  0
ARC
  5
6A7
100
AcDbEntity
  8
0
100
AcDbCircle
 62
7
  6
CONTINUOUS
 10
569.9018595572
 20
564.4506256689
 40
2.180203581
100
AcDbArc
 50
346.3104756771
 51
359.9745572643
  0
ARC
  5
6A8
100
AcDbEntity
  8
0
100
AcDbCircle
 62
7
  6
CONTINUOUS
 10
569.7221668431
 20
564.6372454912
 40
2.1723039023
100
AcDbArc
 50
76.2860005535
 51
103.7139934443
  0
ARC
  5
6A9
100
AcDbEntity
  8
0
100
AcDbCircle
 62
7
  6
CONTINUOUS
 10
569.7221827305
 20
564.4496575288
 40
1.1699888785
100
AcDbArc
 50
153.8855515292
 51
206.1144484708
  0
ARC
  5
6AA
100
AcDbEntity
  8
0
100
AcDbCircle
 62
7
  6
CONTINUOUS
 10
569.7221511996
 20
564.4496575288
 40
1.1699888785
100
AcDbArc
 50
333.8855515292
 51
26.1144484708
  0
ARC
  5
6AB
100
AcDbEntity
  8
0
100
AcDbCircle
 62
7
  6
CONTINUOUS
 10
569.7221669651
 20
564.4496740593
 40
1.1699883389
100
AcDbArc
 50
243.8855680189
 51
296.1144319811
  0
ARC
  5
6AC
100
AcDbEntity
  8
0
100
AcDbCircle
 62
7
  6
CONTINUOUS
 10
737.0331492532
 20
774.1804599603
 40
90.6027763437
100
AcDbArc
 50
221.6653646846
 51
221.8623876132
  0
ARC
  5
6AD
100
AcDbEntity
  8
0
100
AcDbCircle
 62
7
  6
CONTINUOUS
 10
614.5439819962
 20
665.2133402833
 40
73.3405982183
100
AcDbArc
 50
41.6455244388
 51
41.9515036365
  0
ARC
  5
6AE
100
AcDbEntity
  8
0
100
AcDbCircle
 62
7
  6
CONTINUOUS
 10
646.2054538374
 20
693.6390938676
 40
30.790971261
100
AcDbArc
 50
41.9983832156
 51
42.2232447429
  0
ARC
  5
6AF
100
AcDbEntity
  8
0
100
AcDbCircle
 62
7
  6
CONTINUOUS
 10
673.228310419
 20
733.5165812759
 40
5.9323921846
100
AcDbArc
 50
38.2972820102
 51
40.5354516597
  0
ARC
  5
6B0
100
AcDbEntity
  8
0
100
AcDbCircle
 62
7
  6
CONTINUOUS
 10
686.5221669651
 20
708.7496575288
 40
3.2
100
AcDbArc
 50
0.0
 51
81.5625996366
  0
ARC
  5
6B1
100
AcDbEntity
  8
0
100
AcDbCircle
 62
7
  6
CONTINUOUS
 10
675.310919892
 20
735.42204728
 40
3.1080055899
100
AcDbArc
 50
45.465983019
 51
47.8397254578
  0
ARC
  5
6B2
100
AcDbEntity
  8
0
100
AcDbCircle
 62
7
  6
CONTINUOUS
 10
672.9352639692
 20
714.4496575288
 40
2.5
100
AcDbArc
 50
169.0
 51
270.0
  0
ARC
  5
6B3
100
AcDbEntity
  8
0
100
AcDbCircle
 62
7
  6
CONTINUOUS
 10
676.7660532158
 20
735.7599541403
 40
2.4
100
AcDbArc
 50
55.0000000008
 51
90.0
  0
ARC
  5
6B4
100
AcDbEntity
  8
0
100
AcDbCircle
 62
7
  6
CONTINUOUS
 10
685.1227703091
 20
729.9085178368
 40
2.4
100
AcDbArc
 50
0.0
 51
55.0000000008
  0
ARC
  5
6B5
100
AcDbEntity
  8
0
100
AcDbCircle
 62
7
  6
CONTINUOUS
 10
685.4221669651
 20
711.3296575288
 40
2.12
100
AcDbArc
 50
31.8907918018
 51
90.0
  0
ARC
  5
6B6
100
AcDbEntity
  8
0
100
AcDbCircle
 62
7
  6
CONTINUOUS
 10
683.834299407
 20
712.1496575288
 40
2.0
100
AcDbArc
 50
48.8140748343
 51
90.0
  0
ARC
  5
6B7
100
AcDbEntity
  8
0
100
AcDbCircle
 62
7
  6
CONTINUOUS
 10
672.1483609733
 20
713.9496575288
 40
2.0
100
AcDbArc
 50
168.9999999987
 51
270.0
  0
ARC
  5
6B8
100
AcDbEntity
  8
0
100
AcDbCircle
 62
7
  6
CONTINUOUS
 10
686.5221669651
 20
708.7496575288
 40
2.0
100
AcDbArc
 50
0.0
 51
42.7765354665
  0
ARC
  5
6B9
100
AcDbEntity
  8
0
100
AcDbCircle
 62
7
  6
CONTINUOUS
 10
686.2227703091
 20
719.4599541403
 40
1.3
100
AcDbArc
 50
247.3253241879
 51
360.0
  0
ARC
  5
6BA
100
AcDbEntity
  8
0
100
AcDbCircle
 62
7
  6
CONTINUOUS
 10
685.1227703091
 20
729.9085178368
 40
1.2
100
AcDbArc
 50
0.0
 51
55.0000000016
  0
ARC
  5
6BB
100
AcDbEntity
  8
0
100
AcDbCircle
 62
7
  6
CONTINUOUS
 10
672.9352639692
 20
714.4496575288
 40
1.0
100
AcDbArc
 50
169.0
 51
270.0
  0
ARC
  5
6BC
100
AcDbEntity
  8
0
100
AcDbCircle
 62
7
  6
CONTINUOUS
 10
677.9415751285
 20
713.9496575288
 40
0.2
100
AcDbArc
 50
90.0
 51
164.0546040991
  0
LINE
  5
6BD
100
AcDbEntity
  8
0
100
AcDbLine
 62
7
  6
CONTINUOUS
 10
630.0609509205
 20
521.7719369274
 11
630.0695748896
 21
521.7719552318
  0
LINE
  5
6BE
100
AcDbEntity
  8
0
100
AcDbLine
 62
7
  6
CONTINUOUS
 10
629.8998692621
 20
521.6022496043
 11
629.8998875665
 21
521.6108735734
  0
LINE
  5
6BF
100
AcDbEntity
  8
0
100
AcDbLine
 62
7
  6
CONTINUOUS
 10
629.8999967369
 20
520.239637165
 11
629.8998692621
 21
520.2970654534
  0
LINE
  5
6C0
100
AcDbEntity
  8
0
100
AcDbLine
 62
7
  6
CONTINUOUS
 10
629.7626103214
 20
520.4346575288
 11
629.8998692621
 21
520.2970654534
  0
LINE
  5
6C1
100
AcDbEntity
  8
0
100
AcDbLine
 62
7
  6
CONTINUOUS
 10
630.0695748896
 20
520.1273598259
 11
630.0121466012
 21
520.1274873007
  0
LINE
  5
6C2
100
AcDbEntity
  8
0
100
AcDbLine
 62
7
  6
CONTINUOUS
 10
630.0695748896
 20
520.1273598259
 11
630.2071669651
 21
519.9901008852
  0
LINE
  5
6C3
100
AcDbEntity
  8
0
100
AcDbLine
 62
7
  6
CONTINUOUS
 10
631.544464668
 20
521.6022496043
 11
631.5443371932
 21
521.6596778927
  0
LINE
  5
6C4
100
AcDbEntity
  8
0
100
AcDbLine
 62
7
  6
CONTINUOUS
 10
631.544464668
 20
520.2970654534
 11
631.6817236088
 21
520.4346575288
  0
LINE
  5
6C5
100
AcDbEntity
  8
0
100
AcDbLine
 62
7
  6
CONTINUOUS
 10
631.3833830096
 20
520.1273781303
 11
631.3747590405
 21
520.1273598259
  0
LINE
  5
6C6
100
AcDbEntity
  8
0
100
AcDbLine
 62
7
  6
CONTINUOUS
 10
631.4321873289
 20
521.771827757
 11
631.3747590405
 21
521.7719552318
  0
LINE
  5
6C7
100
AcDbEntity
  8
0
100
AcDbLine
 62
7
  6
CONTINUOUS
 10
631.2371669651
 20
519.9901008852
 11
631.3747590405
 21
520.1273598259
  0
LINE
  5
6C8
100
AcDbEntity
  8
0
100
AcDbLine
 62
7
  6
CONTINUOUS
 10
631.3747590405
 20
521.7719552318
 11
631.2371669651
 21
521.9092141725
  0
LINE
  5
6C9
100
AcDbEntity
  8
0
100
AcDbLine
 62
7
  6
CONTINUOUS
 10
631.544464668
 20
520.2970654534
 11
631.5444463636
 21
520.2884414843
  0
LINE
  5
6CA
100
AcDbEntity
  8
0
100
AcDbLine
 62
7
  6
CONTINUOUS
 10
631.6817236088
 20
521.4646575288
 11
631.544464668
 21
521.6022496043
  0
LINE
  5
6CB
100
AcDbEntity
  8
0
100
AcDbLine
 62
7
  6
CONTINUOUS
 10
630.2071669651
 20
521.9092141725
 11
630.0695748896
 21
521.7719552318
  0
LINE
  5
6CC
100
AcDbEntity
  8
0
100
AcDbLine
 62
7
  6
CONTINUOUS
 10
629.8998692621
 20
521.6022496043
 11
629.7626103214
 21
521.4646575288
  0
LINE
  5
6CD
100
AcDbEntity
  8
0
100
AcDbLine
 62
7
  6
CONTINUOUS
 10
449.0609509205
 20
358.2719369274
 11
449.0695748896
 21
358.2719552318
  0
LINE
  5
6CE
100
AcDbEntity
  8
0
100
AcDbLine
 62
7
  6
CONTINUOUS
 10
448.8998692621
 20
358.1022496043
 11
448.8998875665
 21
358.1108735734
  0
LINE
  5
6CF
100
AcDbEntity
  8
0
100
AcDbLine
 62
7
  6
CONTINUOUS
 10
448.8999967369
 20
356.739637165
 11
448.8998692621
 21
356.7970654534
  0
LINE
  5
6D0
100
AcDbEntity
  8
0
100
AcDbLine
 62
7
  6
CONTINUOUS
 10
448.7626103214
 20
356.9346575288
 11
448.8998692621
 21
356.7970654534
  0
LINE
  5
6D1
100
AcDbEntity
  8
0
100
AcDbLine
 62
7
  6
CONTINUOUS
 10
449.0695748896
 20
356.6273598259
 11
449.0121466012
 21
356.6274873007
  0
LINE
  5
6D2
100
AcDbEntity
  8
0
100
AcDbLine
 62
7
  6
CONTINUOUS
 10
449.0695748896
 20
356.6273598259
 11
449.2071669651
 21
356.4901008852
  0
LINE
  5
6D3
100
AcDbEntity
  8
0
100
AcDbLine
 62
7
  6
CONTINUOUS
 10
450.544464668
 20
358.1022496043
 11
450.5443371932
 21
358.1596778927
  0
LINE
  5
6D4
100
AcDbEntity
  8
0
100
AcDbLine
 62
7
  6
CONTINUOUS
 10
450.544464668
 20
356.7970654534
 11
450.6817236088
 21
356.9346575288
  0
LINE
  5
6D5
100
AcDbEntity
  8
0
100
AcDbLine
 62
7
  6
CONTINUOUS
 10
450.3833830096
 20
356.6273781303
 11
450.3747590405
 21
356.6273598259
  0
LINE
  5
6D6
100
AcDbEntity
  8
0
100
AcDbLine
 62
7
  6
CONTINUOUS
 10
450.4321873289
 20
358.271827757
 11
450.3747590405
 21
358.2719552318
  0
LINE
  5
6D7
100
AcDbEntity
  8
0
100
AcDbLine
 62
7
  6
CONTINUOUS
 10
450.2371669651
 20
356.4901008852
 11
450.3747590405
 21
356.6273598259
  0
LINE
  5
6D8
100
AcDbEntity
  8
0
100
AcDbLine
 62
7
  6
CONTINUOUS
 10
450.3747590405
 20
358.2719552318
 11
450.2371669651
 21
358.4092141725
  0
LINE
  5
6D9
100
AcDbEntity
  8
0
100
AcDbLine
 62
7
  6
CONTINUOUS
 10
450.544464668
 20
356.7970654534
 11
450.5444463636
 21
356.7884414843
  0
LINE
  5
6DA
100
AcDbEntity
  8
0
100
AcDbLine
 62
7
  6
CONTINUOUS
 10
450.6817236088
 20
357.9646575288
 11
450.544464668
 21
358.1022496043
  0
LINE
  5
6DB
100
AcDbEntity
  8
0
100
AcDbLine
 62
7
  6
CONTINUOUS
 10
449.2071669651
 20
358.4092141725
 11
449.0695748896
 21
358.2719552318
  0
LINE
  5
6DC
100
AcDbEntity
  8
0
100
AcDbLine
 62
7
  6
CONTINUOUS
 10
448.8998692621
 20
358.1022496043
 11
448.7626103214
 21
357.9646575288
  0
LINE
  5
6DD
100
AcDbEntity
  8
0
100
AcDbLine
 62
7
  6
CONTINUOUS
 10
449.0609509205
 20
565.2719369274
 11
449.0695748896
 21
565.2719552318
  0
LINE
  5
6DE
100
AcDbEntity
  8
0
100
AcDbLine
 62
7
  6
CONTINUOUS
 10
448.8998692621
 20
565.1022496043
 11
448.8998875665
 21
565.1108735734
  0
LINE
  5
6DF
100
AcDbEntity
  8
0
100
AcDbLine
 62
7
  6
CONTINUOUS
 10
448.8999967369
 20
563.739637165
 11
448.8998692621
 21
563.7970654534
  0
LINE
  5
6E0
100
AcDbEntity
  8
0
100
AcDbLine
 62
7
  6
CONTINUOUS
 10
448.7626103214
 20
563.9346575288
 11
448.8998692621
 21
563.7970654534
  0
LINE
  5
6E1
100
AcDbEntity
  8
0
100
AcDbLine
 62
7
  6
CONTINUOUS
 10
449.0695748896
 20
563.6273598259
 11
449.0121466012
 21
563.6274873007
  0
LINE
  5
6E2
100
AcDbEntity
  8
0
100
AcDbLine
 62
7
  6
CONTINUOUS
 10
449.0695748896
 20
563.6273598259
 11
449.2071669651
 21
563.4901008852
  0
LINE
  5
6E3
100
AcDbEntity
  8
0
100
AcDbLine
 62
7
  6
CONTINUOUS
 10
450.544464668
 20
565.1022496043
 11
450.5443371932
 21
565.1596778927
  0
LINE
  5
6E4
100
AcDbEntity
  8
0
100
AcDbLine
 62
7
  6
CONTINUOUS
 10
450.544464668
 20
563.7970654534
 11
450.6817236088
 21
563.9346575288
  0
LINE
  5
6E5
100
AcDbEntity
  8
0
100
AcDbLine
 62
7
  6
CONTINUOUS
 10
450.3833830096
 20
563.6273781303
 11
450.3747590405
 21
563.6273598259
  0
LINE
  5
6E6
100
AcDbEntity
  8
0
100
AcDbLine
 62
7
  6
CONTINUOUS
 10
450.4321873289
 20
565.271827757
 11
450.3747590405
 21
565.2719552318
  0
LINE
  5
6E7
100
AcDbEntity
  8
0
100
AcDbLine
 62
7
  6
CONTINUOUS
 10
450.2371669651
 20
563.4901008852
 11
450.3747590405
 21
563.6273598259
  0
LINE
  5
6E8
100
AcDbEntity
  8
0
100
AcDbLine
 62
7
  6
CONTINUOUS
 10
450.3747590405
 20
565.2719552318
 11
450.2371669651
 21
565.4092141725
  0
LINE
  5
6E9
100
AcDbEntity
  8
0
100
AcDbLine
 62
7
  6
CONTINUOUS
 10
450.544464668
 20
563.7970654534
 11
450.5444463636
 21
563.7884414843
  0
LINE
  5
6EA
100
AcDbEntity
  8
0
100
AcDbLine
 62
7
  6
CONTINUOUS
 10
450.6817236088
 20
564.9646575288
 11
450.544464668
 21
565.1022496043
  0
LINE
  5
6EB
100
AcDbEntity
  8
0
100
AcDbLine
 62
7
  6
CONTINUOUS
 10
449.2071669651
 20
565.4092141725
 11
449.0695748896
 21
565.2719552318
  0
LINE
  5
6EC
100
AcDbEntity
  8
0
100
AcDbLine
 62
7
  6
CONTINUOUS
 10
448.8998692621
 20
565.1022496043
 11
448.7626103214
 21
564.9646575288
  0
LINE
  5
6ED
100
AcDbEntity
  8
0
100
AcDbLine
 62
7
  6
CONTINUOUS
 10
630.0609509205
 20
401.7719369274
 11
630.0695748896
 21
401.7719552318
  0
LINE
  5
6EE
100
AcDbEntity
  8
0
100
AcDbLine
 62
7
  6
CONTINUOUS
 10
629.8998692621
 20
401.6022496043
 11
629.8998875665
 21
401.6108735734
  0
LINE
  5
6EF
100
AcDbEntity
  8
0
100
AcDbLine
 62
7
  6
CONTINUOUS
 10
629.8999967369
 20
400.239637165
 11
629.8998692621
 21
400.2970654534
  0
LINE
  5
6F0
100
AcDbEntity
  8
0
100
AcDbLine
 62
7
  6
CONTINUOUS
 10
629.7626103214
 20
400.4346575288
 11
629.8998692621
 21
400.2970654534
  0
LINE
  5
6F1
100
AcDbEntity
  8
0
100
AcDbLine
 62
7
  6
CONTINUOUS
 10
630.0695748896
 20
400.1273598259
 11
630.0121466012
 21
400.1274873007
  0
LINE
  5
6F2
100
AcDbEntity
  8
0
100
AcDbLine
 62
7
  6
CONTINUOUS
 10
630.0695748896
 20
400.1273598259
 11
630.2071669651
 21
399.9901008852
  0
LINE
  5
6F3
100
AcDbEntity
  8
0
100
AcDbLine
 62
7
  6
CONTINUOUS
 10
631.544464668
 20
401.6022496043
 11
631.5443371932
 21
401.6596778927
  0
LINE
  5
6F4
100
AcDbEntity
  8
0
100
AcDbLine
 62
7
  6
CONTINUOUS
 10
631.544464668
 20
400.2970654534
 11
631.6817236088
 21
400.4346575288
  0
LINE
  5
6F5
100
AcDbEntity
  8
0
100
AcDbLine
 62
7
  6
CONTINUOUS
 10
631.3833830096
 20
400.1273781303
 11
631.3747590405
 21
400.1273598259
  0
LINE
  5
6F6
100
AcDbEntity
  8
0
100
AcDbLine
 62
7
  6
CONTINUOUS
 10
631.4321873289
 20
401.771827757
 11
631.3747590405
 21
401.7719552318
  0
LINE
  5
6F7
100
AcDbEntity
  8
0
100
AcDbLine
 62
7
  6
CONTINUOUS
 10
631.2371669651
 20
399.9901008852
 11
631.3747590405
 21
400.1273598259
  0
LINE
  5
6F8
100
AcDbEntity
  8
0
100
AcDbLine
 62
7
  6
CONTINUOUS
 10
631.3747590405
 20
401.7719552318
 11
631.2371669651
 21
401.9092141725
  0
LINE
  5
6F9
100
AcDbEntity
  8
0
100
AcDbLine
 62
7
  6
CONTINUOUS
 10
631.544464668
 20
400.2970654534
 11
631.5444463636
 21
400.2884414843
  0
LINE
  5
6FA
100
AcDbEntity
  8
0
100
AcDbLine
 62
7
  6
CONTINUOUS
 10
631.6817236088
 20
401.4646575288
 11
631.544464668
 21
401.6022496043
  0
LINE
  5
6FB
100
AcDbEntity
  8
0
100
AcDbLine
 62
7
  6
CONTINUOUS
 10
630.2071669651
 20
401.9092141725
 11
630.0695748896
 21
401.7719552318
  0
LINE
  5
6FC
100
AcDbEntity
  8
0
100
AcDbLine
 62
7
  6
CONTINUOUS
 10
629.8998692621
 20
401.6022496043
 11
629.7626103214
 21
401.4646575288
  0
LINE
  5
6FD
100
AcDbEntity
  8
0
100
AcDbLine
 62
7
  6
CONTINUOUS
 10
148.0609509205
 20
521.7719369274
 11
148.0695748896
 21
521.7719552318
  0
LINE
  5
6FE
100
AcDbEntity
  8
0
100
AcDbLine
 62
7
  6
CONTINUOUS
 10
147.8998692621
 20
521.6022496043
 11
147.8998875665
 21
521.6108735734
  0
LINE
  5
6FF
100
AcDbEntity
  8
0
100
AcDbLine
 62
7
  6
CONTINUOUS
 10
147.8999967369
 20
520.239637165
 11
147.8998692621
 21
520.2970654534
  0
LINE
  5
700
100
AcDbEntity
  8
0
100
AcDbLine
 62
7
  6
CONTINUOUS
 10
147.7626103214
 20
520.4346575288
 11
147.8998692621
 21
520.2970654534
  0
LINE
  5
701
100
AcDbEntity
  8
0
100
AcDbLine
 62
7
  6
CONTINUOUS
 10
148.0695748896
 20
520.1273598259
 11
148.0121466012
 21
520.1274873007
  0
LINE
  5
702
100
AcDbEntity
  8
0
100
AcDbLine
 62
7
  6
CONTINUOUS
 10
148.0695748896
 20
520.1273598259
 11
148.2071669651
 21
519.9901008852
  0
LINE
  5
703
100
AcDbEntity
  8
0
100
AcDbLine
 62
7
  6
CONTINUOUS
 10
149.544464668
 20
521.6022496043
 11
149.5443371932
 21
521.6596778927
  0
LINE
  5
704
100
AcDbEntity
  8
0
100
AcDbLine
 62
7
  6
CONTINUOUS
 10
149.544464668
 20
520.2970654534
 11
149.6817236088
 21
520.4346575288
  0
LINE
  5
705
100
AcDbEntity
  8
0
100
AcDbLine
 62
7
  6
CONTINUOUS
 10
149.3833830096
 20
520.1273781303
 11
149.3747590405
 21
520.1273598259
  0
LINE
  5
706
100
AcDbEntity
  8
0
100
AcDbLine
 62
7
  6
CONTINUOUS
 10
149.4321873289
 20
521.771827757
 11
149.3747590405
 21
521.7719552318
  0
LINE
  5
707
100
AcDbEntity
  8
0
100
AcDbLine
 62
7
  6
CONTINUOUS
 10
149.2371669651
 20
519.9901008852
 11
149.3747590405
 21
520.1273598259
  0
LINE
  5
708
100
AcDbEntity
  8
0
100
AcDbLine
 62
7
  6
CONTINUOUS
 10
149.3747590405
 20
521.7719552318
 11
149.2371669651
 21
521.9092141725
  0
LINE
  5
709
100
AcDbEntity
  8
0
100
AcDbLine
 62
7
  6
CONTINUOUS
 10
149.544464668
 20
520.2970654534
 11
149.5444463636
 21
520.2884414843
  0
LINE
  5
70A
100
AcDbEntity
  8
0
100
AcDbLine
 62
7
  6
CONTINUOUS
 10
149.6817236088
 20
521.4646575288
 11
149.544464668
 21
521.6022496043
  0
LINE
  5
70B
100
AcDbEntity
  8
0
100
AcDbLine
 62
7
  6
CONTINUOUS
 10
148.2071669651
 20
521.9092141725
 11
148.0695748896
 21
521.7719552318
  0
LINE
  5
70C
100
AcDbEntity
  8
0
100
AcDbLine
 62
7
  6
CONTINUOUS
 10
147.8998692621
 20
521.6022496043
 11
147.7626103214
 21
521.4646575288
  0
LINE
  5
70D
100
AcDbEntity
  8
0
100
AcDbLine
 62
7
  6
CONTINUOUS
 10
569.0609509205
 20
358.2719369274
 11
569.0695748896
 21
358.2719552318
  0
LINE
  5
70E
100
AcDbEntity
  8
0
100
AcDbLine
 62
7
  6
CONTINUOUS
 10
568.8998692621
 20
358.1022496043
 11
568.8998875665
 21
358.1108735734
  0
LINE
  5
70F
100
AcDbEntity
  8
0
100
AcDbLine
 62
7
  6
CONTINUOUS
 10
568.8999967369
 20
356.739637165
 11
568.8998692621
 21
356.7970654534
  0
LINE
  5
710
100
AcDbEntity
  8
0
100
AcDbLine
 62
7
  6
CONTINUOUS
 10
568.7626103214
 20
356.9346575288
 11
568.8998692621
 21
356.7970654534
  0
LINE
  5
711
100
AcDbEntity
  8
0
100
AcDbLine
 62
7
  6
CONTINUOUS
 10
569.0695748896
 20
356.6273598259
 11
569.0121466012
 21
356.6274873007
  0
LINE
  5
712
100
AcDbEntity
  8
0
100
AcDbLine
 62
7
  6
CONTINUOUS
 10
569.0695748896
 20
356.6273598259
 11
569.2071669651
 21
356.4901008852
  0
LINE
  5
713
100
AcDbEntity
  8
0
100
AcDbLine
 62
7
  6
CONTINUOUS
 10
570.544464668
 20
358.1022496043
 11
570.5443371932
 21
358.1596778927
  0
LINE
  5
714
100
AcDbEntity
  8
0
100
AcDbLine
 62
7
  6
CONTINUOUS
 10
570.544464668
 20
356.7970654534
 11
570.6817236088
 21
356.9346575288
  0
LINE
  5
715
100
AcDbEntity
  8
0
100
AcDbLine
 62
7
  6
CONTINUOUS
 10
570.3833830096
 20
356.6273781303
 11
570.3747590405
 21
356.6273598259
  0
LINE
  5
716
100
AcDbEntity
  8
0
100
AcDbLine
 62
7
  6
CONTINUOUS
 10
570.4321873289
 20
358.271827757
 11
570.3747590405
 21
358.2719552318
  0
LINE
  5
717
100
AcDbEntity
  8
0
100
AcDbLine
 62
7
  6
CONTINUOUS
 10
570.2371669651
 20
356.4901008852
 11
570.3747590405
 21
356.6273598259
  0
LINE
  5
718
100
AcDbEntity
  8
0
100
AcDbLine
 62
7
  6
CONTINUOUS
 10
570.3747590405
 20
358.2719552318
 11
570.2371669651
 21
358.4092141725
  0
LINE
  5
719
100
AcDbEntity
  8
0
100
AcDbLine
 62
7
  6
CONTINUOUS
 10
570.544464668
 20
356.7970654534
 11
570.5444463636
 21
356.7884414843
  0
LINE
  5
71A
100
AcDbEntity
  8
0
100
AcDbLine
 62
7
  6
CONTINUOUS
 10
570.6817236088
 20
357.9646575288
 11
570.544464668
 21
358.1022496043
  0
LINE
  5
71B
100
AcDbEntity
  8
0
100
AcDbLine
 62
7
  6
CONTINUOUS
 10
569.2071669651
 20
358.4092141725
 11
569.0695748896
 21
358.2719552318
  0
LINE
  5
71C
100
AcDbEntity
  8
0
100
AcDbLine
 62
7
  6
CONTINUOUS
 10
568.8998692621
 20
358.1022496043
 11
568.7626103214
 21
357.9646575288
  0
LINE
  5
71D
100
AcDbEntity
  8
0
100
AcDbLine
 62
7
  6
CONTINUOUS
 10
148.0609509205
 20
401.7719369274
 11
148.0695748896
 21
401.7719552318
  0
LINE
  5
71E
100
AcDbEntity
  8
0
100
AcDbLine
 62
7
  6
CONTINUOUS
 10
147.8998692621
 20
401.6022496043
 11
147.8998875665
 21
401.6108735734
  0
LINE
  5
71F
100
AcDbEntity
  8
0
100
AcDbLine
 62
7
  6
CONTINUOUS
 10
147.8999967369
 20
400.239637165
 11
147.8998692621
 21
400.2970654534
  0
LINE
  5
720
100
AcDbEntity
  8
0
100
AcDbLine
 62
7
  6
CONTINUOUS
 10
147.7626103214
 20
400.4346575288
 11
147.8998692621
 21
400.2970654534
  0
LINE
  5
721
100
AcDbEntity
  8
0
100
AcDbLine
 62
7
  6
CONTINUOUS
 10
148.0695748896
 20
400.1273598259
 11
148.0121466012
 21
400.1274873007
  0
LINE
  5
722
100
AcDbEntity
  8
0
100
AcDbLine
 62
7
  6
CONTINUOUS
 10
148.0695748896
 20
400.1273598259
 11
148.2071669651
 21
399.9901008852
  0
LINE
  5
723
100
AcDbEntity
  8
0
100
AcDbLine
 62
7
  6
CONTINUOUS
 10
149.544464668
 20
401.6022496043
 11
149.5443371932
 21
401.6596778927
  0
LINE
  5
724
100
AcDbEntity
  8
0
100
AcDbLine
 62
7
  6
CONTINUOUS
 10
149.544464668
 20
400.2970654534
 11
149.6817236088
 21
400.4346575288
  0
LINE
  5
725
100
AcDbEntity
  8
0
100
AcDbLine
 62
7
  6
CONTINUOUS
 10
149.3833830096
 20
400.1273781303
 11
149.3747590405
 21
400.1273598259
  0
LINE
  5
726
100
AcDbEntity
  8
0
100
AcDbLine
 62
7
  6
CONTINUOUS
 10
149.4321873289
 20
401.771827757
 11
149.3747590405
 21
401.7719552318
  0
LINE
  5
727
100
AcDbEntity
  8
0
100
AcDbLine
 62
7
  6
CONTINUOUS
 10
149.2371669651
 20
399.9901008852
 11
149.3747590405
 21
400.1273598259
  0
LINE
  5
728
100
AcDbEntity
  8
0
100
AcDbLine
 62
7
  6
CONTINUOUS
 10
149.3747590405
 20
401.7719552318
 11
149.2371669651
 21
401.9092141725
  0
LINE
  5
729
100
AcDbEntity
  8
0
100
AcDbLine
 62
7
  6
CONTINUOUS
 10
149.544464668
 20
400.2970654534
 11
149.5444463636
 21
400.2884414843
  0
LINE
  5
72A
100
AcDbEntity
  8
0
100
AcDbLine
 62
7
  6
CONTINUOUS
 10
149.6817236088
 20
401.4646575288
 11
149.544464668
 21
401.6022496043
  0
LINE
  5
72B
100
AcDbEntity
  8
0
100
AcDbLine
 62
7
  6
CONTINUOUS
 10
148.2071669651
 20
401.9092141725
 11
148.0695748896
 21
401.7719552318
  0
LINE
  5
72C
100
AcDbEntity
  8
0
100
AcDbLine
 62
7
  6
CONTINUOUS
 10
147.8998692621
 20
401.6022496043
 11
147.7626103214
 21
401.4646575288
  0
LINE
  5
72D
100
AcDbEntity
  8
0
100
AcDbLine
 62
7
  6
CONTINUOUS
 10
569.0609509205
 20
565.2719369274
 11
569.0695748896
 21
565.2719552318
  0
LINE
  5
72E
100
AcDbEntity
  8
0
100
AcDbLine
 62
7
  6
CONTINUOUS
 10
568.8998692621
 20
565.1022496043
 11
568.8998875665
 21
565.1108735734
  0
LINE
  5
72F
100
AcDbEntity
  8
0
100
AcDbLine
 62
7
  6
CONTINUOUS
 10
568.8999967369
 20
563.739637165
 11
568.8998692621
 21
563.7970654534
  0
LINE
  5
730
100
AcDbEntity
  8
0
100
AcDbLine
 62
7
  6
CONTINUOUS
 10
568.7626103214
 20
563.9346575288
 11
568.8998692621
 21
563.7970654534
  0
LINE
  5
731
100
AcDbEntity
  8
0
100
AcDbLine
 62
7
  6
CONTINUOUS
 10
569.0695748896
 20
563.6273598259
 11
569.0121466012
 21
563.6274873007
  0
LINE
  5
732
100
AcDbEntity
  8
0
100
AcDbLine
 62
7
  6
CONTINUOUS
 10
569.0695748896
 20
563.6273598259
 11
569.2071669651
 21
563.4901008852
  0
LINE
  5
733
100
AcDbEntity
  8
0
100
AcDbLine
 62
7
  6
CONTINUOUS
 10
570.544464668
 20
565.1022496043
 11
570.5443371932
 21
565.1596778927
  0
LINE
  5
734
100
AcDbEntity
  8
0
100
AcDbLine
 62
7
  6
CONTINUOUS
 10
570.544464668
 20
563.7970654534
 11
570.6817236088
 21
563.9346575288
  0
LINE
  5
735
100
AcDbEntity
  8
0
100
AcDbLine
 62
7
  6
CONTINUOUS
 10
570.3833830096
 20
563.6273781303
 11
570.3747590405
 21
563.6273598259
  0
LINE
  5
736
100
AcDbEntity
  8
0
100
AcDbLine
 62
7
  6
CONTINUOUS
 10
570.4321873289
 20
565.271827757
 11
570.3747590405
 21
565.2719552318
  0
LINE
  5
737
100
AcDbEntity
  8
0
100
AcDbLine
 62
7
  6
CONTINUOUS
 10
570.2371669651
 20
563.4901008852
 11
570.3747590405
 21
563.6273598259
  0
LINE
  5
738
100
AcDbEntity
  8
0
100
AcDbLine
 62
7
  6
CONTINUOUS
 10
570.3747590405
 20
565.2719552318
 11
570.2371669651
 21
565.4092141725
  0
LINE
  5
739
100
AcDbEntity
  8
0
100
AcDbLine
 62
7
  6
CONTINUOUS
 10
570.544464668
 20
563.7970654534
 11
570.5444463636
 21
563.7884414843
  0
LINE
  5
73A
100
AcDbEntity
  8
0
100
AcDbLine
 62
7
  6
CONTINUOUS
 10
570.6817236088
 20
564.9646575288
 11
570.544464668
 21
565.1022496043
  0
LINE
  5
73B
100
AcDbEntity
  8
0
100
AcDbLine
 62
7
  6
CONTINUOUS
 10
569.2071669651
 20
565.4092141725
 11
569.0695748896
 21
565.2719552318
  0
LINE
  5
73C
100
AcDbEntity
  8
0
100
AcDbLine
 62
7
  6
CONTINUOUS
 10
568.8998692621
 20
565.1022496043
 11
568.7626103214
 21
564.9646575288
  0
LINE
  5
73D
100
AcDbEntity
  8
0
100
AcDbLine
 62
7
  6
CONTINUOUS
 10
329.0609509205
 20
358.2719369274
 11
329.0695748896
 21
358.2719552318
  0
LINE
  5
73E
100
AcDbEntity
  8
0
100
AcDbLine
 62
7
  6
CONTINUOUS
 10
328.8998692621
 20
358.1022496043
 11
328.8998875665
 21
358.1108735734
  0
LINE
  5
73F
100
AcDbEntity
  8
0
100
AcDbLine
 62
7
  6
CONTINUOUS
 10
328.8999967369
 20
356.739637165
 11
328.8998692621
 21
356.7970654534
  0
LINE
  5
740
100
AcDbEntity
  8
0
100
AcDbLine
 62
7
  6
CONTINUOUS
 10
328.7626103214
 20
356.9346575288
 11
328.8998692621
 21
356.7970654534
  0
LINE
  5
741
100
AcDbEntity
  8
0
100
AcDbLine
 62
7
  6
CONTINUOUS
 10
329.0695748896
 20
356.6273598259
 11
329.0121466012
 21
356.6274873007
  0
LINE
  5
742
100
AcDbEntity
  8
0
100
AcDbLine
 62
7
  6
CONTINUOUS
 10
329.0695748896
 20
356.6273598259
 11
329.2071669651
 21
356.4901008852
  0
LINE
  5
743
100
AcDbEntity
  8
0
100
AcDbLine
 62
7
  6
CONTINUOUS
 10
330.544464668
 20
358.1022496043
 11
330.5443371932
 21
358.1596778927
  0
LINE
  5
744
100
AcDbEntity
  8
0
100
AcDbLine
 62
7
  6
CONTINUOUS
 10
330.544464668
 20
356.7970654534
 11
330.6817236088
 21
356.9346575288
  0
LINE
  5
745
100
AcDbEntity
  8
0
100
AcDbLine
 62
7
  6
CONTINUOUS
 10
330.3833830096
 20
356.6273781303
 11
330.3747590405
 21
356.6273598259
  0
LINE
  5
746
100
AcDbEntity
  8
0
100
AcDbLine
 62
7
  6
CONTINUOUS
 10
330.4321873289
 20
358.271827757
 11
330.3747590405
 21
358.2719552318
  0
LINE
  5
747
100
AcDbEntity
  8
0
100
AcDbLine
 62
7
  6
CONTINUOUS
 10
330.2371669651
 20
356.4901008852
 11
330.3747590405
 21
356.6273598259
  0
LINE
  5
748
100
AcDbEntity
  8
0
100
AcDbLine
 62
7
  6
CONTINUOUS
 10
330.3747590405
 20
358.2719552318
 11
330.2371669651
 21
358.4092141725
  0
LINE
  5
749
100
AcDbEntity
  8
0
100
AcDbLine
 62
7
  6
CONTINUOUS
 10
330.544464668
 20
356.7970654534
 11
330.5444463636
 21
356.7884414843
  0
LINE
  5
74A
100
AcDbEntity
  8
0
100
AcDbLine
 62
7
  6
CONTINUOUS
 10
330.6817236088
 20
357.9646575288
 11
330.544464668
 21
358.1022496043
  0
LINE
  5
74B
100
AcDbEntity
  8
0
100
AcDbLine
 62
7
  6
CONTINUOUS
 10
329.2071669651
 20
358.4092141725
 11
329.0695748896
 21
358.2719552318
  0
LINE
  5
74C
100
AcDbEntity
  8
0
100
AcDbLine
 62
7
  6
CONTINUOUS
 10
328.8998692621
 20
358.1022496043
 11
328.7626103214
 21
357.9646575288
  0
LINE
  5
74D
100
AcDbEntity
  8
0
100
AcDbLine
 62
7
  6
CONTINUOUS
 10
329.0609509205
 20
565.2719369274
 11
329.0695748896
 21
565.2719552318
  0
LINE
  5
74E
100
AcDbEntity
  8
0
100
AcDbLine
 62
7
  6
CONTINUOUS
 10
328.8998692621
 20
565.1022496043
 11
328.8998875665
 21
565.1108735734
  0
LINE
  5
74F
100
AcDbEntity
  8
0
100
AcDbLine
 62
7
  6
CONTINUOUS
 10
328.8999967369
 20
563.739637165
 11
328.8998692621
 21
563.7970654534
  0
LINE
  5
750
100
AcDbEntity
  8
0
100
AcDbLine
 62
7
  6
CONTINUOUS
 10
328.7626103214
 20
563.9346575288
 11
328.8998692621
 21
563.7970654534
  0
LINE
  5
751
100
AcDbEntity
  8
0
100
AcDbLine
 62
7
  6
CONTINUOUS
 10
329.0695748896
 20
563.6273598259
 11
329.0121466012
 21
563.6274873007
  0
LINE
  5
752
100
AcDbEntity
  8
0
100
AcDbLine
 62
7
  6
CONTINUOUS
 10
329.0695748896
 20
563.6273598259
 11
329.2071669651
 21
563.4901008852
  0
LINE
  5
753
100
AcDbEntity
  8
0
100
AcDbLine
 62
7
  6
CONTINUOUS
 10
330.544464668
 20
565.1022496043
 11
330.5443371932
 21
565.1596778927
  0
LINE
  5
754
100
AcDbEntity
  8
0
100
AcDbLine
 62
7
  6
CONTINUOUS
 10
330.544464668
 20
563.7970654534
 11
330.6817236088
 21
563.9346575288
  0
LINE
  5
755
100
AcDbEntity
  8
0
100
AcDbLine
 62
7
  6
CONTINUOUS
 10
330.3833830096
 20
563.6273781303
 11
330.3747590405
 21
563.6273598259
  0
LINE
  5
756
100
AcDbEntity
  8
0
100
AcDbLine
 62
7
  6
CONTINUOUS
 10
330.4321873289
 20
565.271827757
 11
330.3747590405
 21
565.2719552318
  0
LINE
  5
757
100
AcDbEntity
  8
0
100
AcDbLine
 62
7
  6
CONTINUOUS
 10
330.2371669651
 20
563.4901008852
 11
330.3747590405
 21
563.6273598259
  0
LINE
  5
758
100
AcDbEntity
  8
0
100
AcDbLine
 62
7
  6
CONTINUOUS
 10
330.3747590405
 20
565.2719552318
 11
330.2371669651
 21
565.4092141725
  0
LINE
  5
759
100
AcDbEntity
  8
0
100
AcDbLine
 62
7
  6
CONTINUOUS
 10
330.544464668
 20
563.7970654534
 11
330.5444463636
 21
563.7884414843
  0
LINE
  5
75A
100
AcDbEntity
  8
0
100
AcDbLine
 62
7
  6
CONTINUOUS
 10
330.6817236088
 20
564.9646575288
 11
330.544464668
 21
565.1022496043
  0
LINE
  5
75B
100
AcDbEntity
  8
0
100
AcDbLine
 62
7
  6
CONTINUOUS
 10
329.2071669651
 20
565.4092141725
 11
329.0695748896
 21
565.2719552318
  0
LINE
  5
75C
100
AcDbEntity
  8
0
100
AcDbLine
 62
7
  6
CONTINUOUS
 10
328.8998692621
 20
565.1022496043
 11
328.7626103214
 21
564.9646575288
  0
LINE
  5
75D
100
AcDbEntity
  8
0
100
AcDbLine
 62
7
  6
CONTINUOUS
 10
209.0609509205
 20
358.2719369274
 11
209.0695748896
 21
358.2719552318
  0
LINE
  5
75E
100
AcDbEntity
  8
0
100
AcDbLine
 62
7
  6
CONTINUOUS
 10
208.8998692621
 20
358.1022496043
 11
208.8998875665
 21
358.1108735734
  0
LINE
  5
75F
100
AcDbEntity
  8
0
100
AcDbLine
 62
7
  6
CONTINUOUS
 10
208.8999967369
 20
356.739637165
 11
208.8998692621
 21
356.7970654534
  0
LINE
  5
760
100
AcDbEntity
  8
0
100
AcDbLine
 62
7
  6
CONTINUOUS
 10
208.7626103214
 20
356.9346575288
 11
208.8998692621
 21
356.7970654534
  0
LINE
  5
761
100
AcDbEntity
  8
0
100
AcDbLine
 62
7
  6
CONTINUOUS
 10
209.0695748896
 20
356.6273598259
 11
209.0121466012
 21
356.6274873007
  0
LINE
  5
762
100
AcDbEntity
  8
0
100
AcDbLine
 62
7
  6
CONTINUOUS
 10
209.0695748896
 20
356.6273598259
 11
209.2071669651
 21
356.4901008852
  0
LINE
  5
763
100
AcDbEntity
  8
0
100
AcDbLine
 62
7
  6
CONTINUOUS
 10
210.544464668
 20
358.1022496043
 11
210.5443371932
 21
358.1596778927
  0
LINE
  5
764
100
AcDbEntity
  8
0
100
AcDbLine
 62
7
  6
CONTINUOUS
 10
210.544464668
 20
356.7970654534
 11
210.6817236088
 21
356.9346575288
  0
LINE
  5
765
100
AcDbEntity
  8
0
100
AcDbLine
 62
7
  6
CONTINUOUS
 10
210.3833830096
 20
356.6273781303
 11
210.3747590405
 21
356.6273598259
  0
LINE
  5
766
100
AcDbEntity
  8
0
100
AcDbLine
 62
7
  6
CONTINUOUS
 10
210.4321873289
 20
358.271827757
 11
210.3747590405
 21
358.2719552318
  0
LINE
  5
767
100
AcDbEntity
  8
0
100
AcDbLine
 62
7
  6
CONTINUOUS
 10
210.2371669651
 20
356.4901008852
 11
210.3747590405
 21
356.6273598259
  0
LINE
  5
768
100
AcDbEntity
  8
0
100
AcDbLine
 62
7
  6
CONTINUOUS
 10
210.3747590405
 20
358.2719552318
 11
210.2371669651
 21
358.4092141725
  0
LINE
  5
769
100
AcDbEntity
  8
0
100
AcDbLine
 62
7
  6
CONTINUOUS
 10
210.544464668
 20
356.7970654534
 11
210.5444463636
 21
356.7884414843
  0
LINE
  5
76A
100
AcDbEntity
  8
0
100
AcDbLine
 62
7
  6
CONTINUOUS
 10
210.6817236088
 20
357.9646575288
 11
210.544464668
 21
358.1022496043
  0
LINE
  5
76B
100
AcDbEntity
  8
0
100
AcDbLine
 62
7
  6
CONTINUOUS
 10
209.2071669651
 20
358.4092141725
 11
209.0695748896
 21
358.2719552318
  0
LINE
  5
76C
100
AcDbEntity
  8
0
100
AcDbLine
 62
7
  6
CONTINUOUS
 10
208.8998692621
 20
358.1022496043
 11
208.7626103214
 21
357.9646575288
  0
LINE
  5
76D
100
AcDbEntity
  8
0
100
AcDbLine
 62
7
  6
CONTINUOUS
 10
209.0609509205
 20
565.2719369274
 11
209.0695748896
 21
565.2719552318
  0
LINE
  5
76E
100
AcDbEntity
  8
0
100
AcDbLine
 62
7
  6
CONTINUOUS
 10
208.8998692621
 20
565.1022496043
 11
208.8998875665
 21
565.1108735734
  0
LINE
  5
76F
100
AcDbEntity
  8
0
100
AcDbLine
 62
7
  6
CONTINUOUS
 10
208.8999967369
 20
563.739637165
 11
208.8998692621
 21
563.7970654534
  0
LINE
  5
770
100
AcDbEntity
  8
0
100
AcDbLine
 62
7
  6
CONTINUOUS
 10
208.7626103214
 20
563.9346575288
 11
208.8998692621
 21
563.7970654534
  0
LINE
  5
771
100
AcDbEntity
  8
0
100
AcDbLine
 62
7
  6
CONTINUOUS
 10
209.0695748896
 20
563.6273598259
 11
209.0121466012
 21
563.6274873007
  0
LINE
  5
772
100
AcDbEntity
  8
0
100
AcDbLine
 62
7
  6
CONTINUOUS
 10
209.0695748896
 20
563.6273598259
 11
209.2071669651
 21
563.4901008852
  0
LINE
  5
773
100
AcDbEntity
  8
0
100
AcDbLine
 62
7
  6
CONTINUOUS
 10
210.544464668
 20
565.1022496043
 11
210.5443371932
 21
565.1596778927
  0
LINE
  5
774
100
AcDbEntity
  8
0
100
AcDbLine
 62
7
  6
CONTINUOUS
 10
210.544464668
 20
563.7970654534
 11
210.6817236088
 21
563.9346575288
  0
LINE
  5
775
100
AcDbEntity
  8
0
100
AcDbLine
 62
7
  6
CONTINUOUS
 10
210.3833830096
 20
563.6273781303
 11
210.3747590405
 21
563.6273598259
  0
LINE
  5
776
100
AcDbEntity
  8
0
100
AcDbLine
 62
7
  6
CONTINUOUS
 10
210.4321873289
 20
565.271827757
 11
210.3747590405
 21
565.2719552318
  0
LINE
  5
777
100
AcDbEntity
  8
0
100
AcDbLine
 62
7
  6
CONTINUOUS
 10
210.2371669651
 20
563.4901008852
 11
210.3747590405
 21
563.6273598259
  0
LINE
  5
778
100
AcDbEntity
  8
0
100
AcDbLine
 62
7
  6
CONTINUOUS
 10
210.3747590405
 20
565.2719552318
 11
210.2371669651
 21
565.4092141725
  0
LINE
  5
779
100
AcDbEntity
  8
0
100
AcDbLine
 62
7
  6
CONTINUOUS
 10
210.544464668
 20
563.7970654534
 11
210.5444463636
 21
563.7884414843
  0
LINE
  5
77A
100
AcDbEntity
  8
0
100
AcDbLine
 62
7
  6
CONTINUOUS
 10
210.6817236088
 20
564.9646575288
 11
210.544464668
 21
565.1022496043
  0
LINE
  5
77B
100
AcDbEntity
  8
0
100
AcDbLine
 62
7
  6
CONTINUOUS
 10
209.2071669651
 20
565.4092141725
 11
209.0695748896
 21
565.2719552318
  0
LINE
  5
77C
100
AcDbEntity
  8
0
100
AcDbLine
 62
7
  6
CONTINUOUS
 10
208.8998692621
 20
565.1022496043
 11
208.7626103214
 21
564.9646575288
  0
SPLINE
  5
77D
100
AcDbEntity
  8
0
100
AcDbSpline
 62
7
  6
CONTINUOUS
 70
0
 71
3
 72
12
 73
8
 74
0
 42
0.0000001
 43
0.0000001
 44
0.0000000001
 40
0.0
 40
0.0
 40
0.0
 40
0.0
 40
0.3849394083
 40
0.7039805842
 40
0.9160573828
 40
0.973650063
 40
1.0
 40
1.0
 40
1.0
 40
1.0
 10
685.0196077013
 20
713.5325798505
 30
0.0
 10
685.0351008375
 20
713.5499321631
 30
0.0
 10
685.0641106162
 20
713.5813288049
 30
0.0
 10
685.1026613007
 20
713.6201371448
 30
0.0
 10
685.1303995536
 20
713.6444914084
 30
0.0
 10
685.1440869622
 20
713.6538400035
 30
0.0
 10
685.1501102477
 20
713.6558594964
 30
0.0
 10
685.1513086228
 20
713.6548109182
 30
0.0
  0
SPLINE
  5
77E
100
AcDbEntity
  8
0
100
AcDbSpline
 62
7
  6
CONTINUOUS
 70
0
 71
3
 72
11
 73
7
 74
0
 42
0.0000001
 43
0.0000001
 44
0.0000000001
 40
0.0
 40
0.0
 40
0.0
 40
0.0
 40
0.0900111891
 40
0.30495333
 40
0.6229402008
 40
1.0
 40
1.0
 40
1.0
 40
1.0
 10
677.749270339
 20
714.0046017544
 30
0.0
 10
677.7508914221
 20
714.0102755454
 30
0.0
 10
677.7779374302
 20
714.0108010488
 30
0.0
 10
677.8129912996
 20
714.0075300572
 30
0.0
 10
677.8743720602
 20
713.9956859763
 30
0.0
 10
677.9177718367
 20
713.9846067218
 30
0.0
 10
677.9415751285
 20
713.9779418001
 30
0.0
  0
SPLINE
  5
77F
100
AcDbEntity
  8
0
100
AcDbSpline
 62
7
  6
CONTINUOUS
 70
0
 71
3
 72
9
 73
5
 74
0
 42
0.0000001
 43
0.0000001
 44
0.0000000001
 40
0.0
 40
0.0
 40
0.0
 40
0.0
 40
0.4994145058
 40
1.0
 40
1.0
 40
1.0
 40
1.0
 10
685.0199397501
 20
713.5322893078
 30
0.0
 10
684.8588505909
 20
713.6735314184
 30
0.0
 10
684.481958988
 20
713.8997121949
 30
0.0
 10
684.0494750279
 20
713.9777866282
 30
0.0
 10
683.8347321111
 20
713.9779418001
 30
0.0
  0
SPLINE
  5
780
100
AcDbEntity
  8
0
100
AcDbSpline
 62
7
  6
CONTINUOUS
 70
0
 71
3
 72
12
 73
8
 74
0
 42
0.0000001
 43
0.0000001
 44
0.0000000001
 40
0.0
 40
0.0
 40
0.0
 40
0.0
 40
0.06917949
 40
0.1546535742
 40
0.375378538
 40
0.6600074165
 40
1.0
 40
1.0
 40
1.0
 40
1.0
 10
152.547213417
 20
743.8106314848
 30
0.0
 10
152.5876287576
 20
743.7247015302
 30
0.0
 10
152.6602486818
 20
743.5243739078
 30
0.0
 10
152.7859429191
 20
743.0242826119
 30
0.0
 10
152.9014473526
 20
742.2199003111
 30
0.0
 10
152.9990748914
 20
741.0636923987
 30
0.0
 10
153.0434106505
 20
740.2072583893
 30
0.0
 10
153.0640454125
 20
739.7410213322
 30
0.0
  0
SPLINE
  5
781
100
AcDbEntity
  8
0
100
AcDbSpline
 62
7
  6
CONTINUOUS
 70
0
 71
3
 72
11
 73
7
 74
0
 42
0.0000001
 43
0.0000001
 44
0.0000000001
 40
0.0
 40
0.0
 40
0.0
 40
0.0
 40
0.2422832538
 40
0.4976240995
 40
0.7541595824
 40
1.0
 40
1.0
 40
1.0
 40
1.0
 10
156.0906789066
 20
740.2995522213
 30
0.0
 10
156.0773492143
 20
740.6873841882
 30
0.0
 10
155.9343386887
 20
741.4845702768
 30
0.0
 10
155.3736166255
 20
742.5753535726
 30
0.0
 10
154.5039524162
 20
743.449311783
 30
0.0
 10
153.7770913473
 20
743.8270175146
 30
0.0
 10
153.4042493387
 20
743.9536450302
 30
0.0
  0
SPLINE
  5
782
100
AcDbEntity
  8
0
100
AcDbSpline
 62
7
  6
CONTINUOUS
 70
0
 71
3
 72
9
 73
5
 74
0
 42
0.0000001
 43
0.0000001
 44
0.0000000001
 40
0.0
 40
0.0
 40
0.0
 40
0.0
 40
0.4954798247
 40
1.0
 40
1.0
 40
1.0
 40
1.0
 10
133.8857235516
 20
744.1087128057
 30
0.0
 10
133.3531268801
 20
743.9481302171
 30
0.0
 10
132.2445157953
 20
743.7243912555
 30
0.0
 10
131.1119781088
 20
743.7376569113
 30
0.0
 10
130.5494941972
 20
743.8043872057
 30
0.0
  0
LINE
  5
783
100
AcDbEntity
  8
0
100
AcDbLine
 62
7
  6
CONTINUOUS
 10
139.0213196412
 20
744.1494395056
 11
138.9914744539
 21
744.140403321
  0
SPLINE
  5
784
100
AcDbEntity
  8
0
100
AcDbSpline
 62
7
  6
CONTINUOUS
 70
0
 71
3
 72
13
 73
9
 74
0
 42
0.0000001
 43
0.0000001
 44
0.0000000001
 40
0.0
 40
0.0
 40
0.0
 40
0.0
 40
0.0712507567
 40
0.1990785649
 40
0.5297585152
 40
0.8178068463
 40
0.9238194457
 40
1.0
 40
1.0
 40
1.0
 40
1.0
 10
138.9914744539
 20
744.140403321
 30
0.0
 10
138.8814797166
 20
744.1059806721
 30
0.0
 10
138.5734793128
 20
744.0116444049
 30
0.0
 10
137.7381426064
 20
743.8170618609
 30
0.0
 10
136.5275011899
 20
743.7016259248
 30
0.0
 10
135.3536875119
 20
743.8109795114
 30
0.0
 10
134.6101830984
 20
743.9732217412
 30
0.0
 10
134.3257704516
 20
744.0511482462
 30
0.0
 10
134.2081172885
 20
744.0877989893
 30
0.0
  0
SPLINE
  5
785
100
AcDbEntity
  8
0
100
AcDbSpline
 62
7
  6
CONTINUOUS
 70
0
 71
3
 72
9
 73
5
 74
0
 42
0.0000001
 43
0.0000001
 44
0.0000000001
 40
0.0
 40
0.0
 40
0.0
 40
0.0
 40
0.2979989917
 40
1.0
 40
1.0
 40
1.0
 40
1.0
 10
134.2081172885
 20
744.0877989893
 30
0.0
 10
134.1923918757
 20
744.0926976937
 30
0.0
 10
134.1396933888
 20
744.1093668808
 30
0.0
 10
134.0873041633
 20
744.1270018627
 30
0.0
 10
134.0502618775
 20
744.1385492697
 30
0.0
  0
SPLINE
  5
786
100
AcDbEntity
  8
0
100
AcDbSpline
 62
7
  6
CONTINUOUS
 70
0
 71
3
 72
8
 73
4
 74
0
 42
0.0000001
 43
0.0000001
 44
0.0000000001
 40
0.0
 40
0.0
 40
0.0
 40
0.0
 40
1.0
 40
1.0
 40
1.0
 40
1.0
 10
134.0439409978
 20
744.1405059459
 30
0.0
 10
134.0346666804
 20
744.1433553609
 30
0.0
 10
134.0253642514
 20
744.1461201124
 30
0.0
 10
134.0160067152
 20
744.148683049
 30
0.0
  0
SPLINE
  5
787
100
AcDbEntity
  8
0
100
AcDbSpline
 62
7
  6
CONTINUOUS
 70
0
 71
3
 72
11
 73
7
 74
0
 42
0.0000001
 43
0.0000001
 44
0.0000000001
 40
0.0
 40
0.0
 40
0.0
 40
0.0
 40
0.2458414611
 40
0.5023773201
 40
0.7577177808
 40
1.0
 40
1.0
 40
1.0
 40
1.0
 10
129.641291486
 20
743.9536449924
 30
0.0
 10
129.2684479056
 20
743.8270169288
 30
0.0
 10
128.5415849358
 20
743.4493095854
 30
0.0
 10
127.6719208564
 20
742.5753488369
 30
0.0
 10
127.1112012134
 20
741.4845662925
 30
0.0
 10
126.9681915886
 20
740.6873825249
 30
0.0
 10
126.9548619422
 20
740.2995522213
 30
0.0
  0
SPLINE
  5
788
100
AcDbEntity
  8
0
100
AcDbSpline
 62
7
  6
CONTINUOUS
 70
0
 71
3
 72
12
 73
8
 74
0
 42
0.0000001
 43
0.0000001
 44
0.0000000001
 40
0.0
 40
0.0
 40
0.0
 40
0.0
 40
0.3399875369
 40
0.6246125039
 40
0.8453345168
 40
0.9308140958
 40
1.0
 40
1.0
 40
1.0
 40
1.0
 10
129.9814974648
 20
739.7410213322
 30
0.0
 10
130.0021320049
 20
740.2072529289
 30
0.0
 10
130.0464531741
 20
741.0636793054
 30
0.0
 10
130.1441169994
 20
742.2198681881
 30
0.0
 10
130.2595472408
 20
743.0242646771
 30
0.0
 10
130.3853236542
 20
743.5243542595
 30
0.0
 10
130.458000429
 20
743.7246767561
 30
0.0
 10
130.4984193392
 20
743.8106150904
 30
0.0
  0
SPLINE
  5
789
100
AcDbEntity
  8
0
100
AcDbSpline
 62
7
  6
CONTINUOUS
 70
0
 71
3
 72
11
 73
7
 74
0
 42
0.0000001
 43
0.0000001
 44
0.0000000001
 40
0.0
 40
0.0
 40
0.0
 40
0.0
 40
0.2584723503
 40
0.5096508049
 40
0.7554987043
 40
1.0
 40
1.0
 40
1.0
 40
1.0
 10
128.2754914113
 20
738.1599533264
 30
0.0
 10
128.3403145325
 20
738.3618551062
 30
0.0
 10
128.5035826719
 20
738.7505553247
 30
0.0
 10
128.8805315066
 20
739.2527347019
 30
0.0
 10
129.3844278391
 20
739.6119110411
 30
0.0
 10
129.7816788975
 20
739.723565672
 30
0.0
 10
129.9815003958
 20
739.7411164513
 30
0.0
  0
SPLINE
  5
78A
100
AcDbEntity
  8
0
100
AcDbSpline
 62
7
  6
CONTINUOUS
 70
0
 71
3
 72
14
 73
10
 74
0
 42
0.0000001
 43
0.0000001
 44
0.0000000001
 40
0.0
 40
0.0
 40
0.0
 40
0.0
 40
0.0538635253
 40
0.1198749191
 40
0.2053457642
 40
0.3141198077
 40
0.4482361254
 40
0.608110612
 40
1.0
 40
1.0
 40
1.0
 40
1.0
 10
156.0906792647
 20
740.2995534224
 30
0.0
 10
156.047361446
 20
740.2995531337
 30
0.0
 10
155.9504674206
 20
740.2720853043
 30
0.0
 10
155.821892251
 20
740.1640453914
 30
0.0
 10
155.698956096
 20
739.9931104469
 30
0.0
 10
155.5818587755
 20
739.7554796633
 30
0.0
 10
155.4730570275
 20
739.4498244039
 30
0.0
 10
155.3353302455
 20
738.9151674782
 30
0.0
 10
155.2742144465
 20
738.4739010761
 30
0.0
 10
155.2465673016
 20
738.1599530077
 30
0.0
  0
SPLINE
  5
78B
100
AcDbEntity
  8
0
100
AcDbSpline
 62
7
  6
CONTINUOUS
 70
0
 71
3
 72
11
 73
7
 74
0
 42
0.0000001
 43
0.0000001
 44
0.0000000001
 40
0.0
 40
0.0
 40
0.0
 40
0.0
 40
0.230570317
 40
0.4666369279
 40
0.7214083715
 40
1.0
 40
1.0
 40
1.0
 40
1.0
 10
129.9019318602
 20
738.9985508456
 30
0.0
 10
129.8024100554
 20
738.9985351039
 30
0.0
 10
129.5979955921
 20
738.9592011678
 30
0.0
 10
129.3374517132
 20
738.7738628317
 30
0.0
 10
129.1494622041
 20
738.4938919879
 30
0.0
 10
129.0710586666
 20
738.2757709203
 30
0.0
 10
129.0387119366
 20
738.1599537929
 30
0.0
  0
SPLINE
  5
78C
100
AcDbEntity
  8
0
100
AcDbSpline
 62
7
  6
CONTINUOUS
 70
0
 71
3
 72
11
 73
7
 74
0
 42
0.0000001
 43
0.0000001
 44
0.0000000001
 40
0.0
 40
0.0
 40
0.0
 40
0.0
 40
0.2785915959
 40
0.5333630561
 40
0.7694296783
 40
1.0
 40
1.0
 40
1.0
 40
1.0
 10
154.0068286499
 20
738.1599537911
 30
0.0
 10
153.9744819415
 20
738.2757708781
 30
0.0
 10
153.8960783636
 20
738.4938918633
 30
0.0
 10
153.708088956
 20
738.7738626441
 30
0.0
 10
153.4475452532
 20
738.9592010971
 30
0.0
 10
153.2431308403
 20
738.9985351239
 30
0.0
 10
153.1436090588
 20
738.9985508826
 30
0.0
  0
SPLINE
  5
78D
100
AcDbEntity
  8
0
100
AcDbSpline
 62
7
  6
CONTINUOUS
 70
0
 71
3
 72
12
 73
8
 74
0
 42
0.0000001
 43
0.0000001
 44
0.0000000001
 40
0.0
 40
0.0
 40
0.0
 40
0.0
 40
0.2582553994
 40
0.5092136428
 40
0.7549547639
 40
0.8772682024
 40
1.0
 40
1.0
 40
1.0
 40
1.0
 10
154.7700541767
 20
738.1599563165
 30
0.0
 10
154.7035441682
 20
738.3613297712
 30
0.0
 10
154.5429407997
 20
738.7511708381
 30
0.0
 10
154.1647175709
 20
739.2521116269
 30
0.0
 10
153.7433644543
 20
739.5544887268
 30
0.0
 10
153.3632958888
 20
739.6944095265
 30
0.0
 10
153.1642442547
 20
739.7301538282
 30
0.0
 10
153.0640573571
 20
739.7411103244
 30
0.0
  0
SPLINE
  5
78E
100
AcDbEntity
  8
0
100
AcDbSpline
 62
7
  6
CONTINUOUS
 70
0
 71
3
 72
9
 73
5
 74
0
 42
0.0000001
 43
0.0000001
 44
0.0000000001
 40
0.0
 40
0.0
 40
0.0
 40
0.0
 40
0.243610306
 40
1.0
 40
1.0
 40
1.0
 40
1.0
 10
153.0640771762
 20
739.7410144907
 30
0.0
 10
153.0763662158
 20
739.6815874427
 30
0.0
 10
153.1201982683
 20
739.4363100442
 30
0.0
 10
153.1406408919
 20
739.186964642
 30
0.0
 10
153.1436934652
 20
738.9985694151
 30
0.0
  0
SPLINE
  5
78F
100
AcDbEntity
  8
0
100
AcDbSpline
 62
7
  6
CONTINUOUS
 70
0
 71
3
 72
9
 73
5
 74
0
 42
0.0000001
 43
0.0000001
 44
0.0000000001
 40
0.0
 40
0.0
 40
0.0
 40
0.0
 40
0.2537228998
 40
1.0
 40
1.0
 40
1.0
 40
1.0
 10
129.9018518141
 20
738.9985694148
 30
0.0
 10
129.9028760308
 20
739.0617625203
 30
0.0
 10
129.9126630753
 20
739.31066975
 30
0.0
 10
129.943825707
 20
739.5589714585
 30
0.0
 10
129.9814716123
 20
739.7410144566
 30
0.0
  0
SPLINE
  5
790
100
AcDbEntity
  8
0
100
AcDbSpline
 62
7
  6
CONTINUOUS
 70
0
 71
3
 72
14
 73
10
 74
0
 42
0.0000001
 43
0.0000001
 44
0.0000000001
 40
0.0
 40
0.0
 40
0.0
 40
0.0
 40
0.3918893884
 40
0.5517638755
 40
0.6858801938
 40
0.7946542376
 40
0.8801250825
 40
0.9461364756
 40
1.0
 40
1.0
 40
1.0
 40
1.0
 10
127.7989733165
 20
738.1599530077
 30
0.0
 10
127.7713261716
 20
738.4739010768
 30
0.0
 10
127.7102103725
 20
738.9151674799
 30
0.0
 10
127.5724835896
 20
739.449824407
 30
0.0
 10
127.4636818409
 20
739.7554796677
 30
0.0
 10
127.3465845189
 20
739.9931104513
 30
0.0
 10
127.2236483636
 20
740.1640453953
 30
0.0
 10
127.095073194
 20
740.272085306
 30
0.0
 10
126.9981791711
 20
740.2995531365
 30
0.0
 10
126.9548613531
 20
740.2995534272
 30
0.0
  0
SPLINE
  5
791
100
AcDbEntity
  8
0
100
AcDbSpline
 62
7
  6
CONTINUOUS
 70
0
 71
3
 72
9
 73
5
 74
0
 42
0.0000001
 43
0.0000001
 44
0.0000000001
 40
0.0
 40
0.0
 40
0.0
 40
0.0
 40
0.1584817233
 40
1.0
 40
1.0
 40
1.0
 40
1.0
 10
129.1822505855
 20
744.0855185111
 30
0.0
 10
129.2061826823
 20
744.0775168572
 30
0.0
 10
129.3576167065
 20
744.0283095457
 30
0.0
 10
129.5112304532
 20
743.9858039695
 30
0.0
 10
129.6412991774
 20
743.9536206407
 30
0.0
  0
SPLINE
  5
792
100
AcDbEntity
  8
0
100
AcDbSpline
 62
7
  6
CONTINUOUS
 70
0
 71
3
 72
8
 73
4
 74
0
 42
0.0000001
 43
0.0000001
 44
0.0000000001
 40
0.0
 40
0.0
 40
0.0
 40
0.0
 40
1.0
 40
1.0
 40
1.0
 40
1.0
 10
129.7480004453
 20
743.9589795791
 30
0.0
 10
129.7132719651
 20
743.9668736968
 30
0.0
 10
129.6750639078
 20
743.9649490467
 30
0.0
 10
129.6412904524
 20
743.9536469167
 30
0.0
  0
SPLINE
  5
793
100
AcDbEntity
  8
0
100
AcDbSpline
 62
7
  6
CONTINUOUS
 70
0
 71
3
 72
9
 73
5
 74
0
 42
0.0000001
 43
0.0000001
 44
0.0000000001
 40
0.0
 40
0.0
 40
0.0
 40
0.0
 40
0.1440815929
 40
1.0
 40
1.0
 40
1.0
 40
1.0
 10
129.7048846672
 20
743.9391987043
 30
0.0
 10
129.7426047808
 20
743.9309142034
 30
0.0
 10
130.005085795
 20
743.8766039714
 30
0.0
 10
130.2705272032
 20
743.8362305055
 30
0.0
 10
130.4985127006
 20
743.8106365246
 30
0.0
  0
SPLINE
  5
794
100
AcDbEntity
  8
0
100
AcDbSpline
 62
7
  6
CONTINUOUS
 70
0
 71
3
 72
8
 73
4
 74
0
 42
0.0000001
 43
0.0000001
 44
0.0000000001
 40
0.0
 40
0.0
 40
0.0
 40
0.0
 40
1.0
 40
1.0
 40
1.0
 40
1.0
 10
130.5556192334
 20
743.8185375479
 30
0.0
 10
130.5365397429
 20
743.8208553984
 30
0.0
 10
130.5163383452
 20
743.8177784908
 30
0.0
 10
130.498508602
 20
743.8106021653
 30
0.0
  0
SPLINE
  5
795
100
AcDbEntity
  8
0
100
AcDbSpline
 62
7
  6
CONTINUOUS
 70
0
 71
3
 72
8
 73
4
 74
0
 42
0.0000001
 43
0.0000001
 44
0.0000000001
 40
0.0
 40
0.0
 40
0.0
 40
0.0
 40
1.0
 40
1.0
 40
1.0
 40
1.0
 10
133.9618916308
 20
744.1402301223
 30
0.0
 10
133.9795360709
 20
744.1458681164
 30
0.0
 10
133.9982139037
 20
744.1493721054
 30
0.0
 10
134.016736218
 20
744.1491794489
 30
0.0
  0
SPLINE
  5
796
100
AcDbEntity
  8
0
100
AcDbSpline
 62
7
  6
CONTINUOUS
 70
0
 71
3
 72
8
 73
4
 74
0
 42
0.0000001
 43
0.0000001
 44
0.0000000001
 40
0.0
 40
0.0
 40
0.0
 40
0.0
 40
1.0
 40
1.0
 40
1.0
 40
1.0
 10
134.0353889869
 20
744.1491634471
 30
0.0
 10
134.0291806359
 20
744.1495023097
 30
0.0
 10
134.0229463065
 20
744.1494848182
 30
0.0
 10
134.016736218
 20
744.1491794489
 30
0.0
  0
LINE
  5
797
100
AcDbEntity
  8
0
100
AcDbLine
 62
7
  6
CONTINUOUS
 10
139.0213196412
 20
744.1494395056
 11
139.022751943
 21
744.1489604375
  0
SPLINE
  5
798
100
AcDbEntity
  8
0
100
AcDbSpline
 62
7
  6
CONTINUOUS
 70
0
 71
3
 72
9
 73
5
 74
0
 42
0.0000001
 43
0.0000001
 44
0.0000000001
 40
0.0
 40
0.0
 40
0.0
 40
0.0
 40
0.1693172422
 40
1.0
 40
1.0
 40
1.0
 40
1.0
 10
139.1756406781
 20
744.0999535073
 30
0.0
 10
139.257109204
 20
744.0748674214
 30
0.0
 10
139.7406855841
 20
743.934869616
 30
0.0
 10
140.2383452602
 20
743.8411460725
 30
0.0
 10
140.6541077473
 20
743.7959649655
 30
0.0
  0
SPLINE
  5
799
100
AcDbEntity
  8
0
100
AcDbSpline
 62
7
  6
CONTINUOUS
 70
0
 71
3
 72
9
 73
5
 74
0
 42
0.0000001
 43
0.0000001
 44
0.0000000001
 40
0.0
 40
0.0
 40
0.0
 40
0.0
 40
0.3211660667
 40
1.0
 40
1.0
 40
1.0
 40
1.0
 10
142.3914219653
 20
743.7959627248
 30
0.0
 10
142.5521464929
 20
743.8134243562
 30
0.0
 10
143.0509125181
 20
743.8829522363
 30
0.0
 10
143.5426115371
 20
743.9992061677
 30
0.0
 10
143.8692035561
 20
744.0997388869
 30
0.0
  0
LINE
  5
79A
100
AcDbEntity
  8
0
100
AcDbLine
 62
7
  6
CONTINUOUS
 10
144.0227876971
 20
744.1489594312
 11
144.0242163876
 21
744.1494382197
  0
SPLINE
  5
79B
100
AcDbEntity
  8
0
100
AcDbSpline
 62
7
  6
CONTINUOUS
 70
0
 71
3
 72
10
 73
6
 74
0
 42
0.0000001
 43
0.0000001
 44
0.0000000001
 40
0.0
 40
0.0
 40
0.0
 40
0.0
 40
0.233469693
 40
0.5580122499
 40
1.0
 40
1.0
 40
1.0
 40
1.0
 10
144.162231724
 20
744.1060731331
 30
0.0
 10
144.5158296204
 20
743.9980143583
 30
0.0
 10
145.3793297258
 20
743.795560405
 30
0.0
 10
146.967651849
 20
743.6909086936
 30
0.0
 10
148.1843802403
 20
743.8860077922
 30
0.0
 10
148.853145947
 20
744.0926593294
 30
0.0
  0
LINE
  5
79C
100
AcDbEntity
  8
0
100
AcDbLine
 62
7
  6
CONTINUOUS
 10
148.9825821794
 20
744.1342067584
 11
149.0271285505
 21
744.1494332589
  0
SPLINE
  5
79D
100
AcDbEntity
  8
0
100
AcDbSpline
 62
7
  6
CONTINUOUS
 70
0
 71
3
 72
9
 73
5
 74
0
 42
0.0000001
 43
0.0000001
 44
0.0000000001
 40
0.0
 40
0.0
 40
0.0
 40
0.0
 40
0.4943559088
 40
1.0
 40
1.0
 40
1.0
 40
1.0
 10
149.154700277
 20
744.1102572193
 30
0.0
 10
149.6868867309
 20
743.9496208502
 30
0.0
 10
150.7970017055
 20
743.724490585
 30
0.0
 10
151.9314629798
 20
743.7374045088
 30
0.0
 10
152.4960975364
 20
743.8043978116
 30
0.0
  0
SPLINE
  5
79E
100
AcDbEntity
  8
0
100
AcDbSpline
 62
7
  6
CONTINUOUS
 70
0
 71
3
 72
8
 73
4
 74
0
 42
0.0000001
 43
0.0000001
 44
0.0000000001
 40
0.0
 40
0.0
 40
0.0
 40
0.0
 40
1.0
 40
1.0
 40
1.0
 40
1.0
 10
152.4899168665
 20
743.8185290347
 30
0.0
 10
152.5089919152
 20
743.8208563846
 30
0.0
 10
152.5291905464
 20
743.8177968051
 30
0.0
 10
152.5470237387
 20
743.8106378042
 30
0.0
  0
SPLINE
  5
79F
100
AcDbEntity
  8
0
100
AcDbSpline
 62
7
  6
CONTINUOUS
 70
0
 71
3
 72
9
 73
5
 74
0
 42
0.0000001
 43
0.0000001
 44
0.0000000001
 40
0.0
 40
0.0
 40
0.0
 40
0.0
 40
0.3706096924
 40
1.0
 40
1.0
 40
1.0
 40
1.0
 10
152.5470194323
 20
743.8106372807
 30
0.0
 10
152.6457697229
 20
743.8217194367
 30
0.0
 10
152.9116149701
 20
743.8567936462
 30
0.0
 10
153.1759996729
 20
743.9030280157
 30
0.0
 10
153.340825237
 20
743.9392377141
 30
0.0
  0
SPLINE
  5
7A0
100
AcDbEntity
  8
0
100
AcDbSpline
 62
7
  6
CONTINUOUS
 70
0
 71
3
 72
8
 73
4
 74
0
 42
0.0000001
 43
0.0000001
 44
0.0000000001
 40
0.0
 40
0.0
 40
0.0
 40
0.0
 40
1.0
 40
1.0
 40
1.0
 40
1.0
 10
153.2975375263
 20
743.9589817549
 30
0.0
 10
153.3322667613
 20
743.9668658728
 30
0.0
 10
153.3704725047
 20
743.9649310602
 30
0.0
 10
153.4042416554
 20
743.9536207311
 30
0.0
  0
SPLINE
  5
7A1
100
AcDbEntity
  8
0
100
AcDbSpline
 62
7
  6
CONTINUOUS
 70
0
 71
3
 72
9
 73
5
 74
0
 42
0.0000001
 43
0.0000001
 44
0.0000000001
 40
0.0
 40
0.0
 40
0.0
 40
0.0
 40
0.3506107392
 40
1.0
 40
1.0
 40
1.0
 40
1.0
 10
153.4042416101
 20
743.9536206846
 30
0.0
 10
153.4584377369
 20
743.9670314126
 30
0.0
 10
153.6125500753
 20
744.0071330637
 30
0.0
 10
153.7652309266
 20
744.0527321608
 30
0.0
 10
153.8633018384
 20
744.0855232446
 30
0.0
  0
SPLINE
  5
7A2
100
AcDbEntity
  8
0
100
AcDbSpline
 62
7
  6
CONTINUOUS
 70
0
 71
3
 72
8
 73
4
 74
0
 42
0.0000001
 43
0.0000001
 44
0.0000000001
 40
0.0
 40
0.0
 40
0.0
 40
0.0
 40
1.0
 40
1.0
 40
1.0
 40
1.0
 10
101.5548750742
 20
737.6375399203
 30
0.0
 10
101.4137615018
 20
737.4988716123
 30
0.0
 10
101.2841890751
 20
737.3483041689
 30
0.0
 10
101.161454579
 20
737.1931327043
 30
0.0
  0
SPLINE
  5
7A3
100
AcDbEntity
  8
0
100
AcDbSpline
 62
7
  6
CONTINUOUS
 70
0
 71
3
 72
8
 73
4
 74
0
 42
0.0000001
 43
0.0000001
 44
0.0000000001
 40
0.0
 40
0.0
 40
0.0
 40
0.0
 40
1.0
 40
1.0
 40
1.0
 40
1.0
 10
101.0948720984
 20
737.1075978057
 30
0.0
 10
100.9475003405
 20
736.915341669
 30
0.0
 10
100.8089751817
 20
736.7162868311
 30
0.0
 10
100.6744029133
 20
736.5148639881
 30
0.0
  0
SPLINE
  5
7A4
100
AcDbEntity
  8
0
100
AcDbSpline
 62
7
  6
CONTINUOUS
 70
0
 71
3
 72
8
 73
4
 74
0
 42
0.0000001
 43
0.0000001
 44
0.0000000001
 40
0.0
 40
0.0
 40
0.0
 40
0.0
 40
1.0
 40
1.0
 40
1.0
 40
1.0
 10
100.6744029133
 20
736.5148639881
 30
0.0
 10
100.50804174
 20
736.2658606763
 30
0.0
 10
100.3477414229
 20
736.0128447904
 30
0.0
 10
100.1873512477
 20
735.7599541402
 30
0.0
  0
SPLINE
  5
7A5
100
AcDbEntity
  8
0
100
AcDbSpline
 62
7
  6
CONTINUOUS
 70
0
 71
3
 72
8
 73
4
 74
0
 42
0.0000001
 43
0.0000001
 44
0.0000000001
 40
0.0
 40
0.0
 40
0.0
 40
0.0
 40
1.0
 40
1.0
 40
1.0
 40
1.0
 10
678.8581893705
 20
735.7599541403
 30
0.0
 10
678.6977991953
 20
736.0128447905
 30
0.0
 10
678.5374988782
 20
736.2658606763
 30
0.0
 10
678.3711377049
 20
736.5148639881
 30
0.0
  0
SPLINE
  5
7A6
100
AcDbEntity
  8
0
100
AcDbSpline
 62
7
  6
CONTINUOUS
 70
0
 71
3
 72
8
 73
4
 74
0
 42
0.0000001
 43
0.0000001
 44
0.0000000001
 40
0.0
 40
0.0
 40
0.0
 40
0.0
 40
1.0
 40
1.0
 40
1.0
 40
1.0
 10
678.3711377049
 20
736.5148639881
 30
0.0
 10
678.2165105049
 20
736.7463043182
 30
0.0
 10
678.0567588719
 20
736.9748249165
 30
0.0
 10
677.8840860392
 20
737.1931327044
 30
0.0
  0
SPLINE
  5
7A7
100
AcDbEntity
  8
0
100
AcDbSpline
 62
7
  6
CONTINUOUS
 70
0
 71
3
 72
8
 73
4
 74
0
 42
0.0000001
 43
0.0000001
 44
0.0000000001
 40
0.0
 40
0.0
 40
0.0
 40
0.0
 40
1.0
 40
1.0
 40
1.0
 40
1.0
 10
677.7369520621
 20
737.3721522538
 30
0.0
 10
677.6584426362
 20
737.4638123099
 30
0.0
 10
677.576746537
 20
737.5529505683
 30
0.0
 10
677.490665544
 20
737.6375399203
 30
0.0
  0
SPLINE
  5
7A8
100
AcDbEntity
  8
0
100
AcDbSpline
 62
7
  6
CONTINUOUS
 70
0
 71
3
 72
9
 73
5
 74
0
 42
0.0000001
 43
0.0000001
 44
0.0000000001
 40
0.0
 40
0.0
 40
0.0
 40
0.0
 40
0.2915617531
 40
1.0
 40
1.0
 40
1.0
 40
1.0
 10
677.3970343735
 20
737.7259190466
 30
0.0
 10
677.3636414595
 20
737.770421698
 30
0.0
 10
677.2445280795
 20
737.9184190566
 30
0.0
 10
677.0987494598
 20
738.0529094452
 30
0.0
 10
676.9763802684
 20
738.1103715787
 30
0.0
  0
SPLINE
  5
7A9
100
AcDbEntity
  8
0
100
AcDbSpline
 62
7
  6
CONTINUOUS
 70
0
 71
3
 72
8
 73
4
 74
0
 42
0.0000001
 43
0.0000001
 44
0.0000000001
 40
0.0
 40
0.0
 40
0.0
 40
0.0
 40
1.0
 40
1.0
 40
1.0
 40
1.0
 10
676.9763802684
 20
738.1103715787
 30
0.0
 10
676.911180169
 20
738.1409882459
 30
0.0
 10
676.8380839958
 20
738.1599541403
 30
0.0
 10
676.7660532158
 20
738.1599541403
 30
0.0
  0
SPLINE
  5
7AA
100
AcDbEntity
  8
0
100
AcDbSpline
 62
7
  6
CONTINUOUS
 70
0
 71
3
 72
9
 73
5
 74
0
 42
0.0000001
 43
0.0000001
 44
0.0000000001
 40
0.0
 40
0.0
 40
0.0
 40
0.0
 40
0.2043650434
 40
1.0
 40
1.0
 40
1.0
 40
1.0
 10
102.2794874024
 20
738.1599541402
 30
0.0
 10
102.2260946514
 20
738.1599541402
 30
0.0
 10
101.9634345922
 20
738.1084198462
 30
0.0
 10
101.7732656685
 20
737.8921856114
 30
0.0
 10
101.6485062447
 20
737.7259190465
 30
0.0
  0
LINE
  5
7AB
100
AcDbEntity
  8
0
100
AcDbLine
 62
7
  6
CONTINUOUS
 10
92.7227703091
 20
719.4599541402
 11
92.761190129
 21
719.3720032261
  0
SPLINE
  5
7AC
100
AcDbEntity
  8
0
100
AcDbSpline
 62
7
  6
CONTINUOUS
 70
0
 71
3
 72
8
 73
4
 74
0
 42
0.0000001
 43
0.0000001
 44
0.0000000001
 40
0.0
 40
0.0
 40
0.0
 40
0.0
 40
1.0
 40
1.0
 40
1.0
 40
1.0
 10
92.761190129
 20
719.3720032261
 30
0.0
 10
92.8235275255
 20
719.2294917136
 30
0.0
 10
92.8862775719
 20
719.0871119644
 30
0.0
 10
92.9529780749
 20
718.9465896349
 30
0.0
  0
SPLINE
  5
7AD
100
AcDbEntity
  8
0
100
AcDbSpline
 62
7
  6
CONTINUOUS
 70
0
 71
3
 72
9
 73
5
 74
0
 42
0.0000001
 43
0.0000001
 44
0.0000000001
 40
0.0
 40
0.0
 40
0.0
 40
0.0
 40
0.2884372443
 40
1.0
 40
1.0
 40
1.0
 40
1.0
 10
92.9529780749
 20
718.9465896349
 30
0.0
 10
92.9823771304
 20
718.8846527142
 30
0.0
 10
93.0875055948
 20
718.6720481598
 30
0.0
 10
93.2056817969
 20
718.4617662061
 30
0.0
 10
93.3169919975
 20
718.3344215551
 30
0.0
  0
SPLINE
  5
7AE
100
AcDbEntity
  8
0
100
AcDbSpline
 62
7
  6
CONTINUOUS
 70
0
 71
3
 72
8
 73
4
 74
0
 42
0.0000001
 43
0.0000001
 44
0.0000000001
 40
0.0
 40
0.0
 40
0.0
 40
0.0
 40
1.0
 40
1.0
 40
1.0
 40
1.0
 10
93.3169919975
 20
718.3344215551
 30
0.0
 10
93.344628111
 20
718.3028044059
 30
0.0
 10
93.3743632578
 20
718.2727274305
 30
0.0
 10
93.4068837435
 20
718.2461602157
 30
0.0
  0
SPLINE
  5
7AF
100
AcDbEntity
  8
0
100
AcDbSpline
 62
7
  6
CONTINUOUS
 70
0
 71
3
 72
8
 73
4
 74
0
 42
0.0000001
 43
0.0000001
 44
0.0000000001
 40
0.0
 40
0.0
 40
0.0
 40
0.0
 40
1.0
 40
1.0
 40
1.0
 40
1.0
 10
93.4068837435
 20
718.2461602157
 30
0.0
 10
93.4648680694
 20
718.1987906267
 30
0.0
 10
93.5394301066
 20
718.1599445277
 30
0.0
 10
93.614303733
 20
718.1599541362
 30
0.0
  0
LINE
  5
7B0
100
AcDbEntity
  8
0
100
AcDbLine
 62
7
  6
CONTINUOUS
 10
686.3227703091
 20
719.4599541403
 11
686.284473949
 21
719.3722832748
  0
SPLINE
  5
7B1
100
AcDbEntity
  8
0
100
AcDbSpline
 62
7
  6
CONTINUOUS
 70
0
 71
3
 72
8
 73
4
 74
0
 42
0.0000001
 43
0.0000001
 44
0.0000000001
 40
0.0
 40
0.0
 40
0.0
 40
0.0
 40
1.0
 40
1.0
 40
1.0
 40
1.0
 10
686.284473949
 20
719.3722832748
 30
0.0
 10
686.2223950937
 20
719.2303543298
 30
0.0
 10
686.1599123436
 20
719.0885541031
 30
0.0
 10
686.0935172369
 20
718.9485923244
 30
0.0
  0
SPLINE
  5
7B2
100
AcDbEntity
  8
0
100
AcDbSpline
 62
7
  6
CONTINUOUS
 70
0
 71
3
 72
9
 73
5
 74
0
 42
0.0000001
 43
0.0000001
 44
0.0000000001
 40
0.0
 40
0.0
 40
0.0
 40
0.0
 40
0.2876620001
 40
1.0
 40
1.0
 40
1.0
 40
1.0
 10
686.0935172369
 20
718.9485923244
 30
0.0
 10
686.0643944354
 20
718.8872010669
 30
0.0
 10
685.960004533
 20
718.6758511391
 30
0.0
 10
685.8428315758
 20
718.4669343758
 30
0.0
 10
685.7329329231
 20
718.3395208391
 30
0.0
  0
SPLINE
  5
7B3
100
AcDbEntity
  8
0
100
AcDbSpline
 62
7
  6
CONTINUOUS
 70
0
 71
3
 72
8
 73
4
 74
0
 42
0.0000001
 43
0.0000001
 44
0.0000000001
 40
0.0
 40
0.0
 40
0.0
 40
0.0
 40
1.0
 40
1.0
 40
1.0
 40
1.0
 10
685.7329329231
 20
718.3395208391
 30
0.0
 10
685.7064777874
 20
718.3088494676
 30
0.0
 10
685.6781228661
 20
718.2795781722
 30
0.0
 10
685.6472482891
 20
718.2533604735
 30
0.0
  0
SPLINE
  5
7B4
100
AcDbEntity
  8
0
100
AcDbSpline
 62
7
  6
CONTINUOUS
 70
0
 71
3
 72
8
 73
4
 74
0
 42
0.0000001
 43
0.0000001
 44
0.0000000001
 40
0.0
 40
0.0
 40
0.0
 40
0.0
 40
1.0
 40
1.0
 40
1.0
 40
1.0
 10
685.6472482891
 20
718.2533604735
 30
0.0
 10
685.5874575305
 20
718.2025880826
 30
0.0
 10
685.5097013088
 20
718.1599415032
 30
0.0
 10
685.4312617121
 20
718.1599541945
 30
0.0
  0
SPLINE
  5
7B5
100
AcDbEntity
  8
0
100
AcDbSpline
 62
7
  6
CONTINUOUS
 70
0
 71
3
 72
9
 73
5
 74
0
 42
0.0000001
 43
0.0000001
 44
0.0000000001
 40
0.0
 40
0.0
 40
0.0
 40
0.0
 40
0.2608148099
 40
1.0
 40
1.0
 40
1.0
 40
1.0
 10
109.8875845292
 20
713.7172600414
 30
0.0
 10
109.8029633636
 20
713.6229310575
 30
0.0
 10
109.4769662485
 20
713.2629016621
 30
0.0
 10
109.1380767128
 20
712.9126363095
 30
0.0
 10
108.8665891377
 20
712.677512074
 30
0.0
  0
SPLINE
  5
7B6
100
AcDbEntity
  8
0
100
AcDbSpline
 62
7
  6
CONTINUOUS
 70
0
 71
3
 72
9
 73
5
 74
0
 42
0.0000001
 43
0.0000001
 44
0.0000000001
 40
0.0
 40
0.0
 40
0.0
 40
0.0
 40
0.2846379569
 40
1.0
 40
1.0
 40
1.0
 40
1.0
 10
108.8665891377
 20
712.677512074
 30
0.0
 10
108.7411383155
 20
712.5688642706
 30
0.0
 10
108.2899878004
 20
712.206593325
 30
0.0
 10
107.7130658778
 20
711.9496575288
 30
0.0
 10
107.2959729569
 20
711.9496575288
 30
0.0
  0
SPLINE
  5
7B7
100
AcDbEntity
  8
0
100
AcDbSpline
 62
7
  6
CONTINUOUS
 70
0
 71
3
 72
9
 73
5
 74
0
 42
0.0000001
 43
0.0000001
 44
0.0000000001
 40
0.0
 40
0.0
 40
0.0
 40
0.0
 40
0.3579478394
 40
1.0
 40
1.0
 40
1.0
 40
1.0
 10
687.3221669651
 20
334.9496575288
 30
0.0
 10
687.4609409732
 20
334.9496575288
 30
0.0
 10
687.7778641204
 20
335.2783037222
 30
0.0
 10
687.9127186604
 20
335.6198283184
 30
0.0
 10
688.0066561666
 20
335.8503420907
 30
0.0
  0
SPLINE
  5
7B8
100
AcDbEntity
  8
0
100
AcDbSpline
 62
7
  6
CONTINUOUS
 70
0
 71
3
 72
9
 73
5
 74
0
 42
0.0000001
 43
0.0000001
 44
0.0000000001
 40
0.0
 40
0.0
 40
0.0
 40
0.0
 40
0.2327049223
 40
1.0
 40
1.0
 40
1.0
 40
1.0
 10
688.0066561666
 20
335.8503420907
 30
0.0
 10
688.0305050589
 20
335.9088650211
 30
0.0
 10
688.1297048323
 20
336.161696364
 30
0.0
 10
688.2187752469
 20
336.418370806
 30
0.0
 10
688.2848380926
 20
336.6159958649
 30
0.0
  0
SPLINE
  5
7B9
100
AcDbEntity
  8
0
100
AcDbSpline
 62
7
  6
CONTINUOUS
 70
0
 71
3
 72
8
 73
4
 74
0
 42
0.0000001
 43
0.0000001
 44
0.0000000001
 40
0.0
 40
0.0
 40
0.0
 40
0.0
 40
1.0
 40
1.0
 40
1.0
 40
1.0
 10
688.2848380926
 20
336.6159958649
 30
0.0
 10
688.3663269188
 20
336.8597672905
 30
0.0
 10
688.4442057422
 20
337.1047351238
 30
0.0
 10
688.5221669651
 20
337.3496575288
 30
0.0
  0
SPLINE
  5
7BA
100
AcDbEntity
  8
0
100
AcDbSpline
 62
7
  6
CONTINUOUS
 70
0
 71
3
 72
8
 73
4
 74
0
 42
0.0000001
 43
0.0000001
 44
0.0000000001
 40
0.0
 40
0.0
 40
0.0
 40
0.0
 40
1.0
 40
1.0
 40
1.0
 40
1.0
 10
90.9221669651
 20
337.3496575288
 30
0.0
 10
91.00012738
 20
337.104737662
 30
0.0
 10
91.078005397
 20
336.8597723685
 30
0.0
 10
91.1594933018
 20
336.6160034435
 30
0.0
  0
SPLINE
  5
7BB
100
AcDbEntity
  8
0
100
AcDbSpline
 62
7
  6
CONTINUOUS
 70
0
 71
3
 72
9
 73
5
 74
0
 42
0.0000001
 43
0.0000001
 44
0.0000000001
 40
0.0
 40
0.0
 40
0.0
 40
0.0
 40
0.273410551
 40
1.0
 40
1.0
 40
1.0
 40
1.0
 10
91.1594933018
 20
336.6160034435
 30
0.0
 10
91.1897179601
 20
336.5255871728
 30
0.0
 10
91.3023523277
 20
336.195682075
 30
0.0
 10
91.4241878352
 20
335.86825074
 30
0.0
 10
91.5289594868
 20
335.6375783224
 30
0.0
  0
SPLINE
  5
7BC
100
AcDbEntity
  8
0
100
AcDbSpline
 62
7
  6
CONTINUOUS
 70
0
 71
3
 72
9
 73
5
 74
0
 42
0.0000001
 43
0.0000001
 44
0.0000000001
 40
0.0
 40
0.0
 40
0.0
 40
0.0
 40
0.6299410257
 40
1.0
 40
1.0
 40
1.0
 40
1.0
 10
91.5289594868
 20
335.6375783224
 30
0.0
 10
91.6102034455
 20
335.458706079
 30
0.0
 10
91.7346222501
 20
335.183262417
 30
0.0
 10
92.0067575047
 20
334.9496575288
 30
0.0
 10
92.1221669651
 20
334.9496575288
 30
0.0
  0
SPLINE
  5
7BD
100
AcDbEntity
  8
0
100
AcDbSpline
 62
7
  6
CONTINUOUS
 70
0
 71
3
 72
9
 73
5
 74
0
 42
0.0000001
 43
0.0000001
 44
0.0000000001
 40
0.0
 40
0.0
 40
0.0
 40
0.0
 40
0.2133916338
 40
1.0
 40
1.0
 40
1.0
 40
1.0
 10
92.9221669651
 20
711.9496575288
 30
0.0
 10
92.8715007626
 20
711.9496575288
 30
0.0
 10
92.6329652708
 20
711.9112093121
 30
0.0
 10
92.4416855708
 20
711.7380102984
 30
0.0
 10
92.318953516
 20
711.5972315497
 30
0.0
  0
SPLINE
  5
7BE
100
AcDbEntity
  8
0
100
AcDbSpline
 62
7
  6
CONTINUOUS
 70
0
 71
3
 72
9
 73
5
 74
0
 42
0.0000001
 43
0.0000001
 44
0.0000000001
 40
0.0
 40
0.0
 40
0.0
 40
0.0
 40
0.2227585128
 40
1.0
 40
1.0
 40
1.0
 40
1.0
 10
92.318953516
 20
711.5972315497
 30
0.0
 10
92.2844337723
 20
711.5576359743
 30
0.0
 10
92.1365067499
 20
711.3737386169
 30
0.0
 10
92.012051152
 20
711.1721514587
 30
0.0
 10
91.9221749373
 20
711.0124133948
 30
0.0
  0
SPLINE
  5
7BF
100
AcDbEntity
  8
0
100
AcDbSpline
 62
7
  6
CONTINUOUS
 70
0
 71
3
 72
9
 73
5
 74
0
 42
0.0000001
 43
0.0000001
 44
0.0000000001
 40
0.0
 40
0.0
 40
0.0
 40
0.0
 40
0.2316413085
 40
1.0
 40
1.0
 40
1.0
 40
1.0
 10
91.9221749373
 20
711.0124133948
 30
0.0
 10
91.8864161501
 20
710.9488588776
 30
0.0
 10
91.7370456474
 20
710.6716747308
 30
0.0
 10
91.6036818445
 20
710.3861648966
 30
0.0
 10
91.5055592278
 20
710.1650712243
 30
0.0
  0
SPLINE
  5
7C0
100
AcDbEntity
  8
0
100
AcDbSpline
 62
7
  6
CONTINUOUS
 70
0
 71
3
 72
9
 73
5
 74
0
 42
0.0000001
 43
0.0000001
 44
0.0000000001
 40
0.0
 40
0.0
 40
0.0
 40
0.0
 40
0.240313049
 40
1.0
 40
1.0
 40
1.0
 40
1.0
 10
91.5055592278
 20
710.1650712243
 30
0.0
 10
91.4558102957
 20
710.0529750079
 30
0.0
 10
91.2538303998
 20
709.5842742165
 30
0.0
 10
91.0654964802
 20
709.1098838902
 30
0.0
 10
90.9221669651
 20
708.7496575288
 30
0.0
  0
SPLINE
  5
7C1
100
AcDbEntity
  8
0
100
AcDbSpline
 62
7
  6
CONTINUOUS
 70
0
 71
3
 72
9
 73
5
 74
0
 42
0.0000001
 43
0.0000001
 44
0.0000000001
 40
0.0
 40
0.0
 40
0.0
 40
0.0
 40
0.7596868232
 40
1.0
 40
1.0
 40
1.0
 40
1.0
 10
688.5221669651
 20
708.7496575288
 30
0.0
 10
688.3788384692
 20
709.1098813287
 30
0.0
 10
688.1905058554
 20
709.5842683584
 30
0.0
 10
687.9885275558
 20
710.0529659781
 30
0.0
 10
687.9387790121
 20
710.1650615066
 30
0.0
  0
SPLINE
  5
7C2
100
AcDbEntity
  8
0
100
AcDbSpline
 62
7
  6
CONTINUOUS
 70
0
 71
3
 72
9
 73
5
 74
0
 42
0.0000001
 43
0.0000001
 44
0.0000000001
 40
0.0
 40
0.0
 40
0.0
 40
0.0
 40
0.2930851044
 40
1.0
 40
1.0
 40
1.0
 40
1.0
 10
687.9387790121
 20
710.1650615066
 30
0.0
 10
687.8734156539
 20
710.3123409972
 30
0.0
 10
687.6423193814
 20
710.8095183651
 30
0.0
 10
687.3807769641
 20
711.3042810119
 30
0.0
 10
687.1253808153
 20
711.5972311083
 30
0.0
  0
SPLINE
  5
7C3
100
AcDbEntity
  8
0
100
AcDbSpline
 62
7
  6
CONTINUOUS
 70
0
 71
3
 72
9
 73
5
 74
0
 42
0.0000001
 43
0.0000001
 44
0.0000000001
 40
0.0
 40
0.0
 40
0.0
 40
0.0
 40
0.3027264666
 40
1.0
 40
1.0
 40
1.0
 40
1.0
 10
687.1253808153
 20
711.5972311083
 30
0.0
 10
687.0783608323
 20
711.6511650013
 30
0.0
 10
686.9170789909
 20
711.8200613101
 30
0.0
 10
686.6869744363
 20
711.9496575288
 30
0.0
 10
686.5221669651
 20
711.9496575288
 30
0.0
  0
SPLINE
  5
7C4
100
AcDbEntity
  8
0
100
AcDbSpline
 62
7
  6
CONTINUOUS
 70
0
 71
3
 72
9
 73
5
 74
0
 42
0.0000001
 43
0.0000001
 44
0.0000000001
 40
0.0
 40
0.0
 40
0.0
 40
0.0
 40
0.2250694291
 40
1.0
 40
1.0
 40
1.0
 40
1.0
 10
672.1483609733
 20
711.9496575288
 30
0.0
 10
672.0166701412
 20
711.9496575288
 30
0.0
 10
671.4293855555
 20
712.0262502109
 30
0.0
 10
670.9205204209
 20
712.3806516742
 30
0.0
 10
670.5777701673
 20
712.6774901025
 30
0.0
  0
SPLINE
  5
7C5
100
AcDbEntity
  8
0
100
AcDbSpline
 62
7
  6
CONTINUOUS
 70
0
 71
3
 72
9
 73
5
 74
0
 42
0.0000001
 43
0.0000001
 44
0.0000000001
 40
0.0
 40
0.0
 40
0.0
 40
0.0
 40
0.2370256602
 40
1.0
 40
1.0
 40
1.0
 40
1.0
 10
670.5777701673
 20
712.6774901025
 30
0.0
 10
670.4906975785
 20
712.752899209
 30
0.0
 10
670.1329716106
 20
713.0822200632
 30
0.0
 10
669.8043466529
 20
713.4412582234
 30
0.0
 10
669.5567504913
 20
713.7172588267
 30
0.0
  0
ENDSEC
  0
SECTION
  2
OBJECTS
  0
DICTIONARY
  5
C
100
AcDbDictionary
280
0
281
1
  3
ACAD_GROUP
350
D
  3
ACAD_MLINESTYLE
350
17
  3
ACAD_LAYOUT
350
1A
  3
ACAD_PLOTSETTINGS
350
19
  3
ACAD_PLOTSTYLENAME
350
E
  0
DICTIONARY
  5
D
102
{ACAD_REACTORS
330
C
102
}
100
AcDbDictionary
280
0
281
1
  0
ACDBDICTIONARYWDFLT
  5
E
102
{ACAD_REACTORS
330
C
102
}
100
AcDbDictionary
281
1
  3
Normal
350
F
100
AcDbDictionaryWithDefault
340
F
  0
DICTIONARY
  5
17
102
{ACAD_REACTORS
330
C
102
}
100
AcDbDictionary
280
0
281
1
  3
Standard
350
18
  0
DICTIONARY
  5
19
102
{ACAD_REACTORS
330
C
102
}
100
AcDbDictionary
281
1
  0
DICTIONARY
  5
1A
102
{ACAD_REACTORS
330
C
102
}
100
AcDbDictionary
281
1
  3
Model
350
7C6
  3
Layout1
350
7C7
  0
ACDBPLACEHOLDER
  5
F
102
{ACAD_REACTORS
330
E
102
}
  0
MLINESTYLE
  5
18
102
{ACAD_REACTORS
330
17
102
}
100
AcDbMlineStyle
  2
STANDARD
 70
0
  3

 62
256
 51
90.0
 52
90.0
 71
2
 49
0.5
 62
256
  6
BYLAYER
 49
-0.5
 62
256
  6
BYLAYER
  0
LAYOUT
  5
7C6
102
{ACAD_REACTORS
330
1A
102
}
100
AcDbPlotSettings
  1

  2
none_device
  4

  6

 40
0.0
 41
0.0
 42
0.0
 43
0.0
 44
210.0
 45
297.0
 46
0.0
 47
0.0
 48
0.0
 49
0.0
140
0.0
141
0.0
142
1.0
143
1.0
 70
1024
 72
1
 73
0
 74
0
  7

 75
0
147
1.0
148
0.0
149
0.0
100
AcDbLayout
  1
Model
 70
0
 71
0
 10
0.0
 20
0.0
 11
210.0
 21
297.0
 12
0.0
 22
0.0
 32
0.0
 14
0.0
 24
0.0
 34
0.0
 15
0.0
 25
0.0
 35
0.0
146
0.0
 13
0.0
 23
0.0
 33
0.0
 16
1.0
 26
0.0
 36
0.0
 17
0.0
 27
1.0
 37
0.0
 76
0
330
210
345
0
346
0
  0
LAYOUT
  5
7C7
102
{ACAD_REACTORS
330
1A
102
}
100
AcDbPlotSettings
  1

  2
none_device
  4

  6

 40
0.0
 41
0.0
 42
0.0
 43
0.0
 44
210.0
 45
297.0
 46
0.0
 47
0.0
 48
0.0
 49
0.0
140
0.0
141
0.0
142
1.0
143
1.0
 70
0
 72
1
 73
0
 74
0
  7

 75
0
147
1.0
148
0.0
149
0.0
100
AcDbLayout
  1
Layout1
 70
0
 71
1
 10
0.0
 20
0.0
 11
210.0
 21
297.0
 12
0.0
 22
0.0
 32
0.0
 14
0.0
 24
0.0
 34
0.0
 15
0.0
 25
0.0
 35
0.0
146
0.0
 13
0.0
 23
0.0
 33
0.0
 16
1.0
 26
0.0
 36
0.0
 17
0.0
 27
1.0
 37
0.0
 76
0
330
211
345
0
346
0
  0
ENDSEC
  0
EOF
