999
DXF file: C:\Users\sesa63760\Dev\_Creo\CAD\MCADID0003808_3D-CAD\drw0001_3.dxf
999
Pro/ENGINEER 2019471 by Parametric Technology Corporation
  0
SECTION
  2
HEADER
  9
$ACADVER
  1
AC1024
  9
$DWGCODEPAGE
  3
ANSI_1252
  9
$EXTMAX
 10
72.7286678378
 20
102.859115942
 30
0.0
  9
$EXTMIN
 10
0.0
 20
0.0
 30
0.0
  9
$LIMMIN
 10
0.0
 20
0.0
  9
$LIMMAX
 10
72.7286678378
 20
102.859115942
  9
$VIEWCTR
 10
36.3643339189
 20
51.429557971
  9
$VIEWSIZE
 40
102.859115942
  9
$CLAYER
  8
0
  9
$LTSCALE
 40
6.7048905207
  9
$CELTYPE
  6
BYLAYER
  9
$DIMSCALE
 40
1.0
  9
$DIMASZ
 40
0.8658174743
  9
$DIMEXO
 40
1.0
  9
$DIMDLI
 40
4.6324698143
  9
$DIMEXE
 40
1.0
  9
$DIMCEN
 40
1.0971639034
  9
$DIMLFAC
 40
1.0
  9
$DIMBLK
  1
_FILLED
  9
$DIMALT
 70
0
  9
$DIMALTF
 40
0.0393700787
  9
$DIMTXT
 40
1.212144464
  9
$DIMTOL
 70
1
  9
$DIMLIM
 70
0
  9
$DIMTFAC
 40
1.0
  9
$DIMTP
 40
0.01
  9
$DIMTM
 40
0.01
  9
$DIMGAP
 40
0.625
  9
$DIMDSEP
 70
46
  9
$AUNITS
 70
0
  9
$PDMODE
 70
3
  9
$PDSIZE
 40
0.3125
  9
$HANDSEED
  5
2A6
  9
$TILEMODE
 70
1
  9
$MEASUREMENT
 70
1
  9
$INSUNITS
 70
4
  0
ENDSEC
  0
SECTION
  2
CLASSES
  0
CLASS
  1
ACDBDICTIONARYWDFLT
  2
AcDbDictionaryWithDefault
  3
AutoCAD 2000
 90
0
 91
1
280
0
281
0
  0
CLASS
  1
ACDBPLACEHOLDER
  2
AcDbPlaceHolder
  3
AutoCAD 2000
 90
0
 91
1
280
0
281
0
  0
CLASS
  1
LAYOUT
  2
AcDbLayout
  3
AutoCAD 2000
 90
0
 91
0
280
0
281
0
  0
ENDSEC
  0
SECTION
  2
TABLES
  0
TABLE
  2
VPORT
  5
8
100
AcDbSymbolTable
 70
2
  0
VPORT
  5
1F4
100
AcDbSymbolTableRecord
100
AcDbViewportTableRecord
  2
*ACTIVE
 70
0
 10
0.0
 20
0.0
 11
1.0
 21
1.0
 12
36.3643339189
 22
51.429557971
 13
0.0
 23
0.0
 14
1.0
 24
1.0
 15
0.0
 25
0.0
 16
0.0
 26
0.0
 36
1.0
 17
0.0
 27
0.0
 37
0.0
 40
102.859115942
 41
0.7070707071
 42
50.0
 43
0.0
 44
0.0
 50
0.0
 51
0.0
 71
0
 72
100
 73
1
 74
1
 75
0
 76
0
 77
0
 78
0
  0
ENDTAB
  0
TABLE
  2
LTYPE
  5
5
100
AcDbSymbolTable
 70
6
  0
LTYPE
  5
14
100
AcDbSymbolTableRecord
100
AcDbLinetypeTableRecord
  2
BYBLOCK
 70
0
  3

 72
65
 73
0
 40
0.0
  0
LTYPE
  5
15
100
AcDbSymbolTableRecord
100
AcDbLinetypeTableRecord
  2
BYLAYER
 70
0
  3

 72
65
 73
0
 40
0.0
  0
LTYPE
  5
16
100
AcDbSymbolTableRecord
100
AcDbLinetypeTableRecord
  2
CONTINUOUS
 70
64
  3
Solid line
 72
65
 73
0
 40
0.0
  0
LTYPE
  5
1F5
100
AcDbSymbolTableRecord
100
AcDbLinetypeTableRecord
  2
CENTER
 70
64
  3
____ _ ____ _ ____ _ ____ _ ____ _ ____ _ ____
 72
65
 73
4
 40
0.6
 49
0.375
 74
0
 49
-0.075
 74
0
 49
0.075
 74
0
 49
-0.075
 74
0
  0
LTYPE
  5
1F6
100
AcDbSymbolTableRecord
100
AcDbLinetypeTableRecord
  2
HIDDEN
 70
64
  3
- - - - - - - - - - - - - - - - - - - -
 72
65
 73
2
 40
0.2
 49
0.1
 74
0
 49
-0.1
 74
0
  0
LTYPE
  5
1F7
100
AcDbSymbolTableRecord
100
AcDbLinetypeTableRecord
  2
PHANTOM
 70
64
  3
_____ _ _ _____ _ _ _____ _ _ _____
 72
65
 73
6
 40
0.8
 49
0.45
 74
0
 49
-0.05
 74
0
 49
0.1
 74
0
 49
-0.05
 74
0
 49
0.1
 74
0
 49
-0.05
 74
0
  0
LTYPE
  5
1F8
100
AcDbSymbolTableRecord
100
AcDbLinetypeTableRecord
  2
DOT
 70
64
  3
. . . . . . . . . . . . . . . . . . . .
 72
65
 73
2
 40
0.2
 49
0.1
 74
0
 49
-0.1
 74
0
  0
LTYPE
  5
1F9
100
AcDbSymbolTableRecord
100
AcDbLinetypeTableRecord
  2
DASHED
 70
64
  3
- - - - - - - - - - - - - - - - - - - -
 72
65
 73
2
 40
0.2
 49
0.1
 74
0
 49
-0.1
 74
0
  0
ENDTAB
  0
TABLE
  2
LAYER
  5
2
100
AcDbSymbolTable
 70
36
  0
LAYER
  5
10
100
AcDbSymbolTableRecord
100
AcDbLayerTableRecord
  2
0
 70
0
 62
7
  6
CONTINUOUS
370
-3
390
F
  0
LAYER
  5
1FA
100
AcDbSymbolTableRecord
100
AcDbLayerTableRecord
  2
DEFAULT_1
 70
0
 62
7
  6
CENTER
370
-3
390
F
  0
LAYER
  5
1FB
100
AcDbSymbolTableRecord
100
AcDbLayerTableRecord
  2
DEFAULT_2
 70
0
 62
7
  6
HIDDEN
370
-3
390
F
  0
LAYER
  5
1FC
100
AcDbSymbolTableRecord
100
AcDbLayerTableRecord
  2
DEFAULT_3
 70
0
 62
7
  6
PHANTOM
370
-3
390
F
  0
LAYER
  5
1FD
100
AcDbSymbolTableRecord
100
AcDbLayerTableRecord
  2
00_COMPONENTS
 70
0
 62
7
  6
CONTINUOUS
370
-3
390
F
  0
LAYER
  5
1FE
100
AcDbSymbolTableRecord
100
AcDbLayerTableRecord
  2
01_1_DEFAULT_DATUMS
 70
0
 62
7
  6
CONTINUOUS
370
-3
390
F
  0
LAYER
  5
1FF
100
AcDbSymbolTableRecord
100
AcDbLayerTableRecord
  2
01_PLANES
 70
0
 62
7
  6
CONTINUOUS
370
-3
390
F
  0
LAYER
  5
200
100
AcDbSymbolTableRecord
100
AcDbLayerTableRecord
  2
02_COORD_SYS
 70
0
 62
7
  6
CONTINUOUS
370
-3
390
F
  0
LAYER
  5
201
100
AcDbSymbolTableRecord
100
AcDbLayerTableRecord
  2
03_AXES
 70
0
 62
7
  6
CONTINUOUS
370
-3
390
F
  0
LAYER
  5
202
100
AcDbSymbolTableRecord
100
AcDbLayerTableRecord
  2
04_POINTS
 70
0
 62
7
  6
CONTINUOUS
370
-3
390
F
  0
LAYER
  5
203
100
AcDbSymbolTableRecord
100
AcDbLayerTableRecord
  2
05_CURVES
 70
0
 62
7
  6
CONTINUOUS
370
-3
390
F
  0
LAYER
  5
204
100
AcDbSymbolTableRecord
100
AcDbLayerTableRecord
  2
06_SURFS
 70
0
 62
7
  6
CONTINUOUS
370
-3
390
F
  0
LAYER
  5
205
100
AcDbSymbolTableRecord
100
AcDbLayerTableRecord
  2
07_COSMETICS
 70
0
 62
7
  6
CONTINUOUS
370
-3
390
F
  0
LAYER
  5
206
100
AcDbSymbolTableRecord
100
AcDbLayerTableRecord
  2
10_NOTES
 70
0
 62
7
  6
CONTINUOUS
370
-3
390
F
  0
LAYER
  5
207
100
AcDbSymbolTableRecord
100
AcDbLayerTableRecord
  2
11_NOTES_PUB
 70
0
 62
7
  6
CONTINUOUS
370
-3
390
F
  0
LAYER
  5
208
100
AcDbSymbolTableRecord
100
AcDbLayerTableRecord
  2
13_REF_GTOL
 70
0
 62
7
  6
CONTINUOUS
370
-3
390
F
  0
LAYER
  5
209
100
AcDbSymbolTableRecord
100
AcDbLayerTableRecord
  2
16_MISC
 70
0
 62
7
  6
CONTINUOUS
370
-3
390
F
  0
LAYER
  5
20A
100
AcDbSymbolTableRecord
100
AcDbLayerTableRecord
  2
17_NO_PRINT
 70
0
 62
7
  6
CONTINUOUS
370
-3
390
F
  0
LAYER
  5
20B
100
AcDbSymbolTableRecord
100
AcDbLayerTableRecord
  2
18_DATUM_CAMS_JOINTS
 70
0
 62
7
  6
CONTINUOUS
370
-3
390
F
  0
LAYER
  5
20C
100
AcDbSymbolTableRecord
100
AcDbLayerTableRecord
  2
19_DATUM_FUNCTIONAL
 70
0
 62
7
  6
CONTINUOUS
370
-3
390
F
  0
LAYER
  5
20D
100
AcDbSymbolTableRecord
100
AcDbLayerTableRecord
  2
20_DATUM_KINEMATIC_SCHEME
 70
0
 62
7
  6
CONTINUOUS
370
-3
390
F
  0
ENDTAB
  0
TABLE
  2
STYLE
  5
3
100
AcDbSymbolTable
 70
1
  0
STYLE
  5
11
100
AcDbSymbolTableRecord
100
AcDbTextStyleTableRecord
  2
STANDARD
 70
0
 40
0.0
 41
1.0
 50
0.0
 71
0
 42
0.2
  3
ARIAL.TTF
  4

  0
STYLE
  5
20E
100
AcDbSymbolTableRecord
100
AcDbTextStyleTableRecord
  2
TEXTSTYLE_1
 70
0
 40
0.0
 41
0.8
 50
0.0
 71
0
 42
0.2
  3
gdt
  4

  0
ENDTAB
  0
TABLE
  2
VIEW
  5
6
100
AcDbSymbolTable
 70
0
  0
ENDTAB
  0
TABLE
  2
UCS
  5
7
100
AcDbSymbolTable
 70
0
  0
ENDTAB
  0
TABLE
  2
APPID
  5
9
100
AcDbSymbolTable
 70
1
  0
APPID
  5
20F
100
AcDbSymbolTableRecord
100
AcDbRegAppTableRecord
  2
ACAD
 70
0
  0
ENDTAB
  0
TABLE
  2
BLOCK_RECORD
  5
1
100
AcDbSymbolTable
 70
0
  0
BLOCK_RECORD
  5
210
100
AcDbSymbolTableRecord
100
AcDbBlockTableRecord
  2
*Model_Space
  0
BLOCK_RECORD
  5
211
100
AcDbSymbolTableRecord
100
AcDbBlockTableRecord
  2
*Paper_Space
  0
BLOCK_RECORD
  5
212
100
AcDbSymbolTableRecord
100
AcDbBlockTableRecord
  2
_FILLED
  0
ENDTAB
  0
TABLE
  2
DIMSTYLE
  5
A
100
AcDbSymbolTable
 70
1
100
AcDbDimStyleTable
 71
0
  0
DIMSTYLE
105
213
100
AcDbSymbolTableRecord
100
AcDbDimStyleTableRecord
  2
STANDARD
 70
0
  3

  4

 40
1.0
 41
0.8658174743
 42
1.0
 43
0.38
 44
1.0
 45
0.0
 46
0.0
 47
0.01
 48
0.01
140
1.212144464
141
0.09
142
0.0
143
25.4
144
1.0
145
0.0
146
1.0
147
0.625
 71
1
 72
0
 73
0
 74
0
 75
0
 76
0
 77
1
 78
8
 79
2
170
0
171
1
172
0
173
0
174
0
175
0
176
0
177
0
178
0
270
2
179
2
271
2
272
2
273
2
274
2
275
0
280
0
281
0
282
0
283
1
284
8
285
0
286
0
287
3
288
0
340
11
278
46
341
212
342
212
343
212
344
212
  0
ENDTAB
  0
ENDSEC
  0
SECTION
  2
BLOCKS
  0
BLOCK
  5
20
100
AcDbEntity
  8
0
100
AcDbBlockBegin
  2
*Model_Space
 70
0
 10
0.0
 20
0.0
 30
0.0
  3
*Model_Space
  1

  0
ENDBLK
  5
21
100
AcDbEntity
  8
0
100
AcDbBlockEnd
  0
BLOCK
  5
1C
100
AcDbEntity
  8
0
100
AcDbBlockBegin
  2
*Paper_Space
 70
0
 10
0.0
 20
0.0
 30
0.0
  3
*Paper_Space
  1

  0
ENDBLK
  5
1D
100
AcDbEntity
  8
0
100
AcDbBlockEnd
  0
BLOCK
  5
214
100
AcDbEntity
  8
0
100
AcDbBlockBegin
  2
_FILLED
 70
64
 10
0.0
 20
0.0
  3
_FILLED
  1

  0
SOLID
  5
215
100
AcDbEntity
  8
0
  6
BYBLOCK
 62
0
100
AcDbTrace
 10
0.0
 20
0.0
 11
-1.0
 21
0.25
 12
-1.0
 22
-0.25
 13
-1.0
 23
-0.25
  0
ENDBLK
  5
216
100
AcDbEntity
  8
0
  6
BYBLOCK
 62
0
100
AcDbBlockEnd
  0
ENDSEC
  0
SECTION
  2
ENTITIES
  0
LINE
  5
217
100
AcDbEntity
  8
0
100
AcDbLine
 62
7
  6
BYLAYER
 10
48.3715104471
 20
8.2463550725
 11
26.3715342023
 21
8.2463550725
  0
LINE
  5
218
100
AcDbEntity
  8
0
100
AcDbLine
 62
7
  6
BYLAYER
 10
48.8715223247
 20
8.7463550725
 11
25.8715223247
 21
8.7463550725
  0
LINE
  5
219
100
AcDbEntity
  8
0
100
AcDbLine
 62
7
  6
BYLAYER
 10
26.3715223247
 20
8.2463550725
 11
25.8715223247
 21
8.7463550725
  0
LINE
  5
21A
100
AcDbEntity
  8
0
100
AcDbLine
 62
7
  6
BYLAYER
 10
25.8715223247
 20
16.2463550725
 11
48.8715223247
 21
16.2463550725
  0
LINE
  5
21B
100
AcDbEntity
  8
0
100
AcDbLine
 62
7
  6
BYLAYER
 10
25.8715223247
 20
16.2463550725
 11
24.3715223247
 21
17.1123804762
  0
LINE
  5
21C
100
AcDbEntity
  8
0
100
AcDbLine
 62
7
  6
BYLAYER
 10
31.3715223247
 20
90.9163550725
 11
32.3715223247
 21
91.9163550725
  0
LINE
  5
21D
100
AcDbEntity
  8
0
100
AcDbLine
 62
7
  6
BYLAYER
 10
50.3715223247
 20
17.1123804762
 11
50.2638271701
 21
17.1123804762
  0
LINE
  5
21E
100
AcDbEntity
  8
0
100
AcDbLine
 62
7
  6
BYLAYER
 10
45.2638271701
 20
17.1123804762
 11
42.3715223247
 21
17.1123804762
  0
LINE
  5
21F
100
AcDbEntity
  8
0
100
AcDbLine
 62
7
  6
BYLAYER
 10
32.3715223247
 20
17.1123804762
 11
29.4792174793
 21
17.1123804762
  0
LINE
  5
220
100
AcDbEntity
  8
0
100
AcDbLine
 62
7
  6
BYLAYER
 10
24.4792174793
 20
17.1123804762
 11
24.3715223247
 21
17.1123804762
  0
LINE
  5
221
100
AcDbEntity
  8
0
100
AcDbLine
 62
7
  6
BYLAYER
 10
22.3715223247
 20
23.0604326209
 11
21.940582217
 21
23.4163550725
  0
LINE
  5
222
100
AcDbEntity
  8
0
100
AcDbLine
 62
7
  6
BYLAYER
 10
24.3715223247
 20
21.6690048033
 11
24.4792174793
 21
21.6690048033
  0
LINE
  5
223
100
AcDbEntity
  8
0
100
AcDbLine
 62
7
  6
BYLAYER
 10
29.4792174793
 20
21.6690048033
 11
32.3715223247
 21
21.6690048033
  0
LINE
  5
224
100
AcDbEntity
  8
0
100
AcDbLine
 62
7
  6
BYLAYER
 10
42.3715223247
 20
21.6690048033
 11
45.2638271701
 21
21.6690048033
  0
LINE
  5
225
100
AcDbEntity
  8
0
100
AcDbLine
 62
7
  6
BYLAYER
 10
50.2638271701
 20
21.6690048033
 11
50.3715223247
 21
21.6690048033
  0
LINE
  5
226
100
AcDbEntity
  8
0
100
AcDbLine
 62
7
  6
BYLAYER
 10
49.3715223247
 20
22.2463550725
 11
25.3715223247
 21
22.2463550725
  0
LINE
  5
227
100
AcDbEntity
  8
0
100
AcDbLine
 62
7
  6
BYLAYER
 10
52.3715223247
 20
23.0163550725
 11
22.3715223247
 21
23.0163550725
  0
LINE
  5
228
100
AcDbEntity
  8
0
100
AcDbLine
 62
7
  6
BYLAYER
 10
22.3715223247
 20
23.0604326209
 11
52.3715223247
 21
23.0604326209
  0
LWPOLYLINE
  5
229
100
AcDbEntity
  8
0
100
AcDbPolyline
 62
7
  6
BYLAYER
 90
4
 70
0
 10
56.9627709445
 20
28.9640065337
 10
57.4043149943
 20
29.0782600346
 10
57.8453692355
 20
29.5353383615
 10
57.9439210107
 20
29.9650930643
  0
LINE
  5
22A
100
AcDbEntity
  8
0
100
AcDbLine
 62
7
  6
BYLAYER
 10
52.8024624324
 20
23.4163550725
 11
21.940582217
 21
23.4163550725
  0
LINE
  5
22B
100
AcDbEntity
  8
0
100
AcDbLine
 62
7
  6
BYLAYER
 10
21.2456892998
 20
24.6199449109
 11
53.4973553496
 21
24.6199449109
  0
LINE
  5
22C
100
AcDbEntity
  8
0
100
AcDbLine
 62
7
  6
BYLAYER
 10
53.6715223247
 20
25.2699449109
 11
21.0715223247
 21
25.2699449109
  0
LINE
  5
22D
100
AcDbEntity
  8
0
100
AcDbLine
 62
7
  6
BYLAYER
 10
21.940582217
 20
23.4163550725
 11
21.2456892998
 21
24.6199449109
  0
LINE
  5
22E
100
AcDbEntity
  8
0
100
AcDbLine
 62
7
  6
BYLAYER
 10
21.2456892998
 20
24.6199449109
 11
21.1158187505
 21
24.9334801523
  0
LINE
  5
22F
100
AcDbEntity
  8
0
100
AcDbLine
 62
7
  6
BYLAYER
 10
56.9627633168
 20
28.964052063
 11
37.3715223237
 21
28.6220856795
  0
LINE
  5
230
100
AcDbEntity
  8
0
100
AcDbLine
 62
7
  6
BYLAYER
 10
37.3715223247
 20
28.9438463881
 11
56.9575350368
 21
29.2857215117
  0
LINE
  5
231
100
AcDbEntity
  8
0
100
AcDbLine
 62
7
  6
BYLAYER
 10
37.3715223296
 20
28.6220856794
 11
17.7802813326
 21
28.964052063
  0
LINE
  5
232
100
AcDbEntity
  8
0
100
AcDbLine
 62
7
  6
BYLAYER
 10
17.7855096126
 20
29.2857215117
 11
37.3715223247
 21
28.9438463881
  0
LWPOLYLINE
  5
233
100
AcDbEntity
  8
0
100
AcDbPolyline
 62
7
  6
BYLAYER
 90
4
 70
0
 10
16.799123649
 20
29.9650941455
 10
16.9049942621
 20
29.5205240208
 10
17.3533833727
 20
29.0706643711
 10
17.7802725192
 20
28.9640065475
  0
LINE
  5
234
100
AcDbEntity
  8
0
100
AcDbLine
 62
7
  6
BYLAYER
 10
17.8877605259
 20
82.9930699701
 11
17.8825189569
 21
83.2712177693
  0
LINE
  5
235
100
AcDbEntity
  8
0
100
AcDbLine
 62
7
  6
BYLAYER
 10
17.5715223247
 20
81.9490096367
 11
17.5715223247
 21
30.2854603182
  0
LINE
  5
236
100
AcDbEntity
  8
0
100
AcDbLine
 62
7
  6
BYLAYER
 10
16.7992258333
 20
29.9645102294
 11
16.8988427548
 21
82.2724905629
  0
LINE
  5
237
100
AcDbEntity
  8
0
100
AcDbLine
 62
7
  6
BYLAYER
 10
17.1987399523
 20
82.2942512716
 11
17.0991230308
 21
29.9862709381
  0
LINE
  5
238
100
AcDbEntity
  8
0
100
AcDbLine
 62
7
  6
BYLAYER
 10
17.7802737234
 20
28.9640065265
 11
17.7855096126
 21
29.2857215117
  0
LINE
  5
239
100
AcDbEntity
  8
0
100
AcDbLine
 62
7
  6
BYLAYER
 10
56.6715274893
 20
29.7867774097
 11
18.0715171601
 21
29.7867774097
  0
LINE
  5
23A
100
AcDbEntity
  8
0
100
AcDbLine
 62
7
  6
BYLAYER
 10
17.8535773775
 20
29.8366457006
 11
56.8894672719
 21
29.8366457006
  0
LINE
  5
23B
100
AcDbEntity
  8
0
100
AcDbLine
 62
7
  6
BYLAYER
 10
17.813335705
 20
29.8584064093
 11
56.9297089444
 21
29.8584064093
  0
LINE
  5
23C
100
AcDbEntity
  8
0
100
AcDbLine
 62
7
  6
BYLAYER
 10
49.3715223247
 20
22.2463550725
 11
50.3715223247
 21
21.6690048033
  0
LINE
  5
23D
100
AcDbEntity
  8
0
100
AcDbLine
 62
7
  6
BYLAYER
 10
21.1158187505
 20
24.9334801523
 11
21.0715223247
 21
25.2699449109
  0
LINE
  5
23E
100
AcDbEntity
  8
0
100
AcDbLine
 62
7
  6
BYLAYER
 10
21.0715223247
 20
25.2699449109
 11
21.0715223247
 21
28.9066032378
  0
LINE
  5
23F
100
AcDbEntity
  8
0
100
AcDbLine
 62
7
  6
BYLAYER
 10
42.5715223247
 20
93.4163550725
 11
42.3715223247
 21
93.069944911
  0
LINE
  5
240
100
AcDbEntity
  8
0
100
AcDbLine
 62
7
  6
BYLAYER
 10
22.3715223247
 20
23.0604326209
 11
22.3715223247
 21
23.0163550725
  0
LINE
  5
241
100
AcDbEntity
  8
0
100
AcDbLine
 62
7
  6
BYLAYER
 10
24.3715223247
 20
17.1123804762
 11
24.3715223247
 21
21.6690048033
  0
LINE
  5
242
100
AcDbEntity
  8
0
100
AcDbLine
 62
7
  6
BYLAYER
 10
24.4792174793
 20
17.1123804762
 11
24.4792174793
 21
21.6690048033
  0
LINE
  5
243
100
AcDbEntity
  8
0
100
AcDbLine
 62
7
  6
BYLAYER
 10
32.1715223247
 20
94.1163550725
 11
32.3713420424
 21
95.1163550725
  0
LINE
  5
244
100
AcDbEntity
  8
0
100
AcDbLine
 62
7
  6
BYLAYER
 10
25.3715223247
 20
22.2463550725
 11
25.3715223247
 21
23.0163550725
  0
LINE
  5
245
100
AcDbEntity
  8
0
100
AcDbLine
 62
7
  6
BYLAYER
 10
25.8715223247
 20
8.7463550725
 11
25.8715223247
 21
16.2463550725
  0
LINE
  5
246
100
AcDbEntity
  8
0
100
AcDbLine
 62
7
  6
BYLAYER
 10
29.3774278558
 20
83.4855128686
 11
29.3774278558
 21
83.8163550725
  0
LINE
  5
247
100
AcDbEntity
  8
0
100
AcDbLine
 62
7
  6
BYLAYER
 10
29.4792174793
 20
21.6690048033
 11
29.4792174793
 21
17.1123804762
  0
LINE
  5
248
100
AcDbEntity
  8
0
100
AcDbLine
 62
7
  6
BYLAYER
 10
31.3715223247
 20
85.1163550725
 11
31.3715223247
 21
90.9163550725
  0
LINE
  5
249
100
AcDbEntity
  8
0
100
AcDbLine
 62
7
  6
BYLAYER
 10
32.1715223247
 20
93.4163550725
 11
32.1715223247
 21
94.1163550725
  0
LINE
  5
24A
100
AcDbEntity
  8
0
100
AcDbLine
 62
7
  6
BYLAYER
 10
32.3715223247
 20
17.1123804762
 11
32.3715223247
 21
21.6690048033
  0
LINE
  5
24B
100
AcDbEntity
  8
0
100
AcDbLine
 62
7
  6
BYLAYER
 10
32.3715223247
 20
91.9163550725
 11
32.3715223247
 21
93.069944911
  0
LINE
  5
24C
100
AcDbEntity
  8
0
100
AcDbLine
 62
7
  6
BYLAYER
 10
37.3715417516
 20
28.6220853404
 11
37.3715223247
 21
28.9438463881
  0
LINE
  5
24D
100
AcDbEntity
  8
0
100
AcDbLine
 62
7
  6
BYLAYER
 10
37.3715295144
 20
83.6159915659
 11
37.371522871
 21
83.7469574239
  0
LINE
  5
24E
100
AcDbEntity
  8
0
100
AcDbLine
 62
7
  6
BYLAYER
 10
37.3715224452
 20
83.3331602994
 11
37.3715397187
 21
83.6113998921
  0
LINE
  5
24F
100
AcDbEntity
  8
0
100
AcDbLine
 62
7
  6
BYLAYER
 10
42.3715223247
 20
21.6690048033
 11
42.3715223247
 21
17.1123804762
  0
LINE
  5
250
100
AcDbEntity
  8
0
100
AcDbLine
 62
7
  6
BYLAYER
 10
42.3715223247
 20
91.9163550725
 11
42.3715223247
 21
93.069944911
  0
LINE
  5
251
100
AcDbEntity
  8
0
100
AcDbLine
 62
7
  6
BYLAYER
 10
42.5715223247
 20
93.4163550725
 11
42.5715223247
 21
94.1163550725
  0
LINE
  5
252
100
AcDbEntity
  8
0
100
AcDbLine
 62
7
  6
BYLAYER
 10
43.3715223247
 20
85.1163550725
 11
43.3715223247
 21
90.9163550725
  0
LINE
  5
253
100
AcDbEntity
  8
0
100
AcDbLine
 62
7
  6
BYLAYER
 10
45.2638271701
 20
17.1123804762
 11
45.2638271701
 21
21.6690048033
  0
LINE
  5
254
100
AcDbEntity
  8
0
100
AcDbLine
 62
7
  6
BYLAYER
 10
45.3656167936
 20
83.4736289695
 11
45.3656167936
 21
83.8163550725
  0
LINE
  5
255
100
AcDbEntity
  8
0
100
AcDbLine
 62
7
  6
BYLAYER
 10
48.8715223247
 20
8.7463550725
 11
48.8715223247
 21
16.2463550725
  0
LINE
  5
256
100
AcDbEntity
  8
0
100
AcDbLine
 62
7
  6
BYLAYER
 10
49.3715223247
 20
22.2463550725
 11
49.3715223247
 21
23.0163550725
  0
LINE
  5
257
100
AcDbEntity
  8
0
100
AcDbLine
 62
7
  6
BYLAYER
 10
50.2638271701
 20
21.6690048033
 11
50.2638271701
 21
17.1123804762
  0
LINE
  5
258
100
AcDbEntity
  8
0
100
AcDbLine
 62
7
  6
BYLAYER
 10
50.3715223247
 20
17.1123804762
 11
50.3715223247
 21
21.6690048033
  0
LINE
  5
259
100
AcDbEntity
  8
0
100
AcDbLine
 62
7
  6
BYLAYER
 10
52.3715223247
 20
23.0604326209
 11
52.3715223247
 21
23.0163550725
  0
LINE
  5
25A
100
AcDbEntity
  8
0
100
AcDbLine
 62
7
  6
BYLAYER
 10
53.6715223247
 20
25.2699449109
 11
53.6715223247
 21
28.9066032378
  0
LINE
  5
25B
100
AcDbEntity
  8
0
100
AcDbLine
 62
7
  6
BYLAYER
 10
32.1715223247
 20
93.4163550725
 11
32.3715223247
 21
93.069944911
  0
LINE
  5
25C
100
AcDbEntity
  8
0
100
AcDbLine
 62
7
  6
BYLAYER
 10
42.5715223247
 20
94.1163550725
 11
42.371702607
 21
95.1163550725
  0
LINE
  5
25D
100
AcDbEntity
  8
0
100
AcDbLine
 62
7
  6
BYLAYER
 10
56.9575350368
 20
29.2857215117
 11
56.962771206
 21
28.9640067127
  0
LINE
  5
25E
100
AcDbEntity
  8
0
100
AcDbLine
 62
7
  6
BYLAYER
 10
56.8605256925
 20
83.2712177693
 11
56.8552841235
 21
82.9930699701
  0
LINE
  5
25F
100
AcDbEntity
  8
0
100
AcDbLine
 62
7
  6
BYLAYER
 10
53.6272258989
 20
24.9334801523
 11
53.6715223247
 21
25.2699449109
  0
LINE
  5
260
100
AcDbEntity
  8
0
100
AcDbLine
 62
7
  6
BYLAYER
 10
25.3715223247
 20
22.2463550725
 11
24.3715223247
 21
21.6690048033
  0
LINE
  5
261
100
AcDbEntity
  8
0
100
AcDbLine
 62
7
  6
BYLAYER
 10
57.6439216186
 20
29.9862709381
 11
57.5443046971
 21
82.2942512716
  0
LINE
  5
262
100
AcDbEntity
  8
0
100
AcDbLine
 62
7
  6
BYLAYER
 10
57.8442018946
 20
82.2724905629
 11
57.9438188161
 21
29.9645102294
  0
LINE
  5
263
100
AcDbEntity
  8
0
100
AcDbLine
 62
7
  6
BYLAYER
 10
57.1715223247
 20
30.2854603182
 11
57.1715223247
 21
81.9490096367
  0
LINE
  5
264
100
AcDbEntity
  8
0
100
AcDbLine
 62
7
  6
BYLAYER
 10
53.4973553496
 20
24.6199449109
 11
53.6272258989
 21
24.9334801523
  0
LINE
  5
265
100
AcDbEntity
  8
0
100
AcDbLine
 62
7
  6
BYLAYER
 10
52.8024624324
 20
23.4163550725
 11
53.4973553496
 21
24.6199449109
  0
LINE
  5
266
100
AcDbEntity
  8
0
100
AcDbLine
 62
7
  6
BYLAYER
 10
52.3715223247
 20
23.0604326209
 11
52.8024624324
 21
23.4163550725
  0
LINE
  5
267
100
AcDbEntity
  8
0
100
AcDbLine
 62
7
  6
BYLAYER
 10
37.3715223248
 20
83.3331602973
 11
17.8877605259
 21
82.9930699701
  0
LINE
  5
268
100
AcDbEntity
  8
0
100
AcDbLine
 62
7
  6
BYLAYER
 10
17.8825189569
 20
83.2712177693
 11
37.3715221109
 21
83.6113995848
  0
LINE
  5
269
100
AcDbEntity
  8
0
100
AcDbLine
 62
7
  6
BYLAYER
 10
56.8370143284
 20
82.4195849631
 11
17.9060303209
 21
82.4195849631
  0
LINE
  5
26A
100
AcDbEntity
  8
0
100
AcDbLine
 62
7
  6
BYLAYER
 10
18.0715168617
 20
82.4476925452
 11
56.6715277877
 21
82.4476925452
  0
LINE
  5
26B
100
AcDbEntity
  8
0
100
AcDbLine
 62
7
  6
BYLAYER
 10
29.3774278558
 20
83.8163550725
 11
45.3656167936
 21
83.8163550725
  0
LINE
  5
26C
100
AcDbEntity
  8
0
100
AcDbLine
 62
7
  6
BYLAYER
 10
29.6774278558
 20
84.1163550725
 11
45.0656167936
 21
84.1163550725
  0
LINE
  5
26D
100
AcDbEntity
  8
0
100
AcDbLine
 62
7
  6
BYLAYER
 10
56.8552841235
 20
82.9930699701
 11
37.3715223248
 21
83.3331602973
  0
LINE
  5
26E
100
AcDbEntity
  8
0
100
AcDbLine
 62
7
  6
BYLAYER
 10
37.3715225439
 20
83.6113995847
 11
56.8605256925
 21
83.2712177693
  0
LINE
  5
26F
100
AcDbEntity
  8
0
100
AcDbLine
 62
7
  6
BYLAYER
 10
43.3715223247
 20
90.9163550725
 11
42.3715223247
 21
91.9163550725
  0
LINE
  5
270
100
AcDbEntity
  8
0
100
AcDbLine
 62
7
  6
BYLAYER
 10
43.3715223247
 20
85.1163550725
 11
31.3715223247
 21
85.1163550725
  0
LINE
  5
271
100
AcDbEntity
  8
0
100
AcDbLine
 62
7
  6
BYLAYER
 10
48.3715223247
 20
8.2463550725
 11
48.8715223247
 21
8.7463550725
  0
LINE
  5
272
100
AcDbEntity
  8
0
100
AcDbLine
 62
7
  6
BYLAYER
 10
48.8715223247
 20
16.2463550725
 11
50.3715223247
 21
17.1123804762
  0
LINE
  5
273
100
AcDbEntity
  8
0
100
AcDbLine
 62
7
  6
BYLAYER
 10
31.3715223247
 20
90.9163550725
 11
43.3715223247
 21
90.9163550725
  0
LINE
  5
274
100
AcDbEntity
  8
0
100
AcDbLine
 62
7
  6
BYLAYER
 10
42.3715223247
 20
91.9163550725
 11
32.3715223247
 21
91.9163550725
  0
LINE
  5
275
100
AcDbEntity
  8
0
100
AcDbLine
 62
7
  6
BYLAYER
 10
32.3715223247
 20
93.069944911
 11
42.3715223247
 21
93.069944911
  0
LINE
  5
276
100
AcDbEntity
  8
0
100
AcDbLine
 62
7
  6
BYLAYER
 10
42.5715223247
 20
93.4163550725
 11
32.1715223247
 21
93.4163550725
  0
LINE
  5
277
100
AcDbEntity
  8
0
100
AcDbLine
 62
7
  6
BYLAYER
 10
32.1715223247
 20
94.1163550725
 11
42.5715223247
 21
94.1163550725
  0
LINE
  5
278
100
AcDbEntity
  8
0
100
AcDbLine
 62
7
  6
BYLAYER
 10
32.3713420424
 20
95.1163550725
 11
42.371702607
 21
95.1163550725
  0
ARC
  5
279
100
AcDbEntity
  8
0
100
AcDbCircle
 62
7
  6
BYLAYER
 10
54.8195367901
 20
-727.1119916073
 40
811.0466090076
100
AcDbArc
 50
91.2500563733
 51
91.6033981587
  0
ARC
  5
27A
100
AcDbEntity
  8
0
100
AcDbCircle
 62
7
  6
BYLAYER
 10
21.0439111534
 20
-678.8800308595
 40
762.8013091446
100
AcDbArc
 50
88.3793545708
 51
88.7741411398
  0
ARC
  5
27B
100
AcDbEntity
  8
0
100
AcDbCircle
 62
7
  6
BYLAYER
 10
17.8995861831
 20
82.2705773189
 40
1.0007707762
100
AcDbArc
 50
90.9771682688
 51
179.8904607587
  0
ARC
  5
27C
100
AcDbEntity
  8
0
100
AcDbCircle
 62
7
  6
BYLAYER
 10
56.84345879
 20
82.2705770024
 40
1.000770771
100
AcDbArc
 50
0.109557393
 51
89.0228504188
  0
ARC
  5
27D
100
AcDbEntity
  8
0
100
AcDbCircle
 62
7
  6
BYLAYER
 10
44.3715223247
 20
85.1163550725
 40
1.0
100
AcDbArc
 50
180.0
 51
270.0
  0
ARC
  5
27E
100
AcDbEntity
  8
0
100
AcDbCircle
 62
7
  6
BYLAYER
 10
30.3715223247
 20
85.1163550725
 40
1.0
100
AcDbArc
 50
270.0
 51
360.0
  0
ARC
  5
27F
100
AcDbEntity
  8
0
100
AcDbCircle
 62
7
  6
BYLAYER
 10
56.6709502908
 20
81.9580531732
 40
0.4896397125
100
AcDbArc
 50
79.3225255817
 51
89.9324234812
  0
ARC
  5
280
100
AcDbEntity
  8
0
100
AcDbCircle
 62
7
  6
BYLAYER
 10
18.0720943586
 20
81.9580531732
 40
0.4896397125
100
AcDbArc
 50
90.0675765192
 51
100.6774744186
  0
ARC
  5
281
100
AcDbEntity
  8
0
100
AcDbCircle
 62
7
  6
BYLAYER
 10
29.6774278558
 20
83.8163550725
 40
0.3
100
AcDbArc
 50
90.0
 51
180.0
  0
ARC
  5
282
100
AcDbEntity
  8
0
100
AcDbCircle
 62
7
  6
BYLAYER
 10
45.0656167936
 20
83.8163550725
 40
0.3
100
AcDbArc
 50
0.0
 51
90.0
  0
SPLINE
  5
283
100
AcDbEntity
  8
0
100
AcDbSpline
 62
7
  6
BYLAYER
 70
0
 71
3
 72
11
 73
7
 74
0
 42
0.0000001
 43
0.0000001
 44
0.0000000001
 40
0.0
 40
0.0
 40
0.0
 40
0.0
 40
0.2499948692
 40
0.4999985853
 40
0.7500045668
 40
1.0
 40
1.0
 40
1.0
 40
1.0
 10
42.3715223247
 20
17.1123804762
 30
0.0
 10
41.9612910312
 20
17.0212854194
 30
0.0
 10
41.1366190519
 20
16.85725609
 30
0.0
 10
39.8887061643
 20
16.6740269828
 30
0.0
 10
38.6324296362
 20
16.5606770029
 30
0.0
 10
37.7917470507
 20
16.5350302326
 30
0.0
 10
37.3715223247
 20
16.5350302326
 30
0.0
  0
SPLINE
  5
284
100
AcDbEntity
  8
0
100
AcDbSpline
 62
7
  6
BYLAYER
 70
0
 71
3
 72
14
 73
10
 74
0
 42
0.0000001
 43
0.0000001
 44
0.0000000001
 40
0.0
 40
0.0
 40
0.0
 40
0.0
 40
0.2542182474
 40
0.377680034
 40
0.4998632451
 40
0.6220464078
 40
0.745508465
 40
0.8712838728
 40
1.0
 40
1.0
 40
1.0
 40
1.0
 10
50.2638271701
 20
17.1123804762
 30
0.0
 10
49.8637277585
 20
16.9346900893
 30
0.0
 10
49.2462248497
 20
16.714859221
 30
0.0
 10
48.3976598804
 20
16.5610186393
 30
0.0
 10
47.7638173727
 20
16.5221296156
 30
0.0
 10
47.1300335685
 20
16.5609920758
 30
0.0
 10
46.4993295194
 20
16.6754037998
 30
0.0
 10
45.8740291626
 20
16.8597921419
 30
0.0
 10
45.4664060459
 20
17.022412039
 30
0.0
 10
45.2638271701
 20
17.1123804762
 30
0.0
  0
SPLINE
  5
285
100
AcDbEntity
  8
0
100
AcDbSpline
 62
7
  6
BYLAYER
 70
0
 71
3
 72
10
 73
6
 74
0
 42
0.0000001
 43
0.0000001
 44
0.0000000001
 40
0.0
 40
0.0
 40
0.0
 40
0.0
 40
0.4999190666
 40
0.7499653945
 40
1.0
 40
1.0
 40
1.0
 40
1.0
 10
32.3715223247
 20
21.6690048033
 30
0.0
 10
33.1917292524
 20
21.8511381458
 30
0.0
 10
34.4360956606
 20
22.0690018516
 30
0.0
 10
36.1106043017
 20
22.2203374006
 30
0.0
 10
36.9513033205
 20
22.2463550725
 30
0.0
 10
37.3715223247
 20
22.2463550725
 30
0.0
  0
SPLINE
  5
286
100
AcDbEntity
  8
0
100
AcDbSpline
 62
7
  6
BYLAYER
 70
0
 71
3
 72
11
 73
7
 74
0
 42
0.0000001
 43
0.0000001
 44
0.0000000001
 40
0.0
 40
0.0
 40
0.0
 40
0.0
 40
0.2443009477
 40
0.4911801959
 40
0.7426487675
 40
1.0
 40
1.0
 40
1.0
 40
1.0
 10
26.9792174793
 20
22.2463550725
 30
0.0
 10
27.1896195074
 20
22.2463550725
 30
0.0
 10
27.6130590158
 20
22.2200634924
 30
0.0
 10
28.2436198831
 20
22.1054961123
 30
0.0
 10
28.8689947508
 20
21.9214045013
 30
0.0
 10
29.276654229
 20
21.758966301
 30
0.0
 10
29.4792174793
 20
21.6690048033
 30
0.0
  0
SPLINE
  5
287
100
AcDbEntity
  8
0
100
AcDbSpline
 62
7
  6
BYLAYER
 70
0
 71
3
 72
14
 73
10
 74
0
 42
0.0000001
 43
0.0000001
 44
0.0000000001
 40
0.0
 40
0.0
 40
0.0
 40
0.0
 40
0.2542182474
 40
0.377680034
 40
0.4998632451
 40
0.6220464078
 40
0.745508465
 40
0.8712838728
 40
1.0
 40
1.0
 40
1.0
 40
1.0
 10
29.4792174793
 20
17.1123804762
 30
0.0
 10
29.0791180677
 20
16.9346900893
 30
0.0
 10
28.4616151589
 20
16.714859221
 30
0.0
 10
27.6130501895
 20
16.5610186393
 30
0.0
 10
26.9792076818
 20
16.5221296156
 30
0.0
 10
26.3454238777
 20
16.5609920758
 30
0.0
 10
25.7147198286
 20
16.6754037998
 30
0.0
 10
25.0894194718
 20
16.8597921419
 30
0.0
 10
24.6817963551
 20
17.022412039
 30
0.0
 10
24.4792174793
 20
17.1123804762
 30
0.0
  0
SPLINE
  5
288
100
AcDbEntity
  8
0
100
AcDbSpline
 62
7
  6
BYLAYER
 70
0
 71
3
 72
11
 73
7
 74
0
 42
0.0000001
 43
0.0000001
 44
0.0000000001
 40
0.0
 40
0.0
 40
0.0
 40
0.0
 40
0.2573591301
 40
0.5088322738
 40
0.755704068
 40
1.0
 40
1.0
 40
1.0
 40
1.0
 10
45.2638271701
 20
21.6690048033
 30
0.0
 10
45.4664001365
 20
21.7589706161
 30
0.0
 10
45.8740359154
 20
21.9215082302
 30
0.0
 10
46.4993938553
 20
22.1057305551
 30
0.0
 10
47.1299855645
 20
22.22020863
 30
0.0
 10
47.5534258265
 20
22.2463550725
 30
0.0
 10
47.7638271701
 20
22.2463550725
 30
0.0
  0
SPLINE
  5
289
100
AcDbEntity
  8
0
100
AcDbSpline
 62
7
  6
BYLAYER
 70
0
 71
3
 72
11
 73
7
 74
0
 42
0.0000001
 43
0.0000001
 44
0.0000000001
 40
0.0
 40
0.0
 40
0.0
 40
0.0
 40
0.249995345
 40
0.5000016496
 40
0.7500052072
 40
1.0
 40
1.0
 40
1.0
 40
1.0
 10
37.3715223247
 20
22.2463550725
 30
0.0
 10
37.7917446297
 20
22.2463550725
 30
0.0
 10
38.6324206201
 20
22.2205381949
 30
0.0
 10
39.8886751416
 20
22.1070861655
 30
0.0
 10
41.1366002611
 20
21.9240086427
 30
0.0
 10
41.9612933752
 20
21.7600993396
 30
0.0
 10
42.3715223247
 20
21.6690048033
 30
0.0
  0
SPLINE
  5
28A
100
AcDbEntity
  8
0
100
AcDbSpline
 62
7
  6
BYLAYER
 70
0
 71
3
 72
11
 73
7
 74
0
 42
0.0000001
 43
0.0000001
 44
0.0000000001
 40
0.0
 40
0.0
 40
0.0
 40
0.0
 40
0.2443009477
 40
0.4911801959
 40
0.7426487675
 40
1.0
 40
1.0
 40
1.0
 40
1.0
 10
47.7638271701
 20
22.2463550725
 30
0.0
 10
47.9742291983
 20
22.2463550725
 30
0.0
 10
48.3976687067
 20
22.2200634924
 30
0.0
 10
49.0282295739
 20
22.1054961123
 30
0.0
 10
49.6536044417
 20
21.9214045013
 30
0.0
 10
50.0612639199
 20
21.758966301
 30
0.0
 10
50.2638271701
 20
21.6690048033
 30
0.0
  0
SPLINE
  5
28B
100
AcDbEntity
  8
0
100
AcDbSpline
 62
7
  6
BYLAYER
 70
0
 71
3
 72
11
 73
7
 74
0
 42
0.0000001
 43
0.0000001
 44
0.0000000001
 40
0.0
 40
0.0
 40
0.0
 40
0.0
 40
0.2499953086
 40
0.5000015788
 40
0.7500054746
 40
1.0
 40
1.0
 40
1.0
 40
1.0
 10
37.3715223247
 20
16.5350302326
 30
0.0
 10
36.9512978878
 20
16.5350302326
 30
0.0
 10
36.1106152304
 20
16.5606825514
 30
0.0
 10
34.8543390755
 20
16.6740377239
 30
0.0
 10
33.6064252187
 20
16.8572592417
 30
0.0
 10
32.7817529764
 20
17.0212855619
 30
0.0
 10
32.3715223247
 20
17.1123804762
 30
0.0
  0
SPLINE
  5
28C
100
AcDbEntity
  8
0
100
AcDbSpline
 62
7
  6
BYLAYER
 70
0
 71
3
 72
11
 73
7
 74
0
 42
0.0000001
 43
0.0000001
 44
0.0000000001
 40
0.0
 40
0.0
 40
0.0
 40
0.0
 40
0.2573591301
 40
0.5088322738
 40
0.755704068
 40
1.0
 40
1.0
 40
1.0
 40
1.0
 10
24.4792174793
 20
21.6690048033
 30
0.0
 10
24.6817904456
 20
21.7589706161
 30
0.0
 10
25.0894262246
 20
21.9215082302
 30
0.0
 10
25.7147841645
 20
22.1057305551
 30
0.0
 10
26.3453758737
 20
22.22020863
 30
0.0
 10
26.7688161356
 20
22.2463550725
 30
0.0
 10
26.9792174793
 20
22.2463550725
 30
0.0
  0
SPLINE
  5
28D
100
AcDbEntity
  8
0
100
AcDbSpline
 62
7
  6
BYLAYER
 70
0
 71
3
 72
11
 73
7
 74
0
 42
0.0000001
 43
0.0000001
 44
0.0000000001
 40
0.0
 40
0.0
 40
0.0
 40
0.0
 40
0.2498682176
 40
0.4995682379
 40
0.7495236171
 40
1.0
 40
1.0
 40
1.0
 40
1.0
 10
57.1715223247
 20
30.2854551673
 30
0.0
 10
57.171521609
 20
30.2205810842
 30
0.0
 10
57.1444895756
 20
30.0897881722
 30
0.0
 10
57.0344933438
 20
29.9232951655
 30
0.0
 10
56.8675700569
 20
29.8136927815
 30
0.0
 10
56.736559472
 20
29.786778123
 30
0.0
 10
56.6715274893
 20
29.7867774098
 30
0.0
  0
SPLINE
  5
28E
100
AcDbEntity
  8
0
100
AcDbSpline
 62
7
  6
BYLAYER
 70
0
 71
3
 72
11
 73
7
 74
0
 42
0.0000001
 43
0.0000001
 44
0.0000000001
 40
0.0
 40
0.0
 40
0.0
 40
0.0
 40
0.1521408162
 40
0.434889841
 40
0.7173500045
 40
1.0
 40
1.0
 40
1.0
 40
1.0
 10
56.7616708793
 20
82.439215124
 30
0.0
 10
56.7962304571
 20
82.4327344634
 30
0.0
 10
56.8933787797
 20
82.4038310803
 30
0.0
 10
57.0344933438
 20
82.3111747895
 30
0.0
 10
57.1444895195
 20
82.1446818676
 30
0.0
 10
57.1715215677
 20
82.0138890709
 30
0.0
 10
57.1715223247
 20
81.9490150853
 30
0.0
  0
SPLINE
  5
28F
100
AcDbEntity
  8
0
100
AcDbSpline
 62
7
  6
BYLAYER
 70
0
 71
3
 72
11
 73
7
 74
0
 42
0.0000001
 43
0.0000001
 44
0.0000000001
 40
0.0
 40
0.0
 40
0.0
 40
0.0
 40
0.2826499955
 40
0.565110159
 40
0.8478591838
 40
1.0
 40
1.0
 40
1.0
 40
1.0
 10
17.5715223247
 20
81.9490150853
 30
0.0
 10
17.5715230817
 20
82.0138890709
 30
0.0
 10
17.5985551299
 20
82.1446818676
 30
0.0
 10
17.7085513056
 20
82.3111747895
 30
0.0
 10
17.8496658696
 20
82.4038310803
 30
0.0
 10
17.9468141923
 20
82.4327344634
 30
0.0
 10
17.9813737701
 20
82.439215124
 30
0.0
  0
SPLINE
  5
290
100
AcDbEntity
  8
0
100
AcDbSpline
 62
7
  6
BYLAYER
 70
0
 71
3
 72
11
 73
7
 74
0
 42
0.0000001
 43
0.0000001
 44
0.0000000001
 40
0.0
 40
0.0
 40
0.0
 40
0.0
 40
0.2504763829
 40
0.5004317621
 40
0.7501317824
 40
1.0
 40
1.0
 40
1.0
 40
1.0
 10
18.0715171601
 20
29.7867774098
 30
0.0
 10
18.0064851774
 20
29.786778123
 30
0.0
 10
17.8754745925
 20
29.8136927815
 30
0.0
 10
17.7085513056
 20
29.9232951655
 30
0.0
 10
17.5985550738
 20
30.0897881722
 30
0.0
 10
17.5715230404
 20
30.2205810842
 30
0.0
 10
17.5715223247
 20
30.2854551673
 30
0.0
  0
SPLINE
  5
291
100
AcDbEntity
  8
0
100
AcDbSpline
 62
7
  6
BYLAYER
 70
0
 71
3
 72
27
 73
23
 74
0
 42
0.0000001
 43
0.0000001
 44
0.0000000001
 40
0.0
 40
0.0
 40
0.0
 40
0.0
 40
0.06239835
 40
0.0936478207
 40
0.1248905907
 40
0.1873247012
 40
0.2497892385
 40
0.2810708294
 40
0.3123614584
 40
0.3748887425
 40
0.4374380708
 40
0.4999991212
 40
0.562559896
 40
0.6251084805
 40
0.687634956
 40
0.718925335
 40
0.7502068728
 40
0.8126719596
 40
0.8751069236
 40
0.9063503625
 40
0.9376007377
 40
1.0
 40
1.0
 40
1.0
 40
1.0
 10
21.3715223247
 20
43.1950007745
 30
0.0
 10
21.3715223247
 20
42.8039688317
 30
0.0
 10
21.4297207862
 20
42.2149837613
 30
0.0
 10
21.6206854804
 20
41.4550551271
 30
0.0
 10
21.8853670307
 20
40.7170517636
 30
0.0
 10
22.3506686539
 20
39.8486624797
 30
0.0
 10
22.9769680165
 20
39.087837472
 30
0.0
 10
23.559122984
 20
38.5617136691
 30
0.0
 10
24.1902322486
 20
38.0948120002
 30
0.0
 10
25.0609383684
 20
37.6305548387
 30
0.0
 10
26.1935252275
 20
37.2880105424
 30
0.0
 10
27.3715030622
 20
37.1722682933
 30
0.0
 10
28.5494766047
 20
37.2880030304
 30
0.0
 10
29.6820556905
 20
37.6305344138
 30
0.0
 10
30.552753373
 20
38.0947815639
 30
0.0
 10
31.1838668885
 20
38.5616659189
 30
0.0
 10
31.7660243899
 20
39.0877895012
 30
0.0
 10
32.392339161
 20
39.8486119861
 30
0.0
 10
32.8576572953
 20
40.7170077223
 30
0.0
 10
33.1223500307
 20
41.4550233899
 30
0.0
 10
33.3133196136
 20
42.2149668983
 30
0.0
 10
33.3715223247
 20
42.8039631147
 30
0.0
 10
33.3715223247
 20
43.1950007745
 30
0.0
  0
SPLINE
  5
292
100
AcDbEntity
  8
0
100
AcDbSpline
 62
7
  6
BYLAYER
 70
0
 71
3
 72
27
 73
23
 74
0
 42
0.0000001
 43
0.0000001
 44
0.0000000001
 40
0.0
 40
0.0
 40
0.0
 40
0.0
 40
0.06239835
 40
0.0936478207
 40
0.1248905907
 40
0.1873247012
 40
0.2497892385
 40
0.2810708294
 40
0.3123614584
 40
0.3748887425
 40
0.4374380708
 40
0.4999991212
 40
0.562559896
 40
0.6251084805
 40
0.687634956
 40
0.718925335
 40
0.7502068728
 40
0.8126719596
 40
0.8751069236
 40
0.9063503625
 40
0.9376007377
 40
1.0
 40
1.0
 40
1.0
 40
1.0
 10
33.3715223247
 20
43.1950007745
 30
0.0
 10
33.3715223247
 20
43.5860327173
 30
0.0
 10
33.3133238632
 20
44.1750177877
 30
0.0
 10
33.122359169
 20
44.9349464218
 30
0.0
 10
32.8576776187
 20
45.6729497854
 30
0.0
 10
32.3923759955
 20
46.5413390692
 30
0.0
 10
31.7660766329
 20
47.3021640769
 30
0.0
 10
31.1839216654
 20
47.8282878798
 30
0.0
 10
30.5528124008
 20
48.2951895487
 30
0.0
 10
29.682106281
 20
48.7594467102
 30
0.0
 10
28.5495194219
 20
49.1019910066
 30
0.0
 10
27.3715415872
 20
49.2177332557
 30
0.0
 10
26.1935680447
 20
49.1019985185
 30
0.0
 10
25.0609889588
 20
48.7594671352
 30
0.0
 10
24.1902912764
 20
48.295219985
 30
0.0
 10
23.5591777609
 20
47.8283356301
 30
0.0
 10
22.9770202595
 20
47.3022120477
 30
0.0
 10
22.3507054884
 20
46.5413895628
 30
0.0
 10
21.8853873541
 20
45.6729938266
 30
0.0
 10
21.6206946187
 20
44.9349781591
 30
0.0
 10
21.4297250358
 20
44.1750346506
 30
0.0
 10
21.3715223247
 20
43.5860384343
 30
0.0
 10
21.3715223247
 20
43.1950007745
 30
0.0
  0
SPLINE
  5
293
100
AcDbEntity
  8
0
100
AcDbSpline
 62
7
  6
BYLAYER
 70
0
 71
3
 72
27
 73
23
 74
0
 42
0.0000001
 43
0.0000001
 44
0.0000000001
 40
0.0
 40
0.0
 40
0.0
 40
0.0
 40
0.0624004002
 40
0.0936464603
 40
0.1248889499
 40
0.1873244834
 40
0.2497884183
 40
0.2810705238
 40
0.3123609532
 40
0.3748883345
 40
0.4374380412
 40
0.499999502
 40
0.5625607142
 40
0.6251097112
 40
0.6876362811
 40
0.7189264569
 40
0.7502084205
 40
0.8126726888
 40
0.875108924
 40
0.9063519062
 40
0.9375987215
 40
1.0
 40
1.0
 40
1.0
 40
1.0
 10
53.8715223247
 20
43.1732400657
 30
0.0
 10
53.8715223247
 20
42.7496070541
 30
0.0
 10
53.8084946883
 20
42.1115436937
 30
0.0
 10
53.601590318
 20
41.2883029806
 30
0.0
 10
53.3148602329
 20
40.4888113619
 30
0.0
 10
52.8108079012
 20
39.5480379016
 30
0.0
 10
52.132316738
 20
38.7237859444
 30
0.0
 10
51.5016072838
 20
38.1538673612
 30
0.0
 10
50.8179534013
 20
37.6479856429
 30
0.0
 10
49.8746601958
 20
37.1450697232
 30
0.0
 10
48.6476911396
 20
36.7739613857
 30
0.0
 10
47.3715347274
 20
36.6485786424
 30
0.0
 10
46.0953827808
 20
36.7739563873
 30
0.0
 10
44.8684235491
 20
37.1450550096
 30
0.0
 10
43.9251378664
 20
37.6479587411
 30
0.0
 10
43.2414856714
 20
38.1538288937
 30
0.0
 10
42.6107711576
 20
38.7237413151
 30
0.0
 10
41.9322693039
 20
39.5479922333
 30
0.0
 10
41.4282022975
 20
40.4887698701
 30
0.0
 10
41.1414636242
 20
41.2882726121
 30
0.0
 10
40.9345530812
 20
42.1115266646
 30
0.0
 10
40.8715223247
 20
42.7496010912
 30
0.0
 10
40.8715223247
 20
43.1732400657
 30
0.0
  0
SPLINE
  5
294
100
AcDbEntity
  8
0
100
AcDbSpline
 62
7
  6
BYLAYER
 70
0
 71
3
 72
27
 73
23
 74
0
 42
0.0000001
 43
0.0000001
 44
0.0000000001
 40
0.0
 40
0.0
 40
0.0
 40
0.0
 40
0.0624004002
 40
0.0936464603
 40
0.1248889499
 40
0.1873244834
 40
0.2497884183
 40
0.2810705238
 40
0.3123609532
 40
0.3748883345
 40
0.4374380412
 40
0.499999502
 40
0.5625607142
 40
0.6251097112
 40
0.6876362811
 40
0.7189264569
 40
0.7502084205
 40
0.8126726888
 40
0.875108924
 40
0.9063519062
 40
0.9375987215
 40
1.0
 40
1.0
 40
1.0
 40
1.0
 10
40.8715223247
 20
43.1732400657
 30
0.0
 10
40.8715223247
 20
43.5968730774
 30
0.0
 10
40.9345499611
 20
44.2349364378
 30
0.0
 10
41.1414543314
 20
45.0581771509
 30
0.0
 10
41.4281844165
 20
45.8576687696
 30
0.0
 10
41.9322367482
 20
46.7984422299
 30
0.0
 10
42.6107279114
 20
47.6226941871
 30
0.0
 10
43.2414373656
 20
48.1926127703
 30
0.0
 10
43.9250912481
 20
48.6984944886
 30
0.0
 10
44.8683844536
 20
49.2014104083
 30
0.0
 10
46.0953535098
 20
49.5725187458
 30
0.0
 10
47.371509922
 20
49.6979014891
 30
0.0
 10
48.6476618686
 20
49.5725237442
 30
0.0
 10
49.8746211003
 20
49.2014251219
 30
0.0
 10
50.817906783
 20
48.6985213904
 30
0.0
 10
51.501558978
 20
48.1926512378
 30
0.0
 10
52.1322734918
 20
47.6227388164
 30
0.0
 10
52.8107753455
 20
46.7984878981
 30
0.0
 10
53.3148423519
 20
45.8577102614
 30
0.0
 10
53.6015810252
 20
45.0582075194
 30
0.0
 10
53.8084915682
 20
44.2349534669
 30
0.0
 10
53.8715223247
 20
43.5968790403
 30
0.0
 10
53.8715223247
 20
43.1732400657
 30
0.0
  0
SPLINE
  5
295
100
AcDbEntity
  8
0
100
AcDbSpline
 62
7
  6
BYLAYER
 70
0
 71
3
 72
27
 73
23
 74
0
 42
0.0000001
 43
0.0000001
 44
0.0000000001
 40
0.0
 40
0.0
 40
0.0
 40
0.0
 40
0.0624004002
 40
0.0936464603
 40
0.1248889499
 40
0.1873244834
 40
0.2497884183
 40
0.2810705238
 40
0.3123609532
 40
0.3748883345
 40
0.4374380412
 40
0.499999502
 40
0.5625607142
 40
0.6251097112
 40
0.6876362811
 40
0.7189264569
 40
0.7502084205
 40
0.8126726888
 40
0.875108924
 40
0.9063519062
 40
0.9375987215
 40
1.0
 40
1.0
 40
1.0
 40
1.0
 10
33.8715223247
 20
43.1732400657
 30
0.0
 10
33.8715223247
 20
42.7496070541
 30
0.0
 10
33.8084946883
 20
42.1115436937
 30
0.0
 10
33.601590318
 20
41.2883029806
 30
0.0
 10
33.3148602329
 20
40.4888113619
 30
0.0
 10
32.8108079012
 20
39.5480379016
 30
0.0
 10
32.132316738
 20
38.7237859444
 30
0.0
 10
31.5016072838
 20
38.1538673612
 30
0.0
 10
30.8179534013
 20
37.6479856429
 30
0.0
 10
29.8746601958
 20
37.1450697232
 30
0.0
 10
28.6476911396
 20
36.7739613857
 30
0.0
 10
27.3715347274
 20
36.6485786424
 30
0.0
 10
26.0953827808
 20
36.7739563873
 30
0.0
 10
24.8684235491
 20
37.1450550096
 30
0.0
 10
23.9251378664
 20
37.6479587411
 30
0.0
 10
23.2414856714
 20
38.1538288937
 30
0.0
 10
22.6107711576
 20
38.7237413151
 30
0.0
 10
21.9322693039
 20
39.5479922333
 30
0.0
 10
21.4282022975
 20
40.4887698701
 30
0.0
 10
21.1414636242
 20
41.2882726121
 30
0.0
 10
20.9345530812
 20
42.1115266646
 30
0.0
 10
20.8715223247
 20
42.7496010912
 30
0.0
 10
20.8715223247
 20
43.1732400657
 30
0.0
  0
SPLINE
  5
296
100
AcDbEntity
  8
0
100
AcDbSpline
 62
7
  6
BYLAYER
 70
0
 71
3
 72
27
 73
23
 74
0
 42
0.0000001
 43
0.0000001
 44
0.0000000001
 40
0.0
 40
0.0
 40
0.0
 40
0.0
 40
0.0624004002
 40
0.0936464603
 40
0.1248889499
 40
0.1873244834
 40
0.2497884183
 40
0.2810705238
 40
0.3123609532
 40
0.3748883345
 40
0.4374380412
 40
0.499999502
 40
0.5625607142
 40
0.6251097112
 40
0.6876362811
 40
0.7189264569
 40
0.7502084205
 40
0.8126726888
 40
0.875108924
 40
0.9063519062
 40
0.9375987215
 40
1.0
 40
1.0
 40
1.0
 40
1.0
 10
20.8715223247
 20
43.1732400657
 30
0.0
 10
20.8715223247
 20
43.5968730774
 30
0.0
 10
20.9345499611
 20
44.2349364378
 30
0.0
 10
21.1414543314
 20
45.0581771509
 30
0.0
 10
21.4281844165
 20
45.8576687696
 30
0.0
 10
21.9322367482
 20
46.7984422299
 30
0.0
 10
22.6107279114
 20
47.6226941871
 30
0.0
 10
23.2414373656
 20
48.1926127703
 30
0.0
 10
23.9250912481
 20
48.6984944886
 30
0.0
 10
24.8683844536
 20
49.2014104083
 30
0.0
 10
26.0953535098
 20
49.5725187458
 30
0.0
 10
27.371509922
 20
49.6979014891
 30
0.0
 10
28.6476618686
 20
49.5725237442
 30
0.0
 10
29.8746211003
 20
49.2014251219
 30
0.0
 10
30.817906783
 20
48.6985213904
 30
0.0
 10
31.501558978
 20
48.1926512378
 30
0.0
 10
32.1322734918
 20
47.6227388164
 30
0.0
 10
32.8107753455
 20
46.7984878981
 30
0.0
 10
33.3148423519
 20
45.8577102614
 30
0.0
 10
33.6015810252
 20
45.0582075194
 30
0.0
 10
33.8084915682
 20
44.2349534669
 30
0.0
 10
33.8715223247
 20
43.5968790403
 30
0.0
 10
33.8715223247
 20
43.1732400657
 30
0.0
  0
SPLINE
  5
297
100
AcDbEntity
  8
0
100
AcDbSpline
 62
7
  6
BYLAYER
 70
0
 71
3
 72
13
 73
9
 74
0
 42
0.0000001
 43
0.0000001
 44
0.0000000001
 40
0.0
 40
0.0
 40
0.0
 40
0.0
 40
0.2495822638
 40
0.4991726089
 40
0.6244354526
 40
0.7496449167
 40
0.8749653253
 40
1.0
 40
1.0
 40
1.0
 40
1.0
 10
17.8877605259
 20
82.9930699701
 30
0.0
 10
17.7981827727
 20
82.9922214581
 30
0.0
 10
17.6181779195
 20
82.948357211
 30
0.0
 10
17.4313544642
 20
82.8159695495
 30
0.0
 10
17.3167129981
 20
82.6768051259
 30
0.0
 10
17.2507036303
 20
82.5582296496
 30
0.0
 10
17.208828625
 20
82.4292238126
 30
0.0
 10
17.1988003675
 20
82.3391295309
 30
0.0
 10
17.1987399523
 20
82.2942512716
 30
0.0
  0
SPLINE
  5
298
100
AcDbEntity
  8
0
100
AcDbSpline
 62
7
  6
BYLAYER
 70
0
 71
3
 72
16
 73
12
 74
0
 42
0.0000001
 43
0.0000001
 44
0.0000000001
 40
0.0
 40
0.0
 40
0.0
 40
0.0
 40
0.0166837715
 40
0.0399020626
 40
0.1057977809
 40
0.1971599886
 40
0.3131889677
 40
0.4528259616
 40
0.6148517812
 40
0.7978717026
 40
1.0
 40
1.0
 40
1.0
 40
1.0
 10
29.4128149479
 20
83.472601873
 30
0.0
 10
29.4276100112
 20
83.475684942
 30
0.0
 10
29.4633397291
 20
83.4813363017
 30
0.0
 10
29.5584729015
 20
83.4929136252
 30
0.0
 10
29.7213870258
 20
83.5070367944
 30
0.0
 10
29.9683531031
 20
83.5240250173
 30
0.0
 10
30.282212784
 20
83.5418105807
 30
0.0
 10
30.6601216962
 20
83.5603585728
 30
0.0
 10
31.0987600477
 20
83.5793500271
 30
0.0
 10
31.5940461466
 20
83.5984699744
 30
0.0
 10
31.9427144394
 20
83.6107506551
 30
0.0
 10
32.1257047335
 20
83.6169878532
 30
0.0
  0
SPLINE
  5
299
100
AcDbEntity
  8
0
100
AcDbSpline
 62
7
  6
BYLAYER
 70
0
 71
3
 72
16
 73
12
 74
0
 42
0.0000001
 43
0.0000001
 44
0.0000000001
 40
0.0
 40
0.0
 40
0.0
 40
0.0
 40
0.0077530801
 40
0.0221524479
 40
0.0774130874
 40
0.1712423857
 40
0.3006264898
 40
0.4595810878
 40
0.6368284058
 40
0.8204438575
 40
1.0
 40
1.0
 40
1.0
 40
1.0
 10
57.9439184585
 20
29.9651089057
 30
0.0
 10
57.9438980181
 20
29.9658905924
 30
0.0
 10
57.9421440897
 20
29.9677635884
 30
0.0
 10
57.9350498636
 20
29.9706529763
 30
0.0
 10
57.9186625985
 20
29.9740916355
 30
0.0
 10
57.890907027
 20
29.9775449792
 30
0.0
 10
57.852434758
 20
29.9807671264
 30
0.0
 10
57.8055611306
 20
29.9833009618
 30
0.0
 10
57.7531570537
 20
29.9851370298
 30
0.0
 10
57.6986607515
 20
29.9861318866
 30
0.0
 10
57.6620311148
 20
29.986305245
 30
0.0
 10
57.6439216186
 20
29.9862709381
 30
0.0
  0
SPLINE
  5
29A
100
AcDbEntity
  8
0
100
AcDbSpline
 62
7
  6
BYLAYER
 70
0
 71
3
 72
11
 73
7
 74
0
 42
0.0000001
 43
0.0000001
 44
0.0000000001
 40
0.0
 40
0.0
 40
0.0
 40
0.0
 40
0.2495829276
 40
0.4995346765
 40
0.7497738406
 40
1.0
 40
1.0
 40
1.0
 40
1.0
 10
57.5443046971
 20
82.2942512716
 30
0.0
 10
57.5447965987
 20
82.3836214723
 30
0.0
 10
57.503729325
 20
82.5640837013
 30
0.0
 10
57.3486477181
 20
82.7897542916
 30
0.0
 10
57.1250485465
 20
82.9487373517
 30
0.0
 10
56.9448743018
 20
82.9916216015
 30
0.0
 10
56.8552841235
 20
82.9930699701
 30
0.0
  0
SPLINE
  5
29B
100
AcDbEntity
  8
0
100
AcDbSpline
 62
7
  6
BYLAYER
 70
0
 71
3
 72
11
 73
7
 74
0
 42
0.0000001
 43
0.0000001
 44
0.0000000001
 40
0.0
 40
0.0
 40
0.0
 40
0.0
 40
0.2501619196
 40
0.5003290498
 40
0.7503470461
 40
1.0
 40
1.0
 40
1.0
 40
1.0
 10
56.9575350368
 20
29.2857215117
 30
0.0
 10
57.0471088592
 20
29.2866240672
 30
0.0
 10
57.2272343223
 20
29.3305977157
 30
0.0
 10
57.4503338844
 20
29.4897466945
 30
0.0
 10
57.6051429138
 20
29.7161647483
 30
0.0
 10
57.6439586499
 20
29.8968748275
 30
0.0
 10
57.6439216186
 20
29.9862709381
 30
0.0
  0
SPLINE
  5
29C
100
AcDbEntity
  8
0
100
AcDbSpline
 62
7
  6
BYLAYER
 70
0
 71
3
 72
11
 73
7
 74
0
 42
0.0000001
 43
0.0000001
 44
0.0000000001
 40
0.0
 40
0.0
 40
0.0
 40
0.0
 40
0.249597067
 40
0.4995558593
 40
0.7497834467
 40
1.0
 40
1.0
 40
1.0
 40
1.0
 10
17.0991230308
 20
29.9862709381
 30
0.0
 10
17.0984738686
 20
29.8968972273
 30
0.0
 10
17.1383581275
 20
29.7162499908
 30
0.0
 10
17.2925826834
 20
29.489864922
 30
0.0
 10
17.5157224083
 20
29.3301732651
 30
0.0
 10
17.6959236783
 20
29.2871854597
 30
0.0
 10
17.7855096126
 20
29.2857215117
 30
0.0
  0
SPLINE
  5
29D
100
AcDbEntity
  8
0
100
AcDbSpline
 62
7
  6
BYLAYER
 70
0
 71
3
 72
16
 73
12
 74
0
 42
0.0000001
 43
0.0000001
 44
0.0000000001
 40
0.0
 40
0.0
 40
0.0
 40
0.0
 40
0.3699735071
 40
0.5498982784
 40
0.7100783025
 40
0.8388786652
 40
0.8895563305
 40
0.930339418
 40
0.9609176511
 40
0.9818884743
 40
1.0
 40
1.0
 40
1.0
 40
1.0
 10
57.5443046971
 20
82.2942512716
 30
0.0
 10
57.5816469076
 20
82.2943220131
 30
0.0
 10
57.6371595595
 20
82.2937190364
 30
0.0
 10
57.7087801168
 20
82.2911687309
 30
0.0
 10
57.7560554625
 20
82.2885149226
 30
0.0
 10
57.7901794841
 20
82.2856180995
 30
0.0
 10
57.8123113017
 20
82.282827822
 30
0.0
 10
57.8243391853
 20
82.2809692182
 30
0.0
 10
57.8337980923
 20
82.2787901153
 30
0.0
 10
57.8397147273
 20
82.2771662208
 30
0.0
 10
57.8448207969
 20
82.2742106451
 30
0.0
 10
57.8442018946
 20
82.2724905629
 30
0.0
  0
SPLINE
  5
29E
100
AcDbEntity
  8
0
100
AcDbSpline
 62
7
  6
BYLAYER
 70
0
 71
3
 72
16
 73
12
 74
0
 42
0.0000001
 43
0.0000001
 44
0.0000000001
 40
0.0
 40
0.0
 40
0.0
 40
0.0
 40
0.0181115257
 40
0.0390823489
 40
0.069660582
 40
0.1104436695
 40
0.1611213348
 40
0.2899216975
 40
0.4501017216
 40
0.6300264929
 40
1.0
 40
1.0
 40
1.0
 40
1.0
 10
16.8988427548
 20
82.2724905629
 30
0.0
 10
16.8982238525
 20
82.2742106451
 30
0.0
 10
16.9033299221
 20
82.2771662208
 30
0.0
 10
16.9092465571
 20
82.2787901153
 30
0.0
 10
16.9187054641
 20
82.2809692182
 30
0.0
 10
16.9307333477
 20
82.282827822
 30
0.0
 10
16.9528651653
 20
82.2856180995
 30
0.0
 10
16.9869891869
 20
82.2885149226
 30
0.0
 10
17.0342645326
 20
82.2911687309
 30
0.0
 10
17.1058850899
 20
82.2937190364
 30
0.0
 10
17.1613977417
 20
82.2943220131
 30
0.0
 10
17.1987399523
 20
82.2942512716
 30
0.0
  0
SPLINE
  5
29F
100
AcDbEntity
  8
0
100
AcDbSpline
 62
7
  6
BYLAYER
 70
0
 71
3
 72
23
 73
19
 74
0
 42
0.0000001
 43
0.0000001
 44
0.0000000001
 40
0.0
 40
0.0
 40
0.0
 40
0.0
 40
0.2227841176
 40
0.421447947
 40
0.5935012327
 40
0.6689530807
 40
0.7370708749
 40
0.7976665957
 40
0.8505540087
 40
0.8955794291
 40
0.9326319422
 40
0.9616066863
 40
0.9730385283
 40
0.982429298
 40
0.9897812754
 40
0.9951049654
 40
0.9984391259
 40
1.0
 40
1.0
 40
1.0
 40
1.0
 10
42.6173216219
 20
83.6159977761
 30
0.0
 10
42.8217702371
 20
83.6092401221
 30
0.0
 10
43.2085209181
 20
83.5961027006
 30
0.0
 10
43.7531037493
 20
83.5760077031
 30
0.0
 10
44.1624329051
 20
83.5591992885
 30
0.0
 10
44.4519366871
 20
83.5459817279
 30
0.0
 10
44.6391741909
 20
83.5367504398
 30
0.0
 10
44.8056804548
 20
83.5277951823
 30
0.0
 10
44.9509655871
 20
83.5191438559
 30
0.0
 10
45.0746163949
 20
83.5108342098
 30
0.0
 10
45.1762710409
 20
83.5029116041
 30
0.0
 10
45.2471064734
 20
83.4962672421
 30
0.0
 10
45.2925016781
 20
83.4909940708
 30
0.0
 10
45.3181823628
 20
83.4874258234
 30
0.0
 10
45.3380327205
 20
83.4841370812
 30
0.0
 10
45.352688702
 20
83.4806805781
 30
0.0
 10
45.3610422623
 20
83.478148992
 30
0.0
 10
45.3656167857
 20
83.4750621632
 30
0.0
 10
45.3656167936
 20
83.4736289695
 30
0.0
  0
LINE
  5
2A0
100
AcDbEntity
  8
0
100
AcDbLine
 62
7
  6
BYLAYER
 10
37.1258506133
 20
83.7415857909
 11
37.3630108053
 21
83.7468027228
  0
SPLINE
  5
2A1
100
AcDbEntity
  8
0
100
AcDbSpline
 62
7
  6
BYLAYER
 70
0
 71
3
 72
27
 73
23
 74
0
 42
0.0000001
 43
0.0000001
 44
0.0000000001
 40
0.0
 40
0.0
 40
0.0
 40
0.0
 40
0.06239835
 40
0.0936478207
 40
0.1248905907
 40
0.1873247012
 40
0.2497892385
 40
0.2810708294
 40
0.3123614584
 40
0.3748887425
 40
0.4374380708
 40
0.4999991212
 40
0.562559896
 40
0.6251084805
 40
0.687634956
 40
0.718925335
 40
0.7502068728
 40
0.8126719596
 40
0.8751069236
 40
0.9063503625
 40
0.9376007377
 40
1.0
 40
1.0
 40
1.0
 40
1.0
 10
41.3715223247
 20
43.1950007745
 30
0.0
 10
41.3715223247
 20
42.8039688317
 30
0.0
 10
41.4297207862
 20
42.2149837613
 30
0.0
 10
41.6206854804
 20
41.4550551271
 30
0.0
 10
41.8853670307
 20
40.7170517636
 30
0.0
 10
42.3506686539
 20
39.8486624797
 30
0.0
 10
42.9769680165
 20
39.087837472
 30
0.0
 10
43.559122984
 20
38.5617136691
 30
0.0
 10
44.1902322486
 20
38.0948120002
 30
0.0
 10
45.0609383684
 20
37.6305548387
 30
0.0
 10
46.1935252275
 20
37.2880105424
 30
0.0
 10
47.3715030622
 20
37.1722682933
 30
0.0
 10
48.5494766047
 20
37.2880030304
 30
0.0
 10
49.6820556905
 20
37.6305344138
 30
0.0
 10
50.552753373
 20
38.0947815639
 30
0.0
 10
51.1838668885
 20
38.5616659189
 30
0.0
 10
51.7660243899
 20
39.0877895012
 30
0.0
 10
52.392339161
 20
39.8486119861
 30
0.0
 10
52.8576572953
 20
40.7170077223
 30
0.0
 10
53.1223500307
 20
41.4550233899
 30
0.0
 10
53.3133196136
 20
42.2149668983
 30
0.0
 10
53.3715223247
 20
42.8039631147
 30
0.0
 10
53.3715223247
 20
43.1950007745
 30
0.0
  0
SPLINE
  5
2A2
100
AcDbEntity
  8
0
100
AcDbSpline
 62
7
  6
BYLAYER
 70
0
 71
3
 72
27
 73
23
 74
0
 42
0.0000001
 43
0.0000001
 44
0.0000000001
 40
0.0
 40
0.0
 40
0.0
 40
0.0
 40
0.06239835
 40
0.0936478207
 40
0.1248905907
 40
0.1873247012
 40
0.2497892385
 40
0.2810708294
 40
0.3123614584
 40
0.3748887425
 40
0.4374380708
 40
0.4999991212
 40
0.562559896
 40
0.6251084805
 40
0.687634956
 40
0.718925335
 40
0.7502068728
 40
0.8126719596
 40
0.8751069236
 40
0.9063503625
 40
0.9376007377
 40
1.0
 40
1.0
 40
1.0
 40
1.0
 10
53.3715223247
 20
43.1950007745
 30
0.0
 10
53.3715223247
 20
43.5860327173
 30
0.0
 10
53.3133238632
 20
44.1750177877
 30
0.0
 10
53.122359169
 20
44.9349464218
 30
0.0
 10
52.8576776187
 20
45.6729497854
 30
0.0
 10
52.3923759955
 20
46.5413390692
 30
0.0
 10
51.7660766329
 20
47.3021640769
 30
0.0
 10
51.1839216654
 20
47.8282878798
 30
0.0
 10
50.5528124008
 20
48.2951895487
 30
0.0
 10
49.682106281
 20
48.7594467102
 30
0.0
 10
48.5495194219
 20
49.1019910066
 30
0.0
 10
47.3715415872
 20
49.2177332557
 30
0.0
 10
46.1935680447
 20
49.1019985185
 30
0.0
 10
45.0609889588
 20
48.7594671352
 30
0.0
 10
44.1902912764
 20
48.295219985
 30
0.0
 10
43.5591777609
 20
47.8283356301
 30
0.0
 10
42.9770202595
 20
47.3022120477
 30
0.0
 10
42.3507054884
 20
46.5413895628
 30
0.0
 10
41.8853873541
 20
45.6729938266
 30
0.0
 10
41.6206946187
 20
44.9349781591
 30
0.0
 10
41.4297250358
 20
44.1750346506
 30
0.0
 10
41.3715223247
 20
43.5860384343
 30
0.0
 10
41.3715223247
 20
43.1950007745
 30
0.0
  0
SPLINE
  5
2A3
100
AcDbEntity
  8
0
100
AcDbSpline
 62
7
  6
BYLAYER
 70
0
 71
3
 72
16
 73
12
 74
0
 42
0.0000001
 43
0.0000001
 44
0.0000000001
 40
0.0
 40
0.0
 40
0.0
 40
0.0
 40
0.1795407461
 40
0.3631410192
 40
0.5403763744
 40
0.6993256551
 40
0.8287128336
 40
0.9225534574
 40
0.9778321475
 40
0.9922408931
 40
1.0
 40
1.0
 40
1.0
 40
1.0
 10
17.0991230308
 20
29.9862709381
 30
0.0
 10
17.0810152436
 20
29.9863052417
 30
0.0
 10
17.0443890055
 20
29.9861319228
 30
0.0
 10
16.9898974657
 20
29.9851372543
 30
0.0
 10
16.9374970903
 20
29.9833015553
 30
0.0
 10
16.8906253311
 20
29.9807680491
 30
0.0
 10
16.852152301
 20
29.9775466439
 30
0.0
 10
16.8243939766
 20
29.9740930454
 30
0.0
 10
16.8080022213
 20
29.9706556373
 30
0.0
 10
16.8009050822
 20
29.9677656286
 30
0.0
 10
16.7991481587
 20
29.9658940166
 30
0.0
 10
16.7991262684
 20
29.9651117678
 30
0.0
  0
ENDSEC
  0
SECTION
  2
OBJECTS
  0
DICTIONARY
  5
C
100
AcDbDictionary
280
0
281
1
  3
ACAD_GROUP
350
D
  3
ACAD_MLINESTYLE
350
17
  3
ACAD_LAYOUT
350
1A
  3
ACAD_PLOTSETTINGS
350
19
  3
ACAD_PLOTSTYLENAME
350
E
  0
DICTIONARY
  5
D
102
{ACAD_REACTORS
330
C
102
}
100
AcDbDictionary
280
0
281
1
  0
ACDBDICTIONARYWDFLT
  5
E
102
{ACAD_REACTORS
330
C
102
}
100
AcDbDictionary
281
1
  3
Normal
350
F
100
AcDbDictionaryWithDefault
340
F
  0
DICTIONARY
  5
17
102
{ACAD_REACTORS
330
C
102
}
100
AcDbDictionary
280
0
281
1
  3
Standard
350
18
  0
DICTIONARY
  5
19
102
{ACAD_REACTORS
330
C
102
}
100
AcDbDictionary
281
1
  0
DICTIONARY
  5
1A
102
{ACAD_REACTORS
330
C
102
}
100
AcDbDictionary
281
1
  3
Model
350
2A4
  3
Layout1
350
2A5
  0
ACDBPLACEHOLDER
  5
F
102
{ACAD_REACTORS
330
E
102
}
  0
MLINESTYLE
  5
18
102
{ACAD_REACTORS
330
17
102
}
100
AcDbMlineStyle
  2
STANDARD
 70
0
  3

 62
256
 51
90.0
 52
90.0
 71
2
 49
0.5
 62
256
  6
BYLAYER
 49
-0.5
 62
256
  6
BYLAYER
  0
LAYOUT
  5
2A4
102
{ACAD_REACTORS
330
1A
102
}
100
AcDbPlotSettings
  1

  2
none_device
  4

  6

 40
0.0
 41
0.0
 42
0.0
 43
0.0
 44
210.0
 45
297.0
 46
0.0
 47
0.0
 48
0.0
 49
0.0
140
0.0
141
0.0
142
1.0
143
1.0
 70
1024
 72
1
 73
0
 74
0
  7

 75
0
147
1.0
148
0.0
149
0.0
100
AcDbLayout
  1
Model
 70
0
 71
0
 10
0.0
 20
0.0
 11
210.0
 21
297.0
 12
0.0
 22
0.0
 32
0.0
 14
0.0
 24
0.0
 34
0.0
 15
0.0
 25
0.0
 35
0.0
146
0.0
 13
0.0
 23
0.0
 33
0.0
 16
1.0
 26
0.0
 36
0.0
 17
0.0
 27
1.0
 37
0.0
 76
0
330
210
345
0
346
0
  0
LAYOUT
  5
2A5
102
{ACAD_REACTORS
330
1A
102
}
100
AcDbPlotSettings
  1

  2
none_device
  4

  6

 40
0.0
 41
0.0
 42
0.0
 43
0.0
 44
210.0
 45
297.0
 46
0.0
 47
0.0
 48
0.0
 49
0.0
140
0.0
141
0.0
142
1.0
143
1.0
 70
0
 72
1
 73
0
 74
0
  7

 75
0
147
1.0
148
0.0
149
0.0
100
AcDbLayout
  1
Layout1
 70
0
 71
1
 10
0.0
 20
0.0
 11
210.0
 21
297.0
 12
0.0
 22
0.0
 32
0.0
 14
0.0
 24
0.0
 34
0.0
 15
0.0
 25
0.0
 35
0.0
146
0.0
 13
0.0
 23
0.0
 33
0.0
 16
1.0
 26
0.0
 36
0.0
 17
0.0
 27
1.0
 37
0.0
 76
0
330
211
345
0
346
0
  0
ENDSEC
  0
EOF
