  0
SECTION
  2
HEADER
  9
$ACADVER
  1
AC1009
  9
$DWGCODEPAGE
  3
ansi_1250
  9
$INSBASE
 10
0.0
 20
0.0
 30
0.0
  9
$EXTMIN
 10
-1.385827
 20
-0.118
 30
0.0
  9
$EXTMAX
 10
1.385827
 20
17.336543
 30
0.0
  9
$LIMMIN
 10
0.0
 20
0.0
  9
$LIMMAX
 10
0.0
 20
0.0
  9
$ORTHOMODE
 70
     0
  9
$REGENMODE
 70
     1
  9
$FILLMODE
 70
     1
  9
$QTEXTMODE
 70
     0
  9
$MIRRTEXT
 70
     1
  9
$DRAGMODE
 70
     2
  9
$LTSCALE
 40
1.0
  9
$OSMODE
 70
     0
  9
$ATTMODE
 70
     1
  9
$TEXTSIZE
 40
0.2
  9
$TRACEWID
 40
0.05
  9
$TEXTSTYLE
  7
STANDARD
  9
$CLAYER
  8
0
  9
$CELTYPE
  6
CONTINUOUS
  9
$CECOLOR
 62
   256
  9
$DIMSCALE
 40
1.0
  9
$DIMASZ
 40
0.18
  9
$DIMEXO
 40
0.0625
  9
$DIMDLI
 40
0.38
  9
$DIMRND
 40
0.0
  9
$DIMDLE
 40
0.0
  9
$DIMEXE
 40
0.18
  9
$DIMTP
 40
0.0
  9
$DIMTM
 40
0.0
  9
$DIMTXT
 40
0.18
  9
$DIMCEN
 40
0.09
  9
$DIMTSZ
 40
0.0
  9
$DIMTOL
 70
     0
  9
$DIMLIM
 70
     0
  9
$DIMTIH
 70
     1
  9
$DIMTOH
 70
     1
  9
$DIMSE1
 70
     0
  9
$DIMSE2
 70
     0
  9
$DIMTAD
 70
     0
  9
$DIMZIN
 70
     0
  9
$DIMBLK
  1

  9
$DIMASO
 70
     1
  9
$DIMSHO
 70
     1
  9
$DIMPOST
  1

  9
$DIMAPOST
  1

  9
$DIMALT
 70
     0
  9
$DIMALTD
 70
     2
  9
$DIMALTF
 40
25.4
  9
$DIMLFAC
 40
1.0
  9
$DIMTOFL
 70
     0
  9
$DIMTVP
 40
0.0
  9
$DIMTIX
 70
     0
  9
$DIMSOXD
 70
     0
  9
$DIMSAH
 70
     0
  9
$DIMBLK1
  1

  9
$DIMBLK2
  1

  9
$DIMSTYLE
  2
STANDARD
  9
$DIMCLRD
 70
     0
  9
$DIMCLRE
 70
     0
  9
$DIMCLRT
 70
     0
  9
$DIMTFAC
 40
1.0
  9
$DIMGAP
 40
0.09
  9
$LUNITS
 70
     2
  9
$LUPREC
 70
     4
  9
$AXISMODE
 70
     0
  9
$AXISUNIT
 10
0.0
 20
0.0
  9
$SKETCHINC
 40
0.1
  9
$FILLETRAD
 40
0.0
  9
$AUNITS
 70
     0
  9
$AUPREC
 70
     0
  9
$MENU
  1
acad
  9
$ELEVATION
 40
0.0
  9
$PELEVATION
 40
0.0
  9
$THICKNESS
 40
0.0
  9
$LIMCHECK
 70
     0
  9
$BLIPMODE
 70
     1
  9
$CHAMFERA
 40
0.0
  9
$CHAMFERB
 40
0.0
  9
$SKPOLY
 70
     0
  9
$TDCREATE
 40
0.000000000
  9
$TDUPDATE
 40
0.000000000
  9
$TDINDWG
 40
0.0000000000
  9
$TDUSRTIMER
 40
0.0000000000
  9
$USRTIMER
 70
     1
  9
$ANGBASE
 50
0.0
  9
$ANGDIR
 70
     0
  9
$PDMODE
 70
     0
  9
$PDSIZE
 40
0.0
  9
$PLINEWID
 40
0.0
  9
$COORDS
 70
     0
  9
$SPLFRAME
 70
     0
  9
$SPLINETYPE
 70
     6
  9
$SPLINESEGS
 70
     8
  9
$ATTDIA
 70
     0
  9
$ATTREQ
 70
     1
  9
$HANDLING
 70
     1
  9
$HANDSEED
  5
49D
  9
$SURFTAB1
 70
     6
  9
$SURFTAB2
 70
     6
  9
$SURFTYPE
 70
     6
  9
$SURFU
 70
     6
  9
$SURFV
 70
     6
  9
$UCSNAME
  2

  9
$UCSORG
 10
0.0
 20
0.0
 30
0.0
  9
$UCSXDIR
 10
1.0
 20
0.0
 30
0.0
  9
$UCSYDIR
 10
0.0
 20
1.0
 30
0.0
  9
$PUCSNAME
  2

  9
$PUCSORG
 10
0.0
 20
0.0
 30
0.0
  9
$PUCSXDIR
 10
1.0
 20
0.0
 30
0.0
  9
$PUCSYDIR
 10
0.0
 20
1.0
 30
0.0
  9
$USERI1
 70
     0
  9
$USERI2
 70
     0
  9
$USERI3
 70
     0
  9
$USERI4
 70
     0
  9
$USERI5
 70
     0
  9
$USERR1
 40
0.0
  9
$USERR2
 40
0.0
  9
$USERR3
 40
0.0
  9
$USERR4
 40
0.0
  9
$USERR5
 40
0.0
  9
$WORLDVIEW
 70
     1
  9
$SHADEDGE
 70
     3
  9
$SHADEDIF
 70
    70
  9
$TILEMODE
 70
     1
  9
$MAXACTVP
 70
    16
  9
$PINSBASE
 10
0.0
 20
0.0
 30
0.0
  9
$PLIMCHECK
 70
     0
  9
$PEXTMIN
 10
1.000000E+20
 20
1.000000E+20
 30
1.000000E+20
  9
$PEXTMAX
 10
-1.000000E+20
 20
-1.000000E+20
 30
-1.000000E+20
  9
$PLIMMIN
 10
0.0
 20
0.0
  9
$PLIMMAX
 10
12.0
 20
9.0
  9
$UNITMODE
 70
     0
  9
$VISRETAIN
 70
     0
  9
$PLINEGEN
 70
     1
  9
$PSLTSCALE
 70
     0
  9
$TREEDEPTH
 70
  3020
  0
ENDSEC
  0
SECTION
  2
TABLES
  0
TABLE
  2
VPORT
 70
     1
  0
VPORT
  2
*ACTIVE
 70
     0
 10
0.0
 20
0.0
 11
1.0
 21
1.0
 12
6.591288
 22
4.579184
 13
0.0
 23
0.0
 14
1.0
 24
1.0
 15
0.0
 25
0.0
 16
0.0
 26
0.0
 36
1.0
 17
0.0
 27
0.0
 37
0.0
 40
9.158369
 41
0.688564
 42
50.0
 43
0.0
 44
0.0
 50
0.0
 51
0.0
 71
     0
 72
   100
 73
     1
 74
     1
 75
     0
 76
     0
 77
     0
 78
     0
  0
ENDTAB
  0
TABLE
  2
LTYPE
 70
     5
  0
LTYPE
  2
CONTINUOUS
 70
    64
  3
Solid line
 72
    65
 73
     0
 40
0.0
  0
LTYPE
  2
CENTER
 70
    64
  3
Center ____ _ ____ _ ____ _ ____ _ ____ _ ____
 72
    65
 73
     4
 40
50.8
 49
31.75
 49
-6.35
 49
6.35
 49
-6.35
  0
LTYPE
  2
HIDDEN
 70
    64
  3
Hidden __ __ __ __ __ __ __ __ __ __ __ __ __ __
 72
    65
 73
     2
 40
9.525
 49
6.35
 49
-3.175
  0
LTYPE
  2
CENTER2
 70
    64
  3
Center (.5x) ___ _ ___ _ ___ _ ___ _ ___ _ ___
 72
    65
 73
     4
 40
28.575
 49
19.05
 49
-3.175
 49
3.175
 49
-3.175
  0
LTYPE
  2
HIDDEN2
 70
    64
  3
Hidden (.5x) _ _ _ _ _ _ _ _ _ _ _ _ _ _ _ _ _
 72
    65
 73
     2
 40
4.7625
 49
3.175
 49
-1.5875
  0
ENDTAB
  0
TABLE
  2
LAYER
 70
     1
  0
LAYER
  2
0
 70
     0
 62
     7
  6
CONTINUOUS
  0
ENDTAB
  0
TABLE
  2
STYLE
 70
     1
  0
STYLE
  2
STANDARD
 70
     0
 40
0.0
 41
1.0
 50
0.0
 71
     0
 42
0.0
  3
txt
  4

  0
ENDTAB
  0
TABLE
  2
VIEW
 70
     0
  0
ENDTAB
  0
TABLE
  2
UCS
 70
     0
  0
ENDTAB
  0
TABLE
  2
APPID
 70
     1
  0
APPID
  2
ACAD
 70
     0
  0
ENDTAB
  0
TABLE
  2
DIMSTYLE
 70
     1
  0
DIMSTYLE
  2
STANDARD
 70
     0
  3

  4

  5

  6

  7

 40
1.0
 41
0.18
 42
0.0625
 43
0.38
 44
0.18
 45
0.0
 46
0.0
 47
0.0
 48
0.0
 71
     0
 72
     0
 73
     1
 74
     1
 75
     0
 76
     0
 77
     0
 78
     0
140
0.18
141
0.09
142
0.0
143
25.4
144
1.0
145
0.0
146
1.0
147
0.09
170
     0
171
     2
172
     0
173
     0
174
     0
175
     0
176
     0
177
     0
178
     0
  0
ENDTAB
  0
ENDSEC
  0
SECTION
  2
BLOCKS
  0
ENDSEC
  0
SECTION
  2
ENTITIES
  0
LINE
  8
0
  6
CONTINUOUS
 62
     7
  5
272
 10
-0.377953
 20
15.136189
 30
0.0
 11
0.377953
 21
15.136189
 31
0.0
  0
LINE
  8
0
  6
CONTINUOUS
 62
     7
  5
273
 10
-1.149606
 20
15.728315
 30
0.0
 11
1.149606
 21
15.728315
 31
0.0
  0
LINE
  8
0
  6
CONTINUOUS
 62
     7
  5
274
 10
-0.356132
 20
15.098394
 30
0.0
 11
0.356132
 21
15.098394
 31
0.0
  0
LINE
  8
0
  6
CONTINUOUS
 62
     7
  5
275
 10
1.115118
 20
16.870047
 30
0.0
 11
-1.115118
 21
16.870047
 31
0.0
  0
LINE
  8
0
  6
CONTINUOUS
 62
     7
  5
276
 10
0.600394
 20
16.397606
 30
0.0
 11
0.600394
 21
15.985008
 31
0.0
  0
LINE
  8
0
  6
CONTINUOUS
 62
     7
  5
277
 10
-0.600394
 20
16.397606
 30
0.0
 11
0.600394
 21
16.397606
 31
0.0
  0
LINE
  8
0
  6
CONTINUOUS
 62
     7
  5
278
 10
-0.600394
 20
15.985008
 30
0.0
 11
-0.600394
 21
16.397606
 31
0.0
  0
LINE
  8
0
  6
CONTINUOUS
 62
     7
  5
279
 10
-0.461811
 20
15.846425
 30
0.0
 11
-0.467669
 21
15.846549
 31
0.0
  0
LINE
  8
0
  6
CONTINUOUS
 62
     7
  5
27A
 10
-0.467669
 20
15.846549
 30
0.0
 11
-0.473584
 21
15.846926
 31
0.0
  0
LINE
  8
0
  6
CONTINUOUS
 62
     7
  5
27B
 10
-0.473584
 20
15.846926
 30
0.0
 11
-0.479534
 21
15.847563
 31
0.0
  0
LINE
  8
0
  6
CONTINUOUS
 62
     7
  5
27C
 10
-0.479534
 20
15.847563
 30
0.0
 11
-0.485499
 21
15.848465
 31
0.0
  0
LINE
  8
0
  6
CONTINUOUS
 62
     7
  5
27D
 10
-0.485499
 20
15.848465
 30
0.0
 11
-0.491458
 21
15.849634
 31
0.0
  0
LINE
  8
0
  6
CONTINUOUS
 62
     7
  5
27E
 10
-0.491458
 20
15.849634
 30
0.0
 11
-0.49739
 21
15.85107
 31
0.0
  0
LINE
  8
0
  6
CONTINUOUS
 62
     7
  5
27F
 10
-0.49739
 20
15.85107
 30
0.0
 11
-0.503275
 21
15.852774
 31
0.0
  0
LINE
  8
0
  6
CONTINUOUS
 62
     7
  5
280
 10
-0.503275
 20
15.852774
 30
0.0
 11
-0.509095
 21
15.854741
 31
0.0
  0
LINE
  8
0
  6
CONTINUOUS
 62
     7
  5
281
 10
-0.509095
 20
15.854741
 30
0.0
 11
-0.514831
 21
15.856969
 31
0.0
  0
LINE
  8
0
  6
CONTINUOUS
 62
     7
  5
282
 10
-0.514831
 20
15.856969
 30
0.0
 11
-0.520466
 21
15.85945
 31
0.0
  0
LINE
  8
0
  6
CONTINUOUS
 62
     7
  5
283
 10
-0.520466
 20
15.85945
 30
0.0
 11
-0.525987
 21
15.86218
 31
0.0
  0
LINE
  8
0
  6
CONTINUOUS
 62
     7
  5
284
 10
-0.525987
 20
15.86218
 30
0.0
 11
-0.531376
 21
15.86515
 31
0.0
  0
LINE
  8
0
  6
CONTINUOUS
 62
     7
  5
285
 10
-0.531376
 20
15.86515
 30
0.0
 11
-0.536618
 21
15.86835
 31
0.0
  0
LINE
  8
0
  6
CONTINUOUS
 62
     7
  5
286
 10
-0.536618
 20
15.86835
 30
0.0
 11
-0.541698
 21
15.871768
 31
0.0
  0
LINE
  8
0
  6
CONTINUOUS
 62
     7
  5
287
 10
-0.541698
 20
15.871768
 30
0.0
 11
-0.546601
 21
15.875391
 31
0.0
  0
LINE
  8
0
  6
CONTINUOUS
 62
     7
  5
288
 10
-0.546601
 20
15.875391
 30
0.0
 11
-0.551315
 21
15.879205
 31
0.0
  0
LINE
  8
0
  6
CONTINUOUS
 62
     7
  5
289
 10
-0.551315
 20
15.879205
 30
0.0
 11
-0.555827
 21
15.883193
 31
0.0
  0
LINE
  8
0
  6
CONTINUOUS
 62
     7
  5
28A
 10
-0.555827
 20
15.883193
 30
0.0
 11
-0.560126
 21
15.887338
 31
0.0
  0
LINE
  8
0
  6
CONTINUOUS
 62
     7
  5
28B
 10
-0.560126
 20
15.887338
 30
0.0
 11
-0.564226
 21
15.891647
 31
0.0
  0
LINE
  8
0
  6
CONTINUOUS
 62
     7
  5
28C
 10
-0.564226
 20
15.891647
 30
0.0
 11
-0.568205
 21
15.896208
 31
0.0
  0
LINE
  8
0
  6
CONTINUOUS
 62
     7
  5
28D
 10
-0.568205
 20
15.896208
 30
0.0
 11
-0.572045
 21
15.901022
 31
0.0
  0
LINE
  8
0
  6
CONTINUOUS
 62
     7
  5
28E
 10
-0.572045
 20
15.901022
 30
0.0
 11
-0.57572
 21
15.906078
 31
0.0
  0
LINE
  8
0
  6
CONTINUOUS
 62
     7
  5
28F
 10
-0.57572
 20
15.906078
 30
0.0
 11
-0.579204
 21
15.911359
 31
0.0
  0
LINE
  8
0
  6
CONTINUOUS
 62
     7
  5
290
 10
-0.579204
 20
15.911359
 30
0.0
 11
-0.582474
 21
15.916849
 31
0.0
  0
LINE
  8
0
  6
CONTINUOUS
 62
     7
  5
291
 10
-0.582474
 20
15.916849
 30
0.0
 11
-0.585511
 21
15.92253
 31
0.0
  0
LINE
  8
0
  6
CONTINUOUS
 62
     7
  5
292
 10
-0.585511
 20
15.92253
 30
0.0
 11
-0.588296
 21
15.928381
 31
0.0
  0
LINE
  8
0
  6
CONTINUOUS
 62
     7
  5
293
 10
-0.588296
 20
15.928381
 30
0.0
 11
-0.590816
 21
15.934382
 31
0.0
  0
LINE
  8
0
  6
CONTINUOUS
 62
     7
  5
294
 10
-0.590816
 20
15.934382
 30
0.0
 11
-0.593057
 21
15.940515
 31
0.0
  0
LINE
  8
0
  6
CONTINUOUS
 62
     7
  5
295
 10
-0.593057
 20
15.940515
 30
0.0
 11
-0.59501
 21
15.946756
 31
0.0
  0
LINE
  8
0
  6
CONTINUOUS
 62
     7
  5
296
 10
-0.59501
 20
15.946756
 30
0.0
 11
-0.596666
 21
15.953082
 31
0.0
  0
LINE
  8
0
  6
CONTINUOUS
 62
     7
  5
297
 10
-0.596666
 20
15.953082
 30
0.0
 11
-0.59802
 21
15.959467
 31
0.0
  0
LINE
  8
0
  6
CONTINUOUS
 62
     7
  5
298
 10
-0.59802
 20
15.959467
 30
0.0
 11
-0.599067
 21
15.965881
 31
0.0
  0
LINE
  8
0
  6
CONTINUOUS
 62
     7
  5
299
 10
-0.599067
 20
15.965881
 30
0.0
 11
-0.599809
 21
15.972294
 31
0.0
  0
LINE
  8
0
  6
CONTINUOUS
 62
     7
  5
29A
 10
-0.599809
 20
15.972294
 30
0.0
 11
-0.600249
 21
15.97868
 31
0.0
  0
LINE
  8
0
  6
CONTINUOUS
 62
     7
  5
29B
 10
-0.600249
 20
15.97868
 30
0.0
 11
-0.600394
 21
15.985008
 31
0.0
  0
LINE
  8
0
  6
CONTINUOUS
 62
     7
  5
29C
 10
0.461811
 20
15.846425
 30
0.0
 11
-0.461811
 21
15.846425
 31
0.0
  0
LINE
  8
0
  6
CONTINUOUS
 62
     7
  5
29D
 10
0.600394
 20
15.985008
 30
0.0
 11
0.600249
 21
15.97868
 31
0.0
  0
LINE
  8
0
  6
CONTINUOUS
 62
     7
  5
29E
 10
0.600249
 20
15.97868
 30
0.0
 11
0.599809
 21
15.972294
 31
0.0
  0
LINE
  8
0
  6
CONTINUOUS
 62
     7
  5
29F
 10
0.599809
 20
15.972294
 30
0.0
 11
0.599067
 21
15.965881
 31
0.0
  0
LINE
  8
0
  6
CONTINUOUS
 62
     7
  5
2A0
 10
0.599067
 20
15.965881
 30
0.0
 11
0.59802
 21
15.959467
 31
0.0
  0
LINE
  8
0
  6
CONTINUOUS
 62
     7
  5
2A1
 10
0.59802
 20
15.959467
 30
0.0
 11
0.596666
 21
15.953082
 31
0.0
  0
LINE
  8
0
  6
CONTINUOUS
 62
     7
  5
2A2
 10
0.596666
 20
15.953082
 30
0.0
 11
0.59501
 21
15.946756
 31
0.0
  0
LINE
  8
0
  6
CONTINUOUS
 62
     7
  5
2A3
 10
0.59501
 20
15.946756
 30
0.0
 11
0.593057
 21
15.940515
 31
0.0
  0
LINE
  8
0
  6
CONTINUOUS
 62
     7
  5
2A4
 10
0.593057
 20
15.940515
 30
0.0
 11
0.590816
 21
15.934382
 31
0.0
  0
LINE
  8
0
  6
CONTINUOUS
 62
     7
  5
2A5
 10
0.590816
 20
15.934382
 30
0.0
 11
0.588296
 21
15.928381
 31
0.0
  0
LINE
  8
0
  6
CONTINUOUS
 62
     7
  5
2A6
 10
0.588296
 20
15.928381
 30
0.0
 11
0.585511
 21
15.92253
 31
0.0
  0
LINE
  8
0
  6
CONTINUOUS
 62
     7
  5
2A7
 10
0.585511
 20
15.92253
 30
0.0
 11
0.582474
 21
15.916849
 31
0.0
  0
LINE
  8
0
  6
CONTINUOUS
 62
     7
  5
2A8
 10
0.582474
 20
15.916849
 30
0.0
 11
0.579204
 21
15.911359
 31
0.0
  0
LINE
  8
0
  6
CONTINUOUS
 62
     7
  5
2A9
 10
0.579204
 20
15.911359
 30
0.0
 11
0.57572
 21
15.906078
 31
0.0
  0
LINE
  8
0
  6
CONTINUOUS
 62
     7
  5
2AA
 10
0.57572
 20
15.906078
 30
0.0
 11
0.572045
 21
15.901022
 31
0.0
  0
LINE
  8
0
  6
CONTINUOUS
 62
     7
  5
2AB
 10
0.572045
 20
15.901022
 30
0.0
 11
0.568205
 21
15.896208
 31
0.0
  0
LINE
  8
0
  6
CONTINUOUS
 62
     7
  5
2AC
 10
0.568205
 20
15.896208
 30
0.0
 11
0.564226
 21
15.891647
 31
0.0
  0
LINE
  8
0
  6
CONTINUOUS
 62
     7
  5
2AD
 10
0.564226
 20
15.891647
 30
0.0
 11
0.560126
 21
15.887338
 31
0.0
  0
LINE
  8
0
  6
CONTINUOUS
 62
     7
  5
2AE
 10
0.560126
 20
15.887338
 30
0.0
 11
0.555827
 21
15.883193
 31
0.0
  0
LINE
  8
0
  6
CONTINUOUS
 62
     7
  5
2AF
 10
0.555827
 20
15.883193
 30
0.0
 11
0.551315
 21
15.879205
 31
0.0
  0
LINE
  8
0
  6
CONTINUOUS
 62
     7
  5
2B0
 10
0.551315
 20
15.879205
 30
0.0
 11
0.546601
 21
15.875391
 31
0.0
  0
LINE
  8
0
  6
CONTINUOUS
 62
     7
  5
2B1
 10
0.546601
 20
15.875391
 30
0.0
 11
0.541698
 21
15.871768
 31
0.0
  0
LINE
  8
0
  6
CONTINUOUS
 62
     7
  5
2B2
 10
0.541698
 20
15.871768
 30
0.0
 11
0.536618
 21
15.86835
 31
0.0
  0
LINE
  8
0
  6
CONTINUOUS
 62
     7
  5
2B3
 10
0.536618
 20
15.86835
 30
0.0
 11
0.531376
 21
15.86515
 31
0.0
  0
LINE
  8
0
  6
CONTINUOUS
 62
     7
  5
2B4
 10
0.531376
 20
15.86515
 30
0.0
 11
0.525987
 21
15.86218
 31
0.0
  0
LINE
  8
0
  6
CONTINUOUS
 62
     7
  5
2B5
 10
0.525987
 20
15.86218
 30
0.0
 11
0.520466
 21
15.85945
 31
0.0
  0
LINE
  8
0
  6
CONTINUOUS
 62
     7
  5
2B6
 10
0.520466
 20
15.85945
 30
0.0
 11
0.514831
 21
15.856969
 31
0.0
  0
LINE
  8
0
  6
CONTINUOUS
 62
     7
  5
2B7
 10
0.514831
 20
15.856969
 30
0.0
 11
0.509095
 21
15.854741
 31
0.0
  0
LINE
  8
0
  6
CONTINUOUS
 62
     7
  5
2B8
 10
0.509095
 20
15.854741
 30
0.0
 11
0.503275
 21
15.852774
 31
0.0
  0
LINE
  8
0
  6
CONTINUOUS
 62
     7
  5
2B9
 10
0.503275
 20
15.852774
 30
0.0
 11
0.49739
 21
15.85107
 31
0.0
  0
LINE
  8
0
  6
CONTINUOUS
 62
     7
  5
2BA
 10
0.49739
 20
15.85107
 30
0.0
 11
0.491458
 21
15.849634
 31
0.0
  0
LINE
  8
0
  6
CONTINUOUS
 62
     7
  5
2BB
 10
0.491458
 20
15.849634
 30
0.0
 11
0.485499
 21
15.848465
 31
0.0
  0
LINE
  8
0
  6
CONTINUOUS
 62
     7
  5
2BC
 10
0.485499
 20
15.848465
 30
0.0
 11
0.479534
 21
15.847563
 31
0.0
  0
LINE
  8
0
  6
CONTINUOUS
 62
     7
  5
2BD
 10
0.479534
 20
15.847563
 30
0.0
 11
0.473584
 21
15.846926
 31
0.0
  0
LINE
  8
0
  6
CONTINUOUS
 62
     7
  5
2BE
 10
0.473584
 20
15.846926
 30
0.0
 11
0.467669
 21
15.846549
 31
0.0
  0
LINE
  8
0
  6
CONTINUOUS
 62
     7
  5
2BF
 10
0.467669
 20
15.846549
 30
0.0
 11
0.461811
 21
15.846425
 31
0.0
  0
LINE
  8
0
  6
CONTINUOUS
 62
     7
  5
2C0
 10
-1.208661
 20
16.397606
 30
0.0
 11
-0.600394
 21
16.397606
 31
0.0
  0
LINE
  8
0
  6
CONTINUOUS
 62
     7
  5
2C1
 10
0.600394
 20
16.397606
 30
0.0
 11
1.208661
 21
16.397606
 31
0.0
  0
LINE
  8
0
  6
CONTINUOUS
 62
     7
  5
2C2
 10
-1.208661
 20
15.78737
 30
0.0
 11
1.208661
 21
15.78737
 31
0.0
  0
LINE
  8
0
  6
CONTINUOUS
 62
     7
  5
2C3
 10
1.059362
 20
17.326346
 30
0.0
 11
-1.059362
 21
17.326346
 31
0.0
  0
LINE
  8
0
  6
CONTINUOUS
 62
     7
  5
2C4
 10
1.105413
 20
17.224378
 30
0.0
 11
1.113969
 21
17.224378
 31
0.0
  0
LINE
  8
0
  6
CONTINUOUS
 62
     7
  5
2C5
 10
1.105413
 20
17.106268
 30
0.0
 11
1.105413
 21
17.224378
 31
0.0
  0
LINE
  8
0
  6
CONTINUOUS
 62
     7
  5
2C6
 10
1.113969
 20
17.106268
 30
0.0
 11
1.105413
 21
17.106268
 31
0.0
  0
LINE
  8
0
  6
CONTINUOUS
 62
     7
  5
2C7
 10
-0.433372
 20
17.224378
 30
0.0
 11
-0.433372
 21
17.106268
 31
0.0
  0
LINE
  8
0
  6
CONTINUOUS
 62
     7
  5
2C8
 10
-0.672041
 20
17.224378
 30
0.0
 11
-0.433372
 21
17.224378
 31
0.0
  0
LINE
  8
0
  6
CONTINUOUS
 62
     7
  5
2C9
 10
-0.672041
 20
17.106268
 30
0.0
 11
-0.672041
 21
17.224378
 31
0.0
  0
LINE
  8
0
  6
CONTINUOUS
 62
     7
  5
2CA
 10
-0.433372
 20
17.106268
 30
0.0
 11
-0.672041
 21
17.106268
 31
0.0
  0
LINE
  8
0
  6
CONTINUOUS
 62
     7
  5
2CB
 10
-0.422365
 20
17.106268
 30
0.0
 11
-0.433372
 21
17.106268
 31
0.0
  0
LINE
  8
0
  6
CONTINUOUS
 62
     7
  5
2CC
 10
-0.422365
 20
17.224378
 30
0.0
 11
-0.422365
 21
17.106268
 31
0.0
  0
LINE
  8
0
  6
CONTINUOUS
 62
     7
  5
2CD
 10
-0.422365
 20
17.224378
 30
0.0
 11
-0.433372
 21
17.224378
 31
0.0
  0
LINE
  8
0
  6
CONTINUOUS
 62
     7
  5
2CE
 10
1.083398
 20
17.106268
 30
0.0
 11
1.105413
 21
17.106268
 31
0.0
  0
LINE
  8
0
  6
CONTINUOUS
 62
     7
  5
2CF
 10
1.083398
 20
17.224378
 30
0.0
 11
1.105413
 21
17.224378
 31
0.0
  0
LINE
  8
0
  6
CONTINUOUS
 62
     7
  5
2D0
 10
1.083398
 20
17.106268
 30
0.0
 11
1.083398
 21
17.224378
 31
0.0
  0
LINE
  8
0
  6
CONTINUOUS
 62
     7
  5
2D1
 10
-0.672041
 20
17.224378
 30
0.0
 11
-1.092126
 21
17.224378
 31
0.0
  0
LINE
  8
0
  6
CONTINUOUS
 62
     7
  5
2D2
 10
1.083398
 20
17.224378
 30
0.0
 11
-0.422365
 21
17.224378
 31
0.0
  0
LINE
  8
0
  6
CONTINUOUS
 62
     7
  5
2D3
 10
0.598945
 20
0.290691
 30
0.0
 11
0.599459
 21
0.29399
 31
0.0
  0
LINE
  8
0
  6
CONTINUOUS
 62
     7
  5
2D4
 10
0.599459
 20
0.29399
 30
0.0
 11
0.600961
 21
0.297031
 31
0.0
  0
LINE
  8
0
  6
CONTINUOUS
 62
     7
  5
2D5
 10
0.600961
 20
0.297031
 30
0.0
 11
0.603499
 21
0.299905
 31
0.0
  0
LINE
  8
0
  6
CONTINUOUS
 62
     7
  5
2D6
 10
0.603499
 20
0.299905
 30
0.0
 11
0.607141
 21
0.302595
 31
0.0
  0
LINE
  8
0
  6
CONTINUOUS
 62
     7
  5
2D7
 10
0.607141
 20
0.302595
 30
0.0
 11
0.611908
 21
0.305047
 31
0.0
  0
LINE
  8
0
  6
CONTINUOUS
 62
     7
  5
2D8
 10
0.611908
 20
0.305047
 30
0.0
 11
0.61779
 21
0.307215
 31
0.0
  0
LINE
  8
0
  6
CONTINUOUS
 62
     7
  5
2D9
 10
0.61779
 20
0.307215
 30
0.0
 11
0.624751
 21
0.309062
 31
0.0
  0
LINE
  8
0
  6
CONTINUOUS
 62
     7
  5
2DA
 10
0.624751
 20
0.309062
 30
0.0
 11
0.632734
 21
0.31056
 31
0.0
  0
LINE
  8
0
  6
CONTINUOUS
 62
     7
  5
2DB
 10
0.632734
 20
0.31056
 30
0.0
 11
0.641652
 21
0.311691
 31
0.0
  0
LINE
  8
0
  6
CONTINUOUS
 62
     7
  5
2DC
 10
0.641652
 20
0.311691
 30
0.0
 11
0.651385
 21
0.312447
 31
0.0
  0
LINE
  8
0
  6
CONTINUOUS
 62
     7
  5
2DD
 10
0.651385
 20
0.312447
 30
0.0
 11
0.661787
 21
0.312832
 31
0.0
  0
LINE
  8
0
  6
CONTINUOUS
 62
     7
  5
2DE
 10
0.661787
 20
0.312832
 30
0.0
 11
0.672747
 21
0.312862
 31
0.0
  0
LINE
  8
0
  6
CONTINUOUS
 62
     7
  5
2DF
 10
0.672747
 20
0.312862
 30
0.0
 11
0.68461
 21
0.31254
 31
0.0
  0
LINE
  8
0
  6
CONTINUOUS
 62
     7
  5
2E0
 10
0.68461
 20
0.31254
 30
0.0
 11
0.697396
 21
0.311849
 31
0.0
  0
LINE
  8
0
  6
CONTINUOUS
 62
     7
  5
2E1
 10
0.697396
 20
0.311849
 30
0.0
 11
0.710996
 21
0.310782
 31
0.0
  0
LINE
  8
0
  6
CONTINUOUS
 62
     7
  5
2E2
 10
0.710996
 20
0.310782
 30
0.0
 11
0.725277
 21
0.309346
 31
0.0
  0
LINE
  8
0
  6
CONTINUOUS
 62
     7
  5
2E3
 10
0.725277
 20
0.309346
 30
0.0
 11
0.740101
 21
0.307558
 31
0.0
  0
LINE
  8
0
  6
CONTINUOUS
 62
     7
  5
2E4
 10
0.740101
 20
0.307558
 30
0.0
 11
0.755327
 21
0.305444
 31
0.0
  0
LINE
  8
0
  6
CONTINUOUS
 62
     7
  5
2E5
 10
0.755327
 20
0.305444
 30
0.0
 11
0.770794
 21
0.303038
 31
0.0
  0
LINE
  8
0
  6
CONTINUOUS
 62
     7
  5
2E6
 10
0.770794
 20
0.303038
 30
0.0
 11
0.786324
 21
0.300385
 31
0.0
  0
LINE
  8
0
  6
CONTINUOUS
 62
     7
  5
2E7
 10
0.786324
 20
0.300385
 30
0.0
 11
0.801732
 21
0.297539
 31
0.0
  0
LINE
  8
0
  6
CONTINUOUS
 62
     7
  5
2E8
 10
0.801732
 20
0.297539
 30
0.0
 11
0.816938
 21
0.294534
 31
0.0
  0
LINE
  8
0
  6
CONTINUOUS
 62
     7
  5
2E9
 10
0.816938
 20
0.294534
 30
0.0
 11
0.83245
 21
0.29128
 31
0.0
  0
LINE
  8
0
  6
CONTINUOUS
 62
     7
  5
2EA
 10
0.83245
 20
0.29128
 30
0.0
 11
0.848238
 21
0.287781
 31
0.0
  0
LINE
  8
0
  6
CONTINUOUS
 62
     7
  5
2EB
 10
0.848238
 20
0.287781
 30
0.0
 11
0.864145
 21
0.284072
 31
0.0
  0
LINE
  8
0
  6
CONTINUOUS
 62
     7
  5
2EC
 10
0.864145
 20
0.284072
 30
0.0
 11
0.880014
 21
0.280191
 31
0.0
  0
LINE
  8
0
  6
CONTINUOUS
 62
     7
  5
2ED
 10
0.880014
 20
0.280191
 30
0.0
 11
0.895697
 21
0.276176
 31
0.0
  0
LINE
  8
0
  6
CONTINUOUS
 62
     7
  5
2EE
 10
0.895697
 20
0.276176
 30
0.0
 11
0.911062
 21
0.272068
 31
0.0
  0
LINE
  8
0
  6
CONTINUOUS
 62
     7
  5
2EF
 10
0.911062
 20
0.272068
 30
0.0
 11
0.925976
 21
0.267908
 31
0.0
  0
LINE
  8
0
  6
CONTINUOUS
 62
     7
  5
2F0
 10
0.925976
 20
0.267908
 30
0.0
 11
0.940308
 21
0.26374
 31
0.0
  0
LINE
  8
0
  6
CONTINUOUS
 62
     7
  5
2F1
 10
0.940308
 20
0.26374
 30
0.0
 11
0.953935
 21
0.25961
 31
0.0
  0
LINE
  8
0
  6
CONTINUOUS
 62
     7
  5
2F2
 10
0.953935
 20
0.25961
 30
0.0
 11
0.966754
 21
0.25556
 31
0.0
  0
LINE
  8
0
  6
CONTINUOUS
 62
     7
  5
2F3
 10
0.966754
 20
0.25556
 30
0.0
 11
0.979026
 21
0.251515
 31
0.0
  0
LINE
  8
0
  6
CONTINUOUS
 62
     7
  5
2F4
 10
0.979026
 20
0.251515
 30
0.0
 11
0.990877
 21
0.247428
 31
0.0
  0
LINE
  8
0
  6
CONTINUOUS
 62
     7
  5
2F5
 10
0.990877
 20
0.247428
 30
0.0
 11
1.002199
 21
0.243329
 31
0.0
  0
LINE
  8
0
  6
CONTINUOUS
 62
     7
  5
2F6
 10
0.668132
 20
0.243329
 30
0.0
 11
0.664455
 21
0.244714
 31
0.0
  0
LINE
  8
0
  6
CONTINUOUS
 62
     7
  5
2F7
 10
0.664455
 20
0.244714
 30
0.0
 11
0.660874
 21
0.246099
 31
0.0
  0
LINE
  8
0
  6
CONTINUOUS
 62
     7
  5
2F8
 10
0.660874
 20
0.246099
 30
0.0
 11
0.657392
 21
0.247484
 31
0.0
  0
LINE
  8
0
  6
CONTINUOUS
 62
     7
  5
2F9
 10
0.657392
 20
0.247484
 30
0.0
 11
0.654009
 21
0.248868
 31
0.0
  0
LINE
  8
0
  6
CONTINUOUS
 62
     7
  5
2FA
 10
0.654009
 20
0.248868
 30
0.0
 11
0.650727
 21
0.250249
 31
0.0
  0
LINE
  8
0
  6
CONTINUOUS
 62
     7
  5
2FB
 10
0.650727
 20
0.250249
 30
0.0
 11
0.647549
 21
0.251627
 31
0.0
  0
LINE
  8
0
  6
CONTINUOUS
 62
     7
  5
2FC
 10
0.647549
 20
0.251627
 30
0.0
 11
0.644476
 21
0.252999
 31
0.0
  0
LINE
  8
0
  6
CONTINUOUS
 62
     7
  5
2FD
 10
0.644476
 20
0.252999
 30
0.0
 11
0.641508
 21
0.254366
 31
0.0
  0
LINE
  8
0
  6
CONTINUOUS
 62
     7
  5
2FE
 10
0.641508
 20
0.254366
 30
0.0
 11
0.638647
 21
0.255726
 31
0.0
  0
LINE
  8
0
  6
CONTINUOUS
 62
     7
  5
2FF
 10
0.638647
 20
0.255726
 30
0.0
 11
0.635879
 21
0.257084
 31
0.0
  0
LINE
  8
0
  6
CONTINUOUS
 62
     7
  5
300
 10
0.635879
 20
0.257084
 30
0.0
 11
0.63318
 21
0.258454
 31
0.0
  0
LINE
  8
0
  6
CONTINUOUS
 62
     7
  5
301
 10
0.63318
 20
0.258454
 30
0.0
 11
0.630552
 21
0.259835
 31
0.0
  0
LINE
  8
0
  6
CONTINUOUS
 62
     7
  5
302
 10
0.630552
 20
0.259835
 30
0.0
 11
0.628003
 21
0.261225
 31
0.0
  0
LINE
  8
0
  6
CONTINUOUS
 62
     7
  5
303
 10
0.628003
 20
0.261225
 30
0.0
 11
0.625537
 21
0.262623
 31
0.0
  0
LINE
  8
0
  6
CONTINUOUS
 62
     7
  5
304
 10
0.625537
 20
0.262623
 30
0.0
 11
0.623159
 21
0.264026
 31
0.0
  0
LINE
  8
0
  6
CONTINUOUS
 62
     7
  5
305
 10
0.623159
 20
0.264026
 30
0.0
 11
0.620873
 21
0.265433
 31
0.0
  0
LINE
  8
0
  6
CONTINUOUS
 62
     7
  5
306
 10
0.620873
 20
0.265433
 30
0.0
 11
0.618685
 21
0.266842
 31
0.0
  0
LINE
  8
0
  6
CONTINUOUS
 62
     7
  5
307
 10
0.618685
 20
0.266842
 30
0.0
 11
0.616598
 21
0.268252
 31
0.0
  0
LINE
  8
0
  6
CONTINUOUS
 62
     7
  5
308
 10
0.616598
 20
0.268252
 30
0.0
 11
0.614616
 21
0.26966
 31
0.0
  0
LINE
  8
0
  6
CONTINUOUS
 62
     7
  5
309
 10
0.614616
 20
0.26966
 30
0.0
 11
0.612742
 21
0.271066
 31
0.0
  0
LINE
  8
0
  6
CONTINUOUS
 62
     7
  5
30A
 10
0.612742
 20
0.271066
 30
0.0
 11
0.610979
 21
0.272466
 31
0.0
  0
LINE
  8
0
  6
CONTINUOUS
 62
     7
  5
30B
 10
0.610979
 20
0.272466
 30
0.0
 11
0.609331
 21
0.27386
 31
0.0
  0
LINE
  8
0
  6
CONTINUOUS
 62
     7
  5
30C
 10
0.609331
 20
0.27386
 30
0.0
 11
0.607799
 21
0.275246
 31
0.0
  0
LINE
  8
0
  6
CONTINUOUS
 62
     7
  5
30D
 10
0.607799
 20
0.275246
 30
0.0
 11
0.606386
 21
0.276623
 31
0.0
  0
LINE
  8
0
  6
CONTINUOUS
 62
     7
  5
30E
 10
0.606386
 20
0.276623
 30
0.0
 11
0.605092
 21
0.277988
 31
0.0
  0
LINE
  8
0
  6
CONTINUOUS
 62
     7
  5
30F
 10
0.605092
 20
0.277988
 30
0.0
 11
0.603921
 21
0.27934
 31
0.0
  0
LINE
  8
0
  6
CONTINUOUS
 62
     7
  5
310
 10
0.603921
 20
0.27934
 30
0.0
 11
0.602872
 21
0.280679
 31
0.0
  0
LINE
  8
0
  6
CONTINUOUS
 62
     7
  5
311
 10
0.602872
 20
0.280679
 30
0.0
 11
0.601947
 21
0.282001
 31
0.0
  0
LINE
  8
0
  6
CONTINUOUS
 62
     7
  5
312
 10
0.601947
 20
0.282001
 30
0.0
 11
0.601146
 21
0.283307
 31
0.0
  0
LINE
  8
0
  6
CONTINUOUS
 62
     7
  5
313
 10
0.601146
 20
0.283307
 30
0.0
 11
0.600469
 21
0.284593
 31
0.0
  0
LINE
  8
0
  6
CONTINUOUS
 62
     7
  5
314
 10
0.600469
 20
0.284593
 30
0.0
 11
0.599918
 21
0.285859
 31
0.0
  0
LINE
  8
0
  6
CONTINUOUS
 62
     7
  5
315
 10
0.599918
 20
0.285859
 30
0.0
 11
0.59949
 21
0.287104
 31
0.0
  0
LINE
  8
0
  6
CONTINUOUS
 62
     7
  5
316
 10
0.59949
 20
0.287104
 30
0.0
 11
0.599186
 21
0.288325
 31
0.0
  0
LINE
  8
0
  6
CONTINUOUS
 62
     7
  5
317
 10
0.599186
 20
0.288325
 30
0.0
 11
0.599005
 21
0.289521
 31
0.0
  0
LINE
  8
0
  6
CONTINUOUS
 62
     7
  5
318
 10
0.599005
 20
0.289521
 30
0.0
 11
0.598945
 21
0.290691
 31
0.0
  0
LINE
  8
0
  6
CONTINUOUS
 62
     7
  5
319
 10
1.002199
 20
0.243329
 30
0.0
 11
1.0039
 21
0.242697
 31
0.0
  0
LINE
  8
0
  6
CONTINUOUS
 62
     7
  5
31A
 10
1.0039
 20
0.242697
 30
0.0
 11
1.005605
 21
0.242063
 31
0.0
  0
LINE
  8
0
  6
CONTINUOUS
 62
     7
  5
31B
 10
1.005605
 20
0.242063
 30
0.0
 11
1.007313
 21
0.241428
 31
0.0
  0
LINE
  8
0
  6
CONTINUOUS
 62
     7
  5
31C
 10
1.007313
 20
0.241428
 30
0.0
 11
1.009026
 21
0.240792
 31
0.0
  0
LINE
  8
0
  6
CONTINUOUS
 62
     7
  5
31D
 10
1.009026
 20
0.240792
 30
0.0
 11
1.010742
 21
0.240154
 31
0.0
  0
LINE
  8
0
  6
CONTINUOUS
 62
     7
  5
31E
 10
1.010742
 20
0.240154
 30
0.0
 11
1.012462
 21
0.239514
 31
0.0
  0
LINE
  8
0
  6
CONTINUOUS
 62
     7
  5
31F
 10
1.012462
 20
0.239514
 30
0.0
 11
1.014186
 21
0.238873
 31
0.0
  0
LINE
  8
0
  6
CONTINUOUS
 62
     7
  5
320
 10
1.014186
 20
0.238873
 30
0.0
 11
1.015914
 21
0.238231
 31
0.0
  0
LINE
  8
0
  6
CONTINUOUS
 62
     7
  5
321
 10
1.015914
 20
0.238231
 30
0.0
 11
1.017646
 21
0.237587
 31
0.0
  0
LINE
  8
0
  6
CONTINUOUS
 62
     7
  5
322
 10
1.017646
 20
0.237587
 30
0.0
 11
1.019381
 21
0.236942
 31
0.0
  0
LINE
  8
0
  6
CONTINUOUS
 62
     7
  5
323
 10
1.019381
 20
0.236942
 30
0.0
 11
1.021121
 21
0.236295
 31
0.0
  0
LINE
  8
0
  6
CONTINUOUS
 62
     7
  5
324
 10
1.021121
 20
0.236295
 30
0.0
 11
1.022864
 21
0.235646
 31
0.0
  0
LINE
  8
0
  6
CONTINUOUS
 62
     7
  5
325
 10
1.022864
 20
0.235646
 30
0.0
 11
1.024611
 21
0.234996
 31
0.0
  0
LINE
  8
0
  6
CONTINUOUS
 62
     7
  5
326
 10
1.024611
 20
0.234996
 30
0.0
 11
1.026363
 21
0.234345
 31
0.0
  0
LINE
  8
0
  6
CONTINUOUS
 62
     7
  5
327
 10
1.026363
 20
0.234345
 30
0.0
 11
1.028118
 21
0.233692
 31
0.0
  0
LINE
  8
0
  6
CONTINUOUS
 62
     7
  5
328
 10
1.028118
 20
0.233692
 30
0.0
 11
1.029877
 21
0.233038
 31
0.0
  0
LINE
  8
0
  6
CONTINUOUS
 62
     7
  5
329
 10
1.029877
 20
0.233038
 30
0.0
 11
1.03164
 21
0.232382
 31
0.0
  0
LINE
  8
0
  6
CONTINUOUS
 62
     7
  5
32A
 10
1.03164
 20
0.232382
 30
0.0
 11
1.033407
 21
0.231724
 31
0.0
  0
LINE
  8
0
  6
CONTINUOUS
 62
     7
  5
32B
 10
1.033407
 20
0.231724
 30
0.0
 11
1.035179
 21
0.231065
 31
0.0
  0
LINE
  8
0
  6
CONTINUOUS
 62
     7
  5
32C
 10
1.035179
 20
0.231065
 30
0.0
 11
1.036954
 21
0.230405
 31
0.0
  0
LINE
  8
0
  6
CONTINUOUS
 62
     7
  5
32D
 10
1.036954
 20
0.230405
 30
0.0
 11
1.038733
 21
0.229743
 31
0.0
  0
LINE
  8
0
  6
CONTINUOUS
 62
     7
  5
32E
 10
1.038733
 20
0.229743
 30
0.0
 11
1.040516
 21
0.229079
 31
0.0
  0
LINE
  8
0
  6
CONTINUOUS
 62
     7
  5
32F
 10
1.040516
 20
0.229079
 30
0.0
 11
1.042303
 21
0.228414
 31
0.0
  0
LINE
  8
0
  6
CONTINUOUS
 62
     7
  5
330
 10
1.042303
 20
0.228414
 30
0.0
 11
1.044095
 21
0.227747
 31
0.0
  0
LINE
  8
0
  6
CONTINUOUS
 62
     7
  5
331
 10
1.044095
 20
0.227747
 30
0.0
 11
1.04589
 21
0.227078
 31
0.0
  0
LINE
  8
0
  6
CONTINUOUS
 62
     7
  5
332
 10
1.04589
 20
0.227078
 30
0.0
 11
1.04769
 21
0.226408
 31
0.0
  0
LINE
  8
0
  6
CONTINUOUS
 62
     7
  5
333
 10
1.04769
 20
0.226408
 30
0.0
 11
1.049494
 21
0.225737
 31
0.0
  0
LINE
  8
0
  6
CONTINUOUS
 62
     7
  5
334
 10
1.049494
 20
0.225737
 30
0.0
 11
1.051301
 21
0.225064
 31
0.0
  0
LINE
  8
0
  6
CONTINUOUS
 62
     7
  5
335
 10
1.051301
 20
0.225064
 30
0.0
 11
1.053113
 21
0.224389
 31
0.0
  0
LINE
  8
0
  6
CONTINUOUS
 62
     7
  5
336
 10
1.053113
 20
0.224389
 30
0.0
 11
1.05493
 21
0.223713
 31
0.0
  0
LINE
  8
0
  6
CONTINUOUS
 62
     7
  5
337
 10
1.05493
 20
0.223713
 30
0.0
 11
1.05675
 21
0.223035
 31
0.0
  0
LINE
  8
0
  6
CONTINUOUS
 62
     7
  5
338
 10
1.05675
 20
0.223035
 30
0.0
 11
1.058574
 21
0.222355
 31
0.0
  0
LINE
  8
0
  6
CONTINUOUS
 62
     7
  5
339
 10
1.058574
 20
0.222355
 30
0.0
 11
1.060403
 21
0.221674
 31
0.0
  0
LINE
  8
0
  6
CONTINUOUS
 62
     7
  5
33A
 10
1.060403
 20
0.221674
 30
0.0
 11
1.062236
 21
0.220991
 31
0.0
  0
LINE
  8
0
  6
CONTINUOUS
 62
     7
  5
33B
 10
1.062236
 20
0.220991
 30
0.0
 11
1.064073
 21
0.220307
 31
0.0
  0
LINE
  8
0
  6
CONTINUOUS
 62
     7
  5
33C
 10
1.064073
 20
0.220307
 30
0.0
 11
1.065652
 21
0.219696
 31
0.0
  0
LINE
  8
0
  6
CONTINUOUS
 62
     7
  5
33D
 10
1.065652
 20
0.219696
 30
0.0
 11
1.067213
 21
0.219047
 31
0.0
  0
LINE
  8
0
  6
CONTINUOUS
 62
     7
  5
33E
 10
1.067213
 20
0.219047
 30
0.0
 11
1.068751
 21
0.218362
 31
0.0
  0
LINE
  8
0
  6
CONTINUOUS
 62
     7
  5
33F
 10
1.068751
 20
0.218362
 30
0.0
 11
1.070265
 21
0.217644
 31
0.0
  0
LINE
  8
0
  6
CONTINUOUS
 62
     7
  5
340
 10
1.070265
 20
0.217644
 30
0.0
 11
1.071751
 21
0.216896
 31
0.0
  0
LINE
  8
0
  6
CONTINUOUS
 62
     7
  5
341
 10
1.071751
 20
0.216896
 30
0.0
 11
1.073208
 21
0.216119
 31
0.0
  0
LINE
  8
0
  6
CONTINUOUS
 62
     7
  5
342
 10
1.073208
 20
0.216119
 30
0.0
 11
1.074632
 21
0.215319
 31
0.0
  0
LINE
  8
0
  6
CONTINUOUS
 62
     7
  5
343
 10
1.074632
 20
0.215319
 30
0.0
 11
1.076044
 21
0.214483
 31
0.0
  0
LINE
  8
0
  6
CONTINUOUS
 62
     7
  5
344
 10
1.076044
 20
0.214483
 30
0.0
 11
1.077468
 21
0.213598
 31
0.0
  0
LINE
  8
0
  6
CONTINUOUS
 62
     7
  5
345
 10
1.077468
 20
0.213598
 30
0.0
 11
1.078899
 21
0.212663
 31
0.0
  0
LINE
  8
0
  6
CONTINUOUS
 62
     7
  5
346
 10
1.078899
 20
0.212663
 30
0.0
 11
1.080336
 21
0.211679
 31
0.0
  0
LINE
  8
0
  6
CONTINUOUS
 62
     7
  5
347
 10
1.080336
 20
0.211679
 30
0.0
 11
1.081774
 21
0.210646
 31
0.0
  0
LINE
  8
0
  6
CONTINUOUS
 62
     7
  5
348
 10
1.081774
 20
0.210646
 30
0.0
 11
1.08321
 21
0.209565
 31
0.0
  0
LINE
  8
0
  6
CONTINUOUS
 62
     7
  5
349
 10
1.08321
 20
0.209565
 30
0.0
 11
1.084642
 21
0.208438
 31
0.0
  0
LINE
  8
0
  6
CONTINUOUS
 62
     7
  5
34A
 10
1.084642
 20
0.208438
 30
0.0
 11
1.086065
 21
0.207265
 31
0.0
  0
LINE
  8
0
  6
CONTINUOUS
 62
     7
  5
34B
 10
1.086065
 20
0.207265
 30
0.0
 11
1.087478
 21
0.206049
 31
0.0
  0
LINE
  8
0
  6
CONTINUOUS
 62
     7
  5
34C
 10
1.087478
 20
0.206049
 30
0.0
 11
1.088876
 21
0.204792
 31
0.0
  0
LINE
  8
0
  6
CONTINUOUS
 62
     7
  5
34D
 10
1.088876
 20
0.204792
 30
0.0
 11
1.090257
 21
0.203496
 31
0.0
  0
LINE
  8
0
  6
CONTINUOUS
 62
     7
  5
34E
 10
1.090257
 20
0.203496
 30
0.0
 11
1.091619
 21
0.202163
 31
0.0
  0
LINE
  8
0
  6
CONTINUOUS
 62
     7
  5
34F
 10
1.091619
 20
0.202163
 30
0.0
 11
1.092958
 21
0.200797
 31
0.0
  0
LINE
  8
0
  6
CONTINUOUS
 62
     7
  5
350
 10
1.092958
 20
0.200797
 30
0.0
 11
1.094273
 21
0.1994
 31
0.0
  0
LINE
  8
0
  6
CONTINUOUS
 62
     7
  5
351
 10
1.094273
 20
0.1994
 30
0.0
 11
1.09556
 21
0.197977
 31
0.0
  0
LINE
  8
0
  6
CONTINUOUS
 62
     7
  5
352
 10
1.09556
 20
0.197977
 30
0.0
 11
1.096817
 21
0.19653
 31
0.0
  0
LINE
  8
0
  6
CONTINUOUS
 62
     7
  5
353
 10
1.096817
 20
0.19653
 30
0.0
 11
1.098044
 21
0.195063
 31
0.0
  0
LINE
  8
0
  6
CONTINUOUS
 62
     7
  5
354
 10
1.098044
 20
0.195063
 30
0.0
 11
1.099237
 21
0.19358
 31
0.0
  0
LINE
  8
0
  6
CONTINUOUS
 62
     7
  5
355
 10
1.099237
 20
0.19358
 30
0.0
 11
1.100395
 21
0.192086
 31
0.0
  0
LINE
  8
0
  6
CONTINUOUS
 62
     7
  5
356
 10
1.100395
 20
0.192086
 30
0.0
 11
1.101517
 21
0.190583
 31
0.0
  0
LINE
  8
0
  6
CONTINUOUS
 62
     7
  5
357
 10
1.101517
 20
0.190583
 30
0.0
 11
1.102605
 21
0.189071
 31
0.0
  0
LINE
  8
0
  6
CONTINUOUS
 62
     7
  5
358
 10
1.102605
 20
0.189071
 30
0.0
 11
1.103686
 21
0.187514
 31
0.0
  0
LINE
  8
0
  6
CONTINUOUS
 62
     7
  5
359
 10
1.103686
 20
0.187514
 30
0.0
 11
1.104762
 21
0.185905
 31
0.0
  0
LINE
  8
0
  6
CONTINUOUS
 62
     7
  5
35A
 10
1.104762
 20
0.185905
 30
0.0
 11
1.105831
 21
0.184246
 31
0.0
  0
LINE
  8
0
  6
CONTINUOUS
 62
     7
  5
35B
 10
1.105831
 20
0.184246
 30
0.0
 11
1.106888
 21
0.18254
 31
0.0
  0
LINE
  8
0
  6
CONTINUOUS
 62
     7
  5
35C
 10
1.106888
 20
0.18254
 30
0.0
 11
1.107932
 21
0.18079
 31
0.0
  0
LINE
  8
0
  6
CONTINUOUS
 62
     7
  5
35D
 10
1.107932
 20
0.18079
 30
0.0
 11
1.10896
 21
0.178997
 31
0.0
  0
LINE
  8
0
  6
CONTINUOUS
 62
     7
  5
35E
 10
1.10896
 20
0.178997
 30
0.0
 11
1.109968
 21
0.177165
 31
0.0
  0
LINE
  8
0
  6
CONTINUOUS
 62
     7
  5
35F
 10
0.730007
 20
0.220307
 30
0.0
 11
0.72817
 21
0.220991
 31
0.0
  0
LINE
  8
0
  6
CONTINUOUS
 62
     7
  5
360
 10
0.72817
 20
0.220991
 30
0.0
 11
0.726337
 21
0.221674
 31
0.0
  0
LINE
  8
0
  6
CONTINUOUS
 62
     7
  5
361
 10
0.726337
 20
0.221674
 30
0.0
 11
0.724508
 21
0.222355
 31
0.0
  0
LINE
  8
0
  6
CONTINUOUS
 62
     7
  5
362
 10
0.724508
 20
0.222355
 30
0.0
 11
0.722684
 21
0.223035
 31
0.0
  0
LINE
  8
0
  6
CONTINUOUS
 62
     7
  5
363
 10
0.722684
 20
0.223035
 30
0.0
 11
0.720863
 21
0.223713
 31
0.0
  0
LINE
  8
0
  6
CONTINUOUS
 62
     7
  5
364
 10
0.720863
 20
0.223713
 30
0.0
 11
0.719047
 21
0.224389
 31
0.0
  0
LINE
  8
0
  6
CONTINUOUS
 62
     7
  5
365
 10
0.719047
 20
0.224389
 30
0.0
 11
0.717235
 21
0.225064
 31
0.0
  0
LINE
  8
0
  6
CONTINUOUS
 62
     7
  5
366
 10
0.717235
 20
0.225064
 30
0.0
 11
0.715427
 21
0.225737
 31
0.0
  0
LINE
  8
0
  6
CONTINUOUS
 62
     7
  5
367
 10
0.715427
 20
0.225737
 30
0.0
 11
0.713624
 21
0.226408
 31
0.0
  0
LINE
  8
0
  6
CONTINUOUS
 62
     7
  5
368
 10
0.713624
 20
0.226408
 30
0.0
 11
0.711824
 21
0.227078
 31
0.0
  0
LINE
  8
0
  6
CONTINUOUS
 62
     7
  5
369
 10
0.711824
 20
0.227078
 30
0.0
 11
0.710029
 21
0.227747
 31
0.0
  0
LINE
  8
0
  6
CONTINUOUS
 62
     7
  5
36A
 10
0.710029
 20
0.227747
 30
0.0
 11
0.708237
 21
0.228414
 31
0.0
  0
LINE
  8
0
  6
CONTINUOUS
 62
     7
  5
36B
 10
0.708237
 20
0.228414
 30
0.0
 11
0.70645
 21
0.229079
 31
0.0
  0
LINE
  8
0
  6
CONTINUOUS
 62
     7
  5
36C
 10
0.70645
 20
0.229079
 30
0.0
 11
0.704667
 21
0.229743
 31
0.0
  0
LINE
  8
0
  6
CONTINUOUS
 62
     7
  5
36D
 10
0.704667
 20
0.229743
 30
0.0
 11
0.702888
 21
0.230405
 31
0.0
  0
LINE
  8
0
  6
CONTINUOUS
 62
     7
  5
36E
 10
0.702888
 20
0.230405
 30
0.0
 11
0.701112
 21
0.231065
 31
0.0
  0
LINE
  8
0
  6
CONTINUOUS
 62
     7
  5
36F
 10
0.701112
 20
0.231065
 30
0.0
 11
0.699341
 21
0.231724
 31
0.0
  0
LINE
  8
0
  6
CONTINUOUS
 62
     7
  5
370
 10
0.699341
 20
0.231724
 30
0.0
 11
0.697574
 21
0.232382
 31
0.0
  0
LINE
  8
0
  6
CONTINUOUS
 62
     7
  5
371
 10
0.697574
 20
0.232382
 30
0.0
 11
0.695811
 21
0.233038
 31
0.0
  0
LINE
  8
0
  6
CONTINUOUS
 62
     7
  5
372
 10
0.695811
 20
0.233038
 30
0.0
 11
0.694052
 21
0.233692
 31
0.0
  0
LINE
  8
0
  6
CONTINUOUS
 62
     7
  5
373
 10
0.694052
 20
0.233692
 30
0.0
 11
0.692297
 21
0.234345
 31
0.0
  0
LINE
  8
0
  6
CONTINUOUS
 62
     7
  5
374
 10
0.692297
 20
0.234345
 30
0.0
 11
0.690545
 21
0.234996
 31
0.0
  0
LINE
  8
0
  6
CONTINUOUS
 62
     7
  5
375
 10
0.690545
 20
0.234996
 30
0.0
 11
0.688798
 21
0.235646
 31
0.0
  0
LINE
  8
0
  6
CONTINUOUS
 62
     7
  5
376
 10
0.688798
 20
0.235646
 30
0.0
 11
0.687055
 21
0.236295
 31
0.0
  0
LINE
  8
0
  6
CONTINUOUS
 62
     7
  5
377
 10
0.687055
 20
0.236295
 30
0.0
 11
0.685315
 21
0.236942
 31
0.0
  0
LINE
  8
0
  6
CONTINUOUS
 62
     7
  5
378
 10
0.685315
 20
0.236942
 30
0.0
 11
0.68358
 21
0.237587
 31
0.0
  0
LINE
  8
0
  6
CONTINUOUS
 62
     7
  5
379
 10
0.68358
 20
0.237587
 30
0.0
 11
0.681848
 21
0.238231
 31
0.0
  0
LINE
  8
0
  6
CONTINUOUS
 62
     7
  5
37A
 10
0.681848
 20
0.238231
 30
0.0
 11
0.68012
 21
0.238873
 31
0.0
  0
LINE
  8
0
  6
CONTINUOUS
 62
     7
  5
37B
 10
0.68012
 20
0.238873
 30
0.0
 11
0.678396
 21
0.239514
 31
0.0
  0
LINE
  8
0
  6
CONTINUOUS
 62
     7
  5
37C
 10
0.678396
 20
0.239514
 30
0.0
 11
0.676676
 21
0.240154
 31
0.0
  0
LINE
  8
0
  6
CONTINUOUS
 62
     7
  5
37D
 10
0.676676
 20
0.240154
 30
0.0
 11
0.67496
 21
0.240792
 31
0.0
  0
LINE
  8
0
  6
CONTINUOUS
 62
     7
  5
37E
 10
0.67496
 20
0.240792
 30
0.0
 11
0.673247
 21
0.241428
 31
0.0
  0
LINE
  8
0
  6
CONTINUOUS
 62
     7
  5
37F
 10
0.673247
 20
0.241428
 30
0.0
 11
0.671538
 21
0.242063
 31
0.0
  0
LINE
  8
0
  6
CONTINUOUS
 62
     7
  5
380
 10
0.671538
 20
0.242063
 30
0.0
 11
0.669834
 21
0.242697
 31
0.0
  0
LINE
  8
0
  6
CONTINUOUS
 62
     7
  5
381
 10
0.669834
 20
0.242697
 30
0.0
 11
0.668132
 21
0.243329
 31
0.0
  0
LINE
  8
0
  6
CONTINUOUS
 62
     7
  5
382
 10
0.775902
 20
0.177165
 30
0.0
 11
0.774894
 21
0.178997
 31
0.0
  0
LINE
  8
0
  6
CONTINUOUS
 62
     7
  5
383
 10
0.774894
 20
0.178997
 30
0.0
 11
0.773866
 21
0.18079
 31
0.0
  0
LINE
  8
0
  6
CONTINUOUS
 62
     7
  5
384
 10
0.773866
 20
0.18079
 30
0.0
 11
0.772822
 21
0.18254
 31
0.0
  0
LINE
  8
0
  6
CONTINUOUS
 62
     7
  5
385
 10
0.772822
 20
0.18254
 30
0.0
 11
0.771765
 21
0.184246
 31
0.0
  0
LINE
  8
0
  6
CONTINUOUS
 62
     7
  5
386
 10
0.771765
 20
0.184246
 30
0.0
 11
0.770696
 21
0.185905
 31
0.0
  0
LINE
  8
0
  6
CONTINUOUS
 62
     7
  5
387
 10
0.770696
 20
0.185905
 30
0.0
 11
0.76962
 21
0.187514
 31
0.0
  0
LINE
  8
0
  6
CONTINUOUS
 62
     7
  5
388
 10
0.76962
 20
0.187514
 30
0.0
 11
0.768539
 21
0.189071
 31
0.0
  0
LINE
  8
0
  6
CONTINUOUS
 62
     7
  5
389
 10
0.768539
 20
0.189071
 30
0.0
 11
0.767451
 21
0.190583
 31
0.0
  0
LINE
  8
0
  6
CONTINUOUS
 62
     7
  5
38A
 10
0.767451
 20
0.190583
 30
0.0
 11
0.766329
 21
0.192086
 31
0.0
  0
LINE
  8
0
  6
CONTINUOUS
 62
     7
  5
38B
 10
0.766329
 20
0.192086
 30
0.0
 11
0.76517
 21
0.19358
 31
0.0
  0
LINE
  8
0
  6
CONTINUOUS
 62
     7
  5
38C
 10
0.76517
 20
0.19358
 30
0.0
 11
0.763977
 21
0.195063
 31
0.0
  0
LINE
  8
0
  6
CONTINUOUS
 62
     7
  5
38D
 10
0.763977
 20
0.195063
 30
0.0
 11
0.762751
 21
0.19653
 31
0.0
  0
LINE
  8
0
  6
CONTINUOUS
 62
     7
  5
38E
 10
0.762751
 20
0.19653
 30
0.0
 11
0.761494
 21
0.197977
 31
0.0
  0
LINE
  8
0
  6
CONTINUOUS
 62
     7
  5
38F
 10
0.761494
 20
0.197977
 30
0.0
 11
0.760206
 21
0.1994
 31
0.0
  0
LINE
  8
0
  6
CONTINUOUS
 62
     7
  5
390
 10
0.760206
 20
0.1994
 30
0.0
 11
0.758892
 21
0.200797
 31
0.0
  0
LINE
  8
0
  6
CONTINUOUS
 62
     7
  5
391
 10
0.758892
 20
0.200797
 30
0.0
 11
0.757553
 21
0.202163
 31
0.0
  0
LINE
  8
0
  6
CONTINUOUS
 62
     7
  5
392
 10
0.757553
 20
0.202163
 30
0.0
 11
0.756191
 21
0.203496
 31
0.0
  0
LINE
  8
0
  6
CONTINUOUS
 62
     7
  5
393
 10
0.756191
 20
0.203496
 30
0.0
 11
0.75481
 21
0.204792
 31
0.0
  0
LINE
  8
0
  6
CONTINUOUS
 62
     7
  5
394
 10
0.75481
 20
0.204792
 30
0.0
 11
0.753411
 21
0.206049
 31
0.0
  0
LINE
  8
0
  6
CONTINUOUS
 62
     7
  5
395
 10
0.753411
 20
0.206049
 30
0.0
 11
0.751999
 21
0.207265
 31
0.0
  0
LINE
  8
0
  6
CONTINUOUS
 62
     7
  5
396
 10
0.751999
 20
0.207265
 30
0.0
 11
0.750575
 21
0.208438
 31
0.0
  0
LINE
  8
0
  6
CONTINUOUS
 62
     7
  5
397
 10
0.750575
 20
0.208438
 30
0.0
 11
0.749144
 21
0.209565
 31
0.0
  0
LINE
  8
0
  6
CONTINUOUS
 62
     7
  5
398
 10
0.749144
 20
0.209565
 30
0.0
 11
0.747707
 21
0.210646
 31
0.0
  0
LINE
  8
0
  6
CONTINUOUS
 62
     7
  5
399
 10
0.747707
 20
0.210646
 30
0.0
 11
0.746269
 21
0.211679
 31
0.0
  0
LINE
  8
0
  6
CONTINUOUS
 62
     7
  5
39A
 10
0.746269
 20
0.211679
 30
0.0
 11
0.744833
 21
0.212663
 31
0.0
  0
LINE
  8
0
  6
CONTINUOUS
 62
     7
  5
39B
 10
0.744833
 20
0.212663
 30
0.0
 11
0.743402
 21
0.213598
 31
0.0
  0
LINE
  8
0
  6
CONTINUOUS
 62
     7
  5
39C
 10
0.743402
 20
0.213598
 30
0.0
 11
0.741978
 21
0.214483
 31
0.0
  0
LINE
  8
0
  6
CONTINUOUS
 62
     7
  5
39D
 10
0.741978
 20
0.214483
 30
0.0
 11
0.740566
 21
0.215319
 31
0.0
  0
LINE
  8
0
  6
CONTINUOUS
 62
     7
  5
39E
 10
0.740566
 20
0.215319
 30
0.0
 11
0.739142
 21
0.216119
 31
0.0
  0
LINE
  8
0
  6
CONTINUOUS
 62
     7
  5
39F
 10
0.739142
 20
0.216119
 30
0.0
 11
0.737685
 21
0.216896
 31
0.0
  0
LINE
  8
0
  6
CONTINUOUS
 62
     7
  5
3A0
 10
0.737685
 20
0.216896
 30
0.0
 11
0.736199
 21
0.217644
 31
0.0
  0
LINE
  8
0
  6
CONTINUOUS
 62
     7
  5
3A1
 10
0.736199
 20
0.217644
 30
0.0
 11
0.734685
 21
0.218362
 31
0.0
  0
LINE
  8
0
  6
CONTINUOUS
 62
     7
  5
3A2
 10
0.734685
 20
0.218362
 30
0.0
 11
0.733146
 21
0.219047
 31
0.0
  0
LINE
  8
0
  6
CONTINUOUS
 62
     7
  5
3A3
 10
0.733146
 20
0.219047
 30
0.0
 11
0.731586
 21
0.219696
 31
0.0
  0
LINE
  8
0
  6
CONTINUOUS
 62
     7
  5
3A4
 10
0.731586
 20
0.219696
 30
0.0
 11
0.730007
 21
0.220307
 31
0.0
  0
LINE
  8
0
  6
CONTINUOUS
 62
     7
  5
3A5
 10
1.109968
 20
0.177165
 30
0.0
 11
0.775902
 21
0.177165
 31
0.0
  0
LINE
  8
0
  6
CONTINUOUS
 62
     7
  5
3A6
 10
-1.064073
 20
0.220307
 30
0.0
 11
-1.062236
 21
0.220991
 31
0.0
  0
LINE
  8
0
  6
CONTINUOUS
 62
     7
  5
3A7
 10
-1.062236
 20
0.220991
 30
0.0
 11
-1.060403
 21
0.221674
 31
0.0
  0
LINE
  8
0
  6
CONTINUOUS
 62
     7
  5
3A8
 10
-1.060403
 20
0.221674
 30
0.0
 11
-1.058574
 21
0.222355
 31
0.0
  0
LINE
  8
0
  6
CONTINUOUS
 62
     7
  5
3A9
 10
-1.058574
 20
0.222355
 30
0.0
 11
-1.05675
 21
0.223035
 31
0.0
  0
LINE
  8
0
  6
CONTINUOUS
 62
     7
  5
3AA
 10
-1.05675
 20
0.223035
 30
0.0
 11
-1.05493
 21
0.223713
 31
0.0
  0
LINE
  8
0
  6
CONTINUOUS
 62
     7
  5
3AB
 10
-1.05493
 20
0.223713
 30
0.0
 11
-1.053113
 21
0.224389
 31
0.0
  0
LINE
  8
0
  6
CONTINUOUS
 62
     7
  5
3AC
 10
-1.053113
 20
0.224389
 30
0.0
 11
-1.051301
 21
0.225064
 31
0.0
  0
LINE
  8
0
  6
CONTINUOUS
 62
     7
  5
3AD
 10
-1.051301
 20
0.225064
 30
0.0
 11
-1.049494
 21
0.225737
 31
0.0
  0
LINE
  8
0
  6
CONTINUOUS
 62
     7
  5
3AE
 10
-1.049494
 20
0.225737
 30
0.0
 11
-1.04769
 21
0.226408
 31
0.0
  0
LINE
  8
0
  6
CONTINUOUS
 62
     7
  5
3AF
 10
-1.04769
 20
0.226408
 30
0.0
 11
-1.04589
 21
0.227078
 31
0.0
  0
LINE
  8
0
  6
CONTINUOUS
 62
     7
  5
3B0
 10
-1.04589
 20
0.227078
 30
0.0
 11
-1.044095
 21
0.227747
 31
0.0
  0
LINE
  8
0
  6
CONTINUOUS
 62
     7
  5
3B1
 10
-1.044095
 20
0.227747
 30
0.0
 11
-1.042303
 21
0.228414
 31
0.0
  0
LINE
  8
0
  6
CONTINUOUS
 62
     7
  5
3B2
 10
-1.042303
 20
0.228414
 30
0.0
 11
-1.040516
 21
0.229079
 31
0.0
  0
LINE
  8
0
  6
CONTINUOUS
 62
     7
  5
3B3
 10
-1.040516
 20
0.229079
 30
0.0
 11
-1.038733
 21
0.229743
 31
0.0
  0
LINE
  8
0
  6
CONTINUOUS
 62
     7
  5
3B4
 10
-1.038733
 20
0.229743
 30
0.0
 11
-1.036954
 21
0.230405
 31
0.0
  0
LINE
  8
0
  6
CONTINUOUS
 62
     7
  5
3B5
 10
-1.036954
 20
0.230405
 30
0.0
 11
-1.035179
 21
0.231065
 31
0.0
  0
LINE
  8
0
  6
CONTINUOUS
 62
     7
  5
3B6
 10
-1.035179
 20
0.231065
 30
0.0
 11
-1.033407
 21
0.231724
 31
0.0
  0
LINE
  8
0
  6
CONTINUOUS
 62
     7
  5
3B7
 10
-1.033407
 20
0.231724
 30
0.0
 11
-1.03164
 21
0.232382
 31
0.0
  0
LINE
  8
0
  6
CONTINUOUS
 62
     7
  5
3B8
 10
-1.03164
 20
0.232382
 30
0.0
 11
-1.029877
 21
0.233038
 31
0.0
  0
LINE
  8
0
  6
CONTINUOUS
 62
     7
  5
3B9
 10
-1.029877
 20
0.233038
 30
0.0
 11
-1.028118
 21
0.233692
 31
0.0
  0
LINE
  8
0
  6
CONTINUOUS
 62
     7
  5
3BA
 10
-1.028118
 20
0.233692
 30
0.0
 11
-1.026363
 21
0.234345
 31
0.0
  0
LINE
  8
0
  6
CONTINUOUS
 62
     7
  5
3BB
 10
-1.026363
 20
0.234345
 30
0.0
 11
-1.024611
 21
0.234996
 31
0.0
  0
LINE
  8
0
  6
CONTINUOUS
 62
     7
  5
3BC
 10
-1.024611
 20
0.234996
 30
0.0
 11
-1.022864
 21
0.235646
 31
0.0
  0
LINE
  8
0
  6
CONTINUOUS
 62
     7
  5
3BD
 10
-1.022864
 20
0.235646
 30
0.0
 11
-1.021121
 21
0.236295
 31
0.0
  0
LINE
  8
0
  6
CONTINUOUS
 62
     7
  5
3BE
 10
-1.021121
 20
0.236295
 30
0.0
 11
-1.019381
 21
0.236942
 31
0.0
  0
LINE
  8
0
  6
CONTINUOUS
 62
     7
  5
3BF
 10
-1.019381
 20
0.236942
 30
0.0
 11
-1.017646
 21
0.237587
 31
0.0
  0
LINE
  8
0
  6
CONTINUOUS
 62
     7
  5
3C0
 10
-1.017646
 20
0.237587
 30
0.0
 11
-1.015914
 21
0.238231
 31
0.0
  0
LINE
  8
0
  6
CONTINUOUS
 62
     7
  5
3C1
 10
-1.015914
 20
0.238231
 30
0.0
 11
-1.014186
 21
0.238873
 31
0.0
  0
LINE
  8
0
  6
CONTINUOUS
 62
     7
  5
3C2
 10
-1.014186
 20
0.238873
 30
0.0
 11
-1.012462
 21
0.239514
 31
0.0
  0
LINE
  8
0
  6
CONTINUOUS
 62
     7
  5
3C3
 10
-1.012462
 20
0.239514
 30
0.0
 11
-1.010742
 21
0.240154
 31
0.0
  0
LINE
  8
0
  6
CONTINUOUS
 62
     7
  5
3C4
 10
-1.010742
 20
0.240154
 30
0.0
 11
-1.009026
 21
0.240792
 31
0.0
  0
LINE
  8
0
  6
CONTINUOUS
 62
     7
  5
3C5
 10
-1.009026
 20
0.240792
 30
0.0
 11
-1.007313
 21
0.241428
 31
0.0
  0
LINE
  8
0
  6
CONTINUOUS
 62
     7
  5
3C6
 10
-1.007313
 20
0.241428
 30
0.0
 11
-1.005605
 21
0.242063
 31
0.0
  0
LINE
  8
0
  6
CONTINUOUS
 62
     7
  5
3C7
 10
-1.005605
 20
0.242063
 30
0.0
 11
-1.0039
 21
0.242697
 31
0.0
  0
LINE
  8
0
  6
CONTINUOUS
 62
     7
  5
3C8
 10
-1.0039
 20
0.242697
 30
0.0
 11
-1.002199
 21
0.243329
 31
0.0
  0
LINE
  8
0
  6
CONTINUOUS
 62
     7
  5
3C9
 10
-0.598945
 20
0.290691
 30
0.0
 11
-0.599005
 21
0.289521
 31
0.0
  0
LINE
  8
0
  6
CONTINUOUS
 62
     7
  5
3CA
 10
-0.599005
 20
0.289521
 30
0.0
 11
-0.599186
 21
0.288325
 31
0.0
  0
LINE
  8
0
  6
CONTINUOUS
 62
     7
  5
3CB
 10
-0.599186
 20
0.288325
 30
0.0
 11
-0.59949
 21
0.287104
 31
0.0
  0
LINE
  8
0
  6
CONTINUOUS
 62
     7
  5
3CC
 10
-0.59949
 20
0.287104
 30
0.0
 11
-0.599918
 21
0.285859
 31
0.0
  0
LINE
  8
0
  6
CONTINUOUS
 62
     7
  5
3CD
 10
-0.599918
 20
0.285859
 30
0.0
 11
-0.600469
 21
0.284593
 31
0.0
  0
LINE
  8
0
  6
CONTINUOUS
 62
     7
  5
3CE
 10
-0.600469
 20
0.284593
 30
0.0
 11
-0.601146
 21
0.283307
 31
0.0
  0
LINE
  8
0
  6
CONTINUOUS
 62
     7
  5
3CF
 10
-0.601146
 20
0.283307
 30
0.0
 11
-0.601947
 21
0.282001
 31
0.0
  0
LINE
  8
0
  6
CONTINUOUS
 62
     7
  5
3D0
 10
-0.601947
 20
0.282001
 30
0.0
 11
-0.602872
 21
0.280679
 31
0.0
  0
LINE
  8
0
  6
CONTINUOUS
 62
     7
  5
3D1
 10
-0.602872
 20
0.280679
 30
0.0
 11
-0.603921
 21
0.27934
 31
0.0
  0
LINE
  8
0
  6
CONTINUOUS
 62
     7
  5
3D2
 10
-0.603921
 20
0.27934
 30
0.0
 11
-0.605092
 21
0.277988
 31
0.0
  0
LINE
  8
0
  6
CONTINUOUS
 62
     7
  5
3D3
 10
-0.605092
 20
0.277988
 30
0.0
 11
-0.606386
 21
0.276623
 31
0.0
  0
LINE
  8
0
  6
CONTINUOUS
 62
     7
  5
3D4
 10
-0.606386
 20
0.276623
 30
0.0
 11
-0.607799
 21
0.275246
 31
0.0
  0
LINE
  8
0
  6
CONTINUOUS
 62
     7
  5
3D5
 10
-0.607799
 20
0.275246
 30
0.0
 11
-0.609331
 21
0.27386
 31
0.0
  0
LINE
  8
0
  6
CONTINUOUS
 62
     7
  5
3D6
 10
-0.609331
 20
0.27386
 30
0.0
 11
-0.610979
 21
0.272466
 31
0.0
  0
LINE
  8
0
  6
CONTINUOUS
 62
     7
  5
3D7
 10
-0.610979
 20
0.272466
 30
0.0
 11
-0.612742
 21
0.271066
 31
0.0
  0
LINE
  8
0
  6
CONTINUOUS
 62
     7
  5
3D8
 10
-0.612742
 20
0.271066
 30
0.0
 11
-0.614616
 21
0.26966
 31
0.0
  0
LINE
  8
0
  6
CONTINUOUS
 62
     7
  5
3D9
 10
-0.614616
 20
0.26966
 30
0.0
 11
-0.616598
 21
0.268252
 31
0.0
  0
LINE
  8
0
  6
CONTINUOUS
 62
     7
  5
3DA
 10
-0.616598
 20
0.268252
 30
0.0
 11
-0.618685
 21
0.266842
 31
0.0
  0
LINE
  8
0
  6
CONTINUOUS
 62
     7
  5
3DB
 10
-0.618685
 20
0.266842
 30
0.0
 11
-0.620873
 21
0.265433
 31
0.0
  0
LINE
  8
0
  6
CONTINUOUS
 62
     7
  5
3DC
 10
-0.620873
 20
0.265433
 30
0.0
 11
-0.623159
 21
0.264026
 31
0.0
  0
LINE
  8
0
  6
CONTINUOUS
 62
     7
  5
3DD
 10
-0.623159
 20
0.264026
 30
0.0
 11
-0.625537
 21
0.262623
 31
0.0
  0
LINE
  8
0
  6
CONTINUOUS
 62
     7
  5
3DE
 10
-0.625537
 20
0.262623
 30
0.0
 11
-0.628003
 21
0.261225
 31
0.0
  0
LINE
  8
0
  6
CONTINUOUS
 62
     7
  5
3DF
 10
-0.628003
 20
0.261225
 30
0.0
 11
-0.630552
 21
0.259835
 31
0.0
  0
LINE
  8
0
  6
CONTINUOUS
 62
     7
  5
3E0
 10
-0.630552
 20
0.259835
 30
0.0
 11
-0.63318
 21
0.258454
 31
0.0
  0
LINE
  8
0
  6
CONTINUOUS
 62
     7
  5
3E1
 10
-0.63318
 20
0.258454
 30
0.0
 11
-0.635879
 21
0.257084
 31
0.0
  0
LINE
  8
0
  6
CONTINUOUS
 62
     7
  5
3E2
 10
-0.635879
 20
0.257084
 30
0.0
 11
-0.638647
 21
0.255726
 31
0.0
  0
LINE
  8
0
  6
CONTINUOUS
 62
     7
  5
3E3
 10
-0.638647
 20
0.255726
 30
0.0
 11
-0.641508
 21
0.254366
 31
0.0
  0
LINE
  8
0
  6
CONTINUOUS
 62
     7
  5
3E4
 10
-0.641508
 20
0.254366
 30
0.0
 11
-0.644476
 21
0.252999
 31
0.0
  0
LINE
  8
0
  6
CONTINUOUS
 62
     7
  5
3E5
 10
-0.644476
 20
0.252999
 30
0.0
 11
-0.647549
 21
0.251627
 31
0.0
  0
LINE
  8
0
  6
CONTINUOUS
 62
     7
  5
3E6
 10
-0.647549
 20
0.251627
 30
0.0
 11
-0.650727
 21
0.250249
 31
0.0
  0
LINE
  8
0
  6
CONTINUOUS
 62
     7
  5
3E7
 10
-0.650727
 20
0.250249
 30
0.0
 11
-0.654009
 21
0.248868
 31
0.0
  0
LINE
  8
0
  6
CONTINUOUS
 62
     7
  5
3E8
 10
-0.654009
 20
0.248868
 30
0.0
 11
-0.657392
 21
0.247484
 31
0.0
  0
LINE
  8
0
  6
CONTINUOUS
 62
     7
  5
3E9
 10
-0.657392
 20
0.247484
 30
0.0
 11
-0.660874
 21
0.246099
 31
0.0
  0
LINE
  8
0
  6
CONTINUOUS
 62
     7
  5
3EA
 10
-0.660874
 20
0.246099
 30
0.0
 11
-0.664455
 21
0.244714
 31
0.0
  0
LINE
  8
0
  6
CONTINUOUS
 62
     7
  5
3EB
 10
-0.664455
 20
0.244714
 30
0.0
 11
-0.668132
 21
0.243329
 31
0.0
  0
LINE
  8
0
  6
CONTINUOUS
 62
     7
  5
3EC
 10
-1.002199
 20
0.243329
 30
0.0
 11
-0.990877
 21
0.247428
 31
0.0
  0
LINE
  8
0
  6
CONTINUOUS
 62
     7
  5
3ED
 10
-0.990877
 20
0.247428
 30
0.0
 11
-0.979026
 21
0.251515
 31
0.0
  0
LINE
  8
0
  6
CONTINUOUS
 62
     7
  5
3EE
 10
-0.979026
 20
0.251515
 30
0.0
 11
-0.966754
 21
0.25556
 31
0.0
  0
LINE
  8
0
  6
CONTINUOUS
 62
     7
  5
3EF
 10
-0.966754
 20
0.25556
 30
0.0
 11
-0.953935
 21
0.25961
 31
0.0
  0
LINE
  8
0
  6
CONTINUOUS
 62
     7
  5
3F0
 10
-0.953935
 20
0.25961
 30
0.0
 11
-0.940308
 21
0.26374
 31
0.0
  0
LINE
  8
0
  6
CONTINUOUS
 62
     7
  5
3F1
 10
-0.940308
 20
0.26374
 30
0.0
 11
-0.925976
 21
0.267908
 31
0.0
  0
LINE
  8
0
  6
CONTINUOUS
 62
     7
  5
3F2
 10
-0.925976
 20
0.267908
 30
0.0
 11
-0.911062
 21
0.272068
 31
0.0
  0
LINE
  8
0
  6
CONTINUOUS
 62
     7
  5
3F3
 10
-0.911062
 20
0.272068
 30
0.0
 11
-0.895697
 21
0.276176
 31
0.0
  0
LINE
  8
0
  6
CONTINUOUS
 62
     7
  5
3F4
 10
-0.895697
 20
0.276176
 30
0.0
 11
-0.880014
 21
0.280191
 31
0.0
  0
LINE
  8
0
  6
CONTINUOUS
 62
     7
  5
3F5
 10
-0.880014
 20
0.280191
 30
0.0
 11
-0.864145
 21
0.284072
 31
0.0
  0
LINE
  8
0
  6
CONTINUOUS
 62
     7
  5
3F6
 10
-0.864145
 20
0.284072
 30
0.0
 11
-0.848238
 21
0.287781
 31
0.0
  0
LINE
  8
0
  6
CONTINUOUS
 62
     7
  5
3F7
 10
-0.848238
 20
0.287781
 30
0.0
 11
-0.83245
 21
0.29128
 31
0.0
  0
LINE
  8
0
  6
CONTINUOUS
 62
     7
  5
3F8
 10
-0.83245
 20
0.29128
 30
0.0
 11
-0.816938
 21
0.294534
 31
0.0
  0
LINE
  8
0
  6
CONTINUOUS
 62
     7
  5
3F9
 10
-0.816938
 20
0.294534
 30
0.0
 11
-0.801732
 21
0.297539
 31
0.0
  0
LINE
  8
0
  6
CONTINUOUS
 62
     7
  5
3FA
 10
-0.801732
 20
0.297539
 30
0.0
 11
-0.786324
 21
0.300385
 31
0.0
  0
LINE
  8
0
  6
CONTINUOUS
 62
     7
  5
3FB
 10
-0.786324
 20
0.300385
 30
0.0
 11
-0.770794
 21
0.303038
 31
0.0
  0
LINE
  8
0
  6
CONTINUOUS
 62
     7
  5
3FC
 10
-0.770794
 20
0.303038
 30
0.0
 11
-0.755327
 21
0.305444
 31
0.0
  0
LINE
  8
0
  6
CONTINUOUS
 62
     7
  5
3FD
 10
-0.755327
 20
0.305444
 30
0.0
 11
-0.740101
 21
0.307558
 31
0.0
  0
LINE
  8
0
  6
CONTINUOUS
 62
     7
  5
3FE
 10
-0.740101
 20
0.307558
 30
0.0
 11
-0.725277
 21
0.309346
 31
0.0
  0
LINE
  8
0
  6
CONTINUOUS
 62
     7
  5
3FF
 10
-0.725277
 20
0.309346
 30
0.0
 11
-0.710996
 21
0.310782
 31
0.0
  0
LINE
  8
0
  6
CONTINUOUS
 62
     7
  5
400
 10
-0.710996
 20
0.310782
 30
0.0
 11
-0.697396
 21
0.311849
 31
0.0
  0
LINE
  8
0
  6
CONTINUOUS
 62
     7
  5
401
 10
-0.697396
 20
0.311849
 30
0.0
 11
-0.68461
 21
0.31254
 31
0.0
  0
LINE
  8
0
  6
CONTINUOUS
 62
     7
  5
402
 10
-0.68461
 20
0.31254
 30
0.0
 11
-0.672747
 21
0.312862
 31
0.0
  0
LINE
  8
0
  6
CONTINUOUS
 62
     7
  5
403
 10
-0.672747
 20
0.312862
 30
0.0
 11
-0.661787
 21
0.312832
 31
0.0
  0
LINE
  8
0
  6
CONTINUOUS
 62
     7
  5
404
 10
-0.661787
 20
0.312832
 30
0.0
 11
-0.651385
 21
0.312447
 31
0.0
  0
LINE
  8
0
  6
CONTINUOUS
 62
     7
  5
405
 10
-0.651385
 20
0.312447
 30
0.0
 11
-0.641652
 21
0.311691
 31
0.0
  0
LINE
  8
0
  6
CONTINUOUS
 62
     7
  5
406
 10
-0.641652
 20
0.311691
 30
0.0
 11
-0.632734
 21
0.31056
 31
0.0
  0
LINE
  8
0
  6
CONTINUOUS
 62
     7
  5
407
 10
-0.632734
 20
0.31056
 30
0.0
 11
-0.624751
 21
0.309062
 31
0.0
  0
LINE
  8
0
  6
CONTINUOUS
 62
     7
  5
408
 10
-0.624751
 20
0.309062
 30
0.0
 11
-0.61779
 21
0.307215
 31
0.0
  0
LINE
  8
0
  6
CONTINUOUS
 62
     7
  5
409
 10
-0.61779
 20
0.307215
 30
0.0
 11
-0.611908
 21
0.305047
 31
0.0
  0
LINE
  8
0
  6
CONTINUOUS
 62
     7
  5
40A
 10
-0.611908
 20
0.305047
 30
0.0
 11
-0.607141
 21
0.302595
 31
0.0
  0
LINE
  8
0
  6
CONTINUOUS
 62
     7
  5
40B
 10
-0.607141
 20
0.302595
 30
0.0
 11
-0.603499
 21
0.299905
 31
0.0
  0
LINE
  8
0
  6
CONTINUOUS
 62
     7
  5
40C
 10
-0.603499
 20
0.299905
 30
0.0
 11
-0.600961
 21
0.297031
 31
0.0
  0
LINE
  8
0
  6
CONTINUOUS
 62
     7
  5
40D
 10
-0.600961
 20
0.297031
 30
0.0
 11
-0.599459
 21
0.29399
 31
0.0
  0
LINE
  8
0
  6
CONTINUOUS
 62
     7
  5
40E
 10
-0.599459
 20
0.29399
 30
0.0
 11
-0.598945
 21
0.290691
 31
0.0
  0
LINE
  8
0
  6
CONTINUOUS
 62
     7
  5
40F
 10
-0.668132
 20
0.243329
 30
0.0
 11
-0.669834
 21
0.242697
 31
0.0
  0
LINE
  8
0
  6
CONTINUOUS
 62
     7
  5
410
 10
-0.669834
 20
0.242697
 30
0.0
 11
-0.671538
 21
0.242063
 31
0.0
  0
LINE
  8
0
  6
CONTINUOUS
 62
     7
  5
411
 10
-0.671538
 20
0.242063
 30
0.0
 11
-0.673247
 21
0.241428
 31
0.0
  0
LINE
  8
0
  6
CONTINUOUS
 62
     7
  5
412
 10
-0.673247
 20
0.241428
 30
0.0
 11
-0.67496
 21
0.240792
 31
0.0
  0
LINE
  8
0
  6
CONTINUOUS
 62
     7
  5
413
 10
-0.67496
 20
0.240792
 30
0.0
 11
-0.676676
 21
0.240154
 31
0.0
  0
LINE
  8
0
  6
CONTINUOUS
 62
     7
  5
414
 10
-0.676676
 20
0.240154
 30
0.0
 11
-0.678396
 21
0.239514
 31
0.0
  0
LINE
  8
0
  6
CONTINUOUS
 62
     7
  5
415
 10
-0.678396
 20
0.239514
 30
0.0
 11
-0.68012
 21
0.238873
 31
0.0
  0
LINE
  8
0
  6
CONTINUOUS
 62
     7
  5
416
 10
-0.68012
 20
0.238873
 30
0.0
 11
-0.681848
 21
0.238231
 31
0.0
  0
LINE
  8
0
  6
CONTINUOUS
 62
     7
  5
417
 10
-0.681848
 20
0.238231
 30
0.0
 11
-0.68358
 21
0.237587
 31
0.0
  0
LINE
  8
0
  6
CONTINUOUS
 62
     7
  5
418
 10
-0.68358
 20
0.237587
 30
0.0
 11
-0.685315
 21
0.236942
 31
0.0
  0
LINE
  8
0
  6
CONTINUOUS
 62
     7
  5
419
 10
-0.685315
 20
0.236942
 30
0.0
 11
-0.687055
 21
0.236295
 31
0.0
  0
LINE
  8
0
  6
CONTINUOUS
 62
     7
  5
41A
 10
-0.687055
 20
0.236295
 30
0.0
 11
-0.688798
 21
0.235646
 31
0.0
  0
LINE
  8
0
  6
CONTINUOUS
 62
     7
  5
41B
 10
-0.688798
 20
0.235646
 30
0.0
 11
-0.690545
 21
0.234996
 31
0.0
  0
LINE
  8
0
  6
CONTINUOUS
 62
     7
  5
41C
 10
-0.690545
 20
0.234996
 30
0.0
 11
-0.692297
 21
0.234345
 31
0.0
  0
LINE
  8
0
  6
CONTINUOUS
 62
     7
  5
41D
 10
-0.692297
 20
0.234345
 30
0.0
 11
-0.694052
 21
0.233692
 31
0.0
  0
LINE
  8
0
  6
CONTINUOUS
 62
     7
  5
41E
 10
-0.694052
 20
0.233692
 30
0.0
 11
-0.695811
 21
0.233038
 31
0.0
  0
LINE
  8
0
  6
CONTINUOUS
 62
     7
  5
41F
 10
-0.695811
 20
0.233038
 30
0.0
 11
-0.697574
 21
0.232382
 31
0.0
  0
LINE
  8
0
  6
CONTINUOUS
 62
     7
  5
420
 10
-0.697574
 20
0.232382
 30
0.0
 11
-0.699341
 21
0.231724
 31
0.0
  0
LINE
  8
0
  6
CONTINUOUS
 62
     7
  5
421
 10
-0.699341
 20
0.231724
 30
0.0
 11
-0.701112
 21
0.231065
 31
0.0
  0
LINE
  8
0
  6
CONTINUOUS
 62
     7
  5
422
 10
-0.701112
 20
0.231065
 30
0.0
 11
-0.702888
 21
0.230405
 31
0.0
  0
LINE
  8
0
  6
CONTINUOUS
 62
     7
  5
423
 10
-0.702888
 20
0.230405
 30
0.0
 11
-0.704667
 21
0.229743
 31
0.0
  0
LINE
  8
0
  6
CONTINUOUS
 62
     7
  5
424
 10
-0.704667
 20
0.229743
 30
0.0
 11
-0.70645
 21
0.229079
 31
0.0
  0
LINE
  8
0
  6
CONTINUOUS
 62
     7
  5
425
 10
-0.70645
 20
0.229079
 30
0.0
 11
-0.708237
 21
0.228414
 31
0.0
  0
LINE
  8
0
  6
CONTINUOUS
 62
     7
  5
426
 10
-0.708237
 20
0.228414
 30
0.0
 11
-0.710029
 21
0.227747
 31
0.0
  0
LINE
  8
0
  6
CONTINUOUS
 62
     7
  5
427
 10
-0.710029
 20
0.227747
 30
0.0
 11
-0.711824
 21
0.227078
 31
0.0
  0
LINE
  8
0
  6
CONTINUOUS
 62
     7
  5
428
 10
-0.711824
 20
0.227078
 30
0.0
 11
-0.713624
 21
0.226408
 31
0.0
  0
LINE
  8
0
  6
CONTINUOUS
 62
     7
  5
429
 10
-0.713624
 20
0.226408
 30
0.0
 11
-0.715427
 21
0.225737
 31
0.0
  0
LINE
  8
0
  6
CONTINUOUS
 62
     7
  5
42A
 10
-0.715427
 20
0.225737
 30
0.0
 11
-0.717235
 21
0.225064
 31
0.0
  0
LINE
  8
0
  6
CONTINUOUS
 62
     7
  5
42B
 10
-0.717235
 20
0.225064
 30
0.0
 11
-0.719047
 21
0.224389
 31
0.0
  0
LINE
  8
0
  6
CONTINUOUS
 62
     7
  5
42C
 10
-0.719047
 20
0.224389
 30
0.0
 11
-0.720863
 21
0.223713
 31
0.0
  0
LINE
  8
0
  6
CONTINUOUS
 62
     7
  5
42D
 10
-0.720863
 20
0.223713
 30
0.0
 11
-0.722684
 21
0.223035
 31
0.0
  0
LINE
  8
0
  6
CONTINUOUS
 62
     7
  5
42E
 10
-0.722684
 20
0.223035
 30
0.0
 11
-0.724508
 21
0.222355
 31
0.0
  0
LINE
  8
0
  6
CONTINUOUS
 62
     7
  5
42F
 10
-0.724508
 20
0.222355
 30
0.0
 11
-0.726337
 21
0.221674
 31
0.0
  0
LINE
  8
0
  6
CONTINUOUS
 62
     7
  5
430
 10
-0.726337
 20
0.221674
 30
0.0
 11
-0.72817
 21
0.220991
 31
0.0
  0
LINE
  8
0
  6
CONTINUOUS
 62
     7
  5
431
 10
-0.72817
 20
0.220991
 30
0.0
 11
-0.730007
 21
0.220307
 31
0.0
  0
LINE
  8
0
  6
CONTINUOUS
 62
     7
  5
432
 10
-0.730007
 20
0.220307
 30
0.0
 11
-0.731586
 21
0.219696
 31
0.0
  0
LINE
  8
0
  6
CONTINUOUS
 62
     7
  5
433
 10
-0.731586
 20
0.219696
 30
0.0
 11
-0.733146
 21
0.219047
 31
0.0
  0
LINE
  8
0
  6
CONTINUOUS
 62
     7
  5
434
 10
-0.733146
 20
0.219047
 30
0.0
 11
-0.734685
 21
0.218362
 31
0.0
  0
LINE
  8
0
  6
CONTINUOUS
 62
     7
  5
435
 10
-0.734685
 20
0.218362
 30
0.0
 11
-0.736199
 21
0.217644
 31
0.0
  0
LINE
  8
0
  6
CONTINUOUS
 62
     7
  5
436
 10
-0.736199
 20
0.217644
 30
0.0
 11
-0.737685
 21
0.216896
 31
0.0
  0
LINE
  8
0
  6
CONTINUOUS
 62
     7
  5
437
 10
-0.737685
 20
0.216896
 30
0.0
 11
-0.739142
 21
0.216119
 31
0.0
  0
LINE
  8
0
  6
CONTINUOUS
 62
     7
  5
438
 10
-0.739142
 20
0.216119
 30
0.0
 11
-0.740566
 21
0.215319
 31
0.0
  0
LINE
  8
0
  6
CONTINUOUS
 62
     7
  5
439
 10
-0.740566
 20
0.215319
 30
0.0
 11
-0.741978
 21
0.214483
 31
0.0
  0
LINE
  8
0
  6
CONTINUOUS
 62
     7
  5
43A
 10
-0.741978
 20
0.214483
 30
0.0
 11
-0.743402
 21
0.213598
 31
0.0
  0
LINE
  8
0
  6
CONTINUOUS
 62
     7
  5
43B
 10
-0.743402
 20
0.213598
 30
0.0
 11
-0.744833
 21
0.212663
 31
0.0
  0
LINE
  8
0
  6
CONTINUOUS
 62
     7
  5
43C
 10
-0.744833
 20
0.212663
 30
0.0
 11
-0.746269
 21
0.211679
 31
0.0
  0
LINE
  8
0
  6
CONTINUOUS
 62
     7
  5
43D
 10
-0.746269
 20
0.211679
 30
0.0
 11
-0.747707
 21
0.210646
 31
0.0
  0
LINE
  8
0
  6
CONTINUOUS
 62
     7
  5
43E
 10
-0.747707
 20
0.210646
 30
0.0
 11
-0.749144
 21
0.209565
 31
0.0
  0
LINE
  8
0
  6
CONTINUOUS
 62
     7
  5
43F
 10
-0.749144
 20
0.209565
 30
0.0
 11
-0.750575
 21
0.208438
 31
0.0
  0
LINE
  8
0
  6
CONTINUOUS
 62
     7
  5
440
 10
-0.750575
 20
0.208438
 30
0.0
 11
-0.751999
 21
0.207265
 31
0.0
  0
LINE
  8
0
  6
CONTINUOUS
 62
     7
  5
441
 10
-0.751999
 20
0.207265
 30
0.0
 11
-0.753411
 21
0.206049
 31
0.0
  0
LINE
  8
0
  6
CONTINUOUS
 62
     7
  5
442
 10
-0.753411
 20
0.206049
 30
0.0
 11
-0.75481
 21
0.204792
 31
0.0
  0
LINE
  8
0
  6
CONTINUOUS
 62
     7
  5
443
 10
-0.75481
 20
0.204792
 30
0.0
 11
-0.756191
 21
0.203496
 31
0.0
  0
LINE
  8
0
  6
CONTINUOUS
 62
     7
  5
444
 10
-0.756191
 20
0.203496
 30
0.0
 11
-0.757553
 21
0.202163
 31
0.0
  0
LINE
  8
0
  6
CONTINUOUS
 62
     7
  5
445
 10
-0.757553
 20
0.202163
 30
0.0
 11
-0.758892
 21
0.200797
 31
0.0
  0
LINE
  8
0
  6
CONTINUOUS
 62
     7
  5
446
 10
-0.758892
 20
0.200797
 30
0.0
 11
-0.760206
 21
0.1994
 31
0.0
  0
LINE
  8
0
  6
CONTINUOUS
 62
     7
  5
447
 10
-0.760206
 20
0.1994
 30
0.0
 11
-0.761494
 21
0.197977
 31
0.0
  0
LINE
  8
0
  6
CONTINUOUS
 62
     7
  5
448
 10
-0.761494
 20
0.197977
 30
0.0
 11
-0.762751
 21
0.19653
 31
0.0
  0
LINE
  8
0
  6
CONTINUOUS
 62
     7
  5
449
 10
-0.762751
 20
0.19653
 30
0.0
 11
-0.763977
 21
0.195063
 31
0.0
  0
LINE
  8
0
  6
CONTINUOUS
 62
     7
  5
44A
 10
-0.763977
 20
0.195063
 30
0.0
 11
-0.76517
 21
0.19358
 31
0.0
  0
LINE
  8
0
  6
CONTINUOUS
 62
     7
  5
44B
 10
-0.76517
 20
0.19358
 30
0.0
 11
-0.766329
 21
0.192086
 31
0.0
  0
LINE
  8
0
  6
CONTINUOUS
 62
     7
  5
44C
 10
-0.766329
 20
0.192086
 30
0.0
 11
-0.767451
 21
0.190583
 31
0.0
  0
LINE
  8
0
  6
CONTINUOUS
 62
     7
  5
44D
 10
-0.767451
 20
0.190583
 30
0.0
 11
-0.768539
 21
0.189071
 31
0.0
  0
LINE
  8
0
  6
CONTINUOUS
 62
     7
  5
44E
 10
-0.768539
 20
0.189071
 30
0.0
 11
-0.76962
 21
0.187514
 31
0.0
  0
LINE
  8
0
  6
CONTINUOUS
 62
     7
  5
44F
 10
-0.76962
 20
0.187514
 30
0.0
 11
-0.770696
 21
0.185905
 31
0.0
  0
LINE
  8
0
  6
CONTINUOUS
 62
     7
  5
450
 10
-0.770696
 20
0.185905
 30
0.0
 11
-0.771765
 21
0.184246
 31
0.0
  0
LINE
  8
0
  6
CONTINUOUS
 62
     7
  5
451
 10
-0.771765
 20
0.184246
 30
0.0
 11
-0.772822
 21
0.18254
 31
0.0
  0
LINE
  8
0
  6
CONTINUOUS
 62
     7
  5
452
 10
-0.772822
 20
0.18254
 30
0.0
 11
-0.773866
 21
0.18079
 31
0.0
  0
LINE
  8
0
  6
CONTINUOUS
 62
     7
  5
453
 10
-0.773866
 20
0.18079
 30
0.0
 11
-0.774894
 21
0.178997
 31
0.0
  0
LINE
  8
0
  6
CONTINUOUS
 62
     7
  5
454
 10
-0.774894
 20
0.178997
 30
0.0
 11
-0.775902
 21
0.177165
 31
0.0
  0
LINE
  8
0
  6
CONTINUOUS
 62
     7
  5
455
 10
-0.775902
 20
0.177165
 30
0.0
 11
-1.109968
 21
0.177165
 31
0.0
  0
LINE
  8
0
  6
CONTINUOUS
 62
     7
  5
456
 10
-1.109968
 20
0.177165
 30
0.0
 11
-1.10896
 21
0.178997
 31
0.0
  0
LINE
  8
0
  6
CONTINUOUS
 62
     7
  5
457
 10
-1.10896
 20
0.178997
 30
0.0
 11
-1.107932
 21
0.18079
 31
0.0
  0
LINE
  8
0
  6
CONTINUOUS
 62
     7
  5
458
 10
-1.107932
 20
0.18079
 30
0.0
 11
-1.106888
 21
0.18254
 31
0.0
  0
LINE
  8
0
  6
CONTINUOUS
 62
     7
  5
459
 10
-1.106888
 20
0.18254
 30
0.0
 11
-1.105831
 21
0.184246
 31
0.0
  0
LINE
  8
0
  6
CONTINUOUS
 62
     7
  5
45A
 10
-1.105831
 20
0.184246
 30
0.0
 11
-1.104762
 21
0.185905
 31
0.0
  0
LINE
  8
0
  6
CONTINUOUS
 62
     7
  5
45B
 10
-1.104762
 20
0.185905
 30
0.0
 11
-1.103686
 21
0.187514
 31
0.0
  0
LINE
  8
0
  6
CONTINUOUS
 62
     7
  5
45C
 10
-1.103686
 20
0.187514
 30
0.0
 11
-1.102605
 21
0.189071
 31
0.0
  0
LINE
  8
0
  6
CONTINUOUS
 62
     7
  5
45D
 10
-1.102605
 20
0.189071
 30
0.0
 11
-1.101517
 21
0.190583
 31
0.0
  0
LINE
  8
0
  6
CONTINUOUS
 62
     7
  5
45E
 10
-1.101517
 20
0.190583
 30
0.0
 11
-1.100395
 21
0.192086
 31
0.0
  0
LINE
  8
0
  6
CONTINUOUS
 62
     7
  5
45F
 10
-1.100395
 20
0.192086
 30
0.0
 11
-1.099237
 21
0.19358
 31
0.0
  0
LINE
  8
0
  6
CONTINUOUS
 62
     7
  5
460
 10
-1.099237
 20
0.19358
 30
0.0
 11
-1.098044
 21
0.195063
 31
0.0
  0
LINE
  8
0
  6
CONTINUOUS
 62
     7
  5
461
 10
-1.098044
 20
0.195063
 30
0.0
 11
-1.096817
 21
0.19653
 31
0.0
  0
LINE
  8
0
  6
CONTINUOUS
 62
     7
  5
462
 10
-1.096817
 20
0.19653
 30
0.0
 11
-1.09556
 21
0.197977
 31
0.0
  0
LINE
  8
0
  6
CONTINUOUS
 62
     7
  5
463
 10
-1.09556
 20
0.197977
 30
0.0
 11
-1.094273
 21
0.1994
 31
0.0
  0
LINE
  8
0
  6
CONTINUOUS
 62
     7
  5
464
 10
-1.094273
 20
0.1994
 30
0.0
 11
-1.092958
 21
0.200797
 31
0.0
  0
LINE
  8
0
  6
CONTINUOUS
 62
     7
  5
465
 10
-1.092958
 20
0.200797
 30
0.0
 11
-1.091619
 21
0.202163
 31
0.0
  0
LINE
  8
0
  6
CONTINUOUS
 62
     7
  5
466
 10
-1.091619
 20
0.202163
 30
0.0
 11
-1.090257
 21
0.203496
 31
0.0
  0
LINE
  8
0
  6
CONTINUOUS
 62
     7
  5
467
 10
-1.090257
 20
0.203496
 30
0.0
 11
-1.088876
 21
0.204792
 31
0.0
  0
LINE
  8
0
  6
CONTINUOUS
 62
     7
  5
468
 10
-1.088876
 20
0.204792
 30
0.0
 11
-1.087478
 21
0.206049
 31
0.0
  0
LINE
  8
0
  6
CONTINUOUS
 62
     7
  5
469
 10
-1.087478
 20
0.206049
 30
0.0
 11
-1.086065
 21
0.207265
 31
0.0
  0
LINE
  8
0
  6
CONTINUOUS
 62
     7
  5
46A
 10
-1.086065
 20
0.207265
 30
0.0
 11
-1.084642
 21
0.208438
 31
0.0
  0
LINE
  8
0
  6
CONTINUOUS
 62
     7
  5
46B
 10
-1.084642
 20
0.208438
 30
0.0
 11
-1.08321
 21
0.209565
 31
0.0
  0
LINE
  8
0
  6
CONTINUOUS
 62
     7
  5
46C
 10
-1.08321
 20
0.209565
 30
0.0
 11
-1.081774
 21
0.210646
 31
0.0
  0
LINE
  8
0
  6
CONTINUOUS
 62
     7
  5
46D
 10
-1.081774
 20
0.210646
 30
0.0
 11
-1.080336
 21
0.211679
 31
0.0
  0
LINE
  8
0
  6
CONTINUOUS
 62
     7
  5
46E
 10
-1.080336
 20
0.211679
 30
0.0
 11
-1.078899
 21
0.212663
 31
0.0
  0
LINE
  8
0
  6
CONTINUOUS
 62
     7
  5
46F
 10
-1.078899
 20
0.212663
 30
0.0
 11
-1.077468
 21
0.213598
 31
0.0
  0
LINE
  8
0
  6
CONTINUOUS
 62
     7
  5
470
 10
-1.077468
 20
0.213598
 30
0.0
 11
-1.076044
 21
0.214483
 31
0.0
  0
LINE
  8
0
  6
CONTINUOUS
 62
     7
  5
471
 10
-1.076044
 20
0.214483
 30
0.0
 11
-1.074632
 21
0.215319
 31
0.0
  0
LINE
  8
0
  6
CONTINUOUS
 62
     7
  5
472
 10
-1.074632
 20
0.215319
 30
0.0
 11
-1.073208
 21
0.216119
 31
0.0
  0
LINE
  8
0
  6
CONTINUOUS
 62
     7
  5
473
 10
-1.073208
 20
0.216119
 30
0.0
 11
-1.071751
 21
0.216896
 31
0.0
  0
LINE
  8
0
  6
CONTINUOUS
 62
     7
  5
474
 10
-1.071751
 20
0.216896
 30
0.0
 11
-1.070265
 21
0.217644
 31
0.0
  0
LINE
  8
0
  6
CONTINUOUS
 62
     7
  5
475
 10
-1.070265
 20
0.217644
 30
0.0
 11
-1.068751
 21
0.218362
 31
0.0
  0
LINE
  8
0
  6
CONTINUOUS
 62
     7
  5
476
 10
-1.068751
 20
0.218362
 30
0.0
 11
-1.067213
 21
0.219047
 31
0.0
  0
LINE
  8
0
  6
CONTINUOUS
 62
     7
  5
477
 10
-1.067213
 20
0.219047
 30
0.0
 11
-1.065652
 21
0.219696
 31
0.0
  0
LINE
  8
0
  6
CONTINUOUS
 62
     7
  5
478
 10
-1.065652
 20
0.219696
 30
0.0
 11
-1.064073
 21
0.220307
 31
0.0
  0
LINE
  8
0
  6
CONTINUOUS
 62
     7
  5
479
 10
0.330709
 20
0.905512
 30
0.0
 11
-0.330709
 21
0.905512
 31
0.0
  0
LINE
  8
0
  6
CONTINUOUS
 62
     7
  5
47A
 10
1.377953
 20
0.0
 30
0.0
 11
-1.377953
 21
0.0
 31
0.0
  0
LINE
  8
0
  6
CONTINUOUS
 62
     7
  5
47B
 10
-0.314961
 20
15.098394
 30
0.0
 11
-0.314961
 21
0.905512
 31
0.0
  0
LINE
  8
0
  6
CONTINUOUS
 62
     7
  5
47C
 10
0.314961
 20
0.905512
 30
0.0
 11
0.314961
 21
15.098394
 31
0.0
  0
ARC
  8
0
  6
CONTINUOUS
 62
     7
  5
47D
 10
-0.88189
 20
15.224378
 30
0.0
 40
0.503937
 50
0.0
 51
90.0
  0
ARC
  8
0
  6
CONTINUOUS
 62
     7
  5
47E
 10
0.88189
 20
15.224378
 30
0.0
 40
0.503937
 50
90.0
 51
180.0
  0
LINE
  8
0
  6
CONTINUOUS
 62
     7
  5
47F
 10
-0.377953
 20
15.224378
 30
0.0
 11
-0.377953
 21
15.136189
 31
0.0
  0
LINE
  8
0
  6
CONTINUOUS
 62
     7
  5
480
 10
0.377953
 20
15.136189
 30
0.0
 11
0.377953
 21
15.224378
 31
0.0
  0
LINE
  8
0
  6
CONTINUOUS
 62
     7
  5
481
 10
-0.377953
 20
15.136189
 30
0.0
 11
-0.356132
 21
15.098394
 31
0.0
  0
LINE
  8
0
  6
CONTINUOUS
 62
     7
  5
482
 10
0.356132
 20
15.098394
 30
0.0
 11
0.377953
 21
15.136189
 31
0.0
  0
LINE
  8
0
  6
CONTINUOUS
 62
     7
  5
483
 10
1.115118
 20
16.397606
 30
0.0
 11
1.115118
 21
16.870047
 31
0.0
  0
LINE
  8
0
  6
CONTINUOUS
 62
     7
  5
484
 10
-1.115118
 20
16.870047
 30
0.0
 11
-1.115118
 21
16.397606
 31
0.0
  0
LINE
  8
0
  6
CONTINUOUS
 62
     7
  5
485
 10
-1.208661
 20
15.78737
 30
0.0
 11
-1.149606
 21
15.728315
 31
0.0
  0
LINE
  8
0
  6
CONTINUOUS
 62
     7
  5
486
 10
1.149606
 20
15.728315
 30
0.0
 11
1.208661
 21
15.78737
 31
0.0
  0
LINE
  8
0
  6
CONTINUOUS
 62
     7
  5
487
 10
-1.208661
 20
16.397606
 30
0.0
 11
-1.208661
 21
15.78737
 31
0.0
  0
LINE
  8
0
  6
CONTINUOUS
 62
     7
  5
488
 10
1.208661
 20
15.78737
 30
0.0
 11
1.208661
 21
16.397606
 31
0.0
  0
LINE
  8
0
  6
CONTINUOUS
 62
     7
  5
489
 10
1.059362
 20
17.224378
 30
0.0
 11
1.059362
 21
17.326346
 31
0.0
  0
LINE
  8
0
  6
CONTINUOUS
 62
     7
  5
48A
 10
-1.059362
 20
17.326346
 30
0.0
 11
-1.059362
 21
17.224378
 31
0.0
  0
LINE
  8
0
  6
CONTINUOUS
 62
     7
  5
48B
 10
1.113969
 20
17.106268
 30
0.0
 11
1.113969
 21
17.224378
 31
0.0
  0
LINE
  8
0
  6
CONTINUOUS
 62
     7
  5
48C
 10
1.092126
 20
16.870047
 30
0.0
 11
1.092126
 21
17.106268
 31
0.0
  0
LINE
  8
0
  6
CONTINUOUS
 62
     7
  5
48D
 10
-1.092126
 20
17.224378
 30
0.0
 11
-1.092126
 21
16.870047
 31
0.0
  0
LINE
  8
0
  6
CONTINUOUS
 62
     7
  5
48E
 10
1.290412
 20
0.220307
 30
0.0
 11
0.680873
 21
0.383632
 31
0.0
  0
LINE
  8
0
  6
CONTINUOUS
 62
     7
  5
48F
 10
-0.680873
 20
0.383632
 30
0.0
 11
-1.290412
 21
0.220307
 31
0.0
  0
ARC
  8
0
  6
CONTINUOUS
 62
     7
  5
490
 10
-1.259843
 20
0.106221
 30
0.0
 40
0.11811
 50
105.0
 51
180.0
  0
ARC
  8
0
  6
CONTINUOUS
 62
     7
  5
491
 10
1.259843
 20
0.106221
 30
0.0
 40
0.11811
 50
0.0
 51
75.0
  0
LINE
  8
0
  6
CONTINUOUS
 62
     7
  5
492
 10
0.330709
 20
0.839975
 30
0.0
 11
0.330709
 21
0.905512
 31
0.0
  0
LINE
  8
0
  6
CONTINUOUS
 62
     7
  5
493
 10
-0.330709
 20
0.905512
 30
0.0
 11
-0.330709
 21
0.839975
 31
0.0
  0
ARC
  8
0
  6
CONTINUOUS
 62
     7
  5
494
 10
-0.80315
 20
0.839975
 30
0.0
 40
0.472441
 50
285.0
 51
0.0
  0
ARC
  8
0
  6
CONTINUOUS
 62
     7
  5
495
 10
0.80315
 20
0.839975
 30
0.0
 40
0.472441
 50
180.0
 51
255.0
  0
LINE
  8
0
  6
CONTINUOUS
 62
     7
  5
496
 10
1.377953
 20
0.0
 30
0.0
 11
1.377953
 21
0.106221
 31
0.0
  0
LINE
  8
0
  6
CONTINUOUS
 62
     7
  5
497
 10
-1.377953
 20
0.106221
 30
0.0
 11
-1.377953
 21
0.0
 31
0.0
  0
LINE
  8
0
  6
CONTINUOUS
 62
     3
  5
498
 10
0.0
 20
-0.118
 30
0.0
 11
0.0
 21
17.336543
 31
0.0
  0
LINE
  8
0
  6
CONTINUOUS
 62
     3
  5
499
 10
0.835165
 20
-0.017717
 30
0.0
 11
0.835165
 21
0.194882
 31
0.0
  0
LINE
  8
0
  6
CONTINUOUS
 62
     3
  5
49A
 10
-0.835165
 20
-0.017717
 30
0.0
 11
-0.835165
 21
0.194882
 31
0.0
  0
ENDSEC
  0
EOF
