999
DXF file: C:\Users\sesa63760\Dev\_Creo\CAD\MCADID0003886_3D-CAD\drw0001_5.dxf
999
Pro/ENGINEER 2019471 by Parametric Technology Corporation
  0
SECTION
  2
HEADER
  9
$ACADVER
  1
AC1024
  9
$DWGCODEPAGE
  3
ANSI_1252
  9
$EXTMAX
 10
54.3695781343
 20
76.8941176471
 30
0.0
  9
$EXTMIN
 10
0.0
 20
0.0
 30
0.0
  9
$LIMMIN
 10
0.0
 20
0.0
  9
$LIMMAX
 10
54.3695781343
 20
76.8941176471
  9
$VIEWCTR
 10
27.1847890671
 20
38.4470588235
  9
$VIEWSIZE
 40
76.8941176471
  9
$CLAYER
  8
0
  9
$LTSCALE
 40
5.0123572985
  9
$CELTYPE
  6
BYLAYER
  9
$DIMSCALE
 40
1.0
  9
$DIMASZ
 40
0.6472568826
  9
$DIMEXO
 40
1.0
  9
$DIMDLI
 40
3.4630832244
  9
$DIMEXE
 40
1.0
  9
$DIMCEN
 40
0.8202039216
  9
$DIMLFAC
 40
1.0
  9
$DIMBLK
  1
_FILLED
  9
$DIMALT
 70
0
  9
$DIMALTF
 40
0.0393700787
  9
$DIMTXT
 40
0.9061596356
  9
$DIMTOL
 70
1
  9
$DIMLIM
 70
0
  9
$DIMTFAC
 40
1.0
  9
$DIMTP
 40
0.01
  9
$DIMTM
 40
0.01
  9
$DIMGAP
 40
0.625
  9
$DIMDSEP
 70
46
  9
$AUNITS
 70
0
  9
$PDMODE
 70
3
  9
$PDSIZE
 40
0.3125
  9
$HANDSEED
  5
2FE
  9
$TILEMODE
 70
1
  9
$MEASUREMENT
 70
1
  9
$INSUNITS
 70
4
  0
ENDSEC
  0
SECTION
  2
CLASSES
  0
CLASS
  1
ACDBDICTIONARYWDFLT
  2
AcDbDictionaryWithDefault
  3
AutoCAD 2000
 90
0
 91
1
280
0
281
0
  0
CLASS
  1
ACDBPLACEHOLDER
  2
AcDbPlaceHolder
  3
AutoCAD 2000
 90
0
 91
1
280
0
281
0
  0
CLASS
  1
LAYOUT
  2
AcDbLayout
  3
AutoCAD 2000
 90
0
 91
0
280
0
281
0
  0
ENDSEC
  0
SECTION
  2
TABLES
  0
TABLE
  2
VPORT
  5
8
100
AcDbSymbolTable
 70
2
  0
VPORT
  5
1F4
100
AcDbSymbolTableRecord
100
AcDbViewportTableRecord
  2
*ACTIVE
 70
0
 10
0.0
 20
0.0
 11
1.0
 21
1.0
 12
27.1847890671
 22
38.4470588235
 13
0.0
 23
0.0
 14
1.0
 24
1.0
 15
0.0
 25
0.0
 16
0.0
 26
0.0
 36
1.0
 17
0.0
 27
0.0
 37
0.0
 40
76.8941176471
 41
0.7070707071
 42
50.0
 43
0.0
 44
0.0
 50
0.0
 51
0.0
 71
0
 72
100
 73
1
 74
1
 75
0
 76
0
 77
0
 78
0
  0
ENDTAB
  0
TABLE
  2
LTYPE
  5
5
100
AcDbSymbolTable
 70
6
  0
LTYPE
  5
14
100
AcDbSymbolTableRecord
100
AcDbLinetypeTableRecord
  2
BYBLOCK
 70
0
  3

 72
65
 73
0
 40
0.0
  0
LTYPE
  5
15
100
AcDbSymbolTableRecord
100
AcDbLinetypeTableRecord
  2
BYLAYER
 70
0
  3

 72
65
 73
0
 40
0.0
  0
LTYPE
  5
16
100
AcDbSymbolTableRecord
100
AcDbLinetypeTableRecord
  2
CONTINUOUS
 70
64
  3
Solid line
 72
65
 73
0
 40
0.0
  0
LTYPE
  5
1F5
100
AcDbSymbolTableRecord
100
AcDbLinetypeTableRecord
  2
CENTER
 70
64
  3
____ _ ____ _ ____ _ ____ _ ____ _ ____ _ ____
 72
65
 73
4
 40
0.6
 49
0.375
 74
0
 49
-0.075
 74
0
 49
0.075
 74
0
 49
-0.075
 74
0
  0
LTYPE
  5
1F6
100
AcDbSymbolTableRecord
100
AcDbLinetypeTableRecord
  2
HIDDEN
 70
64
  3
- - - - - - - - - - - - - - - - - - - -
 72
65
 73
2
 40
0.2
 49
0.1
 74
0
 49
-0.1
 74
0
  0
LTYPE
  5
1F7
100
AcDbSymbolTableRecord
100
AcDbLinetypeTableRecord
  2
PHANTOM
 70
64
  3
_____ _ _ _____ _ _ _____ _ _ _____
 72
65
 73
6
 40
0.8
 49
0.45
 74
0
 49
-0.05
 74
0
 49
0.1
 74
0
 49
-0.05
 74
0
 49
0.1
 74
0
 49
-0.05
 74
0
  0
LTYPE
  5
1F8
100
AcDbSymbolTableRecord
100
AcDbLinetypeTableRecord
  2
DOT
 70
64
  3
. . . . . . . . . . . . . . . . . . . .
 72
65
 73
2
 40
0.2
 49
0.1
 74
0
 49
-0.1
 74
0
  0
LTYPE
  5
1F9
100
AcDbSymbolTableRecord
100
AcDbLinetypeTableRecord
  2
DASHED
 70
64
  3
- - - - - - - - - - - - - - - - - - - -
 72
65
 73
2
 40
0.2
 49
0.1
 74
0
 49
-0.1
 74
0
  0
ENDTAB
  0
TABLE
  2
LAYER
  5
2
100
AcDbSymbolTable
 70
36
  0
LAYER
  5
10
100
AcDbSymbolTableRecord
100
AcDbLayerTableRecord
  2
0
 70
0
 62
7
  6
CONTINUOUS
370
-3
390
F
  0
LAYER
  5
1FA
100
AcDbSymbolTableRecord
100
AcDbLayerTableRecord
  2
DEFAULT_1
 70
0
 62
7
  6
CENTER
370
-3
390
F
  0
LAYER
  5
1FB
100
AcDbSymbolTableRecord
100
AcDbLayerTableRecord
  2
DEFAULT_2
 70
0
 62
7
  6
HIDDEN
370
-3
390
F
  0
LAYER
  5
1FC
100
AcDbSymbolTableRecord
100
AcDbLayerTableRecord
  2
DEFAULT_3
 70
0
 62
7
  6
PHANTOM
370
-3
390
F
  0
LAYER
  5
1FD
100
AcDbSymbolTableRecord
100
AcDbLayerTableRecord
  2
00_COMPONENTS
 70
0
 62
7
  6
CONTINUOUS
370
-3
390
F
  0
LAYER
  5
1FE
100
AcDbSymbolTableRecord
100
AcDbLayerTableRecord
  2
01_1_DEFAULT_DATUMS
 70
0
 62
7
  6
CONTINUOUS
370
-3
390
F
  0
LAYER
  5
1FF
100
AcDbSymbolTableRecord
100
AcDbLayerTableRecord
  2
01_PLANES
 70
0
 62
7
  6
CONTINUOUS
370
-3
390
F
  0
LAYER
  5
200
100
AcDbSymbolTableRecord
100
AcDbLayerTableRecord
  2
02_COORD_SYS
 70
0
 62
7
  6
CONTINUOUS
370
-3
390
F
  0
LAYER
  5
201
100
AcDbSymbolTableRecord
100
AcDbLayerTableRecord
  2
03_AXES
 70
0
 62
7
  6
CONTINUOUS
370
-3
390
F
  0
LAYER
  5
202
100
AcDbSymbolTableRecord
100
AcDbLayerTableRecord
  2
04_POINTS
 70
0
 62
7
  6
CONTINUOUS
370
-3
390
F
  0
LAYER
  5
203
100
AcDbSymbolTableRecord
100
AcDbLayerTableRecord
  2
05_CURVES
 70
0
 62
7
  6
CONTINUOUS
370
-3
390
F
  0
LAYER
  5
204
100
AcDbSymbolTableRecord
100
AcDbLayerTableRecord
  2
06_SURFS
 70
0
 62
7
  6
CONTINUOUS
370
-3
390
F
  0
LAYER
  5
205
100
AcDbSymbolTableRecord
100
AcDbLayerTableRecord
  2
07_COSMETICS
 70
0
 62
7
  6
CONTINUOUS
370
-3
390
F
  0
LAYER
  5
206
100
AcDbSymbolTableRecord
100
AcDbLayerTableRecord
  2
10_NOTES
 70
0
 62
7
  6
CONTINUOUS
370
-3
390
F
  0
LAYER
  5
207
100
AcDbSymbolTableRecord
100
AcDbLayerTableRecord
  2
11_NOTES_PUB
 70
0
 62
7
  6
CONTINUOUS
370
-3
390
F
  0
LAYER
  5
208
100
AcDbSymbolTableRecord
100
AcDbLayerTableRecord
  2
13_REF_GTOL
 70
0
 62
7
  6
CONTINUOUS
370
-3
390
F
  0
LAYER
  5
209
100
AcDbSymbolTableRecord
100
AcDbLayerTableRecord
  2
16_MISC
 70
0
 62
7
  6
CONTINUOUS
370
-3
390
F
  0
LAYER
  5
20A
100
AcDbSymbolTableRecord
100
AcDbLayerTableRecord
  2
17_NO_PRINT
 70
0
 62
7
  6
CONTINUOUS
370
-3
390
F
  0
LAYER
  5
20B
100
AcDbSymbolTableRecord
100
AcDbLayerTableRecord
  2
18_DATUM_CAMS_JOINTS
 70
0
 62
7
  6
CONTINUOUS
370
-3
390
F
  0
LAYER
  5
20C
100
AcDbSymbolTableRecord
100
AcDbLayerTableRecord
  2
19_DATUM_FUNCTIONAL
 70
0
 62
7
  6
CONTINUOUS
370
-3
390
F
  0
LAYER
  5
20D
100
AcDbSymbolTableRecord
100
AcDbLayerTableRecord
  2
20_DATUM_KINEMATIC_SCHEME
 70
0
 62
7
  6
CONTINUOUS
370
-3
390
F
  0
ENDTAB
  0
TABLE
  2
STYLE
  5
3
100
AcDbSymbolTable
 70
1
  0
STYLE
  5
11
100
AcDbSymbolTableRecord
100
AcDbTextStyleTableRecord
  2
STANDARD
 70
0
 40
0.0
 41
1.0
 50
0.0
 71
0
 42
0.2
  3
ARIAL.TTF
  4

  0
STYLE
  5
20E
100
AcDbSymbolTableRecord
100
AcDbTextStyleTableRecord
  2
TEXTSTYLE_1
 70
0
 40
0.0
 41
0.8
 50
0.0
 71
0
 42
0.2
  3
gdt
  4

  0
ENDTAB
  0
TABLE
  2
VIEW
  5
6
100
AcDbSymbolTable
 70
0
  0
ENDTAB
  0
TABLE
  2
UCS
  5
7
100
AcDbSymbolTable
 70
0
  0
ENDTAB
  0
TABLE
  2
APPID
  5
9
100
AcDbSymbolTable
 70
1
  0
APPID
  5
20F
100
AcDbSymbolTableRecord
100
AcDbRegAppTableRecord
  2
ACAD
 70
0
  0
ENDTAB
  0
TABLE
  2
BLOCK_RECORD
  5
1
100
AcDbSymbolTable
 70
0
  0
BLOCK_RECORD
  5
210
100
AcDbSymbolTableRecord
100
AcDbBlockTableRecord
  2
*Model_Space
  0
BLOCK_RECORD
  5
211
100
AcDbSymbolTableRecord
100
AcDbBlockTableRecord
  2
*Paper_Space
  0
BLOCK_RECORD
  5
212
100
AcDbSymbolTableRecord
100
AcDbBlockTableRecord
  2
_FILLED
  0
ENDTAB
  0
TABLE
  2
DIMSTYLE
  5
A
100
AcDbSymbolTable
 70
1
100
AcDbDimStyleTable
 71
0
  0
DIMSTYLE
105
213
100
AcDbSymbolTableRecord
100
AcDbDimStyleTableRecord
  2
STANDARD
 70
0
  3

  4

 40
1.0
 41
0.6472568826
 42
1.0
 43
0.38
 44
1.0
 45
0.0
 46
0.0
 47
0.01
 48
0.01
140
0.9061596356
141
0.09
142
0.0
143
25.4
144
1.0
145
0.0
146
1.0
147
0.625
 71
1
 72
0
 73
0
 74
0
 75
0
 76
0
 77
1
 78
8
 79
2
170
0
171
1
172
0
173
0
174
0
175
0
176
0
177
0
178
0
270
2
179
2
271
2
272
2
273
2
274
2
275
0
280
0
281
0
282
0
283
1
284
8
285
0
286
0
287
3
288
0
340
11
278
46
341
212
342
212
343
212
344
212
  0
ENDTAB
  0
ENDSEC
  0
SECTION
  2
BLOCKS
  0
BLOCK
  5
20
100
AcDbEntity
  8
0
100
AcDbBlockBegin
  2
*Model_Space
 70
0
 10
0.0
 20
0.0
 30
0.0
  3
*Model_Space
  1

  0
ENDBLK
  5
21
100
AcDbEntity
  8
0
100
AcDbBlockEnd
  0
BLOCK
  5
1C
100
AcDbEntity
  8
0
100
AcDbBlockBegin
  2
*Paper_Space
 70
0
 10
0.0
 20
0.0
 30
0.0
  3
*Paper_Space
  1

  0
ENDBLK
  5
1D
100
AcDbEntity
  8
0
100
AcDbBlockEnd
  0
BLOCK
  5
214
100
AcDbEntity
  8
0
100
AcDbBlockBegin
  2
_FILLED
 70
64
 10
0.0
 20
0.0
  3
_FILLED
  1

  0
SOLID
  5
215
100
AcDbEntity
  8
0
  6
BYBLOCK
 62
0
100
AcDbTrace
 10
0.0
 20
0.0
 11
-1.0
 21
0.25
 12
-1.0
 22
-0.25
 13
-1.0
 23
-0.25
  0
ENDBLK
  5
216
100
AcDbEntity
  8
0
  6
BYBLOCK
 62
0
100
AcDbBlockEnd
  0
ENDSEC
  0
SECTION
  2
ENTITIES
  0
LINE
  5
217
100
AcDbEntity
  8
0
100
AcDbLine
 62
7
  6
BYLAYER
 10
6.3377302436
 20
35.4911765001
 11
6.3377302436
 21
41.5911709053
  0
LINE
  5
218
100
AcDbEntity
  8
0
100
AcDbLine
 62
7
  6
BYLAYER
 10
6.5377302436
 20
35.3411764706
 11
6.5377302436
 21
41.7411764706
  0
LINE
  5
219
100
AcDbEntity
  8
0
100
AcDbLine
 62
7
  6
BYLAYER
 10
6.7377302436
 20
34.7413672228
 11
6.7377302436
 21
42.3411545879
  0
LINE
  5
21A
100
AcDbEntity
  8
0
100
AcDbLine
 62
7
  6
BYLAYER
 10
6.9377302436
 20
34.5411764706
 11
6.9377302436
 21
42.5411764706
  0
LINE
  5
21B
100
AcDbEntity
  8
0
100
AcDbLine
 62
7
  6
BYLAYER
 10
9.3377302436
 20
32.0411786634
 11
9.3377302436
 21
45.0411742778
  0
LINE
  5
21C
100
AcDbEntity
  8
0
100
AcDbLine
 62
7
  6
BYLAYER
 10
9.3377302436
 20
45.0411764706
 11
9.8100336517
 21
45.8592299701
  0
LINE
  5
21D
100
AcDbEntity
  8
0
100
AcDbLine
 62
7
  6
BYLAYER
 10
9.3377302436
 20
32.0411764706
 11
9.8100336517
 21
31.2231229711
  0
LINE
  5
21E
100
AcDbEntity
  8
0
100
AcDbLine
 62
7
  6
BYLAYER
 10
6.7377302436
 20
42.3411764706
 11
6.9377302436
 21
42.5411764706
  0
LINE
  5
21F
100
AcDbEntity
  8
0
100
AcDbLine
 62
7
  6
BYLAYER
 10
6.7377302436
 20
34.7411764706
 11
6.9377302436
 21
34.5411764706
  0
LINE
  5
220
100
AcDbEntity
  8
0
100
AcDbLine
 62
7
  6
BYLAYER
 10
13.3377302436
 20
45.0411742778
 11
13.3377302436
 21
32.0411786634
  0
LINE
  5
221
100
AcDbEntity
  8
0
100
AcDbLine
 62
7
  6
BYLAYER
 10
14.0377302436
 20
44.1575762041
 11
14.0377302436
 21
43.8435457632
  0
LINE
  5
222
100
AcDbEntity
  8
0
100
AcDbLine
 62
7
  6
BYLAYER
 10
14.0377302436
 20
43.6837770831
 11
14.0377302436
 21
43.4489407673
  0
LINE
  5
223
100
AcDbEntity
  8
0
100
AcDbLine
 62
7
  6
BYLAYER
 10
14.0377302436
 20
43.0776346914
 11
14.0377302436
 21
42.8248541674
  0
LINE
  5
224
100
AcDbEntity
  8
0
100
AcDbLine
 62
7
  6
BYLAYER
 10
14.0377302436
 20
42.2593725552
 11
14.0377302436
 21
42.0004675594
  0
LINE
  5
225
100
AcDbEntity
  8
0
100
AcDbLine
 62
7
  6
BYLAYER
 10
14.0377302436
 20
41.2672517025
 11
14.0377302436
 21
41.0143283449
  0
LINE
  5
226
100
AcDbEntity
  8
0
100
AcDbLine
 62
7
  6
BYLAYER
 10
14.0377302436
 20
40.1476626019
 11
14.0377302436
 21
39.9125472973
  0
LINE
  5
227
100
AcDbEntity
  8
0
100
AcDbLine
 62
7
  6
BYLAYER
 10
14.0377302436
 20
38.9529559952
 11
14.0377302436
 21
38.7375284495
  0
LINE
  5
228
100
AcDbEntity
  8
0
100
AcDbLine
 62
7
  6
BYLAYER
 10
14.0377302436
 20
37.7481090603
 11
14.0377302436
 21
37.5260931809
  0
LINE
  5
229
100
AcDbEntity
  8
0
100
AcDbLine
 62
7
  6
BYLAYER
 10
14.0377302436
 20
36.6075802965
 11
14.0377302436
 21
36.3621220788
  0
LINE
  5
22A
100
AcDbEntity
  8
0
100
AcDbLine
 62
7
  6
BYLAYER
 10
14.0377302436
 20
35.5574643407
 11
14.0377302436
 21
35.3000411381
  0
LINE
  5
22B
100
AcDbEntity
  8
0
100
AcDbLine
 62
7
  6
BYLAYER
 10
14.0377302436
 20
34.646863448
 11
14.0377302436
 21
34.3895120834
  0
LINE
  5
22C
100
AcDbEntity
  8
0
100
AcDbLine
 62
7
  6
BYLAYER
 10
14.0377302436
 20
33.9183563039
 11
14.0377302436
 21
33.6731102412
  0
LINE
  5
22D
100
AcDbEntity
  8
0
100
AcDbLine
 62
7
  6
BYLAYER
 10
14.0377302436
 20
33.406007093
 11
14.0377302436
 21
33.1843337653
  0
LINE
  5
22E
100
AcDbEntity
  8
0
100
AcDbLine
 62
7
  6
BYLAYER
 10
14.0377302436
 20
33.1337726949
 11
14.0377302436
 21
32.9460373007
  0
LINE
  5
22F
100
AcDbEntity
  8
0
100
AcDbLine
 62
7
  6
BYLAYER
 10
17.3377302436
 20
45.0411764706
 11
17.8100336517
 21
45.8592299701
  0
LINE
  5
230
100
AcDbEntity
  8
0
100
AcDbLine
 62
7
  6
BYLAYER
 10
17.3377302436
 20
32.0411764706
 11
17.8100336517
 21
31.2231229711
  0
LINE
  5
231
100
AcDbEntity
  8
0
100
AcDbLine
 62
7
  6
BYLAYER
 10
16.6377302436
 20
32.9460373007
 11
16.6377302436
 21
33.1337726949
  0
LINE
  5
232
100
AcDbEntity
  8
0
100
AcDbLine
 62
7
  6
BYLAYER
 10
16.6377302436
 20
33.1843337653
 11
16.6377302436
 21
33.406007093
  0
LINE
  5
233
100
AcDbEntity
  8
0
100
AcDbLine
 62
7
  6
BYLAYER
 10
16.6377302436
 20
33.6731102412
 11
16.6377302436
 21
33.9183563039
  0
LINE
  5
234
100
AcDbEntity
  8
0
100
AcDbLine
 62
7
  6
BYLAYER
 10
16.6377302436
 20
34.3895120834
 11
16.6377302436
 21
34.646863448
  0
LINE
  5
235
100
AcDbEntity
  8
0
100
AcDbLine
 62
7
  6
BYLAYER
 10
16.6377302436
 20
35.3000411381
 11
16.6377302436
 21
35.5574643407
  0
LINE
  5
236
100
AcDbEntity
  8
0
100
AcDbLine
 62
7
  6
BYLAYER
 10
16.6377302436
 20
36.3621220788
 11
16.6377302436
 21
36.6075802965
  0
LINE
  5
237
100
AcDbEntity
  8
0
100
AcDbLine
 62
7
  6
BYLAYER
 10
16.6377302436
 20
37.5260931809
 11
16.6377302436
 21
37.7481090603
  0
LINE
  5
238
100
AcDbEntity
  8
0
100
AcDbLine
 62
7
  6
BYLAYER
 10
16.6377302436
 20
38.7375284495
 11
16.6377302436
 21
38.9529559952
  0
LINE
  5
239
100
AcDbEntity
  8
0
100
AcDbLine
 62
7
  6
BYLAYER
 10
16.6377302436
 20
39.9125472973
 11
16.6377302436
 21
40.1476626019
  0
LINE
  5
23A
100
AcDbEntity
  8
0
100
AcDbLine
 62
7
  6
BYLAYER
 10
16.6377302436
 20
41.0143283449
 11
16.6377302436
 21
41.2672517025
  0
LINE
  5
23B
100
AcDbEntity
  8
0
100
AcDbLine
 62
7
  6
BYLAYER
 10
16.6377302436
 20
42.0004675594
 11
16.6377302436
 21
42.2593725552
  0
LINE
  5
23C
100
AcDbEntity
  8
0
100
AcDbLine
 62
7
  6
BYLAYER
 10
16.6377302436
 20
42.8248541674
 11
16.6377302436
 21
43.0776346914
  0
LINE
  5
23D
100
AcDbEntity
  8
0
100
AcDbLine
 62
7
  6
BYLAYER
 10
16.6377302436
 20
43.4489407673
 11
16.6377302436
 21
43.6837770831
  0
LINE
  5
23E
100
AcDbEntity
  8
0
100
AcDbLine
 62
7
  6
BYLAYER
 10
16.6377302436
 20
43.8435457632
 11
16.6377302436
 21
44.1575762041
  0
LINE
  5
23F
100
AcDbEntity
  8
0
100
AcDbLine
 62
7
  6
BYLAYER
 10
17.3377302436
 20
32.0411786634
 11
17.3377302436
 21
45.0411742778
  0
LINE
  5
240
100
AcDbEntity
  8
0
100
AcDbLine
 62
7
  6
BYLAYER
 10
13.3377302436
 20
32.0411764706
 11
12.8654268355
 21
31.2231229711
  0
LINE
  5
241
100
AcDbEntity
  8
0
100
AcDbLine
 62
7
  6
BYLAYER
 10
13.3377302436
 20
45.0411764706
 11
12.8654268355
 21
45.8592299701
  0
LINE
  5
242
100
AcDbEntity
  8
0
100
AcDbLine
 62
7
  6
BYLAYER
 10
17.1377302436
 20
32.7897663091
 11
17.3377302436
 21
32.7361764706
  0
LINE
  5
243
100
AcDbEntity
  8
0
100
AcDbLine
 62
7
  6
BYLAYER
 10
21.3377302436
 20
45.0411742778
 11
21.3377302436
 21
32.0411786634
  0
LINE
  5
244
100
AcDbEntity
  8
0
100
AcDbLine
 62
7
  6
BYLAYER
 10
12.84112814
 20
31.1856229711
 11
9.8343323472
 21
31.1856229711
  0
LINE
  5
245
100
AcDbEntity
  8
0
100
AcDbLine
 62
7
  6
BYLAYER
 10
17.8343323472
 20
31.1856229711
 11
20.8411281919
 21
31.1856229711
  0
LINE
  5
246
100
AcDbEntity
  8
0
100
AcDbLine
 62
7
  6
BYLAYER
 10
12.894058564
 20
31.2856229711
 11
9.7814020236
 21
31.2856229711
  0
LINE
  5
247
100
AcDbEntity
  8
0
100
AcDbLine
 62
7
  6
BYLAYER
 10
17.7814019232
 20
31.2856229711
 11
20.8940580256
 21
31.2856229711
  0
LINE
  5
248
100
AcDbEntity
  8
0
100
AcDbLine
 62
7
  6
BYLAYER
 10
12.8940585559
 20
34.5383997209
 11
9.7814024668
 21
34.5383997209
  0
LINE
  5
249
100
AcDbEntity
  8
0
100
AcDbLine
 62
7
  6
BYLAYER
 10
17.7814019313
 20
34.5383997209
 11
20.894058456
 21
34.5383997209
  0
LINE
  5
24A
100
AcDbEntity
  8
0
100
AcDbLine
 62
7
  6
BYLAYER
 10
6.9377302436
 20
34.5411764706
 11
9.3377302436
 21
34.5411764706
  0
LINE
  5
24B
100
AcDbEntity
  8
0
100
AcDbLine
 62
7
  6
BYLAYER
 10
14.0377302436
 20
34.5411764706
 11
16.6377302436
 21
34.5411764706
  0
LINE
  5
24C
100
AcDbEntity
  8
0
100
AcDbLine
 62
7
  6
BYLAYER
 10
21.3377302436
 20
34.5411764706
 11
30.3377302436
 21
34.5411764706
  0
LINE
  5
24D
100
AcDbEntity
  8
0
100
AcDbLine
 62
7
  6
BYLAYER
 10
12.8411279879
 20
35.0883997209
 11
9.834332488
 21
35.0883997209
  0
LINE
  5
24E
100
AcDbEntity
  8
0
100
AcDbLine
 62
7
  6
BYLAYER
 10
17.8343324993
 20
35.0883997209
 11
20.8411279879
 21
35.0883997209
  0
LINE
  5
24F
100
AcDbEntity
  8
0
100
AcDbLine
 62
7
  6
BYLAYER
 10
6.405429928
 20
35.3411764706
 11
6.7377302436
 21
35.3411764706
  0
LINE
  5
250
100
AcDbEntity
  8
0
100
AcDbLine
 62
7
  6
BYLAYER
 10
31.3377302436
 20
35.5411764706
 11
37.2377302436
 21
35.5411764706
  0
LINE
  5
251
100
AcDbEntity
  8
0
100
AcDbLine
 62
7
  6
BYLAYER
 10
37.3377302436
 20
35.5411764706
 11
39.3377302436
 21
35.5411764706
  0
LINE
  5
252
100
AcDbEntity
  8
0
100
AcDbLine
 62
7
  6
BYLAYER
 10
37.2377302436
 20
35.5911764706
 11
37.3377302436
 21
35.5911764706
  0
LINE
  5
253
100
AcDbEntity
  8
0
100
AcDbLine
 62
7
  6
BYLAYER
 10
21.3377302436
 20
32.0411764706
 11
20.8654268355
 21
31.2231229711
  0
LINE
  5
254
100
AcDbEntity
  8
0
100
AcDbLine
 62
7
  6
BYLAYER
 10
13.5377302436
 20
32.7897663091
 11
13.3377302436
 21
32.7361764706
  0
LINE
  5
255
100
AcDbEntity
  8
0
100
AcDbLine
 62
7
  6
BYLAYER
 10
49.5377302436
 20
36.0411764706
 11
39.5377302436
 21
36.0411764706
  0
LINE
  5
256
100
AcDbEntity
  8
0
100
AcDbLine
 62
7
  6
BYLAYER
 10
21.3377302436
 20
45.0411764706
 11
20.8654268355
 21
45.8592299701
  0
LINE
  5
257
100
AcDbEntity
  8
0
100
AcDbLine
 62
7
  6
BYLAYER
 10
49.5377302436
 20
38.0411764706
 11
39.5377302436
 21
38.0411764706
  0
LINE
  5
258
100
AcDbEntity
  8
0
100
AcDbLine
 62
7
  6
BYLAYER
 10
30.3377302436
 20
42.5411764706
 11
30.3377302436
 21
34.5411764706
  0
LINE
  5
259
100
AcDbEntity
  8
0
100
AcDbLine
 62
7
  6
BYLAYER
 10
37.2377302436
 20
41.4911764706
 11
37.3377302436
 21
41.4911764706
  0
LINE
  5
25A
100
AcDbEntity
  8
0
100
AcDbLine
 62
7
  6
BYLAYER
 10
31.3377302436
 20
41.5411764706
 11
37.2377302436
 21
41.5411764706
  0
LINE
  5
25B
100
AcDbEntity
  8
0
100
AcDbLine
 62
7
  6
BYLAYER
 10
37.3377302436
 20
41.5411764706
 11
39.3377302436
 21
41.5411764706
  0
LINE
  5
25C
100
AcDbEntity
  8
0
100
AcDbLine
 62
7
  6
BYLAYER
 10
6.405429928
 20
41.7411764706
 11
6.7377302436
 21
41.7411764706
  0
LINE
  5
25D
100
AcDbEntity
  8
0
100
AcDbLine
 62
7
  6
BYLAYER
 10
14.0377302436
 20
44.1586120359
 11
13.3377302436
 21
44.3461764706
  0
LINE
  5
25E
100
AcDbEntity
  8
0
100
AcDbLine
 62
7
  6
BYLAYER
 10
31.3377302436
 20
35.5411764706
 11
31.3377302436
 21
41.5411764706
  0
LINE
  5
25F
100
AcDbEntity
  8
0
100
AcDbLine
 62
7
  6
BYLAYER
 10
31.3377302436
 20
35.5411764706
 11
30.3377302436
 21
34.5411764706
  0
LINE
  5
260
100
AcDbEntity
  8
0
100
AcDbLine
 62
7
  6
BYLAYER
 10
12.8411279879
 20
41.9939532203
 11
9.8343324993
 21
41.9939532203
  0
LINE
  5
261
100
AcDbEntity
  8
0
100
AcDbLine
 62
7
  6
BYLAYER
 10
17.8343324993
 20
41.9939532203
 11
20.8411279992
 21
41.9939532203
  0
LINE
  5
262
100
AcDbEntity
  8
0
100
AcDbLine
 62
7
  6
BYLAYER
 10
6.9377302436
 20
42.5411764706
 11
9.3377302436
 21
42.5411764706
  0
LINE
  5
263
100
AcDbEntity
  8
0
100
AcDbLine
 62
7
  6
BYLAYER
 10
13.7336036661
 20
42.5411764706
 11
16.9418607162
 21
42.5411764706
  0
LINE
  5
264
100
AcDbEntity
  8
0
100
AcDbLine
 62
7
  6
BYLAYER
 10
21.3377302436
 20
42.5411764706
 11
30.3377302436
 21
42.5411764706
  0
LINE
  5
265
100
AcDbEntity
  8
0
100
AcDbLine
 62
7
  6
BYLAYER
 10
12.894058564
 20
42.5439532203
 11
9.7814020236
 21
42.5439532203
  0
LINE
  5
266
100
AcDbEntity
  8
0
100
AcDbLine
 62
7
  6
BYLAYER
 10
17.7814019232
 20
42.5439532203
 11
20.894058564
 21
42.5439532203
  0
LINE
  5
267
100
AcDbEntity
  8
0
100
AcDbLine
 62
7
  6
BYLAYER
 10
31.3377302436
 20
41.5411764706
 11
30.3377302436
 21
42.5411764706
  0
LINE
  5
268
100
AcDbEntity
  8
0
100
AcDbLine
 62
7
  6
BYLAYER
 10
12.8940585559
 20
45.7967299701
 11
9.7814019313
 21
45.7967299701
  0
LINE
  5
269
100
AcDbEntity
  8
0
100
AcDbLine
 62
7
  6
BYLAYER
 10
17.7814019313
 20
45.7967299701
 11
20.894058456
 21
45.7967299701
  0
LINE
  5
26A
100
AcDbEntity
  8
0
100
AcDbLine
 62
7
  6
BYLAYER
 10
12.8411281424
 20
45.8967299701
 11
9.8343322928
 21
45.8967299701
  0
LINE
  5
26B
100
AcDbEntity
  8
0
100
AcDbLine
 62
7
  6
BYLAYER
 10
17.8343323448
 20
45.8967299701
 11
20.8411279719
 21
45.8967299701
  0
LINE
  5
26C
100
AcDbEntity
  8
0
100
AcDbLine
 62
7
  6
BYLAYER
 10
37.2377302436
 20
41.5410002132
 11
37.2377302436
 21
35.541352728
  0
LINE
  5
26D
100
AcDbEntity
  8
0
100
AcDbLine
 62
7
  6
BYLAYER
 10
16.6377302436
 20
44.1586120359
 11
17.3377302436
 21
44.3461764706
  0
LINE
  5
26E
100
AcDbEntity
  8
0
100
AcDbLine
 62
7
  6
BYLAYER
 10
37.3377302436
 20
35.5413678078
 11
37.3377302436
 21
41.541068683
  0
LINE
  5
26F
100
AcDbEntity
  8
0
100
AcDbLine
 62
7
  6
BYLAYER
 10
39.3377302436
 20
41.5411764706
 11
39.3377302436
 21
35.5411764706
  0
LINE
  5
270
100
AcDbEntity
  8
0
100
AcDbLine
 62
7
  6
BYLAYER
 10
39.5377302436
 20
41.3410281522
 11
39.5377302436
 21
35.7413247889
  0
LINE
  5
271
100
AcDbEntity
  8
0
100
AcDbLine
 62
7
  6
BYLAYER
 10
49.5377302436
 20
38.0411707399
 11
49.5377302436
 21
36.0411822013
  0
ARC
  5
272
100
AcDbEntity
  8
0
100
AcDbCircle
 62
7
  6
BYLAYER
 10
4.807767132
 20
34.0377430376
 40
8.101775491
100
AcDbArc
 50
3.5429028467
 51
7.4512326396
  0
ARC
  5
273
100
AcDbEntity
  8
0
100
AcDbCircle
 62
7
  6
BYLAYER
 10
17.8674046263
 20
43.0445805949
 40
8.1014854106
100
AcDbArc
 50
183.5428221895
 51
187.4512919074
  0
ARC
  5
274
100
AcDbEntity
  8
0
100
AcDbCircle
 62
7
  6
BYLAYER
 10
12.8238242786
 20
43.0430630864
 40
8.0856533725
100
AcDbArc
 50
352.5448801324
 51
356.4610057708
  0
ARC
  5
275
100
AcDbEntity
  8
0
100
AcDbCircle
 62
7
  6
BYLAYER
 10
25.8516022545
 20
34.0392916037
 40
8.0856194672
100
AcDbArc
 50
172.5448611917
 51
176.4610033282
  0
ARC
  5
276
100
AcDbEntity
  8
0
100
AcDbCircle
 62
7
  6
BYLAYER
 10
12.8370810681
 20
34.0405295883
 40
8.0723481174
100
AcDbArc
 50
3.5360198596
 51
7.4586035213
  0
ARC
  5
277
100
AcDbEntity
  8
0
100
AcDbCircle
 62
7
  6
BYLAYER
 10
25.8383253042
 20
43.0418199738
 40
8.072294006
100
AcDbArc
 50
183.5360195631
 51
187.4586296099
  0
ARC
  5
278
100
AcDbEntity
  8
0
100
AcDbCircle
 62
7
  6
BYLAYER
 10
4.8723748674
 20
43.0383923411
 40
8.0369073263
100
AcDbArc
 50
352.532987711
 51
356.4728751368
  0
ARC
  5
279
100
AcDbEntity
  8
0
100
AcDbCircle
 62
7
  6
BYLAYER
 10
17.8024566747
 20
34.0440228674
 40
8.036275634
100
AcDbArc
 50
172.5328451604
 51
176.4730423221
  0
ARC
  5
27A
100
AcDbEntity
  8
0
100
AcDbCircle
 62
7
  6
BYLAYER
 10
6.5377302436
 20
35.4911764706
 40
0.2
100
AcDbArc
 50
180.0
 51
228.5903778907
  0
ARC
  5
27B
100
AcDbEntity
  8
0
100
AcDbCircle
 62
7
  6
BYLAYER
 10
6.5377302436
 20
41.5911764706
 40
0.2
100
AcDbArc
 50
131.4096221093
 51
180.0
  0
ARC
  5
27C
100
AcDbEntity
  8
0
100
AcDbCircle
 62
7
  6
BYLAYER
 10
39.3377302436
 20
41.3411764706
 40
0.2
100
AcDbArc
 50
0.0
 51
90.0
  0
ARC
  5
27D
100
AcDbEntity
  8
0
100
AcDbCircle
 62
7
  6
BYLAYER
 10
39.3377302436
 20
35.7411764706
 40
0.2
100
AcDbArc
 50
270.0
 51
360.0
  0
SPLINE
  5
27E
100
AcDbEntity
  8
0
100
AcDbSpline
 62
7
  6
BYLAYER
 70
0
 71
3
 72
9
 73
5
 74
0
 42
0.0000001
 43
0.0000001
 44
0.0000000001
 40
0.0
 40
0.0
 40
0.0
 40
0.0
 40
0.2442056597
 40
1.0
 40
1.0
 40
1.0
 40
1.0
 10
20.8654346318
 20
45.8592300618
 30
0.0
 10
20.8636167361
 20
45.8623819729
 30
0.0
 10
20.8559956131
 20
45.8751863832
 30
0.0
 10
20.8476971788
 20
45.8875833601
 30
0.0
 10
20.8411281944
 20
45.8967299701
 30
0.0
  0
SPLINE
  5
27F
100
AcDbEntity
  8
0
100
AcDbSpline
 62
7
  6
BYLAYER
 70
0
 71
3
 72
9
 73
5
 74
0
 42
0.0000001
 43
0.0000001
 44
0.0000000001
 40
0.0
 40
0.0
 40
0.0
 40
0.0
 40
0.2442057018
 40
1.0
 40
1.0
 40
1.0
 40
1.0
 10
17.8100258146
 20
31.2231228789
 30
0.0
 10
17.8118437187
 20
31.2199709672
 30
0.0
 10
17.8194648808
 20
31.20716656
 30
0.0
 10
17.8277633576
 20
31.1947695925
 30
0.0
 10
17.8343323472
 20
31.1856229711
 30
0.0
  0
LINE
  5
280
100
AcDbEntity
  8
0
100
AcDbLine
 62
7
  6
BYLAYER
 10
16.8308076344
 20
38.5411763753
 11
17.1377302436
 21
38.2298014016
  0
SPLINE
  5
281
100
AcDbEntity
  8
0
100
AcDbSpline
 62
7
  6
BYLAYER
 70
0
 71
3
 72
9
 73
5
 74
0
 42
0.0000001
 43
0.0000001
 44
0.0000000001
 40
0.0
 40
0.0
 40
0.0
 40
0.0
 40
0.2559532685
 40
1.0
 40
1.0
 40
1.0
 40
1.0
 10
20.8411281919
 20
31.1856229711
 30
0.0
 10
20.8433527813
 20
31.1887204744
 30
0.0
 10
20.8519081024
 20
31.2009188771
 30
0.0
 10
20.8598959299
 20
31.2135197453
 30
0.0
 10
20.8654346332
 20
31.2231228794
 30
0.0
  0
SPLINE
  5
282
100
AcDbEntity
  8
0
100
AcDbSpline
 62
7
  6
BYLAYER
 70
0
 71
3
 72
9
 73
5
 74
0
 42
0.0000001
 43
0.0000001
 44
0.0000000001
 40
0.0
 40
0.0
 40
0.0
 40
0.0
 40
0.2559531075
 40
1.0
 40
1.0
 40
1.0
 40
1.0
 10
17.8343323448
 20
45.8967299701
 30
0.0
 10
17.8321077552
 20
45.893632465
 30
0.0
 10
17.8235524172
 20
45.8814340556
 30
0.0
 10
17.8155645432
 20
45.8688331987
 30
0.0
 10
17.8100258162
 20
45.8592300623
 30
0.0
  0
LINE
  5
283
100
AcDbEntity
  8
0
100
AcDbLine
 62
7
  6
BYLAYER
 10
16.6377302436
 20
38.7375284495
 11
16.8308076344
 21
38.5411763753
  0
SPLINE
  5
284
100
AcDbEntity
  8
0
100
AcDbSpline
 62
7
  6
BYLAYER
 70
0
 71
3
 72
11
 73
7
 74
0
 42
0.0000001
 43
0.0000001
 44
0.0000000001
 40
0.0
 40
0.0
 40
0.0
 40
0.0
 40
0.2422982445
 40
0.4882110573
 40
0.7403601842
 40
1.0
 40
1.0
 40
1.0
 40
1.0
 10
17.3377325608
 20
32.912011334
 30
0.0
 10
17.3377321634
 20
33.0494188887
 30
0.0
 10
17.3582771023
 20
33.3266792667
 30
0.0
 10
17.4480355812
 20
33.7380313644
 30
0.0
 10
17.5905862926
 20
34.1443244247
 30
0.0
 10
17.713806241
 20
34.4075906156
 30
0.0
 10
17.7814019313
 20
34.5383997209
 30
0.0
  0
SPLINE
  5
285
100
AcDbEntity
  8
0
100
AcDbSpline
 62
7
  6
BYLAYER
 70
0
 71
3
 72
11
 73
7
 74
0
 42
0.0000001
 43
0.0000001
 44
0.0000000001
 40
0.0
 40
0.0
 40
0.0
 40
0.0
 40
0.2500086572
 40
0.500010728
 40
0.7500064317
 40
1.0
 40
1.0
 40
1.0
 40
1.0
 10
17.8343324993
 20
35.0883997209
 30
0.0
 10
17.7581221807
 20
35.3697789318
 30
0.0
 10
17.6192120366
 20
35.9363357282
 30
0.0
 10
17.4604832762
 20
36.7969232063
 30
0.0
 10
17.3605480444
 20
37.6664335596
 30
0.0
 10
17.3377302436
 20
38.2496768731
 30
0.0
 10
17.3377302436
 20
38.5411764706
 30
0.0
  0
SPLINE
  5
286
100
AcDbEntity
  8
0
100
AcDbSpline
 62
7
  6
BYLAYER
 70
0
 71
3
 72
11
 73
7
 74
0
 42
0.0000001
 43
0.0000001
 44
0.0000000001
 40
0.0
 40
0.0
 40
0.0
 40
0.0
 40
0.2499936019
 40
0.4999893088
 40
0.7499913662
 40
1.0
 40
1.0
 40
1.0
 40
1.0
 10
17.3377302436
 20
38.5411764706
 30
0.0
 10
17.3377302436
 20
38.8326761072
 30
0.0
 10
17.3605480245
 20
39.4159194649
 30
0.0
 10
17.4604832963
 20
40.2854298424
 30
0.0
 10
17.6192120746
 20
41.146017276
 30
0.0
 10
17.7581221878
 20
41.7125740358
 30
0.0
 10
17.8343324993
 20
41.9939532203
 30
0.0
  0
SPLINE
  5
287
100
AcDbEntity
  8
0
100
AcDbSpline
 62
7
  6
BYLAYER
 70
0
 71
3
 72
11
 73
7
 74
0
 42
0.0000001
 43
0.0000001
 44
0.0000000001
 40
0.0
 40
0.0
 40
0.0
 40
0.0
 40
0.2596398444
 40
0.5117889901
 40
0.7577017867
 40
1.0
 40
1.0
 40
1.0
 40
1.0
 10
17.7814019232
 20
42.5439532203
 30
0.0
 10
17.7138062265
 20
42.674762338
 30
0.0
 10
17.5905862501
 20
42.9380285405
 30
0.0
 10
17.4480355535
 20
43.344321621
 30
0.0
 10
17.3582771292
 20
43.7556737047
 30
0.0
 10
17.3377321645
 20
44.0329340484
 30
0.0
 10
17.3377325608
 20
44.1703415833
 30
0.0
  0
SPLINE
  5
288
100
AcDbEntity
  8
0
100
AcDbSpline
 62
7
  6
BYLAYER
 70
0
 71
3
 72
11
 73
7
 74
0
 42
0.0000001
 43
0.0000001
 44
0.0000000001
 40
0.0
 40
0.0
 40
0.0
 40
0.0
 40
0.2422982445
 40
0.4882110573
 40
0.7403601842
 40
1.0
 40
1.0
 40
1.0
 40
1.0
 10
17.3377325608
 20
44.1703415833
 30
0.0
 10
17.3377321635
 20
44.3077491379
 30
0.0
 10
17.3582771023
 20
44.5850095159
 30
0.0
 10
17.4480355812
 20
44.9963616136
 30
0.0
 10
17.5905862927
 20
45.4026546739
 30
0.0
 10
17.713806241
 20
45.6659208648
 30
0.0
 10
17.7814019313
 20
45.7967299701
 30
0.0
  0
SPLINE
  5
289
100
AcDbEntity
  8
0
100
AcDbSpline
 62
7
  6
BYLAYER
 70
0
 71
3
 72
9
 73
5
 74
0
 42
0.0000001
 43
0.0000001
 44
0.0000000001
 40
0.0
 40
0.0
 40
0.0
 40
0.0
 40
0.2422164686
 40
1.0
 40
1.0
 40
1.0
 40
1.0
 10
20.894058456
 20
45.7967299701
 30
0.0
 10
20.8922794749
 20
45.8019928102
 30
0.0
 10
20.8843243059
 20
45.823512521
 30
0.0
 10
20.8741180758
 20
45.8441744991
 30
0.0
 10
20.8654346318
 20
45.8592300618
 30
0.0
  0
SPLINE
  5
28A
100
AcDbEntity
  8
0
100
AcDbSpline
 62
7
  6
BYLAYER
 70
0
 71
3
 72
11
 73
7
 74
0
 42
0.0000001
 43
0.0000001
 44
0.0000000001
 40
0.0
 40
0.0
 40
0.0
 40
0.0
 40
0.2596398439
 40
0.5117889903
 40
0.7577017872
 40
1.0
 40
1.0
 40
1.0
 40
1.0
 10
20.8940585559
 20
45.7967299701
 30
0.0
 10
20.9616542188
 20
45.6659208326
 30
0.0
 10
21.084874244
 20
45.4026546503
 30
0.0
 10
21.2274249309
 20
44.9963615563
 30
0.0
 10
21.3171833711
 20
44.5850094696
 30
0.0
 10
21.3377283239
 20
44.3077491201
 30
0.0
 10
21.3377279264
 20
44.1703415833
 30
0.0
  0
SPLINE
  5
28B
100
AcDbEntity
  8
0
100
AcDbSpline
 62
7
  6
BYLAYER
 70
0
 71
3
 72
11
 73
7
 74
0
 42
0.0000001
 43
0.0000001
 44
0.0000000001
 40
0.0
 40
0.0
 40
0.0
 40
0.0
 40
0.2500086572
 40
0.500010728
 40
0.7500064317
 40
1.0
 40
1.0
 40
1.0
 40
1.0
 10
20.8411279879
 20
41.9939532203
 30
0.0
 10
20.9173383037
 20
41.7125740086
 30
0.0
 10
21.0562484525
 20
41.1460172135
 30
0.0
 10
21.2149772104
 20
40.2854297347
 30
0.0
 10
21.3149124431
 20
39.4159193817
 30
0.0
 10
21.3377302436
 20
38.832676068
 30
0.0
 10
21.3377302436
 20
38.5411764706
 30
0.0
  0
SPLINE
  5
28C
100
AcDbEntity
  8
0
100
AcDbSpline
 62
7
  6
BYLAYER
 70
0
 71
3
 72
9
 73
5
 74
0
 42
0.0000001
 43
0.0000001
 44
0.0000000001
 40
0.0
 40
0.0
 40
0.0
 40
0.0
 40
0.2586143751
 40
1.0
 40
1.0
 40
1.0
 40
1.0
 10
20.8654346332
 20
31.2231228794
 30
0.0
 10
20.8683979448
 20
31.2282607387
 30
0.0
 10
20.8794084814
 20
31.248378627
 30
0.0
 10
20.8886135657
 20
31.2695150907
 30
0.0
 10
20.8940584637
 20
31.2856229711
 30
0.0
  0
SPLINE
  5
28D
100
AcDbEntity
  8
0
100
AcDbSpline
 62
7
  6
BYLAYER
 70
0
 71
3
 72
11
 73
7
 74
0
 42
0.0000001
 43
0.0000001
 44
0.0000000001
 40
0.0
 40
0.0
 40
0.0
 40
0.0
 40
0.242298245
 40
0.4882110575
 40
0.7403601841
 40
1.0
 40
1.0
 40
1.0
 40
1.0
 10
21.3377279264
 20
44.1703415833
 30
0.0
 10
21.3377283226
 20
44.0329340305
 30
0.0
 10
21.3171833734
 20
43.7556736574
 30
0.0
 10
21.2274249026
 20
43.3443215672
 30
0.0
 10
21.084874215
 20
42.9380285021
 30
0.0
 10
20.9616542181
 20
42.6747623417
 30
0.0
 10
20.894058564
 20
42.5439532203
 30
0.0
  0
SPLINE
  5
28E
100
AcDbEntity
  8
0
100
AcDbSpline
 62
7
  6
BYLAYER
 70
0
 71
3
 72
9
 73
5
 74
0
 42
0.0000001
 43
0.0000001
 44
0.0000000001
 40
0.0
 40
0.0
 40
0.0
 40
0.0
 40
0.2586144666
 40
1.0
 40
1.0
 40
1.0
 40
1.0
 10
17.8100258162
 20
45.8592300623
 30
0.0
 10
17.8070624935
 20
45.8540922045
 30
0.0
 10
17.796051927
 20
45.8339743226
 30
0.0
 10
17.7868468472
 20
45.8128378484
 30
0.0
 10
17.7814019313
 20
45.7967299701
 30
0.0
  0
SPLINE
  5
28F
100
AcDbEntity
  8
0
100
AcDbSpline
 62
7
  6
BYLAYER
 70
0
 71
3
 72
11
 73
7
 74
0
 42
0.0000001
 43
0.0000001
 44
0.0000000001
 40
0.0
 40
0.0
 40
0.0
 40
0.0
 40
0.2596398444
 40
0.5117889901
 40
0.7577017867
 40
1.0
 40
1.0
 40
1.0
 40
1.0
 10
17.7814019232
 20
31.2856229711
 30
0.0
 10
17.7138062265
 20
31.4164320888
 30
0.0
 10
17.5905862501
 20
31.6796982913
 30
0.0
 10
17.4480355535
 20
32.0859913718
 30
0.0
 10
17.3582771292
 20
32.4973434555
 30
0.0
 10
17.3377321645
 20
32.7746037992
 30
0.0
 10
17.3377325608
 20
32.912011334
 30
0.0
  0
SPLINE
  5
290
100
AcDbEntity
  8
0
100
AcDbSpline
 62
7
  6
BYLAYER
 70
0
 71
3
 72
9
 73
5
 74
0
 42
0.0000001
 43
0.0000001
 44
0.0000000001
 40
0.0
 40
0.0
 40
0.0
 40
0.0
 40
0.2422164422
 40
1.0
 40
1.0
 40
1.0
 40
1.0
 10
17.7814019232
 20
31.2856229711
 30
0.0
 10
17.783180911
 20
31.2803601315
 30
0.0
 10
17.7911360975
 20
31.2588404175
 30
0.0
 10
17.8013423377
 20
31.2381784316
 30
0.0
 10
17.8100258146
 20
31.2231228789
 30
0.0
  0
SPLINE
  5
291
100
AcDbEntity
  8
0
100
AcDbSpline
 62
7
  6
BYLAYER
 70
0
 71
3
 72
11
 73
7
 74
0
 42
0.0000001
 43
0.0000001
 44
0.0000000001
 40
0.0
 40
0.0
 40
0.0
 40
0.0
 40
0.2422984198
 40
0.4882104428
 40
0.7403593558
 40
1.0
 40
1.0
 40
1.0
 40
1.0
 10
21.3377279293
 20
32.9120113748
 30
0.0
 10
21.3377295156
 20
32.774603707
 30
0.0
 10
21.3171717361
 20
32.4973448089
 30
0.0
 10
21.2274304698
 20
32.0859903203
 30
0.0
 10
21.084879092
 20
31.6796964264
 30
0.0
 10
20.9616539077
 20
31.4164325225
 30
0.0
 10
20.8940580256
 20
31.2856229711
 30
0.0
  0
SPLINE
  5
292
100
AcDbEntity
  8
0
100
AcDbSpline
 62
7
  6
BYLAYER
 70
0
 71
3
 72
11
 73
7
 74
0
 42
0.0000001
 43
0.0000001
 44
0.0000000001
 40
0.0
 40
0.0
 40
0.0
 40
0.0
 40
0.2596406706
 40
0.5117896043
 40
0.7577016127
 40
1.0
 40
1.0
 40
1.0
 40
1.0
 10
20.8940580205
 20
34.5383997209
 30
0.0
 10
20.9616539075
 20
34.4075901603
 30
0.0
 10
21.084879105
 20
34.1443262432
 30
0.0
 10
21.2274304831
 20
33.738032344
 30
0.0
 10
21.3171717415
 20
33.3266778824
 30
0.0
 10
21.3377295134
 20
33.0494190198
 30
0.0
 10
21.3377279293
 20
32.9120113748
 30
0.0
  0
SPLINE
  5
293
100
AcDbEntity
  8
0
100
AcDbSpline
 62
7
  6
BYLAYER
 70
0
 71
3
 72
11
 73
7
 74
0
 42
0.0000001
 43
0.0000001
 44
0.0000000001
 40
0.0
 40
0.0
 40
0.0
 40
0.0
 40
0.2499936019
 40
0.4999893088
 40
0.7499913662
 40
1.0
 40
1.0
 40
1.0
 40
1.0
 10
21.3377302436
 20
38.5411764706
 30
0.0
 10
21.3377302436
 20
38.2496768339
 30
0.0
 10
21.314912463
 20
37.6664334762
 30
0.0
 10
21.2149771903
 20
36.7969230989
 30
0.0
 10
21.0562484145
 20
35.9363356647
 30
0.0
 10
20.9173382966
 20
35.3697789062
 30
0.0
 10
20.8411279879
 20
35.0883997209
 30
0.0
  0
SPLINE
  5
294
100
AcDbEntity
  8
0
100
AcDbSpline
 62
7
  6
BYLAYER
 70
0
 71
3
 72
9
 73
5
 74
0
 42
0.0000001
 43
0.0000001
 44
0.0000000001
 40
0.0
 40
0.0
 40
0.0
 40
0.0
 40
0.2442422658
 40
1.0
 40
1.0
 40
1.0
 40
1.0
 10
9.810031483
 20
45.8592299956
 30
0.0
 10
9.811850578
 20
45.8623815494
 30
0.0
 10
9.8194725696
 20
45.8751841185
 30
0.0
 10
9.8277640878
 20
45.8875844453
 30
0.0
 10
9.8343322928
 20
45.8967299701
 30
0.0
  0
SPLINE
  5
295
100
AcDbEntity
  8
0
100
AcDbSpline
 62
7
  6
BYLAYER
 70
0
 71
3
 72
9
 73
5
 74
0
 42
0.0000001
 43
0.0000001
 44
0.0000000001
 40
0.0
 40
0.0
 40
0.0
 40
0.0
 40
0.244242049
 40
1.0
 40
1.0
 40
1.0
 40
1.0
 10
12.8654286861
 20
31.2231229493
 30
0.0
 10
12.8636096192
 20
31.2199713961
 30
0.0
 10
12.855987744
 20
31.2071688122
 30
0.0
 10
12.8476963245
 20
31.1947684714
 30
0.0
 10
12.84112814
 20
31.1856229711
 30
0.0
  0
LINE
  5
296
100
AcDbEntity
  8
0
100
AcDbLine
 62
7
  6
BYLAYER
 10
13.8446528528
 20
38.5411763753
 11
13.5377302436
 21
38.2298014016
  0
LINE
  5
297
100
AcDbEntity
  8
0
100
AcDbLine
 62
7
  6
BYLAYER
 10
14.0377302436
 20
38.7375284495
 11
13.8446528528
 21
38.5411763753
  0
SPLINE
  5
298
100
AcDbEntity
  8
0
100
AcDbSpline
 62
7
  6
BYLAYER
 70
0
 71
3
 72
9
 73
5
 74
0
 42
0.0000001
 43
0.0000001
 44
0.0000000001
 40
0.0
 40
0.0
 40
0.0
 40
0.0
 40
0.2559487134
 40
1.0
 40
1.0
 40
1.0
 40
1.0
 10
12.8411281424
 20
45.8967299701
 30
0.0
 10
12.8433525342
 20
45.8936327404
 30
0.0
 10
12.8519053364
 20
45.8814337554
 30
0.0
 10
12.8598871922
 20
45.8688306896
 30
0.0
 10
12.8654286857
 20
45.8592299919
 30
0.0
  0
SPLINE
  5
299
100
AcDbEntity
  8
0
100
AcDbSpline
 62
7
  6
BYLAYER
 70
0
 71
3
 72
9
 73
5
 74
0
 42
0.0000001
 43
0.0000001
 44
0.0000000001
 40
0.0
 40
0.0
 40
0.0
 40
0.0
 40
0.2559482522
 40
1.0
 40
1.0
 40
1.0
 40
1.0
 10
9.8343322953
 20
31.1856229711
 30
0.0
 10
9.8321078997
 20
31.1887202046
 30
0.0
 10
9.8235550442
 20
31.2009192093
 30
0.0
 10
9.8155730606
 20
31.2135222485
 30
0.0
 10
9.8100314816
 20
31.2231229456
 30
0.0
  0
SPLINE
  5
29A
100
AcDbEntity
  8
0
100
AcDbSpline
 62
7
  6
BYLAYER
 70
0
 71
3
 72
9
 73
5
 74
0
 42
0.0000001
 43
0.0000001
 44
0.0000000001
 40
0.0
 40
0.0
 40
0.0
 40
0.0
 40
0.2586707239
 40
1.0
 40
1.0
 40
1.0
 40
1.0
 10
12.8654286857
 20
45.8592299919
 30
0.0
 10
12.8683944646
 20
45.8540917477
 30
0.0
 10
12.8794208165
 20
45.8339811149
 30
0.0
 10
12.8886138036
 20
45.8128373645
 30
0.0
 10
12.8940585559
 20
45.7967299701
 30
0.0
  0
SPLINE
  5
29B
100
AcDbEntity
  8
0
100
AcDbSpline
 62
7
  6
BYLAYER
 70
0
 71
3
 72
11
 73
7
 74
0
 42
0.0000001
 43
0.0000001
 44
0.0000000001
 40
0.0
 40
0.0
 40
0.0
 40
0.0
 40
0.2596406727
 40
0.5117896045
 40
0.7577016118
 40
1.0
 40
1.0
 40
1.0
 40
1.0
 10
9.7814024617
 20
31.2856229711
 30
0.0
 10
9.7138065721
 20
31.4164325369
 30
0.0
 10
9.5905813566
 20
31.6796964562
 30
0.0
 10
9.4480299952
 20
32.0859903774
 30
0.0
 10
9.3582887642
 20
32.4973448552
 30
0.0
 10
9.337730971
 20
32.7746037249
 30
0.0
 10
9.3377325579
 20
32.9120113748
 30
0.0
  0
SPLINE
  5
29C
100
AcDbEntity
  8
0
100
AcDbSpline
 62
7
  6
BYLAYER
 70
0
 71
3
 72
9
 73
5
 74
0
 42
0.0000001
 43
0.0000001
 44
0.0000000001
 40
0.0
 40
0.0
 40
0.0
 40
0.0
 40
0.2421811447
 40
1.0
 40
1.0
 40
1.0
 40
1.0
 10
12.894058564
 20
31.2856229711
 30
0.0
 10
12.8922797571
 20
31.2803606666
 30
0.0
 10
12.8843362488
 20
31.2588355653
 30
0.0
 10
12.8741178584
 20
31.2381770346
 30
0.0
 10
12.8654286861
 20
31.2231229493
 30
0.0
  0
SPLINE
  5
29D
100
AcDbEntity
  8
0
100
AcDbSpline
 62
7
  6
BYLAYER
 70
0
 71
3
 72
11
 73
7
 74
0
 42
0.0000001
 43
0.0000001
 44
0.0000000001
 40
0.0
 40
0.0
 40
0.0
 40
0.0
 40
0.242298245
 40
0.4882110575
 40
0.7403601839
 40
1.0
 40
1.0
 40
1.0
 40
1.0
 10
13.3377279264
 20
32.912011334
 30
0.0
 10
13.3377283226
 20
32.7746037813
 30
0.0
 10
13.3171833726
 20
32.4973434087
 30
0.0
 10
13.2274249057
 20
32.0859913162
 30
0.0
 10
13.0848742012
 20
31.6796982604
 30
0.0
 10
12.9616542533
 20
31.4164320744
 30
0.0
 10
12.894058564
 20
31.2856229711
 30
0.0
  0
SPLINE
  5
29E
100
AcDbEntity
  8
0
100
AcDbSpline
 62
7
  6
BYLAYER
 70
0
 71
3
 72
9
 73
5
 74
0
 42
0.0000001
 43
0.0000001
 44
0.0000000001
 40
0.0
 40
0.0
 40
0.0
 40
0.0
 40
0.2586719281
 40
1.0
 40
1.0
 40
1.0
 40
1.0
 10
9.8100314816
 20
31.2231229456
 30
0.0
 10
9.8070656609
 20
31.2282611825
 30
0.0
 10
9.7960391697
 20
31.2483716925
 30
0.0
 10
9.7868467385
 20
31.2695156325
 30
0.0
 10
9.7814020236
 20
31.2856229711
 30
0.0
  0
SPLINE
  5
29F
100
AcDbEntity
  8
0
100
AcDbSpline
 62
7
  6
BYLAYER
 70
0
 71
3
 72
9
 73
5
 74
0
 42
0.0000001
 43
0.0000001
 44
0.0000000001
 40
0.0
 40
0.0
 40
0.0
 40
0.0
 40
0.2421808836
 40
1.0
 40
1.0
 40
1.0
 40
1.0
 10
9.7814020313
 20
45.7967299701
 30
0.0
 10
9.7831808257
 20
45.8019922582
 30
0.0
 10
9.791123987
 20
45.8235174211
 30
0.0
 10
9.8013422292
 20
45.8441759992
 30
0.0
 10
9.810031483
 20
45.8592299956
 30
0.0
  0
SPLINE
  5
2A0
100
AcDbEntity
  8
0
100
AcDbSpline
 62
7
  6
BYLAYER
 70
0
 71
3
 72
11
 73
7
 74
0
 42
0.0000001
 43
0.0000001
 44
0.0000000001
 40
0.0
 40
0.0
 40
0.0
 40
0.0
 40
0.2422982445
 40
0.4882110573
 40
0.7403601844
 40
1.0
 40
1.0
 40
1.0
 40
1.0
 10
9.3377325608
 20
44.1703415833
 30
0.0
 10
9.3377321635
 20
44.3077491379
 30
0.0
 10
9.3582771015
 20
44.5850095164
 30
0.0
 10
9.4480355843
 20
44.9963616119
 30
0.0
 10
9.5905862791
 20
45.4026546812
 30
0.0
 10
9.7138062758
 20
45.665920847
 30
0.0
 10
9.7814019313
 20
45.7967299701
 30
0.0
  0
SPLINE
  5
2A1
100
AcDbEntity
  8
0
100
AcDbSpline
 62
7
  6
BYLAYER
 70
0
 71
3
 72
11
 73
7
 74
0
 42
0.0000001
 43
0.0000001
 44
0.0000000001
 40
0.0
 40
0.0
 40
0.0
 40
0.0
 40
0.2596398442
 40
0.5117889901
 40
0.7577017867
 40
1.0
 40
1.0
 40
1.0
 40
1.0
 10
9.7814019232
 20
42.5439532203
 30
0.0
 10
9.7138062618
 20
42.6747623561
 30
0.0
 10
9.5905862364
 20
42.9380285331
 30
0.0
 10
9.4480355567
 20
43.3443216228
 30
0.0
 10
9.3582771284
 20
43.7556737042
 30
0.0
 10
9.3377321645
 20
44.0329340484
 30
0.0
 10
9.3377325608
 20
44.1703415833
 30
0.0
  0
SPLINE
  5
2A2
100
AcDbEntity
  8
0
100
AcDbSpline
 62
7
  6
BYLAYER
 70
0
 71
3
 72
11
 73
7
 74
0
 42
0.0000001
 43
0.0000001
 44
0.0000000001
 40
0.0
 40
0.0
 40
0.0
 40
0.0
 40
0.2499936019
 40
0.4999893088
 40
0.7499913662
 40
1.0
 40
1.0
 40
1.0
 40
1.0
 10
9.3377302436
 20
38.5411764706
 30
0.0
 10
9.3377302436
 20
38.8326761072
 30
0.0
 10
9.3605480243
 20
39.415919465
 30
0.0
 10
9.460483297
 20
40.2854298423
 30
0.0
 10
9.6192120727
 20
41.1460172765
 30
0.0
 10
9.7581221907
 20
41.712574035
 30
0.0
 10
9.8343324993
 20
41.9939532203
 30
0.0
  0
SPLINE
  5
2A3
100
AcDbEntity
  8
0
100
AcDbSpline
 62
7
  6
BYLAYER
 70
0
 71
3
 72
11
 73
7
 74
0
 42
0.0000001
 43
0.0000001
 44
0.0000000001
 40
0.0
 40
0.0
 40
0.0
 40
0.0
 40
0.2596398441
 40
0.5117889903
 40
0.7577017872
 40
1.0
 40
1.0
 40
1.0
 40
1.0
 10
12.8940585559
 20
45.7967299701
 30
0.0
 10
12.9616542536
 20
45.6659208505
 30
0.0
 10
13.0848742305
 20
45.402654643
 30
0.0
 10
13.227424934
 20
44.996361558
 30
0.0
 10
13.3171833703
 20
44.5850094691
 30
0.0
 10
13.3377283239
 20
44.3077491201
 30
0.0
 10
13.3377279264
 20
44.1703415833
 30
0.0
  0
SPLINE
  5
2A4
100
AcDbEntity
  8
0
100
AcDbSpline
 62
7
  6
BYLAYER
 70
0
 71
3
 72
11
 73
7
 74
0
 42
0.0000001
 43
0.0000001
 44
0.0000000001
 40
0.0
 40
0.0
 40
0.0
 40
0.0
 40
0.242298245
 40
0.4882110575
 40
0.7403601839
 40
1.0
 40
1.0
 40
1.0
 40
1.0
 10
13.3377279264
 20
44.1703415833
 30
0.0
 10
13.3377283226
 20
44.0329340305
 30
0.0
 10
13.3171833726
 20
43.7556736579
 30
0.0
 10
13.2274249057
 20
43.3443215654
 30
0.0
 10
13.0848742012
 20
42.9380285096
 30
0.0
 10
12.9616542533
 20
42.6747623236
 30
0.0
 10
12.894058564
 20
42.5439532203
 30
0.0
  0
SPLINE
  5
2A5
100
AcDbEntity
  8
0
100
AcDbSpline
 62
7
  6
BYLAYER
 70
0
 71
3
 72
11
 73
7
 74
0
 42
0.0000001
 43
0.0000001
 44
0.0000000001
 40
0.0
 40
0.0
 40
0.0
 40
0.0
 40
0.2500086572
 40
0.500010728
 40
0.7500064317
 40
1.0
 40
1.0
 40
1.0
 40
1.0
 10
12.8411279879
 20
41.9939532203
 30
0.0
 10
12.9173383065
 20
41.7125740094
 30
0.0
 10
13.0562484507
 20
41.146017213
 30
0.0
 10
13.214977211
 20
40.2854297349
 30
0.0
 10
13.3149124429
 20
39.4159193816
 30
0.0
 10
13.3377302436
 20
38.832676068
 30
0.0
 10
13.3377302436
 20
38.5411764706
 30
0.0
  0
SPLINE
  5
2A6
100
AcDbEntity
  8
0
100
AcDbSpline
 62
7
  6
BYLAYER
 70
0
 71
3
 72
11
 73
7
 74
0
 42
0.0000001
 43
0.0000001
 44
0.0000000001
 40
0.0
 40
0.0
 40
0.0
 40
0.0
 40
0.2499936019
 40
0.4999893088
 40
0.7499913662
 40
1.0
 40
1.0
 40
1.0
 40
1.0
 10
13.3377302436
 20
38.5411764706
 30
0.0
 10
13.3377302436
 20
38.2496768339
 30
0.0
 10
13.3149124628
 20
37.6664334762
 30
0.0
 10
13.2149771909
 20
36.7969230987
 30
0.0
 10
13.0562484127
 20
35.9363356651
 30
0.0
 10
12.9173382994
 20
35.3697789054
 30
0.0
 10
12.8411279879
 20
35.0883997209
 30
0.0
  0
SPLINE
  5
2A7
100
AcDbEntity
  8
0
100
AcDbSpline
 62
7
  6
BYLAYER
 70
0
 71
3
 72
11
 73
7
 74
0
 42
0.0000001
 43
0.0000001
 44
0.0000000001
 40
0.0
 40
0.0
 40
0.0
 40
0.0
 40
0.2596398441
 40
0.5117889903
 40
0.7577017872
 40
1.0
 40
1.0
 40
1.0
 40
1.0
 10
12.8940585559
 20
34.5383997209
 30
0.0
 10
12.9616542536
 20
34.4075906013
 30
0.0
 10
13.0848742305
 20
34.1443243938
 30
0.0
 10
13.227424934
 20
33.7380313088
 30
0.0
 10
13.3171833703
 20
33.3266792199
 30
0.0
 10
13.3377283239
 20
33.0494188708
 30
0.0
 10
13.3377279264
 20
32.912011334
 30
0.0
  0
SPLINE
  5
2A8
100
AcDbEntity
  8
0
100
AcDbSpline
 62
7
  6
BYLAYER
 70
0
 71
3
 72
11
 73
7
 74
0
 42
0.0000001
 43
0.0000001
 44
0.0000000001
 40
0.0
 40
0.0
 40
0.0
 40
0.0
 40
0.2500086572
 40
0.500010728
 40
0.7500064317
 40
1.0
 40
1.0
 40
1.0
 40
1.0
 10
9.8343324993
 20
35.0883997209
 30
0.0
 10
9.7581221836
 20
35.3697789325
 30
0.0
 10
9.6192120347
 20
35.9363357277
 30
0.0
 10
9.4604832769
 20
36.7969232064
 30
0.0
 10
9.3605480442
 20
37.6664335595
 30
0.0
 10
9.3377302436
 20
38.2496768731
 30
0.0
 10
9.3377302436
 20
38.5411764706
 30
0.0
  0
SPLINE
  5
2A9
100
AcDbEntity
  8
0
100
AcDbSpline
 62
7
  6
BYLAYER
 70
0
 71
3
 72
11
 73
7
 74
0
 42
0.0000001
 43
0.0000001
 44
0.0000000001
 40
0.0
 40
0.0
 40
0.0
 40
0.0
 40
0.2422984189
 40
0.488210443
 40
0.7403593579
 40
1.0
 40
1.0
 40
1.0
 40
1.0
 10
9.3377325579
 20
32.9120113748
 30
0.0
 10
9.3377309745
 20
33.0494190377
 30
0.0
 10
9.3582887326
 20
33.3266779287
 30
0.0
 10
9.4480300263
 20
33.7380324011
 30
0.0
 10
9.5905814208
 20
34.144326273
 30
0.0
 10
9.7138065872
 20
34.4075901748
 30
0.0
 10
9.7814024668
 20
34.5383997209
 30
0.0
  0
ELLIPSE
  5
2AA
100
AcDbEntity
  8
0
100
AcDbEllipse
 62
7
  6
BYLAYER
 10
14.9276282227
 20
39.2468654276
 30
0.0
 11
5.2535005409
 21
-4.3651886342
 31
0.0
 40
0.6975788556
 41
1.7883482779
 42
1.810609719
  0
ELLIPSE
  5
2AB
100
AcDbEntity
  8
0
100
AcDbEllipse
 62
7
  6
BYLAYER
 10
14.9276282227
 20
39.6806030922
 30
0.0
 11
5.4433305411
 21
-4.9540309513
 31
0.0
 40
0.5432071495
 41
1.7036187656
 42
1.7444463647
  0
ELLIPSE
  5
2AC
100
AcDbEntity
  8
0
100
AcDbEllipse
 62
7
  6
BYLAYER
 10
14.9276282227
 20
40.0610624344
 30
0.0
 11
5.659731093
 21
-5.3796988643
 31
0.0
 40
0.4089077434
 41
1.602615654
 42
1.6560123239
  0
ELLIPSE
  5
2AD
100
AcDbEntity
  8
0
100
AcDbEllipse
 62
7
  6
BYLAYER
 10
14.9276282227
 20
40.3704535981
 30
0.0
 11
5.8441958392
 21
-5.6987611533
 31
0.0
 40
0.2892468447
 41
1.4969379435
 42
1.5602137258
  0
ELLIPSE
  5
2AE
100
AcDbEntity
  8
0
100
AcDbEllipse
 62
7
  6
BYLAYER
 10
14.9276282227
 20
40.5943097964
 30
0.0
 11
5.9784252192
 21
-5.9203106409
 31
0.0
 40
0.1795626138
 41
1.389317562
 42
1.4612839205
  0
ELLIPSE
  5
2AF
100
AcDbEntity
  8
0
100
AcDbEllipse
 62
7
  6
BYLAYER
 10
14.9276282227
 20
40.7221637624
 30
0.0
 11
6.054847162
 21
-6.044219375
 31
0.0
 40
0.0759084625
 41
1.2807879789
 42
1.3609368332
  0
ELLIPSE
  5
2B0
100
AcDbEntity
  8
0
100
AcDbEllipse
 62
7
  6
BYLAYER
 10
18.7980193461
 20
38.1842633914
 30
0.0
 11
5.1275637983
 21
-4.375502673
 31
0.0
 40
0.7950618389
 41
-1.3308029732
 42
-1.2459441492
  0
ELLIPSE
  5
2B1
100
AcDbEntity
  8
0
100
AcDbEllipse
 62
7
  6
BYLAYER
 10
18.7980193461
 20
37.844039171
 30
0.0
 11
5.3466051551
 21
-4.9833298219
 31
0.0
 40
0.6284414723
 41
-1.3970492094
 42
-1.3121903854
  0
ELLIPSE
  5
2B2
100
AcDbEntity
  8
0
100
AcDbEllipse
 62
7
  6
BYLAYER
 10
18.7980193461
 20
37.536412316
 30
0.0
 11
5.614931583
 21
-5.4078085582
 31
0.0
 40
0.4845576459
 41
-1.4902780591
 42
-1.4054192351
  0
ELLIPSE
  5
2B3
100
AcDbEntity
  8
0
100
AcDbEllipse
 62
7
  6
BYLAYER
 10
18.7980193461
 20
37.2757671161
 30
0.0
 11
5.8484349246
 21
-5.7341242458
 31
0.0
 40
0.3569654666
 41
-1.5902544261
 42
-1.5053956021
  0
ELLIPSE
  5
2B4
100
AcDbEntity
  8
0
100
AcDbEllipse
 62
7
  6
BYLAYER
 10
18.7980193461
 20
37.0742910513
 30
0.0
 11
6.0272852939
 21
-5.9737927201
 31
0.0
 40
0.2405966796
 41
-1.6928292651
 42
-1.607970441
  0
ELLIPSE
  5
2B5
100
AcDbEntity
  8
0
100
AcDbEllipse
 62
7
  6
BYLAYER
 10
18.7980193461
 20
36.9414049183
 30
0.0
 11
6.1437219749
 21
-6.1273616325
 31
0.0
 40
0.1314368836
 41
-1.7965752368
 42
-1.7117164128
  0
ELLIPSE
  5
2B6
100
AcDbEntity
  8
0
100
AcDbEllipse
 62
7
  6
BYLAYER
 10
14.9276282227
 20
38.0660698662
 30
0.0
 11
5.2379724667
 21
3.9201315359
 31
0.0
 40
0.7835698958
 41
-1.8156869298
 42
-1.807369842
  0
ELLIPSE
  5
2B7
100
AcDbEntity
  8
0
100
AcDbEllipse
 62
7
  6
BYLAYER
 10
18.7980193461
 20
38.5411764706
 30
0.0
 11
6.1962832857
 21
-0.0
 31
0.0
 40
0.963433044
 41
4.3562664026
 42
4.4411252267
  0
ELLIPSE
  5
2B8
100
AcDbEntity
  8
0
100
AcDbEllipse
 62
7
  6
BYLAYER
 10
14.9276282227
 20
37.6131787187
 30
0.0
 11
5.3374002648
 21
4.6887435655
 31
0.0
 40
0.6175397628
 41
-1.7823651417
 42
-1.7497285895
  0
ELLIPSE
  5
2B9
100
AcDbEntity
  8
0
100
AcDbEllipse
 62
7
  6
BYLAYER
 10
14.9276282227
 20
37.2036797146
 30
0.0
 11
5.5535349245
 21
5.1816512536
 31
0.0
 40
0.4739012908
 41
-1.7016272839
 42
-1.6540356117
  0
ELLIPSE
  5
2BA
100
AcDbEntity
  8
0
100
AcDbEllipse
 62
7
  6
BYLAYER
 10
14.9276282227
 20
36.8567205723
 30
0.0
 11
5.7574888058
 21
5.5515989194
 31
0.0
 40
0.3475589656
 41
-1.6086729421
 42
-1.5501197786
  0
ELLIPSE
  5
2BB
100
AcDbEntity
  8
0
100
AcDbEllipse
 62
7
  6
BYLAYER
 10
14.9276282227
 20
36.5885247157
 30
0.0
 11
5.9182034101
 21
5.8216556495
 31
0.0
 40
0.233417624
 41
-1.5110038277
 42
-1.443297253
  0
ELLIPSE
  5
2BC
100
AcDbEntity
  8
0
100
AcDbEllipse
 62
7
  6
BYLAYER
 10
14.9276282227
 20
36.4116326849
 30
0.0
 11
6.0241331786
 21
5.9945672204
 31
0.0
 40
0.1272085245
 41
-1.4112206548
 42
-1.3350578057
  0
ELLIPSE
  5
2BD
100
AcDbEntity
  8
0
100
AcDbEllipse
 62
7
  6
BYLAYER
 10
14.9276282227
 20
36.3343157547
 30
0.0
 11
6.0702738594
 21
6.0690937448
 31
0.0
 40
0.0252337291
 41
-1.3105296152
 42
-1.2258004817
  0
ELLIPSE
  5
2BE
100
AcDbEntity
  8
0
100
AcDbEllipse
 62
7
  6
BYLAYER
 10
18.7980193461
 20
40.179593792
 30
0.0
 11
6.1773218411
 21
6.1714430517
 31
0.0
 40
0.0784868883
 41
1.7638080009
 42
1.8486668249
  0
ELLIPSE
  5
2BF
100
AcDbEntity
  8
0
100
AcDbEllipse
 62
7
  6
BYLAYER
 10
18.7980193461
 20
40.083546395
 30
0.0
 11
6.093593019
 21
6.0614179041
 31
0.0
 40
0.1853378708
 41
1.6597479234
 42
1.7446067474
  0
ELLIPSE
  5
2C0
100
AcDbEntity
  8
0
100
AcDbEllipse
 62
7
  6
BYLAYER
 10
18.7980193461
 20
39.9153794945
 30
0.0
 11
5.9453163006
 21
5.864663042
 31
0.0
 40
0.2976481485
 41
1.5564756571
 42
1.6413344811
  0
ELLIPSE
  5
2C1
100
AcDbEntity
  8
0
100
AcDbEllipse
 62
7
  6
BYLAYER
 10
18.7980193461
 20
39.6829563879
 30
0.0
 11
5.7377420913
 21
5.5820486521
 31
0.0
 40
0.4190723815
 41
1.4549327043
 42
1.5397915283
  0
ELLIPSE
  5
2C2
100
AcDbEntity
  8
0
100
AcDbEllipse
 62
7
  6
BYLAYER
 10
18.7980193461
 20
39.3971449214
 30
0.0
 11
5.4828143523
 21
5.2096757279
 31
0.0
 40
0.5540914981
 41
1.3574471542
 42
1.4423059782
  0
ELLIPSE
  5
2C3
100
AcDbEntity
  8
0
100
AcDbEllipse
 62
7
  6
BYLAYER
 10
18.7980193461
 20
39.0713093215
 30
0.0
 11
5.2176625748
 21
4.7173860144
 31
0.0
 40
0.7084736303
 41
1.2723609049
 42
1.3572197289
  0
ELLIPSE
  5
2C4
100
AcDbEntity
  8
0
100
AcDbEllipse
 62
7
  6
BYLAYER
 10
18.7980193461
 20
38.7206852987
 30
0.0
 11
5.2109918477
 21
3.7744162015
 31
0.0
 40
0.8882260886
 41
1.2703680609
 42
1.3552268849
  0
ELLIPSE
  5
2C5
100
AcDbEntity
  8
0
100
AcDbEllipse
 62
7
  6
BYLAYER
 10
18.7980193461
 20
39.2383137702
 30
0.0
 11
5.3466051551
 21
4.9833298219
 31
0.0
 40
0.6284414723
 41
-2.4567885997
 42
-2.3719297756
  0
ELLIPSE
  5
2C6
100
AcDbEntity
  8
0
100
AcDbEllipse
 62
7
  6
BYLAYER
 10
18.7980193461
 20
39.5459406252
 30
0.0
 11
5.614931583
 21
5.4078085582
 31
0.0
 40
0.4845576459
 41
-2.36355975
 42
-2.2787009259
  0
ELLIPSE
  5
2C7
100
AcDbEntity
  8
0
100
AcDbEllipse
 62
7
  6
BYLAYER
 10
18.7980193461
 20
36.9027591492
 30
0.0
 11
6.1773218411
 21
-6.1714430517
 31
0.0
 40
0.0784868883
 41
1.9203121601
 42
2.0051709842
  0
ELLIPSE
  5
2C8
100
AcDbEntity
  8
0
100
AcDbEllipse
 62
7
  6
BYLAYER
 10
18.7980193461
 20
36.9988065462
 30
0.0
 11
6.093593019
 21
-6.0614179041
 31
0.0
 40
0.1853378708
 41
2.0243722377
 42
2.1092310617
  0
ELLIPSE
  5
2C9
100
AcDbEntity
  8
0
100
AcDbEllipse
 62
7
  6
BYLAYER
 10
18.7980193461
 20
37.1669734467
 30
0.0
 11
5.9453163006
 21
-5.864663042
 31
0.0
 40
0.2976481485
 41
2.1276445039
 42
2.2125033279
  0
ELLIPSE
  5
2CA
100
AcDbEntity
  8
0
100
AcDbEllipse
 62
7
  6
BYLAYER
 10
18.7980193461
 20
37.3993965533
 30
0.0
 11
5.7377420913
 21
-5.5820486521
 31
0.0
 40
0.4190723815
 41
2.2291874567
 42
2.3140462808
  0
ELLIPSE
  5
2CB
100
AcDbEntity
  8
0
100
AcDbEllipse
 62
7
  6
BYLAYER
 10
18.7980193461
 20
37.6852080198
 30
0.0
 11
5.4828143523
 21
-5.2096757279
 31
0.0
 40
0.5540914981
 41
2.3266730069
 42
2.4115318309
  0
ELLIPSE
  5
2CC
100
AcDbEntity
  8
0
100
AcDbEllipse
 62
7
  6
BYLAYER
 10
18.7980193461
 20
38.0110436197
 30
0.0
 11
5.2176625748
 21
-4.7173860144
 31
0.0
 40
0.7084736303
 41
2.4117592562
 42
2.4966180802
  0
ELLIPSE
  5
2CD
100
AcDbEntity
  8
0
100
AcDbEllipse
 62
7
  6
BYLAYER
 10
18.7980193461
 20
38.3616676425
 30
0.0
 11
5.2109918477
 21
-3.7744162015
 31
0.0
 40
0.8882260886
 41
2.4137521002
 42
2.4986109242
  0
ELLIPSE
  5
2CE
100
AcDbEntity
  8
0
100
AcDbEllipse
 62
7
  6
BYLAYER
 10
18.7980193461
 20
39.806585825
 30
0.0
 11
5.8484349246
 21
5.7341242458
 31
0.0
 40
0.3569654666
 41
-2.263583383
 42
-2.178724559
  0
ELLIPSE
  5
2CF
100
AcDbEntity
  8
0
100
AcDbEllipse
 62
7
  6
BYLAYER
 10
18.7980193461
 20
40.0080618899
 30
0.0
 11
6.0272852939
 21
5.9737927201
 31
0.0
 40
0.2405966796
 41
-2.161008544
 42
-2.07614972
  0
ELLIPSE
  5
2D0
100
AcDbEntity
  8
0
100
AcDbEllipse
 62
7
  6
BYLAYER
 10
18.7980193461
 20
40.1409480229
 30
0.0
 11
6.1437219749
 21
6.1273616325
 31
0.0
 40
0.1314368836
 41
-2.0572625723
 42
-1.9724037483
  0
ELLIPSE
  5
2D1
100
AcDbEntity
  8
0
100
AcDbEllipse
 62
7
  6
BYLAYER
 10
18.7980193461
 20
40.1990306161
 30
0.0
 11
6.1941743034
 21
6.1935216361
 31
0.0
 40
0.0261001188
 41
-1.9530103509
 42
-1.8681515269
  0
ELLIPSE
  5
2D2
100
AcDbEntity
  8
0
100
AcDbEllipse
 62
7
  6
BYLAYER
 10
18.7980193461
 20
38.8980895498
 30
0.0
 11
5.1275637983
 21
4.375502673
 31
0.0
 40
0.7950618389
 41
-2.5230348359
 42
-2.4381760119
  0
ELLIPSE
  5
2D3
100
AcDbEntity
  8
0
100
AcDbEllipse
 62
7
  6
BYLAYER
 10
15.7478322645
 20
38.0660698662
 30
0.0
 11
5.2379724667
 21
-3.9201315359
 31
0.0
 40
0.7835698958
 41
4.9489624175
 42
4.9572795834
  0
ELLIPSE
  5
2D4
100
AcDbEntity
  8
0
100
AcDbEllipse
 62
7
  6
BYLAYER
 10
15.7478322645
 20
37.6131787187
 30
0.0
 11
5.3374002648
 21
-4.6887435655
 31
0.0
 40
0.6175397628
 41
-1.3918641245
 42
-1.3592275119
  0
ELLIPSE
  5
2D5
100
AcDbEntity
  8
0
100
AcDbEllipse
 62
7
  6
BYLAYER
 10
15.7478322645
 20
37.2036797146
 30
0.0
 11
5.5535349245
 21
-5.1816512536
 31
0.0
 40
0.4739012908
 41
-1.4875570852
 42
-1.4399653697
  0
ELLIPSE
  5
2D6
100
AcDbEntity
  8
0
100
AcDbEllipse
 62
7
  6
BYLAYER
 10
15.7478322645
 20
36.8567205723
 30
0.0
 11
5.7574888058
 21
-5.5515989194
 31
0.0
 40
0.3475589656
 41
-1.5914722364
 42
-1.5329197114
  0
ELLIPSE
  5
2D7
100
AcDbEntity
  8
0
100
AcDbEllipse
 62
7
  6
BYLAYER
 10
15.7478322645
 20
36.5885247157
 30
0.0
 11
5.9182034101
 21
-5.8216556495
 31
0.0
 40
0.233417624
 41
-1.6982948817
 42
-1.6305888259
  0
ELLIPSE
  5
2D8
100
AcDbEntity
  8
0
100
AcDbEllipse
 62
7
  6
BYLAYER
 10
15.7478322645
 20
36.4116326849
 30
0.0
 11
6.0241331786
 21
-5.9945672204
 31
0.0
 40
0.1272085245
 41
-1.8065345115
 42
-1.7303719988
  0
ELLIPSE
  5
2D9
100
AcDbEntity
  8
0
100
AcDbEllipse
 62
7
  6
BYLAYER
 10
15.7478322645
 20
36.3343157547
 30
0.0
 11
6.0702738594
 21
-6.0690937448
 31
0.0
 40
0.0252337291
 41
-1.9157920893
 42
-1.8310630383
  0
ELLIPSE
  5
2DA
100
AcDbEntity
  8
0
100
AcDbEllipse
 62
7
  6
BYLAYER
 10
11.8774411411
 20
37.844039171
 30
0.0
 11
5.3466051551
 21
4.9833298219
 31
0.0
 40
0.6284414723
 41
-1.8294022682
 42
-1.7445434442
  0
ELLIPSE
  5
2DB
100
AcDbEntity
  8
0
100
AcDbEllipse
 62
7
  6
BYLAYER
 10
11.8774411411
 20
37.536412316
 30
0.0
 11
5.614931583
 21
5.4078085582
 31
0.0
 40
0.4845576459
 41
-1.7361734185
 42
-1.6513145945
  0
ELLIPSE
  5
2DC
100
AcDbEntity
  8
0
100
AcDbEllipse
 62
7
  6
BYLAYER
 10
11.8774411411
 20
37.2757671161
 30
0.0
 11
5.8484349246
 21
5.7341242458
 31
0.0
 40
0.3569654666
 41
-1.6361970515
 42
-1.5513382275
  0
ELLIPSE
  5
2DD
100
AcDbEntity
  8
0
100
AcDbEllipse
 62
7
  6
BYLAYER
 10
11.8774411411
 20
38.5411764706
 30
0.0
 11
6.1962832857
 21
0.0
 31
0.0
 40
0.963433044
 41
-1.2995325731
 42
-1.2146737491
  0
ELLIPSE
  5
2DE
100
AcDbEntity
  8
0
100
AcDbEllipse
 62
7
  6
BYLAYER
 10
11.8774411411
 20
37.0742910513
 30
0.0
 11
6.0272852939
 21
5.9737927201
 31
0.0
 40
0.2405966796
 41
-1.5336222125
 42
-1.4487633885
  0
ELLIPSE
  5
2DF
100
AcDbEntity
  8
0
100
AcDbEllipse
 62
7
  6
BYLAYER
 10
11.8774411411
 20
38.1842633914
 30
0.0
 11
5.1275637983
 21
4.375502673
 31
0.0
 40
0.7950618389
 41
-1.8956485044
 42
-1.8107896804
  0
ELLIPSE
  5
2E0
100
AcDbEntity
  8
0
100
AcDbEllipse
 62
7
  6
BYLAYER
 10
11.8774411411
 20
36.9414049183
 30
0.0
 11
6.1437219749
 21
6.1273616325
 31
0.0
 40
0.1314368836
 41
-1.4298762408
 42
-1.3450174168
  0
ELLIPSE
  5
2E1
100
AcDbEntity
  8
0
100
AcDbEllipse
 62
7
  6
BYLAYER
 10
11.8774411411
 20
38.7206852987
 30
0.0
 11
5.2109918477
 21
-3.7744162015
 31
0.0
 40
0.8882260886
 41
1.7863657687
 42
1.8712245927
  0
ELLIPSE
  5
2E2
100
AcDbEntity
  8
0
100
AcDbEllipse
 62
7
  6
BYLAYER
 10
11.8774411411
 20
39.0713093215
 30
0.0
 11
5.2176625748
 21
-4.7173860144
 31
0.0
 40
0.7084736303
 41
1.7843729247
 42
1.8692317487
  0
ELLIPSE
  5
2E3
100
AcDbEntity
  8
0
100
AcDbEllipse
 62
7
  6
BYLAYER
 10
11.8774411411
 20
39.3971449214
 30
0.0
 11
5.4828143523
 21
-5.2096757279
 31
0.0
 40
0.5540914981
 41
1.6992866754
 42
1.7841454994
  0
ELLIPSE
  5
2E4
100
AcDbEntity
  8
0
100
AcDbEllipse
 62
7
  6
BYLAYER
 10
11.8774411411
 20
39.6829563879
 30
0.0
 11
5.7377420913
 21
-5.5820486521
 31
0.0
 40
0.4190723815
 41
1.6018011253
 42
1.6866599493
  0
ELLIPSE
  5
2E5
100
AcDbEntity
  8
0
100
AcDbEllipse
 62
7
  6
BYLAYER
 10
11.8774411411
 20
39.9153794945
 30
0.0
 11
5.9453163006
 21
-5.864663042
 31
0.0
 40
0.2976481485
 41
1.5002581725
 42
1.5851169965
  0
ELLIPSE
  5
2E6
100
AcDbEntity
  8
0
100
AcDbEllipse
 62
7
  6
BYLAYER
 10
11.8774411411
 20
40.083546395
 30
0.0
 11
6.093593019
 21
-6.0614179041
 31
0.0
 40
0.1853378708
 41
1.3969859062
 42
1.4818447302
  0
ELLIPSE
  5
2E7
100
AcDbEntity
  8
0
100
AcDbEllipse
 62
7
  6
BYLAYER
 10
11.8774411411
 20
40.179593792
 30
0.0
 11
6.1773218411
 21
-6.1714430517
 31
0.0
 40
0.0784868883
 41
1.2929258287
 42
1.3777846527
  0
ELLIPSE
  5
2E8
100
AcDbEntity
  8
0
100
AcDbEllipse
 62
7
  6
BYLAYER
 10
15.7478322645
 20
39.2468654276
 30
0.0
 11
5.2535005409
 21
4.3651886342
 31
0.0
 40
0.6975788556
 41
1.3309829346
 42
1.3532440636
  0
ELLIPSE
  5
2E9
100
AcDbEntity
  8
0
100
AcDbEllipse
 62
7
  6
BYLAYER
 10
15.7478322645
 20
39.6806030922
 30
0.0
 11
5.4433305411
 21
4.9540309513
 31
0.0
 40
0.5432071495
 41
1.3971462889
 42
1.4379738599
  0
ELLIPSE
  5
2EA
100
AcDbEntity
  8
0
100
AcDbEllipse
 62
7
  6
BYLAYER
 10
15.7478322645
 20
40.7221637624
 30
0.0
 11
6.054847162
 21
6.044219375
 31
0.0
 40
0.0759084625
 41
1.7806558204
 42
1.8608049096
  0
ELLIPSE
  5
2EB
100
AcDbEntity
  8
0
100
AcDbEllipse
 62
7
  6
BYLAYER
 10
15.7478322645
 20
40.5943097964
 30
0.0
 11
5.9784252192
 21
5.9203106409
 31
0.0
 40
0.1795626138
 41
1.6803087331
 42
1.7522755272
  0
ELLIPSE
  5
2EC
100
AcDbEntity
  8
0
100
AcDbEllipse
 62
7
  6
BYLAYER
 10
15.7478322645
 20
40.0610624344
 30
0.0
 11
5.659731093
 21
5.3796988643
 31
0.0
 40
0.4089077434
 41
1.4855803297
 42
1.538976913
  0
ELLIPSE
  5
2ED
100
AcDbEntity
  8
0
100
AcDbEllipse
 62
7
  6
BYLAYER
 10
15.7478322645
 20
40.3704535981
 30
0.0
 11
5.8441958392
 21
5.6987611533
 31
0.0
 40
0.2892468447
 41
1.5813789278
 42
1.6446552969
  0
ELLIPSE
  5
2EE
100
AcDbEntity
  8
0
100
AcDbEllipse
 62
7
  6
BYLAYER
 10
11.8774411411
 20
40.1990306161
 30
0.0
 11
6.1941743034
 21
-6.1935216361
 31
0.0
 40
0.0261001188
 41
-1.2734411267
 42
-1.1885823027
  0
ELLIPSE
  5
2EF
100
AcDbEntity
  8
0
100
AcDbEllipse
 62
7
  6
BYLAYER
 10
11.8774411411
 20
40.1409480229
 30
0.0
 11
6.1437219749
 21
-6.1273616325
 31
0.0
 40
0.1314368836
 41
-1.1691889053
 42
-1.0843300813
  0
ELLIPSE
  5
2F0
100
AcDbEntity
  8
0
100
AcDbEllipse
 62
7
  6
BYLAYER
 10
11.8774411411
 20
40.0080618899
 30
0.0
 11
6.0272852939
 21
-5.9737927201
 31
0.0
 40
0.2405966796
 41
-1.0654429336
 42
-0.9805841096
  0
ELLIPSE
  5
2F1
100
AcDbEntity
  8
0
100
AcDbEllipse
 62
7
  6
BYLAYER
 10
11.8774411411
 20
39.806585825
 30
0.0
 11
5.8484349246
 21
-5.7341242458
 31
0.0
 40
0.3569654666
 41
-0.9628680946
 42
-0.8780092706
  0
ELLIPSE
  5
2F2
100
AcDbEntity
  8
0
100
AcDbEllipse
 62
7
  6
BYLAYER
 10
11.8774411411
 20
39.5459406252
 30
0.0
 11
5.614931583
 21
-5.4078085582
 31
0.0
 40
0.4845576459
 41
-0.8628917276
 42
-0.7780329036
  0
ELLIPSE
  5
2F3
100
AcDbEntity
  8
0
100
AcDbEllipse
 62
7
  6
BYLAYER
 10
11.8774411411
 20
39.2383137702
 30
0.0
 11
5.3466051551
 21
-4.9833298219
 31
0.0
 40
0.6284414723
 41
-0.7696628779
 42
-0.6848040539
  0
ELLIPSE
  5
2F4
100
AcDbEntity
  8
0
100
AcDbEllipse
 62
7
  6
BYLAYER
 10
11.8774411411
 20
38.8980895498
 30
0.0
 11
5.1275637983
 21
-4.375502673
 31
0.0
 40
0.7950618389
 41
-0.7034166417
 42
-0.6185578177
  0
ELLIPSE
  5
2F5
100
AcDbEntity
  8
0
100
AcDbEllipse
 62
7
  6
BYLAYER
 10
11.8774411411
 20
38.3616676425
 30
0.0
 11
5.2109918477
 21
3.7744162015
 31
0.0
 40
0.8882260886
 41
0.6429817294
 42
0.7278405534
  0
ELLIPSE
  5
2F6
100
AcDbEntity
  8
0
100
AcDbEllipse
 62
7
  6
BYLAYER
 10
11.8774411411
 20
38.0110436197
 30
0.0
 11
5.2176625748
 21
4.7173860144
 31
0.0
 40
0.7084736303
 41
0.6449745734
 42
0.7298333974
  0
ELLIPSE
  5
2F7
100
AcDbEntity
  8
0
100
AcDbEllipse
 62
7
  6
BYLAYER
 10
11.8774411411
 20
37.6852080198
 30
0.0
 11
5.4828143523
 21
5.2096757279
 31
0.0
 40
0.5540914981
 41
0.7300608227
 42
0.8149196467
  0
ELLIPSE
  5
2F8
100
AcDbEntity
  8
0
100
AcDbEllipse
 62
7
  6
BYLAYER
 10
11.8774411411
 20
36.9027591492
 30
0.0
 11
6.1773218411
 21
6.1714430517
 31
0.0
 40
0.0784868883
 41
1.1364216694
 42
1.2212804935
  0
ELLIPSE
  5
2F9
100
AcDbEntity
  8
0
100
AcDbEllipse
 62
7
  6
BYLAYER
 10
11.8774411411
 20
37.3993965533
 30
0.0
 11
5.7377420913
 21
5.5820486521
 31
0.0
 40
0.4190723815
 41
0.8275463728
 42
0.9124051969
  0
ELLIPSE
  5
2FA
100
AcDbEntity
  8
0
100
AcDbEllipse
 62
7
  6
BYLAYER
 10
11.8774411411
 20
36.9988065462
 30
0.0
 11
6.093593019
 21
6.0614179041
 31
0.0
 40
0.1853378708
 41
1.0323615919
 42
1.1172204159
  0
ELLIPSE
  5
2FB
100
AcDbEntity
  8
0
100
AcDbEllipse
 62
7
  6
BYLAYER
 10
11.8774411411
 20
37.1669734467
 30
0.0
 11
5.9453163006
 21
5.864663042
 31
0.0
 40
0.2976481485
 41
0.9290893256
 42
1.0139481497
  0
ENDSEC
  0
SECTION
  2
OBJECTS
  0
DICTIONARY
  5
C
100
AcDbDictionary
280
0
281
1
  3
ACAD_GROUP
350
D
  3
ACAD_MLINESTYLE
350
17
  3
ACAD_LAYOUT
350
1A
  3
ACAD_PLOTSETTINGS
350
19
  3
ACAD_PLOTSTYLENAME
350
E
  0
DICTIONARY
  5
D
102
{ACAD_REACTORS
330
C
102
}
100
AcDbDictionary
280
0
281
1
  0
ACDBDICTIONARYWDFLT
  5
E
102
{ACAD_REACTORS
330
C
102
}
100
AcDbDictionary
281
1
  3
Normal
350
F
100
AcDbDictionaryWithDefault
340
F
  0
DICTIONARY
  5
17
102
{ACAD_REACTORS
330
C
102
}
100
AcDbDictionary
280
0
281
1
  3
Standard
350
18
  0
DICTIONARY
  5
19
102
{ACAD_REACTORS
330
C
102
}
100
AcDbDictionary
281
1
  0
DICTIONARY
  5
1A
102
{ACAD_REACTORS
330
C
102
}
100
AcDbDictionary
281
1
  3
Model
350
2FC
  3
Layout1
350
2FD
  0
ACDBPLACEHOLDER
  5
F
102
{ACAD_REACTORS
330
E
102
}
  0
MLINESTYLE
  5
18
102
{ACAD_REACTORS
330
17
102
}
100
AcDbMlineStyle
  2
STANDARD
 70
0
  3

 62
256
 51
90.0
 52
90.0
 71
2
 49
0.5
 62
256
  6
BYLAYER
 49
-0.5
 62
256
  6
BYLAYER
  0
LAYOUT
  5
2FC
102
{ACAD_REACTORS
330
1A
102
}
100
AcDbPlotSettings
  1

  2
none_device
  4

  6

 40
0.0
 41
0.0
 42
0.0
 43
0.0
 44
210.0
 45
297.0
 46
0.0
 47
0.0
 48
0.0
 49
0.0
140
0.0
141
0.0
142
1.0
143
1.0
 70
1024
 72
1
 73
0
 74
0
  7

 75
0
147
1.0
148
0.0
149
0.0
100
AcDbLayout
  1
Model
 70
0
 71
0
 10
0.0
 20
0.0
 11
210.0
 21
297.0
 12
0.0
 22
0.0
 32
0.0
 14
0.0
 24
0.0
 34
0.0
 15
0.0
 25
0.0
 35
0.0
146
0.0
 13
0.0
 23
0.0
 33
0.0
 16
1.0
 26
0.0
 36
0.0
 17
0.0
 27
1.0
 37
0.0
 76
0
330
210
345
0
346
0
  0
LAYOUT
  5
2FD
102
{ACAD_REACTORS
330
1A
102
}
100
AcDbPlotSettings
  1

  2
none_device
  4

  6

 40
0.0
 41
0.0
 42
0.0
 43
0.0
 44
210.0
 45
297.0
 46
0.0
 47
0.0
 48
0.0
 49
0.0
140
0.0
141
0.0
142
1.0
143
1.0
 70
0
 72
1
 73
0
 74
0
  7

 75
0
147
1.0
148
0.0
149
0.0
100
AcDbLayout
  1
Layout1
 70
0
 71
1
 10
0.0
 20
0.0
 11
210.0
 21
297.0
 12
0.0
 22
0.0
 32
0.0
 14
0.0
 24
0.0
 34
0.0
 15
0.0
 25
0.0
 35
0.0
146
0.0
 13
0.0
 23
0.0
 33
0.0
 16
1.0
 26
0.0
 36
0.0
 17
0.0
 27
1.0
 37
0.0
 76
0
330
211
345
0
346
0
  0
ENDSEC
  0
EOF
