999
DXF file: C:\Users\sesa63760\Dev\_Creo\CAD\MCADUE0001328_3D-CAD\drw0001_3.dxf
999
Pro/ENGINEER 2019471 by Parametric Technology Corporation
  0
SECTION
  2
HEADER
  9
$ACADVER
  1
AC1024
  9
$DWGCODEPAGE
  3
ANSI_1252
  9
$EXTMAX
 10
632.0314744823
 20
893.8730853392
 30
0.0
  9
$EXTMIN
 10
0.0
 20
0.0
 30
0.0
  9
$LIMMIN
 10
0.0
 20
0.0
  9
$LIMMAX
 10
632.0314744823
 20
893.8730853392
  9
$VIEWCTR
 10
316.0157372411
 20
446.9365426696
  9
$VIEWSIZE
 40
893.8730853392
  9
$CLAYER
  8
0
  9
$LTSCALE
 40
58.2672825999
  9
$CELTYPE
  6
BYLAYER
  9
$DIMSCALE
 40
1.0
  9
$DIMASZ
 40
7.52418422
  9
$DIMEXO
 40
1.0
  9
$DIMDLI
 40
40.2573952508
  9
$DIMEXE
 40
1.0
  9
$DIMCEN
 40
9.5346462436
  9
$DIMLFAC
 40
1.0
  9
$DIMBLK
  1
_FILLED
  9
$DIMALT
 70
0
  9
$DIMALTF
 40
0.0393700787
  9
$DIMTXT
 40
10.533857908
  9
$DIMTOL
 70
1
  9
$DIMLIM
 70
0
  9
$DIMTFAC
 40
1.0
  9
$DIMTP
 40
0.01
  9
$DIMTM
 40
0.01
  9
$DIMGAP
 40
0.625
  9
$DIMDSEP
 70
46
  9
$AUNITS
 70
0
  9
$PDMODE
 70
3
  9
$PDSIZE
 40
0.3125
  9
$HANDSEED
  5
391
  9
$TILEMODE
 70
1
  9
$MEASUREMENT
 70
1
  9
$INSUNITS
 70
4
  0
ENDSEC
  0
SECTION
  2
CLASSES
  0
CLASS
  1
ACDBDICTIONARYWDFLT
  2
AcDbDictionaryWithDefault
  3
AutoCAD 2000
 90
0
 91
1
280
0
281
0
  0
CLASS
  1
ACDBPLACEHOLDER
  2
AcDbPlaceHolder
  3
AutoCAD 2000
 90
0
 91
1
280
0
281
0
  0
CLASS
  1
LAYOUT
  2
AcDbLayout
  3
AutoCAD 2000
 90
0
 91
0
280
0
281
0
  0
ENDSEC
  0
SECTION
  2
TABLES
  0
TABLE
  2
VPORT
  5
8
100
AcDbSymbolTable
 70
2
  0
VPORT
  5
1F4
100
AcDbSymbolTableRecord
100
AcDbViewportTableRecord
  2
*ACTIVE
 70
0
 10
0.0
 20
0.0
 11
1.0
 21
1.0
 12
316.0157372411
 22
446.9365426696
 13
0.0
 23
0.0
 14
1.0
 24
1.0
 15
0.0
 25
0.0
 16
0.0
 26
0.0
 36
1.0
 17
0.0
 27
0.0
 37
0.0
 40
893.8730853392
 41
0.7070707071
 42
50.0
 43
0.0
 44
0.0
 50
0.0
 51
0.0
 71
0
 72
100
 73
1
 74
1
 75
0
 76
0
 77
0
 78
0
  0
ENDTAB
  0
TABLE
  2
LTYPE
  5
5
100
AcDbSymbolTable
 70
6
  0
LTYPE
  5
14
100
AcDbSymbolTableRecord
100
AcDbLinetypeTableRecord
  2
BYBLOCK
 70
0
  3

 72
65
 73
0
 40
0.0
  0
LTYPE
  5
15
100
AcDbSymbolTableRecord
100
AcDbLinetypeTableRecord
  2
BYLAYER
 70
0
  3

 72
65
 73
0
 40
0.0
  0
LTYPE
  5
16
100
AcDbSymbolTableRecord
100
AcDbLinetypeTableRecord
  2
CONTINUOUS
 70
64
  3
Solid line
 72
65
 73
0
 40
0.0
  0
LTYPE
  5
1F5
100
AcDbSymbolTableRecord
100
AcDbLinetypeTableRecord
  2
CENTER
 70
64
  3
____ _ ____ _ ____ _ ____ _ ____ _ ____ _ ____
 72
65
 73
4
 40
0.6
 49
0.375
 74
0
 49
-0.075
 74
0
 49
0.075
 74
0
 49
-0.075
 74
0
  0
LTYPE
  5
1F6
100
AcDbSymbolTableRecord
100
AcDbLinetypeTableRecord
  2
HIDDEN
 70
64
  3
- - - - - - - - - - - - - - - - - - - -
 72
65
 73
2
 40
0.2
 49
0.1
 74
0
 49
-0.1
 74
0
  0
LTYPE
  5
1F7
100
AcDbSymbolTableRecord
100
AcDbLinetypeTableRecord
  2
PHANTOM
 70
64
  3
_____ _ _ _____ _ _ _____ _ _ _____
 72
65
 73
6
 40
0.8
 49
0.45
 74
0
 49
-0.05
 74
0
 49
0.1
 74
0
 49
-0.05
 74
0
 49
0.1
 74
0
 49
-0.05
 74
0
  0
LTYPE
  5
1F8
100
AcDbSymbolTableRecord
100
AcDbLinetypeTableRecord
  2
DOT
 70
64
  3
. . . . . . . . . . . . . . . . . . . .
 72
65
 73
2
 40
0.2
 49
0.1
 74
0
 49
-0.1
 74
0
  0
LTYPE
  5
1F9
100
AcDbSymbolTableRecord
100
AcDbLinetypeTableRecord
  2
DASHED
 70
64
  3
- - - - - - - - - - - - - - - - - - - -
 72
65
 73
2
 40
0.2
 49
0.1
 74
0
 49
-0.1
 74
0
  0
ENDTAB
  0
TABLE
  2
LAYER
  5
2
100
AcDbSymbolTable
 70
36
  0
LAYER
  5
10
100
AcDbSymbolTableRecord
100
AcDbLayerTableRecord
  2
0
 70
0
 62
7
  6
CONTINUOUS
370
-3
390
F
  0
LAYER
  5
1FA
100
AcDbSymbolTableRecord
100
AcDbLayerTableRecord
  2
DEFAULT_1
 70
0
 62
7
  6
CENTER
370
-3
390
F
  0
LAYER
  5
1FB
100
AcDbSymbolTableRecord
100
AcDbLayerTableRecord
  2
DEFAULT_2
 70
0
 62
8
  6
HIDDEN
370
-3
390
F
  0
LAYER
  5
1FC
100
AcDbSymbolTableRecord
100
AcDbLayerTableRecord
  2
DEFAULT_3
 70
0
 62
7
  6
PHANTOM
370
-3
390
F
  0
LAYER
  5
1FD
100
AcDbSymbolTableRecord
100
AcDbLayerTableRecord
  2
00_COMPONENTS
 70
0
 62
7
  6
CONTINUOUS
370
-3
390
F
  0
LAYER
  5
1FE
100
AcDbSymbolTableRecord
100
AcDbLayerTableRecord
  2
01_1_DEFAULT_DATUMS
 70
0
 62
7
  6
CONTINUOUS
370
-3
390
F
  0
LAYER
  5
1FF
100
AcDbSymbolTableRecord
100
AcDbLayerTableRecord
  2
01_PLANES
 70
0
 62
7
  6
CONTINUOUS
370
-3
390
F
  0
LAYER
  5
200
100
AcDbSymbolTableRecord
100
AcDbLayerTableRecord
  2
02_COORD_SYS
 70
0
 62
7
  6
CONTINUOUS
370
-3
390
F
  0
LAYER
  5
201
100
AcDbSymbolTableRecord
100
AcDbLayerTableRecord
  2
03_AXES
 70
0
 62
7
  6
CONTINUOUS
370
-3
390
F
  0
LAYER
  5
202
100
AcDbSymbolTableRecord
100
AcDbLayerTableRecord
  2
04_POINTS
 70
0
 62
7
  6
CONTINUOUS
370
-3
390
F
  0
LAYER
  5
203
100
AcDbSymbolTableRecord
100
AcDbLayerTableRecord
  2
05_CURVES
 70
0
 62
7
  6
CONTINUOUS
370
-3
390
F
  0
LAYER
  5
204
100
AcDbSymbolTableRecord
100
AcDbLayerTableRecord
  2
06_SURFS
 70
0
 62
7
  6
CONTINUOUS
370
-3
390
F
  0
LAYER
  5
205
100
AcDbSymbolTableRecord
100
AcDbLayerTableRecord
  2
07_COSMETICS
 70
0
 62
7
  6
CONTINUOUS
370
-3
390
F
  0
LAYER
  5
206
100
AcDbSymbolTableRecord
100
AcDbLayerTableRecord
  2
10_NOTES
 70
0
 62
7
  6
CONTINUOUS
370
-3
390
F
  0
LAYER
  5
207
100
AcDbSymbolTableRecord
100
AcDbLayerTableRecord
  2
11_NOTES_PUB
 70
0
 62
7
  6
CONTINUOUS
370
-3
390
F
  0
LAYER
  5
208
100
AcDbSymbolTableRecord
100
AcDbLayerTableRecord
  2
13_REF_GTOL
 70
0
 62
7
  6
CONTINUOUS
370
-3
390
F
  0
LAYER
  5
209
100
AcDbSymbolTableRecord
100
AcDbLayerTableRecord
  2
16_MISC
 70
0
 62
7
  6
CONTINUOUS
370
-3
390
F
  0
LAYER
  5
20A
100
AcDbSymbolTableRecord
100
AcDbLayerTableRecord
  2
17_NO_PRINT
 70
0
 62
7
  6
CONTINUOUS
370
-3
390
F
  0
LAYER
  5
20B
100
AcDbSymbolTableRecord
100
AcDbLayerTableRecord
  2
18_DATUM_CAMS_JOINTS
 70
0
 62
7
  6
CONTINUOUS
370
-3
390
F
  0
LAYER
  5
20C
100
AcDbSymbolTableRecord
100
AcDbLayerTableRecord
  2
19_DATUM_FUNCTIONAL
 70
0
 62
7
  6
CONTINUOUS
370
-3
390
F
  0
LAYER
  5
20D
100
AcDbSymbolTableRecord
100
AcDbLayerTableRecord
  2
20_DATUM_KINEMATIC_SCHEME
 70
0
 62
7
  6
CONTINUOUS
370
-3
390
F
  0
ENDTAB
  0
TABLE
  2
STYLE
  5
3
100
AcDbSymbolTable
 70
1
  0
STYLE
  5
11
100
AcDbSymbolTableRecord
100
AcDbTextStyleTableRecord
  2
STANDARD
 70
0
 40
0.0
 41
0.8
 50
0.0
 71
0
 42
0.2
  3
txt
  4

  0
STYLE
  5
20E
100
AcDbSymbolTableRecord
100
AcDbTextStyleTableRecord
  2
TEXTSTYLE_1
 70
0
 40
0.0
 41
0.8
 50
0.0
 71
0
 42
0.2
  3
gdt
  4

  0
ENDTAB
  0
TABLE
  2
VIEW
  5
6
100
AcDbSymbolTable
 70
0
  0
ENDTAB
  0
TABLE
  2
UCS
  5
7
100
AcDbSymbolTable
 70
0
  0
ENDTAB
  0
TABLE
  2
APPID
  5
9
100
AcDbSymbolTable
 70
1
  0
APPID
  5
20F
100
AcDbSymbolTableRecord
100
AcDbRegAppTableRecord
  2
ACAD
 70
0
  0
ENDTAB
  0
TABLE
  2
BLOCK_RECORD
  5
1
100
AcDbSymbolTable
 70
0
  0
BLOCK_RECORD
  5
210
100
AcDbSymbolTableRecord
100
AcDbBlockTableRecord
  2
*Model_Space
  0
BLOCK_RECORD
  5
211
100
AcDbSymbolTableRecord
100
AcDbBlockTableRecord
  2
*Paper_Space
  0
BLOCK_RECORD
  5
212
100
AcDbSymbolTableRecord
100
AcDbBlockTableRecord
  2
_FILLED
  0
ENDTAB
  0
TABLE
  2
DIMSTYLE
  5
A
100
AcDbSymbolTable
 70
1
100
AcDbDimStyleTable
 71
0
  0
DIMSTYLE
105
213
100
AcDbSymbolTableRecord
100
AcDbDimStyleTableRecord
  2
STANDARD
 70
0
  3

  4

 40
1.0
 41
7.52418422
 42
1.0
 43
0.38
 44
1.0
 45
0.0
 46
0.0
 47
0.01
 48
0.01
140
10.533857908
141
0.09
142
0.0
143
25.4
144
1.0
145
0.0
146
1.0
147
0.625
 71
1
 72
0
 73
0
 74
0
 75
0
 76
0
 77
1
 78
8
 79
2
170
0
171
1
172
0
173
0
174
0
175
0
176
0
177
0
178
0
270
2
179
2
271
2
272
2
273
2
274
2
275
0
280
0
281
0
282
0
283
1
284
8
285
0
286
0
287
3
288
0
340
11
278
46
341
212
342
212
343
212
344
212
  0
ENDTAB
  0
ENDSEC
  0
SECTION
  2
BLOCKS
  0
BLOCK
  5
20
100
AcDbEntity
  8
0
100
AcDbBlockBegin
  2
*Model_Space
 70
0
 10
0.0
 20
0.0
 30
0.0
  3
*Model_Space
  1

  0
ENDBLK
  5
21
100
AcDbEntity
  8
0
100
AcDbBlockEnd
  0
BLOCK
  5
1C
100
AcDbEntity
  8
0
100
AcDbBlockBegin
  2
*Paper_Space
 70
0
 10
0.0
 20
0.0
 30
0.0
  3
*Paper_Space
  1

  0
ENDBLK
  5
1D
100
AcDbEntity
  8
0
100
AcDbBlockEnd
  0
BLOCK
  5
214
100
AcDbEntity
  8
0
100
AcDbBlockBegin
  2
_FILLED
 70
64
 10
0.0
 20
0.0
  3
_FILLED
  1

  0
SOLID
  5
215
100
AcDbEntity
  8
0
  6
BYBLOCK
 62
0
100
AcDbTrace
 10
0.0
 20
0.0
 11
-1.0
 21
0.25
 12
-1.0
 22
-0.25
 13
-1.0
 23
-0.25
  0
ENDBLK
  5
216
100
AcDbEntity
  8
0
  6
BYBLOCK
 62
0
100
AcDbBlockEnd
  0
ENDSEC
  0
SECTION
  2
ENTITIES
  0
LINE
  5
217
100
AcDbEntity
  8
0
100
AcDbLine
 62
7
  6
CONTINUOUS
 10
74.7684724709
 20
328.7796465909
 11
74.7684724709
 21
550.1796465909
  0
LINE
  5
218
100
AcDbEntity
  8
0
100
AcDbLine
 62
7
  6
CONTINUOUS
 10
75.9684724709
 20
550.1796465909
 11
75.9684724709
 21
328.7796465909
  0
LINE
  5
219
100
AcDbEntity
  8
0
100
AcDbLine
 62
7
  6
CONTINUOUS
 10
77.1684724709
 20
327.5796465909
 11
77.1684724709
 21
326.3796465919
  0
LINE
  5
21A
100
AcDbEntity
  8
0
100
AcDbLine
 62
7
  6
CONTINUOUS
 10
77.4394915287
 20
513.1796465909
 11
77.4394915287
 21
521.1796465909
  0
LINE
  5
21B
100
AcDbEntity
  8
0
100
AcDbLine
 62
7
  6
CONTINUOUS
 10
77.9684724709
 20
553.3796465909
 11
77.9684724709
 21
552.1796465909
  0
LINE
  5
21C
100
AcDbEntity
  8
0
100
AcDbLine
 62
7
  6
CONTINUOUS
 10
77.9684724709
 20
510.1796465909
 11
77.9684724708
 21
524.1796465909
  0
LINE
  5
21D
100
AcDbEntity
  8
0
100
AcDbLine
 62
7
  6
CONTINUOUS
 10
80.4595623094
 20
523.1796465909
 11
80.4595623094
 21
511.1796465909
  0
LINE
  5
21E
100
AcDbEntity
  8
0
100
AcDbLine
 62
7
  6
CONTINUOUS
 10
80.4684724709
 20
510.1796465909
 11
80.4684724709
 21
524.1796465909
  0
LINE
  5
21F
100
AcDbEntity
  8
0
100
AcDbLine
 62
7
  6
CONTINUOUS
 10
80.7684724709
 20
553.5796465909
 11
80.7684724709
 21
553.3796465909
  0
LINE
  5
220
100
AcDbEntity
  8
0
100
AcDbLine
 62
7
  6
CONTINUOUS
 10
81.4684724709
 20
511.1819154157
 11
81.4684724709
 21
523.1773777661
  0
LINE
  5
221
100
AcDbEntity
  8
0
100
AcDbLine
 62
7
  6
CONTINUOUS
 10
82.3684724709
 20
510.6796465909
 11
82.3684724709
 21
523.6796465909
  0
LINE
  5
222
100
AcDbEntity
  8
0
100
AcDbLine
 62
7
  6
CONTINUOUS
 10
84.2684724709
 20
553.1796465909
 11
84.2684724709
 21
553.0795856365
  0
LINE
  5
223
100
AcDbEntity
  8
0
100
AcDbLine
 62
7
  6
CONTINUOUS
 10
82.922771929
 20
552.5926741112
 11
82.7653152619
 21
546.5796465909
  0
LINE
  5
224
100
AcDbEntity
  8
0
100
AcDbLine
 62
7
  6
CONTINUOUS
 10
81.7718058042
 20
552.1796465909
 11
81.6359364322
 21
550.1416060109
  0
LINE
  5
225
100
AcDbEntity
  8
0
100
AcDbLine
 62
7
  6
CONTINUOUS
 10
77.4394915287
 20
521.1796465909
 11
77.9684724708
 21
524.1796465909
  0
LINE
  5
226
100
AcDbEntity
  8
0
100
AcDbLine
 62
7
  6
CONTINUOUS
 10
89.2684724709
 20
546.5796465909
 11
89.8677347404
 21
549.6220550364
  0
LINE
  5
227
100
AcDbEntity
  8
0
100
AcDbLine
 62
7
  6
CONTINUOUS
 10
101.2684697592
 20
345.3796462625
 11
101.7684710173
 21
343.3796399883
  0
LINE
  5
228
100
AcDbEntity
  8
0
100
AcDbLine
 62
7
  6
CONTINUOUS
 10
89.7651391376
 20
552.1796465909
 11
89.9010085095
 21
550.1416060109
  0
LINE
  5
229
100
AcDbEntity
  8
0
100
AcDbLine
 62
7
  6
CONTINUOUS
 10
88.6141730128
 20
552.5926741112
 11
88.7716296798
 21
546.5796465909
  0
LINE
  5
22A
100
AcDbEntity
  8
0
100
AcDbLine
 62
7
  6
CONTINUOUS
 10
86.9684724709
 20
522.7796465909
 11
86.9684724709
 21
511.5796465909
  0
LINE
  5
22B
100
AcDbEntity
  8
0
100
AcDbLine
 62
7
  6
CONTINUOUS
 10
87.2684724709
 20
553.1796465909
 11
87.2684724709
 21
553.0795856365
  0
LINE
  5
22C
100
AcDbEntity
  8
0
100
AcDbLine
 62
7
  6
CONTINUOUS
 10
88.7684724709
 20
324.8796465909
 11
88.7684724709
 21
326.3796465909
  0
LINE
  5
22D
100
AcDbEntity
  8
0
100
AcDbLine
 62
7
  6
CONTINUOUS
 10
90.7684724709
 20
553.5796465909
 11
90.7684724709
 21
553.3796465909
  0
LINE
  5
22E
100
AcDbEntity
  8
0
100
AcDbLine
 62
7
  6
CONTINUOUS
 10
91.6184724709
 20
326.3796465909
 11
91.6184724709
 21
327.5796465909
  0
LINE
  5
22F
100
AcDbEntity
  8
0
100
AcDbLine
 62
7
  6
CONTINUOUS
 10
91.7684724709
 20
343.3796341739
 11
91.7684724709
 21
329.7796465909
  0
LINE
  5
230
100
AcDbEntity
  8
0
100
AcDbLine
 62
7
  6
CONTINUOUS
 10
91.7684724709
 20
328.1796465909
 11
91.7684724709
 21
326.3796465909
  0
LINE
  5
231
100
AcDbEntity
  8
0
100
AcDbLine
 62
7
  6
CONTINUOUS
 10
92.3422784627
 20
553.3796465909
 11
92.3422784627
 21
552.1796465909
  0
LINE
  5
232
100
AcDbEntity
  8
0
100
AcDbLine
 62
7
  6
CONTINUOUS
 10
92.3698274029
 20
572.0086173854
 11
92.3698274029
 21
571.7796465909
  0
LINE
  5
233
100
AcDbEntity
  8
0
100
AcDbLine
 62
7
  6
CONTINUOUS
 10
92.5184724709
 20
324.8796465909
 11
92.5184724709
 21
327.8796465909
  0
LINE
  5
234
100
AcDbEntity
  8
0
100
AcDbLine
 62
7
  6
CONTINUOUS
 10
93.9684724709
 20
512.9297634843
 11
93.9684724709
 21
521.4295296975
  0
LINE
  5
235
100
AcDbEntity
  8
0
100
AcDbLine
 62
7
  6
CONTINUOUS
 10
94.2684724709
 20
327.8796465909
 11
94.2684724709
 21
342.8796465909
  0
LINE
  5
236
100
AcDbEntity
  8
0
100
AcDbLine
 62
7
  6
CONTINUOUS
 10
94.3863151418
 20
572.0600837918
 11
94.3863151418
 21
572.242844249
  0
LINE
  5
237
100
AcDbEntity
  8
0
100
AcDbLine
 62
7
  6
CONTINUOUS
 10
95.4834854498
 20
555.990235376
 11
95.4834854497
 21
555.7612645694
  0
LINE
  5
238
100
AcDbEntity
  8
0
100
AcDbLine
 62
7
  6
CONTINUOUS
 10
95.5979561103
 20
564.68208722
 11
95.5979561103
 21
564.4993267629
  0
LINE
  5
239
100
AcDbEntity
  8
0
100
AcDbLine
 62
7
  6
CONTINUOUS
 10
95.9684724709
 20
522.7796465909
 11
95.9684724709
 21
511.5796465909
  0
LINE
  5
23A
100
AcDbEntity
  8
0
100
AcDbLine
 62
7
  6
CONTINUOUS
 10
99.2684724709
 20
327.8796465909
 11
99.2684724709
 21
342.8796465909
  0
LINE
  5
23B
100
AcDbEntity
  8
0
100
AcDbLine
 62
7
  6
CONTINUOUS
 10
101.0184724709
 20
324.8796465909
 11
101.0184724709
 21
327.8796465909
  0
LINE
  5
23C
100
AcDbEntity
  8
0
100
AcDbLine
 62
7
  6
CONTINUOUS
 10
101.7684724709
 20
343.3796341739
 11
101.7684724709
 21
329.7796465909
  0
LINE
  5
23D
100
AcDbEntity
  8
0
100
AcDbLine
 62
7
  6
CONTINUOUS
 10
101.7684724709
 20
328.1796465909
 11
101.7684724709
 21
326.3796465909
  0
LINE
  5
23E
100
AcDbEntity
  8
0
100
AcDbLine
 62
7
  6
CONTINUOUS
 10
101.9184724709
 20
326.3796465909
 11
101.9184724709
 21
327.5796465909
  0
LINE
  5
23F
100
AcDbEntity
  8
0
100
AcDbLine
 62
7
  6
CONTINUOUS
 10
77.4394915287
 20
513.1796465909
 11
77.9684724708
 21
510.1796465909
  0
LINE
  5
240
100
AcDbEntity
  8
0
100
AcDbLine
 62
7
  6
CONTINUOUS
 10
104.7684724709
 20
324.8796465909
 11
104.7684724709
 21
326.3796465909
  0
LINE
  5
241
100
AcDbEntity
  8
0
100
AcDbLine
 62
7
  6
CONTINUOUS
 10
105.2684724709
 20
334.0796465909
 11
105.2684724709
 21
336.5796465909
  0
LINE
  5
242
100
AcDbEntity
  8
0
100
AcDbLine
 62
7
  6
CONTINUOUS
 10
105.7684724709
 20
336.5796465909
 11
105.7684724709
 21
338.4796465909
  0
LINE
  5
243
100
AcDbEntity
  8
0
100
AcDbLine
 62
7
  6
CONTINUOUS
 10
106.2684724709
 20
336.5707364294
 11
106.2684724709
 21
337.5796465909
  0
LINE
  5
244
100
AcDbEntity
  8
0
100
AcDbLine
 62
7
  6
CONTINUOUS
 10
106.6684724709
 20
338.4796465909
 11
106.6684724709
 21
355.2796465909
  0
LINE
  5
245
100
AcDbEntity
  8
0
100
AcDbLine
 62
7
  6
CONTINUOUS
 10
107.4187302097
 20
344.2796465909
 11
107.4187302097
 21
355.2796465909
  0
LINE
  5
246
100
AcDbEntity
  8
0
100
AcDbLine
 62
7
  6
CONTINUOUS
 10
107.7684724709
 20
327.5796465909
 11
107.7684724709
 21
333.6388291391
  0
LINE
  5
247
100
AcDbEntity
  8
0
100
AcDbLine
 62
7
  6
CONTINUOUS
 10
108.0184724709
 20
337.5796465909
 11
108.0184724709
 21
353.2796465909
  0
LINE
  5
248
100
AcDbEntity
  8
0
100
AcDbLine
 62
7
  6
CONTINUOUS
 10
109.4684724709
 20
344.2796465909
 11
109.4684724709
 21
355.2796465909
  0
LINE
  5
249
100
AcDbEntity
  8
0
100
AcDbLine
 62
7
  6
CONTINUOUS
 10
112.2684724709
 20
355.2796465909
 11
112.2684724709
 21
344.2796465909
  0
LINE
  5
24A
100
AcDbEntity
  8
0
100
AcDbLine
 62
7
  6
CONTINUOUS
 10
115.0684724709
 20
355.2796465909
 11
115.0684724709
 21
344.2796465909
  0
LINE
  5
24B
100
AcDbEntity
  8
0
100
AcDbLine
 62
7
  6
CONTINUOUS
 10
116.5184724709
 20
353.2796465909
 11
116.5184724709
 21
337.5796465909
  0
LINE
  5
24C
100
AcDbEntity
  8
0
100
AcDbLine
 62
7
  6
CONTINUOUS
 10
116.7684724709
 20
327.5796465909
 11
116.7684724709
 21
333.6388291391
  0
LINE
  5
24D
100
AcDbEntity
  8
0
100
AcDbLine
 62
7
  6
CONTINUOUS
 10
117.1182147321
 20
355.2796465909
 11
117.1182147321
 21
344.2796465909
  0
LINE
  5
24E
100
AcDbEntity
  8
0
100
AcDbLine
 62
7
  6
CONTINUOUS
 10
117.8684724709
 20
338.4796465909
 11
117.8684724709
 21
355.2796465909
  0
LINE
  5
24F
100
AcDbEntity
  8
0
100
AcDbLine
 62
7
  6
CONTINUOUS
 10
118.2684724709
 20
337.5796465909
 11
118.2684724709
 21
336.5707364294
  0
LINE
  5
250
100
AcDbEntity
  8
0
100
AcDbLine
 62
7
  6
CONTINUOUS
 10
118.7684724709
 20
336.5796465909
 11
118.7684724709
 21
338.4796465909
  0
LINE
  5
251
100
AcDbEntity
  8
0
100
AcDbLine
 62
7
  6
CONTINUOUS
 10
119.2684724709
 20
334.0796465909
 11
119.2684724709
 21
336.5796465909
  0
LINE
  5
252
100
AcDbEntity
  8
0
100
AcDbLine
 62
7
  6
CONTINUOUS
 10
98.9684724709
 20
517.1796465909
 11
95.9684724709
 21
513.9296465909
  0
LINE
  5
253
100
AcDbEntity
  8
0
100
AcDbLine
 62
7
  6
CONTINUOUS
 10
112.2684724709
 20
358.2796465909
 11
115.5184724709
 21
355.2796465909
  0
LINE
  5
254
100
AcDbEntity
  8
0
100
AcDbLine
 62
7
  6
CONTINUOUS
 10
82.2684724709
 20
546.5796465909
 11
81.6692102014
 21
549.6220550364
  0
LINE
  5
255
100
AcDbEntity
  8
0
100
AcDbLine
 62
7
  6
CONTINUOUS
 10
91.1918747828
 20
571.7796465909
 11
94.3055328296
 21
555.7612645817
  0
LINE
  5
256
100
AcDbEntity
  8
0
100
AcDbLine
 62
7
  6
CONTINUOUS
 10
92.3698274029
 20
571.7796465909
 11
95.4834854497
 21
555.7612645817
  0
LINE
  5
257
100
AcDbEntity
  8
0
100
AcDbLine
 62
7
  6
CONTINUOUS
 10
92.3698274029
 20
572.0086173854
 11
95.4834854497
 21
555.9902353761
  0
LINE
  5
258
100
AcDbEntity
  8
0
100
AcDbLine
 62
7
  6
CONTINUOUS
 10
95.5979561103
 20
564.6820872201
 11
94.3801172729
 21
572.2558801558
  0
LINE
  5
259
100
AcDbEntity
  8
0
100
AcDbLine
 62
7
  6
CONTINUOUS
 10
94.3863151418
 20
572.0600837918
 11
95.5979561103
 21
564.4993267629
  0
LINE
  5
25A
100
AcDbEntity
  8
0
100
AcDbLine
 62
7
  6
CONTINUOUS
 10
94.3863151418
 20
572.242844249
 11
95.5979561103
 21
564.6820872201
  0
LINE
  5
25B
100
AcDbEntity
  8
0
100
AcDbLine
 62
7
  6
CONTINUOUS
 10
92.6654271415
 20
572.0593886723
 11
93.7876277993
 21
564.4919960851
  0
LINE
  5
25C
100
AcDbEntity
  8
0
100
AcDbLine
 62
7
  6
CONTINUOUS
 10
93.8521119753
 20
572.2376701769
 11
94.9746468045
 21
564.6680241546
  0
LINE
  5
25D
100
AcDbEntity
  8
0
100
AcDbLine
 62
7
  6
CONTINUOUS
 10
92.2684751826
 20
345.3796462625
 11
91.7684739245
 21
343.3796399883
  0
LINE
  5
25E
100
AcDbEntity
  8
0
100
AcDbLine
 62
7
  6
CONTINUOUS
 10
541.7684724709
 20
333.6388291391
 11
544.2684724709
 21
334.0796465909
  0
LINE
  5
25F
100
AcDbEntity
  8
0
100
AcDbLine
 62
7
  6
CONTINUOUS
 10
107.7684724709
 20
333.6388291391
 11
105.2684724709
 21
334.0796465909
  0
LINE
  5
260
100
AcDbEntity
  8
0
100
AcDbLine
 62
7
  6
CONTINUOUS
 10
560.7684724709
 20
324.8796465909
 11
544.7684724709
 21
324.8796465909
  0
LINE
  5
261
100
AcDbEntity
  8
0
100
AcDbLine
 62
7
  6
CONTINUOUS
 10
104.7684724709
 20
324.8796465909
 11
88.7684724709
 21
324.8796465909
  0
LINE
  5
262
100
AcDbEntity
  8
0
100
AcDbLine
 62
7
  6
CONTINUOUS
 10
572.3684724709
 20
326.3796465909
 11
77.1684724709
 21
326.3796465909
  0
LINE
  5
263
100
AcDbEntity
  8
0
100
AcDbLine
 62
7
  6
CONTINUOUS
 10
572.3684724709
 20
327.5796465909
 11
77.1684724709
 21
327.5796465909
  0
LINE
  5
264
100
AcDbEntity
  8
0
100
AcDbLine
 62
7
  6
CONTINUOUS
 10
92.5184724709
 20
327.8796465909
 11
101.0184724709
 21
327.8796465909
  0
LINE
  5
265
100
AcDbEntity
  8
0
100
AcDbLine
 62
7
  6
CONTINUOUS
 10
548.5184724709
 20
327.8796465909
 11
557.0184724709
 21
327.8796465909
  0
LINE
  5
266
100
AcDbEntity
  8
0
100
AcDbLine
 62
7
  6
CONTINUOUS
 10
90.2684724709
 20
328.1796465909
 11
103.2684724709
 21
328.1796465909
  0
LINE
  5
267
100
AcDbEntity
  8
0
100
AcDbLine
 62
7
  6
CONTINUOUS
 10
546.2684724709
 20
328.1796465909
 11
559.2684724709
 21
328.1796465909
  0
LINE
  5
268
100
AcDbEntity
  8
0
100
AcDbLine
 62
7
  6
CONTINUOUS
 10
574.7684724709
 20
328.7796465909
 11
74.7684724718
 21
328.7796465909
  0
LINE
  5
269
100
AcDbEntity
  8
0
100
AcDbLine
 62
7
  6
CONTINUOUS
 10
90.2684724709
 20
329.7796465909
 11
103.2684724709
 21
329.7796465909
  0
LINE
  5
26A
100
AcDbEntity
  8
0
100
AcDbLine
 62
7
  6
CONTINUOUS
 10
546.2684724709
 20
329.7796465909
 11
559.2684724709
 21
329.7796465909
  0
LINE
  5
26B
100
AcDbEntity
  8
0
100
AcDbLine
 62
7
  6
CONTINUOUS
 10
541.7684724709
 20
333.6388291391
 11
532.7684724709
 21
333.6388291391
  0
LINE
  5
26C
100
AcDbEntity
  8
0
100
AcDbLine
 62
7
  6
CONTINUOUS
 10
116.7684724709
 20
333.6388291391
 11
107.7684724709
 21
333.6388291391
  0
LINE
  5
26D
100
AcDbEntity
  8
0
100
AcDbLine
 62
7
  6
CONTINUOUS
 10
544.2684724709
 20
334.0796465909
 11
530.2684724709
 21
334.0796465909
  0
LINE
  5
26E
100
AcDbEntity
  8
0
100
AcDbLine
 62
7
  6
CONTINUOUS
 10
119.2684724709
 20
334.0796465909
 11
105.2684724709
 21
334.0796465909
  0
LINE
  5
26F
100
AcDbEntity
  8
0
100
AcDbLine
 62
7
  6
CONTINUOUS
 10
106.2684724709
 20
336.5707364294
 11
118.2684724709
 21
336.5707364294
  0
LINE
  5
270
100
AcDbEntity
  8
0
100
AcDbLine
 62
7
  6
CONTINUOUS
 10
531.2684724709
 20
336.5707364294
 11
543.2684724709
 21
336.5707364294
  0
LINE
  5
271
100
AcDbEntity
  8
0
100
AcDbLine
 62
7
  6
CONTINUOUS
 10
544.2684724709
 20
336.5796465909
 11
530.2684724709
 21
336.5796465909
  0
LINE
  5
272
100
AcDbEntity
  8
0
100
AcDbLine
 62
7
  6
CONTINUOUS
 10
119.2684724709
 20
336.5796465909
 11
105.2684724709
 21
336.5796465909
  0
LINE
  5
273
100
AcDbEntity
  8
0
100
AcDbLine
 62
7
  6
CONTINUOUS
 10
543.2662036461
 20
337.5796465909
 11
531.2707412957
 21
337.5796465909
  0
LINE
  5
274
100
AcDbEntity
  8
0
100
AcDbLine
 62
7
  6
CONTINUOUS
 10
118.2684724709
 20
337.5796465909
 11
106.2684724709
 21
337.5796465909
  0
LINE
  5
275
100
AcDbEntity
  8
0
100
AcDbLine
 62
7
  6
CONTINUOUS
 10
543.7684724709
 20
338.4796465909
 11
530.7684724709
 21
338.4796465909
  0
LINE
  5
276
100
AcDbEntity
  8
0
100
AcDbLine
 62
7
  6
CONTINUOUS
 10
118.7684724709
 20
338.4796465909
 11
105.7684724709
 21
338.4796465909
  0
LINE
  5
277
100
AcDbEntity
  8
0
100
AcDbLine
 62
7
  6
CONTINUOUS
 10
98.9684724709
 20
517.1796465909
 11
95.9684724709
 21
520.4296465909
  0
LINE
  5
278
100
AcDbEntity
  8
0
100
AcDbLine
 62
7
  6
CONTINUOUS
 10
94.2684724709
 20
342.8796465909
 11
99.2684724709
 21
342.8796465909
  0
LINE
  5
279
100
AcDbEntity
  8
0
100
AcDbLine
 62
7
  6
CONTINUOUS
 10
550.2684724709
 20
342.8796465909
 11
555.2684724709
 21
342.8796465909
  0
LINE
  5
27A
100
AcDbEntity
  8
0
100
AcDbLine
 62
7
  6
CONTINUOUS
 10
91.7684739245
 20
343.3796399883
 11
101.7684710173
 21
343.3796399883
  0
LINE
  5
27B
100
AcDbEntity
  8
0
100
AcDbLine
 62
7
  6
CONTINUOUS
 10
547.7684739245
 20
343.3796399883
 11
557.7684710173
 21
343.3796399883
  0
LINE
  5
27C
100
AcDbEntity
  8
0
100
AcDbLine
 62
7
  6
CONTINUOUS
 10
542.8684724709
 20
344.2796465909
 11
531.6684724709
 21
344.2796465909
  0
LINE
  5
27D
100
AcDbEntity
  8
0
100
AcDbLine
 62
7
  6
CONTINUOUS
 10
117.8684724709
 20
344.2796465909
 11
106.6684724709
 21
344.2796465909
  0
LINE
  5
27E
100
AcDbEntity
  8
0
100
AcDbLine
 62
7
  6
CONTINUOUS
 10
92.2684751826
 20
345.3796462625
 11
101.2684697592
 21
345.3796462625
  0
LINE
  5
27F
100
AcDbEntity
  8
0
100
AcDbLine
 62
7
  6
CONTINUOUS
 10
548.2684751826
 20
345.3796462625
 11
557.2684697592
 21
345.3796462625
  0
LINE
  5
280
100
AcDbEntity
  8
0
100
AcDbLine
 62
7
  6
CONTINUOUS
 10
541.5183555775
 20
353.2796465909
 11
533.0185893643
 21
353.2796465909
  0
LINE
  5
281
100
AcDbEntity
  8
0
100
AcDbLine
 62
7
  6
CONTINUOUS
 10
116.5184724709
 20
353.2796465909
 11
108.0184724709
 21
353.2796465909
  0
LINE
  5
282
100
AcDbEntity
  8
0
100
AcDbLine
 62
7
  6
CONTINUOUS
 10
542.8684724709
 20
355.2796465909
 11
531.6684724709
 21
355.2796465909
  0
LINE
  5
283
100
AcDbEntity
  8
0
100
AcDbLine
 62
7
  6
CONTINUOUS
 10
117.8684724709
 20
355.2796465909
 11
106.6684724709
 21
355.2796465909
  0
LINE
  5
284
100
AcDbEntity
  8
0
100
AcDbLine
 62
7
  6
CONTINUOUS
 10
112.2684724709
 20
358.2796465909
 11
109.0184724709
 21
355.2796465909
  0
LINE
  5
285
100
AcDbEntity
  8
0
100
AcDbLine
 62
7
  6
CONTINUOUS
 10
116.7684724709
 20
333.6388291391
 11
119.2684724709
 21
334.0796465909
  0
LINE
  5
286
100
AcDbEntity
  8
0
100
AcDbLine
 62
7
  6
CONTINUOUS
 10
532.7684724709
 20
333.6388291391
 11
530.2684724709
 21
334.0796465909
  0
LINE
  5
287
100
AcDbEntity
  8
0
100
AcDbLine
 62
7
  6
CONTINUOUS
 10
564.1624437525
 20
568.2037606747
 11
558.7292229029
 21
565.8974952532
  0
LINE
  5
288
100
AcDbEntity
  8
0
100
AcDbLine
 62
7
  6
CONTINUOUS
 10
564.7485404451
 20
566.8230033945
 11
559.3153195954
 21
564.5167379729
  0
LINE
  5
289
100
AcDbEntity
  8
0
100
AcDbLine
 62
7
  6
CONTINUOUS
 10
568.4513529027
 20
567.0469037464
 11
568.0510366405
 21
566.7473258931
  0
LWPOLYLINE
  5
28A
100
AcDbEntity
  8
0
100
AcDbPolyline
 62
7
  6
CONTINUOUS
 90
4
 70
0
 10
562.7714985743
 20
555.299411806
 10
562.7627579131
 20
555.2970278004
 10
562.7569536757
 20
555.2937269665
 10
562.7541313378
 20
555.2895350421
  0
LINE
  5
28B
100
AcDbEntity
  8
0
100
AcDbLine
 62
7
  6
CONTINUOUS
 10
571.5684724709
 20
510.1796465909
 11
569.0684724709
 21
510.1796465909
  0
LINE
  5
28C
100
AcDbEntity
  8
0
100
AcDbLine
 62
7
  6
CONTINUOUS
 10
77.9684724709
 20
510.1796465909
 11
80.4684724709
 21
510.1796465909
  0
LINE
  5
28D
100
AcDbEntity
  8
0
100
AcDbLine
 62
7
  6
CONTINUOUS
 10
569.0684724709
 20
510.6796465909
 11
567.1684724709
 21
510.6796465909
  0
LINE
  5
28E
100
AcDbEntity
  8
0
100
AcDbLine
 62
7
  6
CONTINUOUS
 10
80.4684724709
 20
510.6796465909
 11
82.3684724709
 21
510.6796465909
  0
LINE
  5
28F
100
AcDbEntity
  8
0
100
AcDbLine
 62
7
  6
CONTINUOUS
 10
569.0773826324
 20
511.1796465909
 11
568.0684724709
 21
511.1796465909
  0
LINE
  5
290
100
AcDbEntity
  8
0
100
AcDbLine
 62
7
  6
CONTINUOUS
 10
80.4595623094
 20
511.1796465909
 11
81.4684724709
 21
511.1796465909
  0
LINE
  5
291
100
AcDbEntity
  8
0
100
AcDbLine
 62
7
  6
CONTINUOUS
 10
567.1684724709
 20
511.5796465909
 11
553.5684724709
 21
511.5796465909
  0
LINE
  5
292
100
AcDbEntity
  8
0
100
AcDbLine
 62
7
  6
CONTINUOUS
 10
82.3684724709
 20
511.5796465909
 11
95.9684724709
 21
511.5796465909
  0
LINE
  5
293
100
AcDbEntity
  8
0
100
AcDbLine
 62
7
  6
CONTINUOUS
 10
568.0684724709
 20
512.9296465909
 11
555.5684724709
 21
512.9296465909
  0
LINE
  5
294
100
AcDbEntity
  8
0
100
AcDbLine
 62
7
  6
CONTINUOUS
 10
81.4684724709
 20
512.9296465909
 11
93.9684724709
 21
512.9296465909
  0
LINE
  5
295
100
AcDbEntity
  8
0
100
AcDbLine
 62
7
  6
CONTINUOUS
 10
573.5684724709
 20
513.1796465909
 11
572.0974534131
 21
513.1796465909
  0
LINE
  5
296
100
AcDbEntity
  8
0
100
AcDbLine
 62
7
  6
CONTINUOUS
 10
75.9684724709
 20
513.1796465909
 11
77.4394915287
 21
513.1796465909
  0
LINE
  5
297
100
AcDbEntity
  8
0
100
AcDbLine
 62
7
  6
CONTINUOUS
 10
562.5684724709
 20
514.3796465909
 11
553.5684724709
 21
514.3796465909
  0
LINE
  5
298
100
AcDbEntity
  8
0
100
AcDbLine
 62
7
  6
CONTINUOUS
 10
95.9684724709
 20
514.3796465909
 11
86.9684724709
 21
514.3796465909
  0
LINE
  5
299
100
AcDbEntity
  8
0
100
AcDbLine
 62
7
  6
CONTINUOUS
 10
562.5684724709
 20
519.9796465909
 11
553.5684724709
 21
519.9796465909
  0
LINE
  5
29A
100
AcDbEntity
  8
0
100
AcDbLine
 62
7
  6
CONTINUOUS
 10
86.9684724709
 20
519.9796465909
 11
95.9684724709
 21
519.9796465909
  0
LINE
  5
29B
100
AcDbEntity
  8
0
100
AcDbLine
 62
7
  6
CONTINUOUS
 10
573.5684724709
 20
521.1796465909
 11
572.0974534131
 21
521.1796465909
  0
LINE
  5
29C
100
AcDbEntity
  8
0
100
AcDbLine
 62
7
  6
CONTINUOUS
 10
75.9684724709
 20
521.1796465909
 11
77.4394915287
 21
521.1796465909
  0
LINE
  5
29D
100
AcDbEntity
  8
0
100
AcDbLine
 62
7
  6
CONTINUOUS
 10
568.0684724709
 20
521.4296465909
 11
555.5684724709
 21
521.4296465909
  0
LINE
  5
29E
100
AcDbEntity
  8
0
100
AcDbLine
 62
7
  6
CONTINUOUS
 10
81.4684724709
 20
521.4296465909
 11
93.9684724709
 21
521.4296465909
  0
LINE
  5
29F
100
AcDbEntity
  8
0
100
AcDbLine
 62
7
  6
CONTINUOUS
 10
82.3684724709
 20
522.7796465909
 11
95.9684724709
 21
522.7796465909
  0
LINE
  5
2A0
100
AcDbEntity
  8
0
100
AcDbLine
 62
7
  6
CONTINUOUS
 10
553.5684724709
 20
522.7796465909
 11
567.1684724709
 21
522.7796465909
  0
LINE
  5
2A1
100
AcDbEntity
  8
0
100
AcDbLine
 62
7
  6
CONTINUOUS
 10
569.0773826324
 20
523.1796465909
 11
568.0684724709
 21
523.1796465909
  0
LINE
  5
2A2
100
AcDbEntity
  8
0
100
AcDbLine
 62
7
  6
CONTINUOUS
 10
80.4595623094
 20
523.1796465909
 11
81.4684724709
 21
523.1796465909
  0
LINE
  5
2A3
100
AcDbEntity
  8
0
100
AcDbLine
 62
7
  6
CONTINUOUS
 10
569.0684724709
 20
523.6796465909
 11
567.1684724709
 21
523.6796465909
  0
LINE
  5
2A4
100
AcDbEntity
  8
0
100
AcDbLine
 62
7
  6
CONTINUOUS
 10
80.4684724709
 20
523.6796465909
 11
82.3684724709
 21
523.6796465909
  0
LINE
  5
2A5
100
AcDbEntity
  8
0
100
AcDbLine
 62
7
  6
CONTINUOUS
 10
571.5684724709
 20
524.1796465909
 11
569.0684724709
 21
524.1796465909
  0
LINE
  5
2A6
100
AcDbEntity
  8
0
100
AcDbLine
 62
7
  6
CONTINUOUS
 10
77.9684724709
 20
524.1796465909
 11
80.4684724709
 21
524.1796465909
  0
LINE
  5
2A7
100
AcDbEntity
  8
0
100
AcDbLine
 62
7
  6
CONTINUOUS
 10
537.2684724709
 20
358.2796465909
 11
540.5184724709
 21
355.2796465909
  0
LINE
  5
2A8
100
AcDbEntity
  8
0
100
AcDbLine
 62
7
  6
CONTINUOUS
 10
567.8684724709
 20
553.6796465909
 11
569.0684724709
 21
554.8796465909
  0
LINE
  5
2A9
100
AcDbEntity
  8
0
100
AcDbLine
 62
7
  6
CONTINUOUS
 10
562.9871253071
 20
555.5796451646
 11
562.9840721146
 21
555.5796103255
  0
LINE
  5
2AA
100
AcDbEntity
  8
0
100
AcDbLine
 62
7
  6
CONTINUOUS
 10
570.4684724709
 20
554.8796465909
 11
570.4453075796
 21
554.8795200276
  0
LINE
  5
2AB
100
AcDbEntity
  8
0
100
AcDbLine
 62
7
  6
CONTINUOUS
 10
89.2684724709
 20
546.5796465909
 11
82.2684724709
 21
546.5796465909
  0
LINE
  5
2AC
100
AcDbEntity
  8
0
100
AcDbLine
 62
7
  6
CONTINUOUS
 10
89.8677347405
 20
549.6220550364
 11
81.6692102013
 21
549.6220550364
  0
LINE
  5
2AD
100
AcDbEntity
  8
0
100
AcDbLine
 62
7
  6
CONTINUOUS
 10
89.9010085096
 20
550.1416060109
 11
81.6359364322
 21
550.1416060109
  0
LINE
  5
2AE
100
AcDbEntity
  8
0
100
AcDbLine
 62
7
  6
CONTINUOUS
 10
574.7684724709
 20
550.1796465909
 11
74.7684724786
 21
550.1796465909
  0
LINE
  5
2AF
100
AcDbEntity
  8
0
100
AcDbLine
 62
7
  6
CONTINUOUS
 10
571.5684724709
 20
552.1796465909
 11
77.9684724709
 21
552.1796465909
  0
LINE
  5
2B0
100
AcDbEntity
  8
0
100
AcDbLine
 62
7
  6
CONTINUOUS
 10
88.6141730128
 20
552.5926741112
 11
82.922771929
 21
552.5926741112
  0
LINE
  5
2B1
100
AcDbEntity
  8
0
100
AcDbLine
 62
7
  6
CONTINUOUS
 10
88.1166783004
 20
553.0795856365
 11
83.4202666414
 21
553.0795856365
  0
LINE
  5
2B2
100
AcDbEntity
  8
0
100
AcDbLine
 62
7
  6
CONTINUOUS
 10
87.2684724709
 20
553.1796465909
 11
84.2684724709
 21
553.1796465909
  0
LINE
  5
2B3
100
AcDbEntity
  8
0
100
AcDbLine
 62
7
  6
CONTINUOUS
 10
571.5684724709
 20
553.3796465909
 11
569.8684724709
 21
553.3796465909
  0
LINE
  5
2B4
100
AcDbEntity
  8
0
100
AcDbLine
 62
7
  6
CONTINUOUS
 10
563.7684724709
 20
553.3796465909
 11
569.8684724709
 21
553.3796465909
  0
LINE
  5
2B5
100
AcDbEntity
  8
0
100
AcDbLine
 62
7
  6
CONTINUOUS
 10
77.9684724709
 20
553.3796465909
 11
563.7684724709
 21
553.3796465909
  0
LINE
  5
2B6
100
AcDbEntity
  8
0
100
AcDbLine
 62
7
  6
CONTINUOUS
 10
90.7684724709
 20
553.5796465909
 11
80.7684724709
 21
553.5796465909
  0
LINE
  5
2B7
100
AcDbEntity
  8
0
100
AcDbLine
 62
7
  6
CONTINUOUS
 10
559.6684724709
 20
553.6796465909
 11
567.8684724709
 21
553.6796465909
  0
LINE
  5
2B8
100
AcDbEntity
  8
0
100
AcDbLine
 62
7
  6
CONTINUOUS
 10
569.0684724709
 20
554.0796465909
 11
563.9684724709
 21
554.0796465909
  0
LINE
  5
2B9
100
AcDbEntity
  8
0
100
AcDbLine
 62
7
  6
CONTINUOUS
 10
85.0184724708
 20
554.5796465909
 11
86.518472471
 21
554.5796465909
  0
LINE
  5
2BA
100
AcDbEntity
  8
0
100
AcDbLine
 62
7
  6
CONTINUOUS
 10
569.9491905591
 20
554.8800303595
 11
563.0368641904
 21
554.8796465903
  0
LINE
  5
2BB
100
AcDbEntity
  8
0
100
AcDbLine
 62
7
  6
CONTINUOUS
 10
570.4684724709
 20
554.8796465909
 11
557.9815694747
 21
554.8796465909
  0
LINE
  5
2BC
100
AcDbEntity
  8
0
100
AcDbLine
 62
7
  6
CONTINUOUS
 10
568.8806049044
 20
555.2362151334
 11
563.1387409169
 21
555.2362151334
  0
LINE
  5
2BD
100
AcDbEntity
  8
0
100
AcDbLine
 62
7
  6
CONTINUOUS
 10
568.8806049407
 20
555.5796465909
 11
562.96146554
 21
555.5796465909
  0
LINE
  5
2BE
100
AcDbEntity
  8
0
100
AcDbLine
 62
7
  6
CONTINUOUS
 10
554.0534594921
 20
555.7612645817
 11
95.4834854497
 21
555.7612645817
  0
LINE
  5
2BF
100
AcDbEntity
  8
0
100
AcDbLine
 62
7
  6
CONTINUOUS
 10
554.0534594921
 20
555.9902353761
 11
95.4834854497
 21
555.9902353761
  0
LINE
  5
2C0
100
AcDbEntity
  8
0
100
AcDbLine
 62
7
  6
CONTINUOUS
 10
550.5684724709
 20
517.1796465909
 11
553.5684724709
 21
520.4296465909
  0
LINE
  5
2C1
100
AcDbEntity
  8
0
100
AcDbLine
 62
7
  6
CONTINUOUS
 10
553.9389888315
 20
564.4993267629
 11
95.5979561103
 21
564.4993267629
  0
LINE
  5
2C2
100
AcDbEntity
  8
0
100
AcDbLine
 62
7
  6
CONTINUOUS
 10
553.9389888315
 20
564.68208722
 11
95.5979561103
 21
564.68208722
  0
LINE
  5
2C3
100
AcDbEntity
  8
0
100
AcDbLine
 62
7
  6
CONTINUOUS
 10
557.1671017354
 20
571.7796465909
 11
92.3698550806
 21
571.7796465909
  0
LINE
  5
2C4
100
AcDbEntity
  8
0
100
AcDbLine
 62
7
  6
CONTINUOUS
 10
557.1671175389
 20
572.0086173854
 11
92.3698274029
 21
572.0086173854
  0
LINE
  5
2C5
100
AcDbEntity
  8
0
100
AcDbLine
 62
7
  6
CONTINUOUS
 10
555.1506298
 20
572.0600837918
 11
94.3863151418
 21
572.0600837918
  0
LINE
  5
2C6
100
AcDbEntity
  8
0
100
AcDbLine
 62
7
  6
CONTINUOUS
 10
93.4923331116
 20
572.1872387347
 11
556.0446118301
 21
572.1872387347
  0
LINE
  5
2C7
100
AcDbEntity
  8
0
100
AcDbLine
 62
7
  6
CONTINUOUS
 10
94.3863151418
 20
572.242844249
 11
555.1506298
 21
572.242844249
  0
LINE
  5
2C8
100
AcDbEntity
  8
0
100
AcDbLine
 62
7
  6
CONTINUOUS
 10
94.3832128742
 20
572.2493603452
 11
555.1537536028
 21
572.2493603452
  0
LINE
  5
2C9
100
AcDbEntity
  8
0
100
AcDbLine
 62
7
  6
CONTINUOUS
 10
93.4875697616
 20
573.3872387346
 11
556.0493751802
 21
573.3872387346
  0
LINE
  5
2CA
100
AcDbEntity
  8
0
100
AcDbLine
 62
7
  6
CONTINUOUS
 10
567.5854782227
 20
567.8722445501
 11
566.7453105528
 21
566.6296189885
  0
LINE
  5
2CB
100
AcDbEntity
  8
0
100
AcDbLine
 62
7
  6
CONTINUOUS
 10
95.4834854497
 20
555.9902353761
 11
94.3055327665
 21
555.7612645694
  0
LINE
  5
2CC
100
AcDbEntity
  8
0
100
AcDbLine
 62
7
  6
CONTINUOUS
 10
94.9746459088
 20
564.6680240217
 11
93.7876276998
 21
564.4919960703
  0
LINE
  5
2CD
100
AcDbEntity
  8
0
100
AcDbLine
 62
7
  6
CONTINUOUS
 10
563.4926224329
 20
565.2035374497
 11
562.0094414456
 21
565.4275333407
  0
LINE
  5
2CE
100
AcDbEntity
  8
0
100
AcDbLine
 62
7
  6
CONTINUOUS
 10
555.7065254091
 20
564.4993267629
 11
554.5205243065
 21
564.6820872201
  0
LINE
  5
2CF
100
AcDbEntity
  8
0
100
AcDbLine
 62
7
  6
CONTINUOUS
 10
555.2314121122
 20
555.7612645817
 11
554.0534594921
 21
555.990235376
  0
LINE
  5
2D0
100
AcDbEntity
  8
0
100
AcDbLine
 62
7
  6
CONTINUOUS
 10
92.3698274029
 20
572.0086173853
 11
91.1918747828
 21
571.7796465909
  0
LINE
  5
2D1
100
AcDbEntity
  8
0
100
AcDbLine
 62
7
  6
CONTINUOUS
 10
556.8716233236
 20
572.0600837918
 11
555.685622221
 21
572.242844249
  0
LINE
  5
2D2
100
AcDbEntity
  8
0
100
AcDbLine
 62
7
  6
CONTINUOUS
 10
558.0286956486
 20
561.3629328005
 11
556.5562548734
 21
561.6491462936
  0
LINE
  5
2D3
100
AcDbEntity
  8
0
100
AcDbLine
 62
7
  6
CONTINUOUS
 10
558.4289755133
 20
563.4221941859
 11
556.9565347381
 21
563.708407679
  0
LINE
  5
2D4
100
AcDbEntity
  8
0
100
AcDbLine
 62
7
  6
CONTINUOUS
 10
558.345070159
 20
571.7796465909
 11
557.1671175389
 21
572.0086173854
  0
LINE
  5
2D5
100
AcDbEntity
  8
0
100
AcDbLine
 62
7
  6
CONTINUOUS
 10
530.2684724709
 20
334.0796465909
 11
530.2684724709
 21
336.5796465909
  0
LINE
  5
2D6
100
AcDbEntity
  8
0
100
AcDbLine
 62
7
  6
CONTINUOUS
 10
530.7684724709
 20
336.5796465909
 11
530.7684724709
 21
338.4796465909
  0
LINE
  5
2D7
100
AcDbEntity
  8
0
100
AcDbLine
 62
7
  6
CONTINUOUS
 10
531.2684724709
 20
336.5707364294
 11
531.2684724709
 21
337.5796465909
  0
LINE
  5
2D8
100
AcDbEntity
  8
0
100
AcDbLine
 62
7
  6
CONTINUOUS
 10
531.6684724709
 20
338.4796465909
 11
531.6684724709
 21
355.2796465909
  0
LINE
  5
2D9
100
AcDbEntity
  8
0
100
AcDbLine
 62
7
  6
CONTINUOUS
 10
557.1671175389
 20
572.0086173854
 11
554.0534594921
 21
555.9902353761
  0
LINE
  5
2DA
100
AcDbEntity
  8
0
100
AcDbLine
 62
7
  6
CONTINUOUS
 10
557.1671175389
 20
571.7796465909
 11
554.0534594921
 21
555.7612645817
  0
LINE
  5
2DB
100
AcDbEntity
  8
0
100
AcDbLine
 62
7
  6
CONTINUOUS
 10
558.345070159
 20
571.7796465909
 11
555.2314121122
 21
555.7612645817
  0
LINE
  5
2DC
100
AcDbEntity
  8
0
100
AcDbLine
 62
7
  6
CONTINUOUS
 10
556.9565347381
 20
563.7084076789
 11
555.5275015164
 21
556.3566690794
  0
LINE
  5
2DD
100
AcDbEntity
  8
0
100
AcDbLine
 62
7
  6
CONTINUOUS
 10
562.6346742251
 20
554.8714351476
 11
562.7994090519
 21
555.4480070415
  0
LINE
  5
2DE
100
AcDbEntity
  8
0
100
AcDbLine
 62
7
  6
CONTINUOUS
 10
563.0368641904
 20
554.8796465909
 11
563.1387409169
 21
555.2362151334
  0
LINE
  5
2DF
100
AcDbEntity
  8
0
100
AcDbLine
 62
7
  6
CONTINUOUS
 10
563.7684724709
 20
553.3796465909
 11
563.9684724709
 21
554.0796465909
  0
LINE
  5
2E0
100
AcDbEntity
  8
0
100
AcDbLine
 62
7
  6
CONTINUOUS
 10
559.3153282722
 20
564.5074994718
 11
559.2940697902
 21
564.516717536
  0
LINE
  5
2E1
100
AcDbEntity
  8
0
100
AcDbLine
 62
7
  6
CONTINUOUS
 10
558.6867055376
 20
565.8974952532
 11
558.7292229029
 21
565.8790588529
  0
LINE
  5
2E2
100
AcDbEntity
  8
0
100
AcDbLine
 62
7
  6
CONTINUOUS
 10
557.2684697592
 20
345.3796462625
 11
557.7684710173
 21
343.3796399883
  0
LINE
  5
2E3
100
AcDbEntity
  8
0
100
AcDbLine
 62
7
  6
CONTINUOUS
 10
532.4187302097
 20
355.2796465909
 11
532.4187302097
 21
344.2796465909
  0
LINE
  5
2E4
100
AcDbEntity
  8
0
100
AcDbLine
 62
7
  6
CONTINUOUS
 10
532.7684724709
 20
327.5796465909
 11
532.7684724709
 21
333.6388291391
  0
LINE
  5
2E5
100
AcDbEntity
  8
0
100
AcDbLine
 62
7
  6
CONTINUOUS
 10
533.0184724709
 20
337.5796465909
 11
533.0184724709
 21
353.2796465909
  0
LINE
  5
2E6
100
AcDbEntity
  8
0
100
AcDbLine
 62
7
  6
CONTINUOUS
 10
534.4684724709
 20
355.2796465909
 11
534.4684724709
 21
344.2796465909
  0
LINE
  5
2E7
100
AcDbEntity
  8
0
100
AcDbLine
 62
7
  6
CONTINUOUS
 10
537.2684724709
 20
355.2796465909
 11
537.2684724709
 21
344.2796465909
  0
LINE
  5
2E8
100
AcDbEntity
  8
0
100
AcDbLine
 62
7
  6
CONTINUOUS
 10
540.0684724709
 20
344.2796465909
 11
540.0684724709
 21
355.2796465909
  0
LINE
  5
2E9
100
AcDbEntity
  8
0
100
AcDbLine
 62
7
  6
CONTINUOUS
 10
541.5184724709
 20
337.5796465909
 11
541.5184724709
 21
353.2796465909
  0
LINE
  5
2EA
100
AcDbEntity
  8
0
100
AcDbLine
 62
7
  6
CONTINUOUS
 10
541.7684724709
 20
327.5796465909
 11
541.7684724709
 21
333.6388291391
  0
LINE
  5
2EB
100
AcDbEntity
  8
0
100
AcDbLine
 62
7
  6
CONTINUOUS
 10
542.1182147321
 20
344.2796465909
 11
542.1182147321
 21
355.2796465909
  0
LINE
  5
2EC
100
AcDbEntity
  8
0
100
AcDbLine
 62
7
  6
CONTINUOUS
 10
542.8684724709
 20
338.4796465909
 11
542.8684724709
 21
355.2796465909
  0
LINE
  5
2ED
100
AcDbEntity
  8
0
100
AcDbLine
 62
7
  6
CONTINUOUS
 10
543.2684724709
 20
336.5707364294
 11
543.2684724709
 21
337.5796465909
  0
LINE
  5
2EE
100
AcDbEntity
  8
0
100
AcDbLine
 62
7
  6
CONTINUOUS
 10
543.7684724709
 20
336.5796465909
 11
543.7684724709
 21
338.4796465909
  0
LINE
  5
2EF
100
AcDbEntity
  8
0
100
AcDbLine
 62
7
  6
CONTINUOUS
 10
544.2684724709
 20
334.0796465909
 11
544.2684724709
 21
336.5796465909
  0
LINE
  5
2F0
100
AcDbEntity
  8
0
100
AcDbLine
 62
7
  6
CONTINUOUS
 10
544.7684724709
 20
324.8796465909
 11
544.7684724709
 21
326.3796465909
  0
LINE
  5
2F1
100
AcDbEntity
  8
0
100
AcDbLine
 62
7
  6
CONTINUOUS
 10
547.6184724709
 20
326.3796465909
 11
547.6184724709
 21
327.5796465909
  0
LINE
  5
2F2
100
AcDbEntity
  8
0
100
AcDbLine
 62
7
  6
CONTINUOUS
 10
547.7684724709
 20
343.3796341739
 11
547.7684724709
 21
329.7796465909
  0
LINE
  5
2F3
100
AcDbEntity
  8
0
100
AcDbLine
 62
7
  6
CONTINUOUS
 10
547.7684724709
 20
328.1796465909
 11
547.7684724709
 21
326.3796465909
  0
LINE
  5
2F4
100
AcDbEntity
  8
0
100
AcDbLine
 62
7
  6
CONTINUOUS
 10
548.5184724709
 20
324.8796465909
 11
548.5184724709
 21
327.8796465909
  0
LINE
  5
2F5
100
AcDbEntity
  8
0
100
AcDbLine
 62
7
  6
CONTINUOUS
 10
550.2684724709
 20
327.8796465909
 11
550.2684724709
 21
342.8796465909
  0
LINE
  5
2F6
100
AcDbEntity
  8
0
100
AcDbLine
 62
7
  6
CONTINUOUS
 10
554.5205243065
 20
564.6820872201
 11
555.6876310287
 21
572.2558801558
  0
LINE
  5
2F7
100
AcDbEntity
  8
0
100
AcDbLine
 62
7
  6
CONTINUOUS
 10
556.8716233235
 20
572.0600837918
 11
555.7065254091
 21
564.4993267629
  0
LINE
  5
2F8
100
AcDbEntity
  8
0
100
AcDbLine
 62
7
  6
CONTINUOUS
 10
555.1506298
 20
572.242844249
 11
553.9389888315
 21
564.6820872201
  0
LINE
  5
2F9
100
AcDbEntity
  8
0
100
AcDbLine
 62
7
  6
CONTINUOUS
 10
555.1506298
 20
572.0600837918
 11
553.9389888315
 21
564.4993267629
  0
LINE
  5
2FA
100
AcDbEntity
  8
0
100
AcDbLine
 62
7
  6
CONTINUOUS
 10
558.4289755131
 20
563.4221941852
 11
556.9999422915
 21
556.0704555863
  0
LINE
  5
2FB
100
AcDbEntity
  8
0
100
AcDbLine
 62
7
  6
CONTINUOUS
 10
537.2684724709
 20
358.2796465909
 11
534.0184724709
 21
355.2796465909
  0
LINE
  5
2FC
100
AcDbEntity
  8
0
100
AcDbLine
 62
7
  6
CONTINUOUS
 10
550.5684724709
 20
517.1796465909
 11
553.5684724709
 21
513.9296465909
  0
LINE
  5
2FD
100
AcDbEntity
  8
0
100
AcDbLine
 62
7
  6
CONTINUOUS
 10
565.6220196969
 20
562.7906107024
 11
565.6598367554
 21
561.2910874881
  0
LINE
  5
2FE
100
AcDbEntity
  8
0
100
AcDbLine
 62
7
  6
CONTINUOUS
 10
553.5684724709
 20
522.7796465909
 11
553.5684724709
 21
511.5796465909
  0
LINE
  5
2FF
100
AcDbEntity
  8
0
100
AcDbLine
 62
7
  6
CONTINUOUS
 10
553.9389888315
 20
564.6820872201
 11
553.9389888315
 21
564.4993267629
  0
LINE
  5
300
100
AcDbEntity
  8
0
100
AcDbLine
 62
7
  6
CONTINUOUS
 10
554.053459492
 20
555.990235376
 11
554.053459492
 21
555.7612645694
  0
LINE
  5
301
100
AcDbEntity
  8
0
100
AcDbLine
 62
7
  6
CONTINUOUS
 10
555.1506298
 20
572.242844249
 11
555.1506298
 21
572.0600837918
  0
LINE
  5
302
100
AcDbEntity
  8
0
100
AcDbLine
 62
7
  6
CONTINUOUS
 10
555.2684724709
 20
327.8796465909
 11
555.2684724709
 21
342.8796465909
  0
LINE
  5
303
100
AcDbEntity
  8
0
100
AcDbLine
 62
7
  6
CONTINUOUS
 10
555.5684724709
 20
521.4295296975
 11
555.5684724709
 21
512.9297634843
  0
LINE
  5
304
100
AcDbEntity
  8
0
100
AcDbLine
 62
7
  6
CONTINUOUS
 10
557.0184724709
 20
324.8796465909
 11
557.0184724709
 21
327.8796465909
  0
LINE
  5
305
100
AcDbEntity
  8
0
100
AcDbLine
 62
7
  6
CONTINUOUS
 10
557.1671175389
 20
572.0086173854
 11
557.1671175389
 21
571.7796465909
  0
LINE
  5
306
100
AcDbEntity
  8
0
100
AcDbLine
 62
7
  6
CONTINUOUS
 10
557.1946664791
 20
553.3796465909
 11
557.1946664791
 21
552.1796465909
  0
LINE
  5
307
100
AcDbEntity
  8
0
100
AcDbLine
 62
7
  6
CONTINUOUS
 10
557.7684724709
 20
343.3796341739
 11
557.7684724709
 21
329.7796465909
  0
LINE
  5
308
100
AcDbEntity
  8
0
100
AcDbLine
 62
7
  6
CONTINUOUS
 10
557.7684724709
 20
328.1796465909
 11
557.7684724709
 21
326.3796465909
  0
LINE
  5
309
100
AcDbEntity
  8
0
100
AcDbLine
 62
7
  6
CONTINUOUS
 10
557.9184724709
 20
326.3796465909
 11
557.9184724709
 21
327.5796465909
  0
LINE
  5
30A
100
AcDbEntity
  8
0
100
AcDbLine
 62
7
  6
CONTINUOUS
 10
559.6684724709
 20
553.6796465909
 11
559.6684724709
 21
553.3796465909
  0
LINE
  5
30B
100
AcDbEntity
  8
0
100
AcDbLine
 62
7
  6
CONTINUOUS
 10
560.0184724709
 20
553.3796465909
 11
560.0184724709
 21
552.1796465909
  0
LINE
  5
30C
100
AcDbEntity
  8
0
100
AcDbLine
 62
7
  6
CONTINUOUS
 10
560.7684724709
 20
324.8796465909
 11
560.7684724709
 21
326.3796465909
  0
LINE
  5
30D
100
AcDbEntity
  8
0
100
AcDbLine
 62
7
  6
CONTINUOUS
 10
562.5684724709
 20
522.7796465909
 11
562.5684724709
 21
511.5796465909
  0
LINE
  5
30E
100
AcDbEntity
  8
0
100
AcDbLine
 62
7
  6
CONTINUOUS
 10
563.1387409169
 20
555.5796465908
 11
563.1387409169
 21
555.1796465909
  0
LINE
  5
30F
100
AcDbEntity
  8
0
100
AcDbLine
 62
7
  6
CONTINUOUS
 10
567.1684724709
 20
510.6796465909
 11
567.1684724709
 21
523.6796465909
  0
LINE
  5
310
100
AcDbEntity
  8
0
100
AcDbLine
 62
7
  6
CONTINUOUS
 10
567.5184724709
 20
553.3796465909
 11
567.5184724709
 21
552.1796465909
  0
LINE
  5
311
100
AcDbEntity
  8
0
100
AcDbLine
 62
7
  6
CONTINUOUS
 10
567.8684724709
 20
553.6796465909
 11
567.8684724709
 21
553.3796465909
  0
LINE
  5
312
100
AcDbEntity
  8
0
100
AcDbLine
 62
7
  6
CONTINUOUS
 10
568.0684724709
 20
523.1773777661
 11
568.0684724709
 21
511.1819154157
  0
LINE
  5
313
100
AcDbEntity
  8
0
100
AcDbLine
 62
7
  6
CONTINUOUS
 10
568.8806049136
 20
555.5796465909
 11
568.8806049124
 21
555.2362151334
  0
LINE
  5
314
100
AcDbEntity
  8
0
100
AcDbLine
 62
7
  6
CONTINUOUS
 10
569.0684724709
 20
510.1796465909
 11
569.0684724709
 21
524.1796465909
  0
LINE
  5
315
100
AcDbEntity
  8
0
100
AcDbLine
 62
7
  6
CONTINUOUS
 10
569.0773826324
 20
511.1796465909
 11
569.0773826324
 21
523.1796465909
  0
LINE
  5
316
100
AcDbEntity
  8
0
100
AcDbLine
 62
7
  6
CONTINUOUS
 10
565.6142673067
 20
568.4896595423
 11
565.5954375184
 21
566.9897777339
  0
LINE
  5
317
100
AcDbEntity
  8
0
100
AcDbLine
 62
7
  6
CONTINUOUS
 10
572.097453413
 20
513.1796465909
 11
571.5684724709
 21
510.1796465909
  0
LINE
  5
318
100
AcDbEntity
  8
0
100
AcDbLine
 62
7
  6
CONTINUOUS
 10
548.2684751826
 20
345.3796462625
 11
547.7684739245
 21
343.3796399883
  0
LINE
  5
319
100
AcDbEntity
  8
0
100
AcDbLine
 62
7
  6
CONTINUOUS
 10
568.4513529028
 20
562.7329826581
 11
568.0510366405
 21
563.0325605115
  0
LINE
  5
31A
100
AcDbEntity
  8
0
100
AcDbLine
 62
7
  6
CONTINUOUS
 10
558.7056811187
 20
564.04163924
 11
557.509945949
 21
564.9472977871
  0
LINE
  5
31B
100
AcDbEntity
  8
0
100
AcDbLine
 62
7
  6
CONTINUOUS
 10
569.0684724709
 20
554.0796465909
 11
569.8684724709
 21
553.3796465909
  0
LINE
  5
31C
100
AcDbEntity
  8
0
100
AcDbLine
 62
7
  6
CONTINUOUS
 10
570.4443122748
 20
554.8689391023
 11
570.1957219156
 21
555.0864556666
  0
LINE
  5
31D
100
AcDbEntity
  8
0
100
AcDbLine
 62
7
  6
CONTINUOUS
 10
559.6684724709
 20
553.6796465909
 11
558.4684724709
 21
554.8796465909
  0
LINE
  5
31E
100
AcDbEntity
  8
0
100
AcDbLine
 62
7
  6
CONTINUOUS
 10
570.2684724709
 20
554.8796465909
 11
570.2684724709
 21
553.3796465909
  0
LINE
  5
31F
100
AcDbEntity
  8
0
100
AcDbLine
 62
7
  6
CONTINUOUS
 10
571.5684724709
 20
553.3796465909
 11
571.5684724709
 21
552.1796465909
  0
LINE
  5
320
100
AcDbEntity
  8
0
100
AcDbLine
 62
7
  6
CONTINUOUS
 10
571.5684724709
 20
510.1796465909
 11
571.5684724709
 21
524.1796465909
  0
LINE
  5
321
100
AcDbEntity
  8
0
100
AcDbLine
 62
7
  6
CONTINUOUS
 10
572.097453413
 20
513.1796465909
 11
572.0974534131
 21
521.1796465909
  0
LINE
  5
322
100
AcDbEntity
  8
0
100
AcDbLine
 62
7
  6
CONTINUOUS
 10
572.2684724709
 20
553.8796465909
 11
572.2684724709
 21
553.3153669673
  0
LINE
  5
323
100
AcDbEntity
  8
0
100
AcDbLine
 62
7
  6
CONTINUOUS
 10
572.3684724709
 20
326.3796465909
 11
572.3684724709
 21
327.5796465909
  0
LINE
  5
324
100
AcDbEntity
  8
0
100
AcDbLine
 62
7
  6
CONTINUOUS
 10
573.5684724709
 20
550.1796465909
 11
573.5684724709
 21
328.7796465909
  0
LINE
  5
325
100
AcDbEntity
  8
0
100
AcDbLine
 62
7
  6
CONTINUOUS
 10
574.7684724709
 20
328.7796465909
 11
574.7684724709
 21
550.1796465909
  0
LINE
  5
326
100
AcDbEntity
  8
0
100
AcDbLine
 62
7
  6
CONTINUOUS
 10
566.7672409007
 20
563.1652981875
 11
567.6230731048
 21
561.9334088911
  0
LINE
  5
327
100
AcDbEntity
  8
0
100
AcDbLine
 62
7
  6
CONTINUOUS
 10
558.6867055376
 20
565.8790588529
 11
559.2940609137
 21
564.5075197714
  0
LINE
  5
328
100
AcDbEntity
  8
0
100
AcDbLine
 62
7
  6
CONTINUOUS
 10
558.7292229029
 20
565.8974952532
 11
559.3153195957
 21
564.5167379728
  0
LINE
  5
329
100
AcDbEntity
  8
0
100
AcDbLine
 62
7
  6
CONTINUOUS
 10
560.5421137723
 20
566.6670217718
 11
561.128210465
 21
565.2862644917
  0
LINE
  5
32A
100
AcDbEntity
  8
0
100
AcDbLine
 62
7
  6
CONTINUOUS
 10
566.3043256781
 20
561.3658252078
 11
565.9979715685
 21
562.8342077055
  0
LINE
  5
32B
100
AcDbEntity
  8
0
100
AcDbLine
 62
7
  6
CONTINUOUS
 10
572.0974534131
 20
521.1796465909
 11
571.5684724709
 21
524.1796465909
  0
ARC
  5
32C
100
AcDbEntity
  8
0
100
AcDbCircle
 62
7
  6
CONTINUOUS
 10
77.1684724709
 20
328.7796465909
 40
2.4
100
AcDbArc
 50
180.0
 51
270.0
  0
ARC
  5
32D
100
AcDbEntity
  8
0
100
AcDbCircle
 62
7
  6
CONTINUOUS
 10
77.1684724709
 20
328.7796465909
 40
1.2
100
AcDbArc
 50
180.0
 51
270.0
  0
ARC
  5
32E
100
AcDbEntity
  8
0
100
AcDbCircle
 62
7
  6
CONTINUOUS
 10
103.2684724709
 20
328.9796465909
 40
0.8
100
AcDbArc
 50
270.0
 51
90.0
  0
ARC
  5
32F
100
AcDbEntity
  8
0
100
AcDbCircle
 62
7
  6
CONTINUOUS
 10
90.2684724709
 20
328.9796465909
 40
0.8
100
AcDbArc
 50
90.0
 51
270.0
  0
ARC
  5
330
100
AcDbEntity
  8
0
100
AcDbCircle
 62
7
  6
CONTINUOUS
 10
77.9684724709
 20
550.1796465909
 40
3.2
100
AcDbArc
 50
90.0
 51
180.0
  0
ARC
  5
331
100
AcDbEntity
  8
0
100
AcDbCircle
 62
7
  6
CONTINUOUS
 10
77.9684724709
 20
550.1796465909
 40
2.0
100
AcDbArc
 50
90.0
 51
180.0
  0
ARC
  5
332
100
AcDbEntity
  8
0
100
AcDbCircle
 62
7
  6
CONTINUOUS
 10
83.6315067479
 20
550.0085679898
 40
2.0
100
AcDbArc
 50
176.1859251641
 51
191.142889781
  0
ARC
  5
333
100
AcDbEntity
  8
0
100
AcDbCircle
 62
7
  6
CONTINUOUS
 10
83.4226005914
 20
552.5795856365
 40
0.5
100
AcDbArc
 50
89.9999977874
 51
178.4999999373
  0
ARC
  5
334
100
AcDbEntity
  8
0
100
AcDbCircle
 62
7
  6
CONTINUOUS
 10
85.7684724709
 20
541.8608965909
 40
12.7408438324
100
AcDbArc
 50
66.8936731417
 51
86.6252870279
  0
ARC
  5
335
100
AcDbEntity
  8
0
100
AcDbCircle
 62
7
  6
CONTINUOUS
 10
85.7684724709
 20
541.8608965909
 40
12.7408438324
100
AcDbArc
 50
93.3747129724
 51
113.1063268583
  0
CIRCLE
  5
336
100
AcDbEntity
  8
0
100
AcDbCircle
 62
7
  6
CONTINUOUS
 10
89.7684724709
 20
538.3796465909
 40
8.0
  0
CIRCLE
  5
337
100
AcDbEntity
  8
0
100
AcDbCircle
 62
7
  6
CONTINUOUS
 10
89.7684724709
 20
538.3796465909
 40
7.0
  0
CIRCLE
  5
338
100
AcDbEntity
  8
0
100
AcDbCircle
 62
7
  6
CONTINUOUS
 10
89.7684724709
 20
538.3796465909
 40
5.15
  0
CIRCLE
  5
339
100
AcDbEntity
  8
0
100
AcDbCircle
 62
7
  6
CONTINUOUS
 10
89.7684724709
 20
538.3796465909
 40
5.0
  0
CIRCLE
  5
33A
100
AcDbEntity
  8
0
100
AcDbCircle
 62
7
  6
CONTINUOUS
 10
89.7684724709
 20
538.3796465909
 40
4.0
  0
ARC
  5
33B
100
AcDbEntity
  8
0
100
AcDbCircle
 62
7
  6
CONTINUOUS
 10
87.9054381939
 20
550.0085679898
 40
2.0
100
AcDbArc
 50
348.857110219
 51
3.8140748359
  0
ARC
  5
33C
100
AcDbEntity
  8
0
100
AcDbCircle
 62
7
  6
CONTINUOUS
 10
88.1143443503
 20
552.5795856365
 40
0.5
100
AcDbArc
 50
1.5000000627
 51
90.0000022126
  0
ARC
  5
33D
100
AcDbEntity
  8
0
100
AcDbCircle
 62
7
  6
CONTINUOUS
 10
92.3422784627
 20
555.3796465909
 40
3.2
100
AcDbArc
 50
269.9999999999
 51
11.0
  0
ARC
  5
33E
100
AcDbEntity
  8
0
100
AcDbCircle
 62
7
  6
CONTINUOUS
 10
92.3422784627
 20
555.3796465909
 40
2.0
100
AcDbArc
 50
270.0
 51
11.0000000013
  0
ARC
  5
33F
100
AcDbEntity
  8
0
100
AcDbCircle
 62
7
  6
CONTINUOUS
 10
92.5170714804
 20
572.0372387347
 40
1.35
100
AcDbArc
 50
8.4937240063
 51
191.0000000022
  0
ARC
  5
340
100
AcDbEntity
  8
0
100
AcDbCircle
 62
7
  6
CONTINUOUS
 10
92.5170714804
 20
572.0372387347
 40
0.15
100
AcDbArc
 50
8.6269109058
 51
191.0000000002
  0
ARC
  5
341
100
AcDbEntity
  8
0
100
AcDbCircle
 62
7
  6
CONTINUOUS
 10
572.3684724709
 20
328.7796465909
 40
2.4
100
AcDbArc
 50
270.0
 51
360.0
  0
ARC
  5
342
100
AcDbEntity
  8
0
100
AcDbCircle
 62
7
  6
CONTINUOUS
 10
572.3684724709
 20
328.7796465909
 40
1.2
100
AcDbArc
 50
270.0
 51
360.0
  0
ARC
  5
343
100
AcDbEntity
  8
0
100
AcDbCircle
 62
7
  6
CONTINUOUS
 10
559.2684724709
 20
328.9796465909
 40
0.8
100
AcDbArc
 50
270.0
 51
90.0
  0
ARC
  5
344
100
AcDbEntity
  8
0
100
AcDbCircle
 62
7
  6
CONTINUOUS
 10
546.2684724709
 20
328.9796465909
 40
0.8
100
AcDbArc
 50
90.0
 51
270.0
  0
ARC
  5
345
100
AcDbEntity
  8
0
100
AcDbCircle
 62
7
  6
CONTINUOUS
 10
557.1946664791
 20
555.3796465909
 40
3.2
100
AcDbArc
 50
168.9999999998
 51
270.0
  0
ARC
  5
346
100
AcDbEntity
  8
0
100
AcDbCircle
 62
7
  6
CONTINUOUS
 10
562.4035465136
 20
552.6189082829
 40
2.7186036784
100
AcDbArc
 50
74.3100912775
 51
77.0646587753
  0
ARC
  5
347
100
AcDbEntity
  8
0
100
AcDbCircle
 62
7
  6
CONTINUOUS
 10
557.981569475
 20
555.8796465909
 40
2.5
100
AcDbArc
 50
168.9999999981
 51
270.0000000054
  0
ARC
  5
348
100
AcDbEntity
  8
0
100
AcDbCircle
 62
7
  6
CONTINUOUS
 10
557.1946664791
 20
555.3796465909
 40
2.0
100
AcDbArc
 50
168.9999999987
 51
270.0
  0
ARC
  5
349
100
AcDbEntity
  8
0
100
AcDbCircle
 62
7
  6
CONTINUOUS
 10
557.981569475
 20
555.8796465909
 40
1.0000000001
100
AcDbArc
 50
168.9999999931
 51
269.9999999858
  0
ARC
  5
34A
100
AcDbEntity
  8
0
100
AcDbCircle
 62
7
  6
CONTINUOUS
 10
563.1387409169
 20
555.1796465909
 40
0.4
100
AcDbArc
 50
86.4456717712
 51
164.0546040982
  0
ARC
  5
34B
100
AcDbEntity
  8
0
100
AcDbCircle
 62
7
  6
CONTINUOUS
 10
562.9878806343
 20
555.3796465909
 40
0.2
100
AcDbArc
 50
97.8152937188
 51
158.1954748448
  0
ARC
  5
34C
100
AcDbEntity
  8
0
100
AcDbCircle
 62
7
  6
CONTINUOUS
 10
562.9878806343
 20
555.3796465909
 40
0.2
100
AcDbArc
 50
90.216385827
 51
97.8152937188
  0
ARC
  5
34D
100
AcDbEntity
  8
0
100
AcDbCircle
 62
7
  6
CONTINUOUS
 10
562.9878806343
 20
555.3796465909
 40
0.2
100
AcDbArc
 50
180.0
 51
360.0
  0
ARC
  5
34E
100
AcDbEntity
  8
0
100
AcDbCircle
 62
7
  6
CONTINUOUS
 10
562.9878806343
 20
555.3796465909
 40
0.2
100
AcDbArc
 50
158.1954748448
 51
165.5676038185
  0
ARC
  5
34F
100
AcDbEntity
  8
0
100
AcDbCircle
 62
7
  6
CONTINUOUS
 10
559.9014162884
 20
563.1359806929
 40
2.9999999999
100
AcDbArc
 50
113.0000000011
 51
168.9999999996
  0
ARC
  5
350
100
AcDbEntity
  8
0
100
AcDbCircle
 62
7
  6
CONTINUOUS
 10
559.9014162884
 20
563.1359806929
 40
1.4999999999
100
AcDbArc
 50
113.0000000253
 51
169.0000000256
  0
ARC
  5
351
100
AcDbEntity
  8
0
100
AcDbCircle
 62
7
  6
CONTINUOUS
 10
557.0198734614
 20
572.0372387347
 40
1.35
100
AcDbArc
 50
348.9999999978
 51
170.9598169291
  0
ARC
  5
352
100
AcDbEntity
  8
0
100
AcDbCircle
 62
7
  6
CONTINUOUS
 10
557.0198734614
 20
572.0372387347
 40
0.15
100
AcDbArc
 50
349.0000000013
 51
171.2397394041
  0
ARC
  5
353
100
AcDbEntity
  8
0
100
AcDbCircle
 62
7
  6
CONTINUOUS
 10
571.5684724709
 20
550.1796465909
 40
3.2
100
AcDbArc
 50
0.0
 51
90.0
  0
ARC
  5
354
100
AcDbEntity
  8
0
100
AcDbCircle
 62
7
  6
CONTINUOUS
 10
570.4684724709
 20
552.7596465909
 40
2.12
100
AcDbArc
 50
31.8907918018
 51
90.0
  0
ARC
  5
355
100
AcDbEntity
  8
0
100
AcDbCircle
 62
7
  6
CONTINUOUS
 10
571.5684724709
 20
550.1796465909
 40
2.0
100
AcDbArc
 50
0.0
 51
90.0
  0
ARC
  5
356
100
AcDbEntity
  8
0
100
AcDbCircle
 62
7
  6
CONTINUOUS
 10
568.8807351823
 20
553.5801194667
 40
1.9995253861
100
AcDbArc
 50
48.8496942832
 51
90.0037324622
  0
ARC
  5
357
100
AcDbEntity
  8
0
100
AcDbCircle
 62
7
  6
CONTINUOUS
 10
565.5690758149
 20
564.8899432023
 40
3.5999999999
100
AcDbArc
 50
171.4118644949
 51
112.999999995
  0
ARC
  5
358
100
AcDbEntity
  8
0
100
AcDbCircle
 62
7
  6
CONTINUOUS
 10
565.5690758149
 20
564.8899432023
 40
3.1
100
AcDbArc
 50
323.1905465001
 51
36.8094535017
  0
ARC
  5
359
100
AcDbEntity
  8
0
100
AcDbCircle
 62
7
  6
CONTINUOUS
 10
565.5690758149
 20
564.8899432023
 40
2.0999999999
100
AcDbArc
 50
171.4118644949
 51
113.000000001
  0
ARC
  5
35A
100
AcDbEntity
  8
0
100
AcDbCircle
 62
7
  6
CONTINUOUS
 10
569.8830157897
 20
568.1150322224
 40
2.2862638648
100
AcDbArc
 50
186.2837165885
 51
216.7440283084
  0
SPLINE
  5
35B
100
AcDbEntity
  8
0
100
AcDbSpline
 62
7
  6
CONTINUOUS
 70
0
 71
3
 72
13
 73
9
 74
0
 42
0.0000001
 43
0.0000001
 44
0.0000000001
 40
0.0
 40
0.0
 40
0.0
 40
0.0
 40
0.2300122597
 40
0.4187075765
 40
0.5450012087
 40
0.6427835756
 40
0.7964429747
 40
1.0
 40
1.0
 40
1.0
 40
1.0
 10
557.1671017354
 20
571.7796465909
 30
0.0
 10
557.0510497877
 20
572.0222280735
 30
0.0
 10
556.8462432229
 20
572.4754944095
 30
0.0
 10
556.5532974588
 20
573.0121459636
 30
0.0
 10
556.2087051537
 20
573.4396241218
 30
0.0
 10
555.7170018116
 20
573.3033691252
 30
0.0
 10
555.4453192563
 20
572.8210974614
 30
0.0
 10
555.2527656027
 20
572.4577957535
 30
0.0
 10
555.1506298
 20
572.242844249
 30
0.0
  0
SPLINE
  5
35C
100
AcDbEntity
  8
0
100
AcDbSpline
 62
7
  6
CONTINUOUS
 70
0
 71
3
 72
10
 73
6
 74
0
 42
0.0000001
 43
0.0000001
 44
0.0000000001
 40
0.0
 40
0.0
 40
0.0
 40
0.0
 40
0.3343973784
 40
0.6677317063
 40
1.0
 40
1.0
 40
1.0
 40
1.0
 10
93.8521306171
 20
572.2375227801
 30
0.0
 10
93.7198844991
 20
572.2174631755
 30
0.0
 10
93.4557256771
 20
572.1779815787
 30
0.0
 10
93.0600199967
 20
572.1195315376
 30
0.0
 10
92.7967118934
 20
572.0801163857
 30
0.0
 10
92.6653336869
 20
572.0600144286
 30
0.0
  0
SPLINE
  5
35D
100
AcDbEntity
  8
0
100
AcDbSpline
 62
7
  6
CONTINUOUS
 70
0
 71
3
 72
10
 73
6
 74
0
 42
0.0000001
 43
0.0000001
 44
0.0000000001
 40
0.0
 40
0.0
 40
0.0
 40
0.0
 40
0.33468294
 40
0.6680182157
 40
1.0
 40
1.0
 40
1.0
 40
1.0
 10
92.6654545273
 20
572.0592016497
 30
0.0
 10
92.7978327596
 20
572.0791566788
 30
0.0
 10
93.0620235382
 20
572.1192019995
 30
0.0
 10
93.4575271141
 20
572.1790246984
 30
0.0
 10
93.7209104287
 20
572.2171728137
 30
0.0
 10
93.8524201085
 20
572.2355923266
 30
0.0
  0
SPLINE
  5
35E
100
AcDbEntity
  8
0
100
AcDbSpline
 62
7
  6
CONTINUOUS
 70
0
 71
3
 72
13
 73
9
 74
0
 42
0.0000001
 43
0.0000001
 44
0.0000000001
 40
0.0
 40
0.0
 40
0.0
 40
0.0
 40
0.2352012774
 40
0.4159090291
 40
0.5439571323
 40
0.6428383535
 40
0.7958722846
 40
1.0
 40
1.0
 40
1.0
 40
1.0
 10
92.3698550806
 20
571.7796465909
 30
0.0
 10
92.4885220512
 20
572.0276942131
 30
0.0
 10
92.6917452928
 20
572.4782112856
 30
0.0
 10
92.9859022646
 20
573.0134973023
 30
0.0
 10
93.3226779084
 20
573.4387033389
 30
0.0
 10
93.8192418834
 20
573.3057524039
 30
0.0
 10
94.0909331764
 20
572.8210481558
 30
0.0
 10
94.28389565
 20
572.4583927958
 30
0.0
 10
94.3863151418
 20
572.242844249
 30
0.0
  0
SPLINE
  5
35F
100
AcDbEntity
  8
0
100
AcDbSpline
 62
7
  6
CONTINUOUS
 70
0
 71
3
 72
10
 73
6
 74
0
 42
0.0000001
 43
0.0000001
 44
0.0000000001
 40
0.0
 40
0.0
 40
0.0
 40
0.0
 40
0.3358760636
 40
0.6665546725
 40
1.0
 40
1.0
 40
1.0
 40
1.0
 10
92.3698274029
 20
572.0086173854
 30
0.0
 10
92.5925851723
 20
572.0603537089
 30
0.0
 10
93.0323650223
 20
572.1757758545
 30
0.0
 10
93.7204904475
 20
572.2071695571
 30
0.0
 10
94.165247029
 20
572.1117784987
 30
0.0
 10
94.3863151418
 20
572.0600837918
 30
0.0
  0
SPLINE
  5
360
100
AcDbEntity
  8
0
100
AcDbSpline
 62
7
  6
CONTINUOUS
 70
0
 71
3
 72
11
 73
7
 74
0
 42
0.0000001
 43
0.0000001
 44
0.0000000001
 40
0.0
 40
0.0
 40
0.0
 40
0.0
 40
0.1276112591
 40
0.345801767
 40
0.648959465
 40
1.0
 40
1.0
 40
1.0
 40
1.0
 10
572.3684724709
 20
326.3796465909
 30
0.0
 10
572.4855518559
 20
326.3796465909
 30
0.0
 10
572.7599048067
 20
326.6196123917
 30
0.0
 10
573.0049899389
 20
327.1467837162
 30
0.0
 10
573.2920918937
 20
327.9014668164
 30
0.0
 10
573.4707843316
 20
328.4727502502
 30
0.0
 10
573.5684724709
 20
328.7796465909
 30
0.0
  0
SPLINE
  5
361
100
AcDbEntity
  8
0
100
AcDbSpline
 62
7
  6
CONTINUOUS
 70
0
 71
3
 72
11
 73
7
 74
0
 42
0.0000001
 43
0.0000001
 44
0.0000000001
 40
0.0
 40
0.0
 40
0.0
 40
0.0
 40
0.3510315872
 40
0.6541888351
 40
0.8723843636
 40
1.0
 40
1.0
 40
1.0
 40
1.0
 10
75.9684724709
 20
328.7796465909
 30
0.0
 10
76.0661580987
 20
328.4727581402
 30
0.0
 10
76.244847981
 20
327.9014832486
 30
0.0
 10
76.5319470391
 20
327.1468028442
 30
0.0
 10
76.7770315907
 20
326.619624649
 30
0.0
 10
77.0513890956
 20
326.3796465909
 30
0.0
 10
77.1684724709
 20
326.3796465909
 30
0.0
  0
SPLINE
  5
362
100
AcDbEntity
  8
0
100
AcDbSpline
 62
7
  6
CONTINUOUS
 70
0
 71
3
 72
11
 73
7
 74
0
 42
0.0000001
 43
0.0000001
 44
0.0000000001
 40
0.0
 40
0.0
 40
0.0
 40
0.0
 40
0.1431088399
 40
0.3631358608
 40
0.6596378952
 40
1.0
 40
1.0
 40
1.0
 40
1.0
 10
77.9684724709
 20
553.3796465909
 30
0.0
 10
77.7830852609
 20
553.3796465909
 30
0.0
 10
77.3451261599
 20
553.0931803348
 30
0.0
 10
76.9074083508
 20
552.364722486
 30
0.0
 10
76.4332074299
 20
551.3565184539
 30
0.0
 10
76.1314776604
 20
550.5893233146
 30
0.0
 10
75.9684724709
 20
550.1796465909
 30
0.0
  0
SPLINE
  5
363
100
AcDbEntity
  8
0
100
AcDbSpline
 62
7
  6
CONTINUOUS
 70
0
 71
3
 72
11
 73
7
 74
0
 42
0.0000001
 43
0.0000001
 44
0.0000000001
 40
0.0
 40
0.0
 40
0.0
 40
0.0
 40
0.3403534796
 40
0.6368549276
 40
0.8568865914
 40
1.0
 40
1.0
 40
1.0
 40
1.0
 10
573.5684724709
 20
550.1796465909
 30
0.0
 10
573.4054714451
 20
550.5893128511
 30
0.0
 10
573.1037461212
 20
551.3564965465
 30
0.0
 10
572.6295497951
 20
552.3646965938
 30
0.0
 10
572.1918329456
 20
553.0931654233
 30
0.0
 10
571.7538655622
 20
553.3796465909
 30
0.0
 10
571.5684724709
 20
553.3796465909
 30
0.0
  0
SPLINE
  5
364
100
AcDbEntity
  8
0
100
AcDbSpline
 62
7
  6
CONTINUOUS
 70
0
 71
3
 72
11
 73
7
 74
0
 42
0.0000001
 43
0.0000001
 44
0.0000000001
 40
0.0
 40
0.0
 40
0.0
 40
0.0
 40
0.1999901104
 40
0.435377736
 40
0.7092542388
 40
1.0
 40
1.0
 40
1.0
 40
1.0
 10
557.1946664791
 20
553.3796465909
 30
0.0
 10
556.9252741463
 20
553.3796465909
 30
0.0
 10
556.3375829608
 20
553.5438028042
 30
0.0
 10
555.5658014674
 20
554.1221452027
 30
0.0
 10
554.8158537905
 20
554.8973769626
 30
0.0
 10
554.3166789995
 20
555.4712653704
 30
0.0
 10
554.0534594921
 20
555.7612645817
 30
0.0
  0
SPLINE
  5
365
100
AcDbEntity
  8
0
100
AcDbSpline
 62
7
  6
CONTINUOUS
 70
0
 71
3
 72
11
 73
7
 74
0
 42
0.0000001
 43
0.0000001
 44
0.0000000001
 40
0.0
 40
0.0
 40
0.0
 40
0.0
 40
0.2907346045
 40
0.5646089978
 40
0.8000016364
 40
1.0
 40
1.0
 40
1.0
 40
1.0
 10
95.4834854497
 20
555.7612645817
 30
0.0
 10
95.2202760868
 20
555.4712765377
 30
0.0
 10
94.7211126818
 20
554.8974020666
 30
0.0
 10
93.9711759293
 20
554.1221756843
 30
0.0
 10
93.1993903564
 20
553.5438151126
 30
0.0
 10
92.6116818723
 20
553.3796465909
 30
0.0
 10
92.3422784627
 20
553.3796465909
 30
0.0
  0
SPLINE
  5
366
100
AcDbEntity
  8
0
100
AcDbSpline
 62
7
  6
CONTINUOUS
 70
0
 71
3
 72
8
 73
4
 74
0
 42
0.0000001
 43
0.0000001
 44
0.0000000001
 40
0.0
 40
0.0
 40
0.0
 40
0.0
 40
1.0
 40
1.0
 40
1.0
 40
1.0
 10
570.099473815
 20
554.8764706918
 30
0.0
 10
570.1037672617
 20
554.9250315045
 30
0.0
 10
570.0926549304
 20
555.0517410156
 30
0.0
 10
570.1293432264
 20
555.0196387546
 30
0.0
  0
SPLINE
  5
367
100
AcDbEntity
  8
0
100
AcDbSpline
 62
7
  6
CONTINUOUS
 70
0
 71
3
 72
9
 73
5
 74
0
 42
0.0000001
 43
0.0000001
 44
0.0000000001
 40
0.0
 40
0.0
 40
0.0
 40
0.0
 40
0.4158818233
 40
1.0
 40
1.0
 40
1.0
 40
1.0
 10
563.012109553
 20
555.2685227808
 30
0.0
 10
562.9792655572
 20
555.2760373863
 30
0.0
 10
562.9004016009
 20
555.2905828308
 30
0.0
 10
562.8180033265
 20
555.3081704885
 30
0.0
 10
562.7714985743
 20
555.299411806
 30
0.0
  0
SPLINE
  5
368
100
AcDbEntity
  8
0
100
AcDbSpline
 62
7
  6
CONTINUOUS
 70
0
 71
3
 72
16
 73
12
 74
0
 42
0.0000001
 43
0.0000001
 44
0.0000000001
 40
0.0
 40
0.0
 40
0.0
 40
0.0
 40
0.1129254555
 40
0.2238937581
 40
0.334489432
 40
0.4448460881
 40
0.5551287592
 40
0.665487956
 40
0.7760887016
 40
0.8870645959
 40
1.0
 40
1.0
 40
1.0
 40
1.0
 10
96.3736542824
 20
538.3523358559
 30
0.0
 10
96.3734280976
 20
539.1289256633
 30
0.0
 10
96.0999805624
 20
540.6823852177
 30
0.0
 10
94.9245669616
 20
542.7117760764
 30
0.0
 10
93.1397163354
 20
544.208790708
 30
0.0
 10
90.9573122444
 20
545.0071941536
 30
0.0
 10
88.6349477101
 20
545.0168892804
 30
0.0
 10
86.446165152
 20
544.2367065387
 30
0.0
 10
84.6477695964
 20
542.75455085
 30
0.0
 10
83.4594040714
 20
540.7348433454
 30
0.0
 10
83.1630644548
 20
539.1836155501
 30
0.0
 10
83.1632906594
 20
538.4069573259
 30
0.0
  0
SPLINE
  5
369
100
AcDbEntity
  8
0
100
AcDbSpline
 62
7
  6
CONTINUOUS
 70
0
 71
3
 72
16
 73
12
 74
0
 42
0.0000001
 43
0.0000001
 44
0.0000000001
 40
0.0
 40
0.0
 40
0.0
 40
0.0
 40
0.1129254555
 40
0.2238937581
 40
0.334489432
 40
0.4448460881
 40
0.5551287592
 40
0.665487956
 40
0.7760887016
 40
0.8870645959
 40
1.0
 40
1.0
 40
1.0
 40
1.0
 10
83.1632906594
 20
538.4069573259
 30
0.0
 10
83.1635168442
 20
537.6303675185
 30
0.0
 10
83.4369643794
 20
536.0769079641
 30
0.0
 10
84.6123779801
 20
534.0475171054
 30
0.0
 10
86.3972286063
 20
532.5505024738
 30
0.0
 10
88.5796326974
 20
531.7520990281
 30
0.0
 10
90.9019972317
 20
531.7424039014
 30
0.0
 10
93.0907797897
 20
532.5225866431
 30
0.0
 10
94.8891753454
 20
534.0047423318
 30
0.0
 10
96.0775408704
 20
536.0244498364
 30
0.0
 10
96.373880487
 20
537.5756776317
 30
0.0
 10
96.3736542824
 20
538.3523358559
 30
0.0
  0
SPLINE
  5
36A
100
AcDbEntity
  8
0
100
AcDbSpline
 62
7
  6
CONTINUOUS
 70
0
 71
3
 72
16
 73
12
 74
0
 42
0.0000001
 43
0.0000001
 44
0.0000000001
 40
0.0
 40
0.0
 40
0.0
 40
0.0
 40
0.1125407055
 40
0.2236200224
 40
0.3343256273
 40
0.4447915221
 40
0.5551832157
 40
0.6656516578
 40
0.7763623478
 40
0.8874492764
 40
1.0
 40
1.0
 40
1.0
 40
1.0
 10
83.7653914968
 20
538.3970374143
 30
0.0
 10
83.7653914968
 20
539.1006007772
 30
0.0
 10
84.027897733
 20
540.509577546
 30
0.0
 10
85.1049638861
 20
542.3470138389
 30
0.0
 10
86.7383546386
 20
543.6989744041
 30
0.0
 10
88.7290333573
 20
544.4121981021
 30
0.0
 10
90.8423531787
 20
544.406160615
 30
0.0
 10
92.8291245735
 20
543.6815486577
 30
0.0
 10
94.4541949614
 20
542.3201879164
 30
0.0
 10
95.5231152404
 20
540.4764521926
 30
0.0
 10
95.771553445
 20
539.06588176
 30
0.0
 10
95.771553445
 20
538.3622557675
 30
0.0
  0
SPLINE
  5
36B
100
AcDbEntity
  8
0
100
AcDbSpline
 62
7
  6
CONTINUOUS
 70
0
 71
3
 72
16
 73
12
 74
0
 42
0.0000001
 43
0.0000001
 44
0.0000000001
 40
0.0
 40
0.0
 40
0.0
 40
0.0
 40
0.1125407055
 40
0.2236200224
 40
0.3343256273
 40
0.4447915221
 40
0.5551832157
 40
0.6656516578
 40
0.7763623478
 40
0.8874492764
 40
1.0
 40
1.0
 40
1.0
 40
1.0
 10
95.771553445
 20
538.3622557675
 30
0.0
 10
95.771553445
 20
537.6586924045
 30
0.0
 10
95.5090472088
 20
536.2497156358
 30
0.0
 10
94.4319810557
 20
534.4122793429
 30
0.0
 10
92.7985903032
 20
533.0603187777
 30
0.0
 10
90.8079115845
 20
532.3470950797
 30
0.0
 10
88.694591763
 20
532.3531325668
 30
0.0
 10
86.7078203683
 20
533.077744524
 30
0.0
 10
85.0827499804
 20
534.4391052654
 30
0.0
 10
84.0138297014
 20
536.2828409892
 30
0.0
 10
83.7653914968
 20
537.6934114218
 30
0.0
 10
83.7653914968
 20
538.3970374143
 30
0.0
  0
SPLINE
  5
36C
100
AcDbEntity
  8
0
100
AcDbSpline
 62
7
  6
CONTINUOUS
 70
0
 71
3
 72
10
 73
6
 74
0
 42
0.0000001
 43
0.0000001
 44
0.0000000001
 40
0.0
 40
0.0
 40
0.0
 40
0.0
 40
0.2468396648
 40
0.5870972566
 40
1.0
 40
1.0
 40
1.0
 40
1.0
 10
572.3684724709
 20
327.5796465909
 30
0.0
 10
572.5121565132
 20
327.5796465909
 30
0.0
 10
572.8418919645
 20
327.7501170551
 30
0.0
 10
573.2012556398
 20
328.2080952087
 30
0.0
 10
573.4393983081
 20
328.5768973702
 30
0.0
 10
573.5684724709
 20
328.7796465909
 30
0.0
  0
SPLINE
  5
36D
100
AcDbEntity
  8
0
100
AcDbSpline
 62
7
  6
CONTINUOUS
 70
0
 71
3
 72
10
 73
6
 74
0
 42
0.0000001
 43
0.0000001
 44
0.0000000001
 40
0.0
 40
0.0
 40
0.0
 40
0.0
 40
0.4129037297
 40
0.7531610635
 40
1.0
 40
1.0
 40
1.0
 40
1.0
 10
75.9684724709
 20
328.7796465909
 30
0.0
 10
76.0975469449
 20
328.5768968813
 30
0.0
 10
76.3356898311
 20
328.208094371
 30
0.0
 10
76.69505383
 20
327.7501163152
 30
0.0
 10
77.0247888493
 20
327.5796465909
 30
0.0
 10
77.1684724709
 20
327.5796465909
 30
0.0
  0
SPLINE
  5
36E
100
AcDbEntity
  8
0
100
AcDbSpline
 62
7
  6
CONTINUOUS
 70
0
 71
3
 72
10
 73
6
 74
0
 42
0.0000001
 43
0.0000001
 44
0.0000000001
 40
0.0
 40
0.0
 40
0.0
 40
0.0
 40
0.2468396648
 40
0.5870972566
 40
1.0
 40
1.0
 40
1.0
 40
1.0
 10
77.9684724709
 20
552.1796465909
 30
0.0
 10
77.7289990671
 20
552.1796465909
 30
0.0
 10
77.1794399815
 20
551.8955291505
 30
0.0
 10
76.5805005226
 20
551.1322322279
 30
0.0
 10
76.1835960755
 20
550.5175619588
 30
0.0
 10
75.9684724709
 20
550.1796465909
 30
0.0
  0
SPLINE
  5
36F
100
AcDbEntity
  8
0
100
AcDbSpline
 62
7
  6
CONTINUOUS
 70
0
 71
3
 72
10
 73
6
 74
0
 42
0.0000001
 43
0.0000001
 44
0.0000000001
 40
0.0
 40
0.0
 40
0.0
 40
0.0
 40
0.4129037297
 40
0.7531610635
 40
1.0
 40
1.0
 40
1.0
 40
1.0
 10
573.5684724709
 20
550.1796465909
 30
0.0
 10
573.3533483476
 20
550.5175627735
 30
0.0
 10
572.9564435373
 20
551.132233624
 30
0.0
 10
572.357503539
 20
551.8955303837
 30
0.0
 10
571.8079451735
 20
552.1796465909
 30
0.0
 10
571.5684724709
 20
552.1796465909
 30
0.0
  0
SPLINE
  5
370
100
AcDbEntity
  8
0
100
AcDbSpline
 62
7
  6
CONTINUOUS
 70
0
 71
3
 72
11
 73
7
 74
0
 42
0.0000001
 43
0.0000001
 44
0.0000000001
 40
0.0
 40
0.0
 40
0.0
 40
0.0
 40
0.1657365192
 40
0.3946141278
 40
0.6845819248
 40
1.0
 40
1.0
 40
1.0
 40
1.0
 10
557.1946664791
 20
552.1796465909
 30
0.0
 10
556.9137728249
 20
552.1796465909
 30
0.0
 10
556.264354532
 20
552.500339321
 30
0.0
 10
555.5422996262
 20
553.4141915307
 30
0.0
 10
554.8057356998
 20
554.6230839231
 30
0.0
 10
554.3172302642
 20
555.5252648633
 30
0.0
 10
554.0534594921
 20
555.9902353761
 30
0.0
  0
SPLINE
  5
371
100
AcDbEntity
  8
0
100
AcDbSpline
 62
7
  6
CONTINUOUS
 70
0
 71
3
 72
11
 73
7
 74
0
 42
0.0000001
 43
0.0000001
 44
0.0000000001
 40
0.0
 40
0.0
 40
0.0
 40
0.0
 40
0.3154055548
 40
0.6053717445
 40
0.8342558402
 40
1.0
 40
1.0
 40
1.0
 40
1.0
 10
95.4834854497
 20
555.9902353761
 30
0.0
 10
95.2197252184
 20
555.5252834445
 30
0.0
 10
94.7312308574
 20
554.6231242617
 30
0.0
 10
93.9946773738
 20
553.4142404756
 30
0.0
 10
93.2726229351
 20
552.5003648261
 30
0.0
 10
92.6231849912
 20
552.1796465909
 30
0.0
 10
92.3422784627
 20
552.1796465909
 30
0.0
  0
SPLINE
  5
372
100
AcDbEntity
  8
0
100
AcDbSpline
 62
7
  6
CONTINUOUS
 70
0
 71
3
 72
8
 73
4
 74
0
 42
0.0000001
 43
0.0000001
 44
0.0000000001
 40
0.0
 40
0.0
 40
0.0
 40
0.0
 40
1.0
 40
1.0
 40
1.0
 40
1.0
 10
570.099473815
 20
554.8764706918
 30
0.0
 10
570.1037672617
 20
554.9250315045
 30
0.0
 10
570.0926549304
 20
555.0517410155
 30
0.0
 10
570.1293432263
 20
555.0196387546
 30
0.0
  0
SPLINE
  5
373
100
AcDbEntity
  8
0
100
AcDbSpline
 62
7
  6
CONTINUOUS
 70
0
 71
3
 72
10
 73
6
 74
0
 42
0.0000001
 43
0.0000001
 44
0.0000000001
 40
0.0
 40
0.0
 40
0.0
 40
0.0
 40
0.3272304604
 40
0.6605016033
 40
1.0
 40
1.0
 40
1.0
 40
1.0
 10
562.9878806343
 20
555.4948847499
 30
0.0
 10
563.630384983
 20
555.4729524929
 30
0.0
 10
564.927823159
 20
555.4383877758
 30
0.0
 10
566.8925721315
 20
555.4644722217
 30
0.0
 10
568.2141007356
 20
555.429479801
 30
0.0
 10
568.8807332367
 20
555.4079454944
 30
0.0
  0
SPLINE
  5
374
100
AcDbEntity
  8
0
100
AcDbSpline
 62
7
  6
CONTINUOUS
 70
0
 71
3
 72
10
 73
6
 74
0
 42
0.0000001
 43
0.0000001
 44
0.0000000001
 40
0.0
 40
0.0
 40
0.0
 40
0.0
 40
0.333108829
 40
0.6651939853
 40
1.0
 40
1.0
 40
1.0
 40
1.0
 10
562.8369422711
 20
554.8796465909
 30
0.0
 10
563.6456209329
 20
554.8796465909
 30
0.0
 10
565.2604896802
 20
554.887386113
 30
0.0
 10
567.6880739751
 20
554.9070809947
 30
0.0
 10
569.3070629683
 20
554.9148357047
 30
0.0
 10
570.1198618385
 20
554.9148357047
 30
0.0
  0
SPLINE
  5
375
100
AcDbEntity
  8
0
100
AcDbSpline
 62
7
  6
CONTINUOUS
 70
0
 71
3
 72
10
 73
6
 74
0
 42
0.0000001
 43
0.0000001
 44
0.0000000001
 40
0.0
 40
0.0
 40
0.0
 40
0.0
 40
0.337125615
 40
0.6684387023
 40
1.0
 40
1.0
 40
1.0
 40
1.0
 10
570.1198618385
 20
554.9148357047
 30
0.0
 10
570.0081483331
 20
555.0195040112
 30
0.0
 10
569.7599869195
 20
555.2008506799
 30
0.0
 10
569.3336590227
 20
555.3695855808
 30
0.0
 10
569.031292609
 20
555.4078366413
 30
0.0
 10
568.8807332367
 20
555.4079454944
 30
0.0
  0
SPLINE
  5
376
100
AcDbEntity
  8
0
100
AcDbSpline
 62
7
  6
CONTINUOUS
 70
0
 71
3
 72
10
 73
6
 74
0
 42
0.0000001
 43
0.0000001
 44
0.0000000001
 40
0.0
 40
0.0
 40
0.0
 40
0.0
 40
0.3417535825
 40
0.662649498
 40
1.0
 40
1.0
 40
1.0
 40
1.0
 10
562.8369422711
 20
554.8796465909
 30
0.0
 10
562.8721628553
 20
554.9437673984
 30
0.0
 10
562.9352729131
 20
555.0788015725
 30
0.0
 10
562.8895350314
 20
555.2977989471
 30
0.0
 10
562.952519474
 20
555.4319201804
 30
0.0
 10
562.9878806343
 20
555.4948847499
 30
0.0
  0
SPLINE
  5
377
100
AcDbEntity
  8
0
100
AcDbSpline
 62
7
  6
CONTINUOUS
 70
0
 71
3
 72
10
 73
6
 74
0
 42
0.0000001
 43
0.0000001
 44
0.0000000001
 40
0.0
 40
0.0
 40
0.0
 40
0.0
 40
0.3297506001
 40
0.6702494002
 40
1.0
 40
1.0
 40
1.0
 40
1.0
 10
562.8369422711
 20
554.8796465909
 30
0.0
 10
562.8539349048
 20
554.9391208101
 30
0.0
 10
562.8616587545
 20
555.066865586
 30
0.0
 10
562.8485338756
 20
555.2528083441
 30
0.0
 10
562.8562577249
 20
555.3805531201
 30
0.0
 10
562.8732503589
 20
555.4400273392
 30
0.0
  0
SPLINE
  5
378
100
AcDbEntity
  8
0
100
AcDbSpline
 62
7
  6
CONTINUOUS
 70
0
 71
3
 72
10
 73
6
 74
0
 42
0.0000001
 43
0.0000001
 44
0.0000000001
 40
0.0
 40
0.0
 40
0.0
 40
0.0
 40
0.3423439002
 40
0.6842733024
 40
1.0
 40
1.0
 40
1.0
 40
1.0
 10
568.8805488281
 20
555.4079656204
 30
0.0
 10
569.0353268154
 20
555.4078537286
 30
0.0
 10
569.3457324245
 20
555.3668834861
 30
0.0
 10
569.7705882461
 20
555.1968084306
 30
0.0
 10
570.0080374627
 20
555.012386129
 30
0.0
 10
570.1122183154
 20
554.9148042946
 30
0.0
  0
SPLINE
  5
379
100
AcDbEntity
  8
0
100
AcDbSpline
 62
7
  6
CONTINUOUS
 70
0
 71
3
 72
8
 73
4
 74
0
 42
0.0000001
 43
0.0000001
 44
0.0000000001
 40
0.0
 40
0.0
 40
0.0
 40
0.0
 40
1.0
 40
1.0
 40
1.0
 40
1.0
 10
562.9878806343
 20
555.4671772328
 30
0.0
 10
562.9878806343
 20
555.5040784694
 30
0.0
 10
563.003358136
 20
555.5538766961
 30
0.0
 10
562.9746730871
 20
555.5770902533
 30
0.0
  0
SPLINE
  5
37A
100
AcDbEntity
  8
0
100
AcDbSpline
 62
7
  6
CONTINUOUS
 70
0
 71
3
 72
10
 73
6
 74
0
 42
0.0000001
 43
0.0000001
 44
0.0000000001
 40
0.0
 40
0.0
 40
0.0
 40
0.0
 40
0.3353945734
 40
0.6687237472
 40
1.0
 40
1.0
 40
1.0
 40
1.0
 10
568.8805488281
 20
555.4079656204
 30
0.0
 10
568.2089769122
 20
555.4159561473
 30
0.0
 10
566.8698998365
 20
555.4288072248
 30
0.0
 10
564.8674049862
 20
555.4191885124
 30
0.0
 10
563.5365742463
 20
555.4319870826
 30
0.0
 10
562.8732503589
 20
555.4400273392
 30
0.0
  0
SPLINE
  5
37B
100
AcDbEntity
  8
0
100
AcDbSpline
 62
7
  6
CONTINUOUS
 70
0
 71
3
 72
9
 73
5
 74
0
 42
0.0000001
 43
0.0000001
 44
0.0000000001
 40
0.0
 40
0.0
 40
0.0
 40
0.0
 40
0.4215905739
 40
1.0
 40
1.0
 40
1.0
 40
1.0
 10
570.197614043
 20
555.0848000551
 30
0.0
 10
570.1723157265
 20
555.1069347686
 30
0.0
 10
570.1011619699
 20
554.9834341051
 30
0.0
 10
570.1051630601
 20
554.923650426
 30
0.0
 10
570.1034859893
 20
554.8775625376
 30
0.0
  0
SPLINE
  5
37C
100
AcDbEntity
  8
0
100
AcDbSpline
 62
7
  6
CONTINUOUS
 70
0
 71
3
 72
8
 73
4
 74
0
 42
0.0000001
 43
0.0000001
 44
0.0000000001
 40
0.0
 40
0.0
 40
0.0
 40
0.0
 40
1.0
 40
1.0
 40
1.0
 40
1.0
 10
562.9586421016
 20
555.4157893157
 30
0.0
 10
562.9125962993
 20
555.42764192
 30
0.0
 10
562.8466369128
 20
555.4785778546
 30
0.0
 10
562.8181588666
 20
555.4405029149
 30
0.0
  0
SPLINE
  5
37D
100
AcDbEntity
  8
0
100
AcDbSpline
 62
7
  6
CONTINUOUS
 70
0
 71
3
 72
9
 73
5
 74
0
 42
0.0000001
 43
0.0000001
 44
0.0000000001
 40
0.0
 40
0.0
 40
0.0
 40
0.0
 40
0.5305081451
 40
1.0
 40
1.0
 40
1.0
 40
1.0
 10
569.9715164313
 20
554.8815548488
 30
0.0
 10
570.0079727008
 20
554.9212785615
 30
0.0
 10
570.0733243989
 20
554.9651304703
 30
0.0
 10
570.1617103915
 20
555.1162268956
 30
0.0
 10
570.1976145651
 20
555.0847995983
 30
0.0
  0
SPLINE
  5
37E
100
AcDbEntity
  8
0
100
AcDbSpline
 62
7
  6
CONTINUOUS
 70
0
 71
3
 72
10
 73
6
 74
0
 42
0.0000001
 43
0.0000001
 44
0.0000000001
 40
0.0
 40
0.0
 40
0.0
 40
0.0
 40
0.3104270894
 40
0.6551058921
 40
1.0
 40
1.0
 40
1.0
 40
1.0
 10
569.8811266061
 20
554.8798900931
 30
0.0
 10
569.7970061682
 20
554.9536424039
 30
0.0
 10
569.5954179922
 20
555.0820647858
 30
0.0
 10
569.2546167535
 20
555.2069171198
 30
0.0
 10
569.0050017499
 20
555.2361448991
 30
0.0
 10
568.8807069943
 20
555.2362235858
 30
0.0
  0
SPLINE
  5
37F
100
AcDbEntity
  8
0
100
AcDbSpline
 62
7
  6
CONTINUOUS
 70
0
 71
3
 72
10
 73
6
 74
0
 42
0.0000001
 43
0.0000001
 44
0.0000000001
 40
0.0
 40
0.0
 40
0.0
 40
0.0
 40
0.3618458835
 40
0.6825383491
 40
1.0
 40
1.0
 40
1.0
 40
1.0
 10
568.8806049222
 20
555.2362235859
 30
0.0
 10
569.0179951691
 20
555.2311907887
 30
0.0
 10
569.2793017743
 20
555.2042660836
 30
0.0
 10
569.633297796
 20
555.0592108587
 30
0.0
 10
569.8475613773
 20
554.9449948542
 30
0.0
 10
569.9491905591
 20
554.8800303595
 30
0.0
  0
SPLINE
  5
380
100
AcDbEntity
  8
0
100
AcDbSpline
 62
7
  6
CONTINUOUS
 70
0
 71
3
 72
9
 73
5
 74
0
 42
0.0000001
 43
0.0000001
 44
0.0000000001
 40
0.0
 40
0.0
 40
0.0
 40
0.0
 40
0.4974497712
 40
1.0
 40
1.0
 40
1.0
 40
1.0
 10
563.1387409169
 20
555.2362151334
 30
0.0
 10
563.0766253574
 20
555.2536279435
 30
0.0
 10
562.9692075687
 20
555.2618375572
 30
0.0
 10
562.7844804327
 20
555.3503663722
 30
0.0
 10
562.7553859169
 20
555.2920497039
 30
0.0
  0
SPLINE
  5
381
100
AcDbEntity
  8
0
100
AcDbSpline
 62
7
  6
CONTINUOUS
 70
0
 71
3
 72
10
 73
6
 74
0
 42
0.0000001
 43
0.0000001
 44
0.0000000001
 40
0.0
 40
0.0
 40
0.0
 40
0.0
 40
0.2727177585
 40
0.5955814728
 40
1.0
 40
1.0
 40
1.0
 40
1.0
 10
563.1387409169
 20
555.2362151334
 30
0.0
 10
563.106028244
 20
555.2453746818
 30
0.0
 10
563.0341180603
 20
555.2646288153
 30
0.0
 10
562.913023298
 20
555.288395931
 30
0.0
 10
562.8210041896
 20
555.3087356696
 30
0.0
 10
562.7714985743
 20
555.299411806
 30
0.0
  0
SPLINE
  5
382
100
AcDbEntity
  8
0
100
AcDbSpline
 62
7
  6
CONTINUOUS
 70
0
 71
3
 72
9
 73
5
 74
0
 42
0.0000001
 43
0.0000001
 44
0.0000000001
 40
0.0
 40
0.0
 40
0.0
 40
0.0
 40
0.4413443301
 40
1.0
 40
1.0
 40
1.0
 40
1.0
 10
569.9707937388
 20
554.8807671671
 30
0.0
 10
570.0010700408
 20
554.9137751895
 30
0.0
 10
570.0734087406
 20
554.9739337137
 30
0.0
 10
570.1386815487
 20
555.0911569718
 30
0.0
 10
570.1951217193
 20
555.0857775702
 30
0.0
  0
LINE
  5
383
100
AcDbEntity
  8
0
100
AcDbLine
 62
7
  6
CONTINUOUS
 10
567.6104380503
 20
567.8647910204
 11
566.746917689
 21
566.6319135516
  0
SPLINE
  5
384
100
AcDbEntity
  8
0
100
AcDbSpline
 62
7
  6
CONTINUOUS
 70
0
 71
3
 72
10
 73
6
 74
0
 42
0.0000001
 43
0.0000001
 44
0.0000000001
 40
0.0
 40
0.0
 40
0.0
 40
0.0
 40
0.3431933362
 40
0.6716149025
 40
1.0
 40
1.0
 40
1.0
 40
1.0
 10
567.6526373925
 20
561.9267063611
 30
0.0
 10
567.660206922
 20
562.0627102472
 30
0.0
 10
567.7006748596
 20
562.3282753606
 30
0.0
 10
567.8367923474
 20
562.7035410295
 30
0.0
 10
567.9729445186
 20
562.9282085173
 30
0.0
 10
568.0510366403
 20
563.032560511
 30
0.0
  0
SPLINE
  5
385
100
AcDbEntity
  8
0
100
AcDbSpline
 62
7
  6
CONTINUOUS
 70
0
 71
3
 72
9
 73
5
 74
0
 42
0.0000001
 43
0.0000001
 44
0.0000000001
 40
0.0
 40
0.0
 40
0.0
 40
0.0
 40
0.5
 40
1.0
 40
1.0
 40
1.0
 40
1.0
 10
566.7672409006
 20
563.1652981875
 30
0.0
 10
566.9120201315
 20
562.9569022145
 30
0.0
 10
567.2104223037
 20
562.546339605
 30
0.0
 10
567.5068918473
 20
562.1344276727
 30
0.0
 10
567.6526373925
 20
561.9267063611
 30
0.0
  0
SPLINE
  5
386
100
AcDbEntity
  8
0
100
AcDbSpline
 62
7
  6
CONTINUOUS
 70
0
 71
3
 72
10
 73
6
 74
0
 42
0.0000001
 43
0.0000001
 44
0.0000000001
 40
0.0
 40
0.0
 40
0.0
 40
0.0
 40
0.3368844416
 40
0.6684573807
 40
1.0
 40
1.0
 40
1.0
 40
1.0
 10
567.6108277332
 20
567.865347384
 30
0.0
 10
567.625791847
 20
567.7298079389
 30
0.0
 10
567.6793037472
 20
567.46283102
 30
0.0
 10
567.8285802961
 20
567.0845141513
 30
0.0
 10
567.9706294965
 20
566.8547713767
 30
0.0
 10
568.0510366403
 20
566.7473258935
 30
0.0
  0
LINE
  5
387
100
AcDbEntity
  8
0
100
AcDbLine
 62
7
  6
CONTINUOUS
 10
566.7453105528
 20
566.6296189885
 11
567.6108277332
 21
567.865347384
  0
SPLINE
  5
388
100
AcDbEntity
  8
0
100
AcDbSpline
 62
7
  6
CONTINUOUS
 70
0
 71
3
 72
9
 73
5
 74
0
 42
0.0000001
 43
0.0000001
 44
0.0000000001
 40
0.0
 40
0.0
 40
0.0
 40
0.0
 40
0.5
 40
1.0
 40
1.0
 40
1.0
 40
1.0
 10
567.6395601162
 20
561.9450003208
 30
0.0
 10
567.4962355545
 20
562.1492711676
 30
0.0
 10
567.2046906751
 20
562.5543408188
 30
0.0
 10
566.91124527
 20
562.9580835609
 30
0.0
 10
566.7688709712
 20
563.1630178623
 30
0.0
  0
SPLINE
  5
389
100
AcDbEntity
  8
0
100
AcDbSpline
 62
7
  6
CONTINUOUS
 70
0
 71
3
 72
10
 73
6
 74
0
 42
0.0000001
 43
0.0000001
 44
0.0000000001
 40
0.0
 40
0.0
 40
0.0
 40
0.0
 40
0.345695458
 40
0.6745891173
 40
1.0
 40
1.0
 40
1.0
 40
1.0
 10
568.0510366403
 20
563.0325605112
 30
0.0
 10
567.9699139791
 20
562.9241589048
 30
0.0
 10
567.8315224606
 20
562.6957244297
 30
0.0
 10
567.7061412045
 20
562.3239883699
 30
0.0
 10
567.6465624841
 20
562.0722581214
 30
0.0
 10
567.6395601162
 20
561.9450003208
 30
0.0
  0
SPLINE
  5
38A
100
AcDbEntity
  8
0
100
AcDbSpline
 62
7
  6
CONTINUOUS
 70
0
 71
3
 72
9
 73
5
 74
0
 42
0.0000001
 43
0.0000001
 44
0.0000000001
 40
0.0
 40
0.0
 40
0.0
 40
0.0
 40
0.5
 40
1.0
 40
1.0
 40
1.0
 40
1.0
 10
556.8716233236
 20
572.0600837918
 30
0.0
 10
556.6739858241
 20
572.0905393451
 30
0.0
 10
556.2800381932
 20
572.1597313965
 30
0.0
 10
555.8851495177
 20
572.2231021026
 30
0.0
 10
555.6879825405
 20
572.2564683285
 30
0.0
  0
SPLINE
  5
38B
100
AcDbEntity
  8
0
100
AcDbSpline
 62
7
  6
CONTINUOUS
 70
0
 71
3
 72
10
 73
6
 74
0
 42
0.0000001
 43
0.0000001
 44
0.0000000001
 40
0.0
 40
0.0
 40
0.0
 40
0.0
 40
0.3358760638
 40
0.6665546727
 40
1.0
 40
1.0
 40
1.0
 40
1.0
 10
557.1671175389
 20
572.0086173854
 30
0.0
 10
556.9443597694
 20
572.0603537089
 30
0.0
 10
556.5045799193
 20
572.1757758546
 30
0.0
 10
555.8164544941
 20
572.2071695571
 30
0.0
 10
555.3716979127
 20
572.1117784987
 30
0.0
 10
555.1506298
 20
572.0600837918
 30
0.0
  0
SPLINE
  5
38C
100
AcDbEntity
  8
0
100
AcDbSpline
 62
7
  6
CONTINUOUS
 70
0
 71
3
 72
9
 73
5
 74
0
 42
0.0000001
 43
0.0000001
 44
0.0000000001
 40
0.0
 40
0.0
 40
0.0
 40
0.0
 40
0.5
 40
1.0
 40
1.0
 40
1.0
 40
1.0
 10
94.3863151417
 20
572.0600837918
 30
0.0
 10
94.3863151417
 20
572.0928165823
 30
0.0
 10
94.3849913057
 20
572.1582744575
 30
0.0
 10
94.3845836038
 20
572.2237387433
 30
0.0
 10
94.3841255367
 20
572.2564683285
 30
0.0
  0
SPLINE
  5
38D
100
AcDbEntity
  8
0
100
AcDbSpline
 62
7
  6
CONTINUOUS
 70
0
 71
3
 72
11
 73
7
 74
0
 42
0.0000001
 43
0.0000001
 44
0.0000000001
 40
0.0
 40
0.0
 40
0.0
 40
0.0
 40
0.2256127959
 40
0.5
 40
0.7743872041
 40
1.0
 40
1.0
 40
1.0
 40
1.0
 10
563.1878806343
 20
555.3796465909
 30
0.0
 10
563.1878806343
 20
555.4202608619
 30
0.0
 10
563.1309769357
 20
555.5085601607
 30
0.0
 10
562.9878806343
 20
555.5429076733
 30
0.0
 10
562.8447843328
 20
555.5085601607
 30
0.0
 10
562.7878806343
 20
555.4202608619
 30
0.0
 10
562.7878806343
 20
555.3796465909
 30
0.0
  0
SPLINE
  5
38E
100
AcDbEntity
  8
0
100
AcDbSpline
 62
7
  6
CONTINUOUS
 70
0
 71
3
 72
11
 73
7
 74
0
 42
0.0000001
 43
0.0000001
 44
0.0000000001
 40
0.0
 40
0.0
 40
0.0
 40
0.0
 40
0.2256127959
 40
0.5
 40
0.7743872041
 40
1.0
 40
1.0
 40
1.0
 40
1.0
 10
563.1878806343
 20
555.3796465909
 30
0.0
 10
563.1878806343
 20
555.3390323199
 30
0.0
 10
563.1309769357
 20
555.250733021
 30
0.0
 10
562.9878806343
 20
555.2163855085
 30
0.0
 10
562.8447843328
 20
555.250733021
 30
0.0
 10
562.7878806343
 20
555.3390323199
 30
0.0
 10
562.7878806343
 20
555.3796465909
 30
0.0
  0
ENDSEC
  0
SECTION
  2
OBJECTS
  0
DICTIONARY
  5
C
100
AcDbDictionary
280
0
281
1
  3
ACAD_GROUP
350
D
  3
ACAD_MLINESTYLE
350
17
  3
ACAD_LAYOUT
350
1A
  3
ACAD_PLOTSETTINGS
350
19
  3
ACAD_PLOTSTYLENAME
350
E
  0
DICTIONARY
  5
D
102
{ACAD_REACTORS
330
C
102
}
100
AcDbDictionary
280
0
281
1
  0
ACDBDICTIONARYWDFLT
  5
E
102
{ACAD_REACTORS
330
C
102
}
100
AcDbDictionary
281
1
  3
Normal
350
F
100
AcDbDictionaryWithDefault
340
F
  0
DICTIONARY
  5
17
102
{ACAD_REACTORS
330
C
102
}
100
AcDbDictionary
280
0
281
1
  3
Standard
350
18
  0
DICTIONARY
  5
19
102
{ACAD_REACTORS
330
C
102
}
100
AcDbDictionary
281
1
  0
DICTIONARY
  5
1A
102
{ACAD_REACTORS
330
C
102
}
100
AcDbDictionary
281
1
  3
Model
350
38F
  3
Layout1
350
390
  0
ACDBPLACEHOLDER
  5
F
102
{ACAD_REACTORS
330
E
102
}
  0
MLINESTYLE
  5
18
102
{ACAD_REACTORS
330
17
102
}
100
AcDbMlineStyle
  2
STANDARD
 70
0
  3

 62
256
 51
90.0
 52
90.0
 71
2
 49
0.5
 62
256
  6
BYLAYER
 49
-0.5
 62
256
  6
BYLAYER
  0
LAYOUT
  5
38F
102
{ACAD_REACTORS
330
1A
102
}
100
AcDbPlotSettings
  1

  2
none_device
  4

  6

 40
0.0
 41
0.0
 42
0.0
 43
0.0
 44
210.0
 45
297.0
 46
0.0
 47
0.0
 48
0.0
 49
0.0
140
0.0
141
0.0
142
1.0
143
1.0
 70
1024
 72
1
 73
0
 74
0
  7

 75
0
147
1.0
148
0.0
149
0.0
100
AcDbLayout
  1
Model
 70
0
 71
0
 10
0.0
 20
0.0
 11
210.0
 21
297.0
 12
0.0
 22
0.0
 32
0.0
 14
0.0
 24
0.0
 34
0.0
 15
0.0
 25
0.0
 35
0.0
146
0.0
 13
0.0
 23
0.0
 33
0.0
 16
1.0
 26
0.0
 36
0.0
 17
0.0
 27
1.0
 37
0.0
 76
0
330
210
345
0
346
0
  0
LAYOUT
  5
390
102
{ACAD_REACTORS
330
1A
102
}
100
AcDbPlotSettings
  1

  2
none_device
  4

  6

 40
0.0
 41
0.0
 42
0.0
 43
0.0
 44
210.0
 45
297.0
 46
0.0
 47
0.0
 48
0.0
 49
0.0
140
0.0
141
0.0
142
1.0
143
1.0
 70
0
 72
1
 73
0
 74
0
  7

 75
0
147
1.0
148
0.0
149
0.0
100
AcDbLayout
  1
Layout1
 70
0
 71
1
 10
0.0
 20
0.0
 11
210.0
 21
297.0
 12
0.0
 22
0.0
 32
0.0
 14
0.0
 24
0.0
 34
0.0
 15
0.0
 25
0.0
 35
0.0
146
0.0
 13
0.0
 23
0.0
 33
0.0
 16
1.0
 26
0.0
 36
0.0
 17
0.0
 27
1.0
 37
0.0
 76
0
330
211
345
0
346
0
  0
ENDSEC
  0
EOF
