999
DXF file: C:\Users\sesa63760\Dev\_Creo\CAD\MCADPP0003421_3D-CAD\drw0001_1.dxf
999
Pro/ENGINEER 2019471 by Parametric Technology Corporation
  0
SECTION
  2
HEADER
  9
$ACADVER
  1
AC1024
  9
$DWGCODEPAGE
  3
ANSI_1252
  9
$EXTMAX
 10
89.3337655451
 20
126.3434684138
 30
0.0
  9
$EXTMIN
 10
0.0
 20
0.0
 30
0.0
  9
$LIMMIN
 10
0.0
 20
0.0
  9
$LIMMAX
 10
89.3337655451
 20
126.3434684138
  9
$VIEWCTR
 10
44.6668827726
 20
63.1717342069
  9
$VIEWSIZE
 40
126.3434684138
  9
$CLAYER
  8
0
  9
$LTSCALE
 40
8.2357223855
  9
$CELTYPE
  6
BYLAYER
  9
$DIMSCALE
 40
1.0
  9
$DIMASZ
 40
1.0634972089
  9
$DIMEXO
 40
1.0
  9
$DIMDLI
 40
5.6901354663
  9
$DIMEXE
 40
1.0
  9
$DIMCEN
 40
1.3476636631
  9
$DIMLFAC
 40
1.0
  9
$DIMBLK
  1
_FILLED
  9
$DIMALT
 70
0
  9
$DIMALTF
 40
0.0393700787
  9
$DIMTXT
 40
1.4888960924
  9
$DIMTOL
 70
1
  9
$DIMLIM
 70
0
  9
$DIMTFAC
 40
1.0
  9
$DIMTP
 40
0.01
  9
$DIMTM
 40
0.01
  9
$DIMGAP
 40
0.625
  9
$DIMDSEP
 70
46
  9
$AUNITS
 70
0
  9
$PDMODE
 70
3
  9
$PDSIZE
 40
0.3125
  9
$HANDSEED
  5
2F0
  9
$TILEMODE
 70
1
  9
$MEASUREMENT
 70
1
  9
$INSUNITS
 70
4
  0
ENDSEC
  0
SECTION
  2
CLASSES
  0
CLASS
  1
ACDBDICTIONARYWDFLT
  2
AcDbDictionaryWithDefault
  3
AutoCAD 2000
 90
0
 91
1
280
0
281
0
  0
CLASS
  1
ACDBPLACEHOLDER
  2
AcDbPlaceHolder
  3
AutoCAD 2000
 90
0
 91
1
280
0
281
0
  0
CLASS
  1
LAYOUT
  2
AcDbLayout
  3
AutoCAD 2000
 90
0
 91
0
280
0
281
0
  0
ENDSEC
  0
SECTION
  2
TABLES
  0
TABLE
  2
VPORT
  5
8
100
AcDbSymbolTable
 70
2
  0
VPORT
  5
1F4
100
AcDbSymbolTableRecord
100
AcDbViewportTableRecord
  2
*ACTIVE
 70
0
 10
0.0
 20
0.0
 11
1.0
 21
1.0
 12
44.6668827726
 22
63.1717342069
 13
0.0
 23
0.0
 14
1.0
 24
1.0
 15
0.0
 25
0.0
 16
0.0
 26
0.0
 36
1.0
 17
0.0
 27
0.0
 37
0.0
 40
126.3434684138
 41
0.7070707071
 42
50.0
 43
0.0
 44
0.0
 50
0.0
 51
0.0
 71
0
 72
100
 73
1
 74
1
 75
0
 76
0
 77
0
 78
0
  0
ENDTAB
  0
TABLE
  2
LTYPE
  5
5
100
AcDbSymbolTable
 70
6
  0
LTYPE
  5
14
100
AcDbSymbolTableRecord
100
AcDbLinetypeTableRecord
  2
BYBLOCK
 70
0
  3

 72
65
 73
0
 40
0.0
  0
LTYPE
  5
15
100
AcDbSymbolTableRecord
100
AcDbLinetypeTableRecord
  2
BYLAYER
 70
0
  3

 72
65
 73
0
 40
0.0
  0
LTYPE
  5
16
100
AcDbSymbolTableRecord
100
AcDbLinetypeTableRecord
  2
CONTINUOUS
 70
64
  3
Solid line
 72
65
 73
0
 40
0.0
  0
LTYPE
  5
1F5
100
AcDbSymbolTableRecord
100
AcDbLinetypeTableRecord
  2
CENTER
 70
64
  3
____ _ ____ _ ____ _ ____ _ ____ _ ____ _ ____
 72
65
 73
4
 40
0.6
 49
0.375
 74
0
 49
-0.075
 74
0
 49
0.075
 74
0
 49
-0.075
 74
0
  0
LTYPE
  5
1F6
100
AcDbSymbolTableRecord
100
AcDbLinetypeTableRecord
  2
HIDDEN
 70
64
  3
- - - - - - - - - - - - - - - - - - - -
 72
65
 73
2
 40
0.2
 49
0.1
 74
0
 49
-0.1
 74
0
  0
LTYPE
  5
1F7
100
AcDbSymbolTableRecord
100
AcDbLinetypeTableRecord
  2
PHANTOM
 70
64
  3
_____ _ _ _____ _ _ _____ _ _ _____
 72
65
 73
6
 40
0.8
 49
0.45
 74
0
 49
-0.05
 74
0
 49
0.1
 74
0
 49
-0.05
 74
0
 49
0.1
 74
0
 49
-0.05
 74
0
  0
LTYPE
  5
1F8
100
AcDbSymbolTableRecord
100
AcDbLinetypeTableRecord
  2
DOT
 70
64
  3
. . . . . . . . . . . . . . . . . . . .
 72
65
 73
2
 40
0.2
 49
0.1
 74
0
 49
-0.1
 74
0
  0
LTYPE
  5
1F9
100
AcDbSymbolTableRecord
100
AcDbLinetypeTableRecord
  2
DASHED
 70
64
  3
- - - - - - - - - - - - - - - - - - - -
 72
65
 73
2
 40
0.2
 49
0.1
 74
0
 49
-0.1
 74
0
  0
ENDTAB
  0
TABLE
  2
LAYER
  5
2
100
AcDbSymbolTable
 70
36
  0
LAYER
  5
10
100
AcDbSymbolTableRecord
100
AcDbLayerTableRecord
  2
0
 70
0
 62
7
  6
CONTINUOUS
370
-3
390
F
  0
LAYER
  5
1FA
100
AcDbSymbolTableRecord
100
AcDbLayerTableRecord
  2
DEFAULT_1
 70
0
 62
7
  6
CENTER
370
-3
390
F
  0
LAYER
  5
1FB
100
AcDbSymbolTableRecord
100
AcDbLayerTableRecord
  2
DEFAULT_2
 70
0
 62
8
  6
HIDDEN
370
-3
390
F
  0
LAYER
  5
1FC
100
AcDbSymbolTableRecord
100
AcDbLayerTableRecord
  2
DEFAULT_3
 70
0
 62
7
  6
PHANTOM
370
-3
390
F
  0
LAYER
  5
1FD
100
AcDbSymbolTableRecord
100
AcDbLayerTableRecord
  2
00_COMPONENTS
 70
0
 62
7
  6
CONTINUOUS
370
-3
390
F
  0
LAYER
  5
1FE
100
AcDbSymbolTableRecord
100
AcDbLayerTableRecord
  2
01_1_DEFAULT_DATUMS
 70
0
 62
7
  6
CONTINUOUS
370
-3
390
F
  0
LAYER
  5
1FF
100
AcDbSymbolTableRecord
100
AcDbLayerTableRecord
  2
01_PLANES
 70
0
 62
7
  6
CONTINUOUS
370
-3
390
F
  0
LAYER
  5
200
100
AcDbSymbolTableRecord
100
AcDbLayerTableRecord
  2
02_COORD_SYS
 70
0
 62
7
  6
CONTINUOUS
370
-3
390
F
  0
LAYER
  5
201
100
AcDbSymbolTableRecord
100
AcDbLayerTableRecord
  2
03_AXES
 70
0
 62
7
  6
CONTINUOUS
370
-3
390
F
  0
LAYER
  5
202
100
AcDbSymbolTableRecord
100
AcDbLayerTableRecord
  2
04_POINTS
 70
0
 62
7
  6
CONTINUOUS
370
-3
390
F
  0
LAYER
  5
203
100
AcDbSymbolTableRecord
100
AcDbLayerTableRecord
  2
05_CURVES
 70
0
 62
7
  6
CONTINUOUS
370
-3
390
F
  0
LAYER
  5
204
100
AcDbSymbolTableRecord
100
AcDbLayerTableRecord
  2
06_SURFS
 70
0
 62
7
  6
CONTINUOUS
370
-3
390
F
  0
LAYER
  5
205
100
AcDbSymbolTableRecord
100
AcDbLayerTableRecord
  2
07_COSMETICS
 70
0
 62
7
  6
CONTINUOUS
370
-3
390
F
  0
LAYER
  5
206
100
AcDbSymbolTableRecord
100
AcDbLayerTableRecord
  2
10_NOTES
 70
0
 62
7
  6
CONTINUOUS
370
-3
390
F
  0
LAYER
  5
207
100
AcDbSymbolTableRecord
100
AcDbLayerTableRecord
  2
11_NOTES_PUB
 70
0
 62
7
  6
CONTINUOUS
370
-3
390
F
  0
LAYER
  5
208
100
AcDbSymbolTableRecord
100
AcDbLayerTableRecord
  2
13_REF_GTOL
 70
0
 62
7
  6
CONTINUOUS
370
-3
390
F
  0
LAYER
  5
209
100
AcDbSymbolTableRecord
100
AcDbLayerTableRecord
  2
16_MISC
 70
0
 62
7
  6
CONTINUOUS
370
-3
390
F
  0
LAYER
  5
20A
100
AcDbSymbolTableRecord
100
AcDbLayerTableRecord
  2
17_NO_PRINT
 70
0
 62
7
  6
CONTINUOUS
370
-3
390
F
  0
LAYER
  5
20B
100
AcDbSymbolTableRecord
100
AcDbLayerTableRecord
  2
18_DATUM_CAMS_JOINTS
 70
0
 62
7
  6
CONTINUOUS
370
-3
390
F
  0
LAYER
  5
20C
100
AcDbSymbolTableRecord
100
AcDbLayerTableRecord
  2
19_DATUM_FUNCTIONAL
 70
0
 62
7
  6
CONTINUOUS
370
-3
390
F
  0
LAYER
  5
20D
100
AcDbSymbolTableRecord
100
AcDbLayerTableRecord
  2
20_DATUM_KINEMATIC_SCHEME
 70
0
 62
7
  6
CONTINUOUS
370
-3
390
F
  0
ENDTAB
  0
TABLE
  2
STYLE
  5
3
100
AcDbSymbolTable
 70
1
  0
STYLE
  5
11
100
AcDbSymbolTableRecord
100
AcDbTextStyleTableRecord
  2
STANDARD
 70
0
 40
0.0
 41
0.8
 50
0.0
 71
0
 42
0.2
  3
txt
  4

  0
STYLE
  5
20E
100
AcDbSymbolTableRecord
100
AcDbTextStyleTableRecord
  2
TEXTSTYLE_1
 70
0
 40
0.0
 41
0.8
 50
0.0
 71
0
 42
0.2
  3
gdt
  4

  0
ENDTAB
  0
TABLE
  2
VIEW
  5
6
100
AcDbSymbolTable
 70
0
  0
ENDTAB
  0
TABLE
  2
UCS
  5
7
100
AcDbSymbolTable
 70
0
  0
ENDTAB
  0
TABLE
  2
APPID
  5
9
100
AcDbSymbolTable
 70
1
  0
APPID
  5
20F
100
AcDbSymbolTableRecord
100
AcDbRegAppTableRecord
  2
ACAD
 70
0
  0
ENDTAB
  0
TABLE
  2
BLOCK_RECORD
  5
1
100
AcDbSymbolTable
 70
0
  0
BLOCK_RECORD
  5
210
100
AcDbSymbolTableRecord
100
AcDbBlockTableRecord
  2
*Model_Space
  0
BLOCK_RECORD
  5
211
100
AcDbSymbolTableRecord
100
AcDbBlockTableRecord
  2
*Paper_Space
  0
BLOCK_RECORD
  5
212
100
AcDbSymbolTableRecord
100
AcDbBlockTableRecord
  2
_FILLED
  0
ENDTAB
  0
TABLE
  2
DIMSTYLE
  5
A
100
AcDbSymbolTable
 70
1
100
AcDbDimStyleTable
 71
0
  0
DIMSTYLE
105
213
100
AcDbSymbolTableRecord
100
AcDbDimStyleTableRecord
  2
STANDARD
 70
0
  3

  4

 40
1.0
 41
1.0634972089
 42
1.0
 43
0.38
 44
1.0
 45
0.0
 46
0.0
 47
0.01
 48
0.01
140
1.4888960924
141
0.09
142
0.0
143
25.4
144
1.0
145
0.0
146
1.0
147
0.625
 71
1
 72
0
 73
0
 74
0
 75
0
 76
0
 77
1
 78
8
 79
2
170
0
171
1
172
0
173
0
174
0
175
0
176
0
177
0
178
0
270
2
179
2
271
2
272
2
273
2
274
2
275
0
280
0
281
0
282
0
283
1
284
8
285
0
286
0
287
3
288
0
340
11
278
46
341
212
342
212
343
212
344
212
  0
ENDTAB
  0
ENDSEC
  0
SECTION
  2
BLOCKS
  0
BLOCK
  5
20
100
AcDbEntity
  8
0
100
AcDbBlockBegin
  2
*Model_Space
 70
0
 10
0.0
 20
0.0
 30
0.0
  3
*Model_Space
  1

  0
ENDBLK
  5
21
100
AcDbEntity
  8
0
100
AcDbBlockEnd
  0
BLOCK
  5
1C
100
AcDbEntity
  8
0
100
AcDbBlockBegin
  2
*Paper_Space
 70
0
 10
0.0
 20
0.0
 30
0.0
  3
*Paper_Space
  1

  0
ENDBLK
  5
1D
100
AcDbEntity
  8
0
100
AcDbBlockEnd
  0
BLOCK
  5
214
100
AcDbEntity
  8
0
100
AcDbBlockBegin
  2
_FILLED
 70
64
 10
0.0
 20
0.0
  3
_FILLED
  1

  0
SOLID
  5
215
100
AcDbEntity
  8
0
  6
BYBLOCK
 62
0
100
AcDbTrace
 10
0.0
 20
0.0
 11
-1.0
 21
0.25
 12
-1.0
 22
-0.25
 13
-1.0
 23
-0.25
  0
ENDBLK
  5
216
100
AcDbEntity
  8
0
  6
BYBLOCK
 62
0
100
AcDbBlockEnd
  0
ENDSEC
  0
SECTION
  2
ENTITIES
  0
LINE
  5
217
100
AcDbEntity
  8
0
100
AcDbLine
 62
7
  6
CONTINUOUS
 10
23.045143825
 20
28.3996210985
 11
47.7939842051
 21
14.1111946903
  0
LINE
  5
218
100
AcDbEntity
  8
0
100
AcDbLine
 62
7
  6
CONTINUOUS
 10
22.7353829234
 20
29.0857017509
 11
47.4842233035
 21
14.7972753427
  0
LINE
  5
219
100
AcDbEntity
  8
0
100
AcDbLine
 62
7
  6
CONTINUOUS
 10
23.7958307661
 20
96.244373015
 11
51.776938052
 21
112.3941779681
  0
LINE
  5
21A
100
AcDbEntity
  8
0
100
AcDbLine
 62
7
  6
CONTINUOUS
 10
10.3637446126
 20
63.7457120574
 11
10.3637446126
 21
72.5661994449
  0
LINE
  5
21B
100
AcDbEntity
  8
0
100
AcDbLine
 62
7
  6
CONTINUOUS
 10
16.3299519239
 20
41.01423241
 11
41.0787923041
 21
26.7258060018
  0
LINE
  5
21C
100
AcDbEntity
  8
0
100
AcDbLine
 62
7
  6
CONTINUOUS
 10
40.7681910777
 20
27.4123365685
 11
16.0193506976
 21
41.7007629767
  0
LINE
  5
21D
100
AcDbEntity
  8
0
100
AcDbLine
 62
7
  6
CONTINUOUS
 10
16.0193506976
 20
41.7007629767
 11
16.0193506976
 21
58.7898238239
  0
LINE
  5
21E
100
AcDbEntity
  8
0
100
AcDbLine
 62
7
  6
CONTINUOUS
 10
16.0193506976
 20
72.566257988
 11
16.0193506976
 21
75.4638671893
  0
LINE
  5
21F
100
AcDbEntity
  8
0
100
AcDbLine
 62
7
  6
CONTINUOUS
 10
46.7834864822
 20
29.5535097386
 11
47.4842233035
 21
29.1489482985
  0
LINE
  5
220
100
AcDbEntity
  8
0
100
AcDbLine
 62
7
  6
CONTINUOUS
 10
11.4241707534
 20
74.4029215944
 11
12.1311215134
 21
74.8110773696
  0
LINE
  5
221
100
AcDbEntity
  8
0
100
AcDbLine
 62
7
  6
CONTINUOUS
 10
22.7353829234
 20
29.0842911219
 11
22.7353829234
 21
37.3161387603
  0
LINE
  5
222
100
AcDbEntity
  8
0
100
AcDbLine
 62
7
  6
CONTINUOUS
 10
22.7353829234
 20
81.7246379486
 11
22.7353829234
 21
94.4076133536
  0
LINE
  5
223
100
AcDbEntity
  8
0
100
AcDbLine
 62
7
  6
CONTINUOUS
 10
78.5861166847
 20
51.3246141827
 11
76.1157282199
 21
50.6626927479
  0
LINE
  5
224
100
AcDbEntity
  8
0
100
AcDbLine
 62
7
  6
CONTINUOUS
 10
19.395816339
 20
54.9102462517
 11
23.2191797248
 21
52.7028763091
  0
LINE
  5
225
100
AcDbEntity
  8
0
100
AcDbLine
 62
7
  6
CONTINUOUS
 10
31.7702365291
 20
47.7660330476
 11
35.5935999149
 21
45.558663105
  0
LINE
  5
226
100
AcDbEntity
  8
0
100
AcDbLine
 62
7
  6
CONTINUOUS
 10
76.1157282199
 20
52.62544708
 11
76.2640984199
 21
52.6652017247
  0
LINE
  5
227
100
AcDbEntity
  8
0
100
AcDbLine
 62
7
  6
CONTINUOUS
 10
36.795623456
 20
46.9522331499
 11
40.7681910777
 21
46.4246680633
  0
LINE
  5
228
100
AcDbEntity
  8
0
100
AcDbLine
 62
7
  6
CONTINUOUS
 10
36.1479508064
 20
47.1688995671
 11
36.795623456
 21
46.9522331499
  0
LINE
  5
229
100
AcDbEntity
  8
0
100
AcDbLine
 62
7
  6
CONTINUOUS
 10
11.3990820339
 20
61.4572768348
 11
36.147922414
 21
47.1688504266
  0
LINE
  5
22A
100
AcDbEntity
  8
0
100
AcDbLine
 62
7
  6
CONTINUOUS
 10
35.1125849928
 20
49.4572856492
 11
10.3637446126
 21
63.7457120574
  0
LINE
  5
22B
100
AcDbEntity
  8
0
100
AcDbLine
 62
7
  6
CONTINUOUS
 10
76.5257784322
 20
98.1057515599
 11
48.5446711462
 21
81.9559466068
  0
LINE
  5
22C
100
AcDbEntity
  8
0
100
AcDbLine
 62
7
  6
CONTINUOUS
 10
38.9823907356
 20
52.8771859658
 11
37.7854994123
 21
53.5681958608
  0
LINE
  5
22D
100
AcDbEntity
  8
0
100
AcDbLine
 62
7
  6
CONTINUOUS
 10
35.1125849928
 20
58.2777730367
 11
35.1125849928
 21
49.4572856492
  0
LINE
  5
22E
100
AcDbEntity
  8
0
100
AcDbLine
 62
7
  6
CONTINUOUS
 10
37.5869126535
 20
57.8573741712
 11
37.5869126535
 21
54.3727967228
  0
LINE
  5
22F
100
AcDbEntity
  8
0
100
AcDbLine
 62
7
  6
CONTINUOUS
 10
40.7194108905
 20
53.1500118078
 11
38.9823907356
 21
52.8771859658
  0
LINE
  5
230
100
AcDbEntity
  8
0
100
AcDbLine
 62
7
  6
CONTINUOUS
 10
41.0007707582
 20
53.6285615295
 11
42.244419845
 21
53.823895825
  0
LINE
  5
231
100
AcDbEntity
  8
0
100
AcDbLine
 62
7
  6
CONTINUOUS
 10
40.9836269402
 20
53.0959810471
 11
40.720633507
 21
53.0698373547
  0
LINE
  5
232
100
AcDbEntity
  8
0
100
AcDbLine
 62
7
  6
CONTINUOUS
 10
80.1496957098
 20
51.0809076305
 11
79.832907277
 21
51.1093459871
  0
LINE
  5
233
100
AcDbEntity
  8
0
100
AcDbLine
 62
7
  6
CONTINUOUS
 10
38.9823907356
 20
52.8771859658
 11
38.2081749295
 21
52.9998393299
  0
LINE
  5
234
100
AcDbEntity
  8
0
100
AcDbLine
 62
7
  6
CONTINUOUS
 10
40.8717296065
 20
53.6489947422
 11
41.0007707582
 21
53.6285615295
  0
LINE
  5
235
100
AcDbEntity
  8
0
100
AcDbLine
 62
7
  6
CONTINUOUS
 10
37.5869126535
 20
54.9585195943
 11
40.7194108905
 21
53.1500118078
  0
LINE
  5
236
100
AcDbEntity
  8
0
100
AcDbLine
 62
7
  6
CONTINUOUS
 10
37.5869126535
 20
55.0570305901
 11
40.9836269402
 21
53.0959810471
  0
LINE
  5
237
100
AcDbEntity
  8
0
100
AcDbLine
 62
7
  6
CONTINUOUS
 10
37.5869126535
 20
55.5454307514
 11
40.87172482
 21
53.6489864661
  0
LINE
  5
238
100
AcDbEntity
  8
0
100
AcDbLine
 62
7
  6
CONTINUOUS
 10
40.7681910777
 20
53.8778299888
 11
37.5869126535
 21
55.7145003923
  0
LINE
  5
239
100
AcDbEntity
  8
0
100
AcDbLine
 62
7
  6
CONTINUOUS
 10
10.3637446126
 20
72.5661994449
 11
35.1125849928
 21
58.2777730367
  0
LINE
  5
23A
100
AcDbEntity
  8
0
100
AcDbLine
 62
7
  6
CONTINUOUS
 10
37.1041094094
 20
58.1539291541
 11
37.4045687991
 21
57.980462769
  0
LINE
  5
23B
100
AcDbEntity
  8
0
100
AcDbLine
 62
7
  6
CONTINUOUS
 10
37.1691586742
 20
58.2017122161
 11
37.5328732865
 21
57.9917262373
  0
LINE
  5
23C
100
AcDbEntity
  8
0
100
AcDbLine
 62
7
  6
CONTINUOUS
 10
37.0547829869
 20
58.9452643238
 11
37.3436458617
 21
58.7784930381
  0
LINE
  5
23D
100
AcDbEntity
  8
0
100
AcDbLine
 62
7
  6
CONTINUOUS
 10
37.5872990614
 20
57.8714274267
 11
37.5328701974
 21
57.9917208823
  0
LINE
  5
23E
100
AcDbEntity
  8
0
100
AcDbLine
 62
7
  6
CONTINUOUS
 10
37.0271172382
 20
59.9734520547
 11
36.8799618935
 21
60.5226509613
  0
LINE
  5
23F
100
AcDbEntity
  8
0
100
AcDbLine
 62
7
  6
CONTINUOUS
 10
37.1843363809
 20
57.7880608357
 11
37.0926790743
 21
58.134130785
  0
LINE
  5
240
100
AcDbEntity
  8
0
100
AcDbLine
 62
7
  6
CONTINUOUS
 10
37.0019808117
 20
58.4765796774
 11
36.9114046358
 21
58.8185676078
  0
LINE
  5
241
100
AcDbEntity
  8
0
100
AcDbLine
 62
7
  6
CONTINUOUS
 10
36.8207317383
 20
59.1609207294
 11
36.7301388097
 21
59.502971913
  0
LINE
  5
242
100
AcDbEntity
  8
0
100
AcDbLine
 62
7
  6
CONTINUOUS
 10
37.4343441243
 20
58.4360441457
 11
37.3436458617
 21
58.7784930381
  0
LINE
  5
243
100
AcDbEntity
  8
0
100
AcDbLine
 62
7
  6
CONTINUOUS
 10
37.2530696859
 20
59.1204809685
 11
37.1623967884
 21
59.4628340901
  0
LINE
  5
244
100
AcDbEntity
  8
0
100
AcDbLine
 62
7
  6
CONTINUOUS
 10
40.720633507
 20
53.0698373547
 11
40.7194108905
 21
53.1500118078
  0
LINE
  5
245
100
AcDbEntity
  8
0
100
AcDbLine
 62
7
  6
CONTINUOUS
 10
40.7681910777
 20
46.4246680633
 11
40.7681910777
 21
27.4123365685
  0
LINE
  5
246
100
AcDbEntity
  8
0
100
AcDbLine
 62
7
  6
CONTINUOUS
 10
40.7681910777
 20
53.8778299888
 11
40.7681910777
 21
61.1754407811
  0
LINE
  5
247
100
AcDbEntity
  8
0
100
AcDbLine
 62
7
  6
CONTINUOUS
 10
18.0276359565
 20
56.2073000949
 11
19.2373428736
 21
56.9057205402
  0
LINE
  5
248
100
AcDbEntity
  8
0
100
AcDbLine
 62
7
  6
CONTINUOUS
 10
59.1452361267
 20
75.8244451533
 11
55.6097169407
 21
73.7832243839
  0
LINE
  5
249
100
AcDbEntity
  8
0
100
AcDbLine
 62
7
  6
CONTINUOUS
 10
37.5328701974
 20
57.9917208823
 11
37.4045687991
 21
57.980462769
  0
LINE
  5
24A
100
AcDbEntity
  8
0
100
AcDbLine
 62
7
  6
CONTINUOUS
 10
77.6531174685
 20
53.5773528469
 11
76.1157282199
 21
53.7340073849
  0
LINE
  5
24B
100
AcDbEntity
  8
0
100
AcDbLine
 62
7
  6
CONTINUOUS
 10
79.8383978404
 20
51.1361772528
 11
78.5861166847
 21
51.3246141827
  0
LINE
  5
24C
100
AcDbEntity
  8
0
100
AcDbLine
 62
7
  6
CONTINUOUS
 10
76.2640984199
 20
52.6652017247
 11
77.5163795756
 21
52.4767647949
  0
LINE
  5
24D
100
AcDbEntity
  8
0
100
AcDbLine
 62
7
  6
CONTINUOUS
 10
36.8845452476
 20
59.6232481229
 11
37.1623967884
 21
59.4628340901
  0
LINE
  5
24E
100
AcDbEntity
  8
0
100
AcDbLine
 62
7
  6
CONTINUOUS
 10
36.1730111336
 20
60.1144951861
 11
11.4241707534
 21
74.4029215944
  0
LINE
  5
24F
100
AcDbEntity
  8
0
100
AcDbLine
 62
7
  6
CONTINUOUS
 10
70.706378566
 20
40.9392169172
 11
71.7670343219
 21
40.3268608844
  0
LINE
  5
250
100
AcDbEntity
  8
0
100
AcDbLine
 62
7
  6
CONTINUOUS
 10
12.1311215134
 20
74.8110773696
 11
36.8799618935
 21
60.5226509613
  0
LINE
  5
251
100
AcDbEntity
  8
0
100
AcDbLine
 62
7
  6
CONTINUOUS
 10
73.6408647896
 20
41.6536743752
 11
73.004466037
 21
42.0210910543
  0
LINE
  5
252
100
AcDbEntity
  8
0
100
AcDbLine
 62
7
  6
CONTINUOUS
 10
16.0193506976
 20
75.4638671893
 11
40.7681910777
 21
61.1754407811
  0
LINE
  5
253
100
AcDbEntity
  8
0
100
AcDbLine
 62
7
  6
CONTINUOUS
 10
36.7301388097
 20
59.502971913
 11
36.9035985297
 21
59.6562501222
  0
LINE
  5
254
100
AcDbEntity
  8
0
100
AcDbLine
 62
7
  6
CONTINUOUS
 10
37.1623967884
 20
59.4628340901
 11
36.8207317383
 21
59.1609207294
  0
LINE
  5
255
100
AcDbEntity
  8
0
100
AcDbLine
 62
7
  6
CONTINUOUS
 10
36.9114046358
 20
58.8185676078
 11
37.2530696859
 21
59.1204809685
  0
LINE
  5
256
100
AcDbEntity
  8
0
100
AcDbLine
 62
7
  6
CONTINUOUS
 10
37.3436458617
 20
58.7784930381
 11
37.0019808117
 21
58.4765796774
  0
LINE
  5
257
100
AcDbEntity
  8
0
100
AcDbLine
 62
7
  6
CONTINUOUS
 10
37.0926790743
 20
58.134130785
 11
37.4343441243
 21
58.4360441457
  0
LINE
  5
258
100
AcDbEntity
  8
0
100
AcDbLine
 62
7
  6
CONTINUOUS
 10
37.4045687991
 20
57.980462769
 11
37.1843363809
 21
57.7880608357
  0
LINE
  5
259
100
AcDbEntity
  8
0
100
AcDbLine
 62
7
  6
CONTINUOUS
 10
54.3612521218
 20
72.3683874343
 11
59.3573619788
 21
75.252875587
  0
LINE
  5
25A
100
AcDbEntity
  8
0
100
AcDbLine
 62
7
  6
CONTINUOUS
 10
59.3573619788
 20
74.0281219613
 11
54.1247935834
 21
71.0071152227
  0
LINE
  5
25B
100
AcDbEntity
  8
0
100
AcDbLine
 62
7
  6
CONTINUOUS
 10
36.1730111336
 20
60.1144951861
 11
36.8799618935
 21
60.5226509613
  0
LINE
  5
25C
100
AcDbEntity
  8
0
100
AcDbLine
 62
7
  6
CONTINUOUS
 10
23.9660531844
 20
52.7788093834
 11
25.1757787116
 21
53.4772405731
  0
LINE
  5
25D
100
AcDbEntity
  8
0
100
AcDbLine
 62
7
  6
CONTINUOUS
 10
58.5088373741
 20
72.1093497467
 11
54.973318188
 21
70.0681289773
  0
LINE
  5
25E
100
AcDbEntity
  8
0
100
AcDbLine
 62
7
  6
CONTINUOUS
 10
55.6097169407
 20
69.7007122983
 11
59.1452361267
 21
71.7419330676
  0
LINE
  5
25F
100
AcDbEntity
  8
0
100
AcDbLine
 62
7
  6
CONTINUOUS
 10
77.8652831421
 20
53.5102705695
 11
77.6531174685
 21
53.5773528469
  0
LINE
  5
260
100
AcDbEntity
  8
0
100
AcDbLine
 62
7
  6
CONTINUOUS
 10
73.004466037
 20
46.1036031399
 11
73.6408647896
 21
45.7361864608
  0
LINE
  5
261
100
AcDbEntity
  8
0
100
AcDbLine
 62
7
  6
CONTINUOUS
 10
47.4842233035
 20
80.1191869453
 11
47.4842233035
 21
67.4362115404
  0
LINE
  5
262
100
AcDbEntity
  8
0
100
AcDbLine
 62
7
  6
CONTINUOUS
 10
47.4842233035
 20
29.1489482985
 11
47.4842233035
 21
14.7958647144
  0
LINE
  5
263
100
AcDbEntity
  8
0
100
AcDbLine
 62
7
  6
CONTINUOUS
 10
76.9642528245
 20
79.5801784938
 11
76.1157282199
 21
79.0902855092
  0
LINE
  5
264
100
AcDbEntity
  8
0
100
AcDbLine
 62
7
  6
CONTINUOUS
 10
78.8607577728
 20
78.3927899553
 11
80.0036293487
 21
79.0526232286
  0
LINE
  5
265
100
AcDbEntity
  8
0
100
AcDbLine
 62
7
  6
CONTINUOUS
 10
22.0320986373
 20
80.5022843201
 11
46.7809390174
 21
66.2138579119
  0
LINE
  5
266
100
AcDbEntity
  8
0
100
AcDbLine
 62
7
  6
CONTINUOUS
 10
30.4020561466
 20
49.0630868908
 11
31.6117630637
 21
49.7615073361
  0
LINE
  5
267
100
AcDbEntity
  8
0
100
AcDbLine
 62
7
  6
CONTINUOUS
 10
42.244419845
 20
53.823895825
 11
40.9836269402
 21
53.0959810471
  0
LINE
  5
268
100
AcDbEntity
  8
0
100
AcDbLine
 62
7
  6
CONTINUOUS
 10
47.4842233035
 20
67.4362115404
 11
22.7353829234
 21
81.7246379486
  0
LINE
  5
269
100
AcDbEntity
  8
0
100
AcDbLine
 62
7
  6
CONTINUOUS
 10
76.2640984199
 20
52.6652017247
 11
78.5861166847
 21
51.3246141827
  0
LINE
  5
26A
100
AcDbEntity
  8
0
100
AcDbLine
 62
7
  6
CONTINUOUS
 10
77.5163795756
 20
52.4767647949
 11
79.8383978404
 21
51.1361772528
  0
LINE
  5
26B
100
AcDbEntity
  8
0
100
AcDbLine
 62
7
  6
CONTINUOUS
 10
77.8277575049
 20
52.4216339218
 11
80.1497757696
 21
51.0810463797
  0
LINE
  5
26C
100
AcDbEntity
  8
0
100
AcDbLine
 62
7
  6
CONTINUOUS
 10
76.1157282199
 20
54.4649448635
 11
77.6531174685
 21
53.5773528469
  0
LINE
  5
26D
100
AcDbEntity
  8
0
100
AcDbLine
 62
7
  6
CONTINUOUS
 10
76.1157282199
 20
54.5203579844
 11
77.8652849869
 21
53.5102737652
  0
LINE
  5
26E
100
AcDbEntity
  8
0
100
AcDbLine
 62
7
  6
CONTINUOUS
 10
54.1247935834
 20
71.0071152227
 11
54.1247935834
 21
71.9588183603
  0
LINE
  5
26F
100
AcDbEntity
  8
0
100
AcDbLine
 62
7
  6
CONTINUOUS
 10
36.3404733745
 20
45.6345961793
 11
37.5501989017
 21
46.333027369
  0
LINE
  5
270
100
AcDbEntity
  8
0
100
AcDbLine
 62
7
  6
CONTINUOUS
 10
55.6097169407
 20
69.7007122983
 11
54.973318188
 21
70.0681289773
  0
LINE
  5
271
100
AcDbEntity
  8
0
100
AcDbLine
 62
7
  6
CONTINUOUS
 10
59.3573619788
 20
75.252875587
 11
59.3573619788
 21
74.0281219613
  0
LINE
  5
272
100
AcDbEntity
  8
0
100
AcDbLine
 62
7
  6
CONTINUOUS
 10
58.5088373741
 20
72.1093497467
 11
59.1452361267
 21
71.7419330676
  0
LINE
  5
273
100
AcDbEntity
  8
0
100
AcDbLine
 62
7
  6
CONTINUOUS
 10
22.7353829234
 20
94.4075932666
 11
47.4842233035
 21
80.1191668584
  0
LINE
  5
274
100
AcDbEntity
  8
0
100
AcDbLine
 62
7
  6
CONTINUOUS
 10
58.2966790622
 20
74.640493675
 11
59.3573619788
 21
74.0281219613
  0
LINE
  5
275
100
AcDbEntity
  8
0
100
AcDbLine
 62
7
  6
CONTINUOUS
 10
48.5448134379
 20
81.956028733
 11
23.7959730578
 21
96.2444551412
  0
LINE
  5
276
100
AcDbEntity
  8
0
100
AcDbLine
 62
7
  6
CONTINUOUS
 10
70.1053456035
 20
43.6949656915
 11
70.1053456035
 21
39.6124536058
  0
LINE
  5
277
100
AcDbEntity
  8
0
100
AcDbLine
 62
7
  6
CONTINUOUS
 10
70.706378566
 20
39.7144946536
 11
70.706378566
 21
45.4835736224
  0
LINE
  5
278
100
AcDbEntity
  8
0
100
AcDbLine
 62
7
  6
CONTINUOUS
 10
71.7670343219
 20
46.3689787712
 11
71.7670343219
 21
40.3268608844
  0
LINE
  5
279
100
AcDbEntity
  8
0
100
AcDbLine
 62
7
  6
CONTINUOUS
 10
73.004466037
 20
46.1036031399
 11
73.004466037
 21
42.0210910543
  0
LINE
  5
27A
100
AcDbEntity
  8
0
100
AcDbLine
 62
7
  6
CONTINUOUS
 10
73.6408647896
 20
41.6536743752
 11
73.6408647896
 21
45.7361864608
  0
LINE
  5
27B
100
AcDbEntity
  8
0
100
AcDbLine
 62
7
  6
CONTINUOUS
 10
70.942827085
 20
45.8931253416
 11
71.7670343219
 21
46.3689787712
  0
LINE
  5
27C
100
AcDbEntity
  8
0
100
AcDbLine
 62
7
  6
CONTINUOUS
 10
76.1157282199
 20
50.6626927479
 11
76.1157282199
 21
79.0902855092
  0
LINE
  5
27D
100
AcDbEntity
  8
0
100
AcDbLine
 62
7
  6
CONTINUOUS
 10
41.8101102306
 20
26.7895832905
 11
46.7896105356
 21
29.5641171502
  0
LINE
  5
27E
100
AcDbEntity
  8
0
100
AcDbLine
 62
7
  6
CONTINUOUS
 10
78.6107090373
 20
78.3680354111
 11
76.7377123662
 21
79.4493860799
  0
LINE
  5
27F
100
AcDbEntity
  8
0
100
AcDbLine
 62
7
  6
CONTINUOUS
 10
76.9642528245
 20
79.5801784938
 11
78.6107206267
 21
78.3680268788
  0
LINE
  5
280
100
AcDbEntity
  8
0
100
AcDbLine
 62
7
  6
CONTINUOUS
 10
78.1758862132
 20
52.2206462653
 11
78.1758862132
 21
52.8237431985
  0
LINE
  5
281
100
AcDbEntity
  8
0
100
AcDbLine
 62
7
  6
CONTINUOUS
 10
80.3568112968
 20
50.6234303668
 11
80.3568112968
 21
33.5040115264
  0
LINE
  5
282
100
AcDbEntity
  8
0
100
AcDbLine
 62
7
  6
CONTINUOUS
 10
80.3574336744
 20
79.6766567555
 11
80.3574336744
 21
84.4283238984
  0
LINE
  5
283
100
AcDbEntity
  8
0
100
AcDbLine
 62
7
  6
CONTINUOUS
 10
79.832907277
 20
51.1093459871
 11
79.8383978404
 21
51.1361772528
  0
LINE
  5
284
100
AcDbEntity
  8
0
100
AcDbLine
 62
7
  6
CONTINUOUS
 10
71.7670343219
 20
40.3268608844
 11
70.706378566
 21
39.7144946536
  0
LINE
  5
285
100
AcDbEntity
  8
0
100
AcDbLine
 62
7
  6
CONTINUOUS
 10
80.3574336744
 20
84.4283238984
 11
78.1561148738
 21
97.5731896604
  0
LINE
  5
286
100
AcDbEntity
  8
0
100
AcDbLine
 62
7
  6
CONTINUOUS
 10
78.3882772512
 20
31.5398553329
 11
79.6313698807
 21
32.2580161536
  0
LINE
  5
287
100
AcDbEntity
  8
0
100
AcDbLine
 62
7
  6
CONTINUOUS
 10
48.5377233734
 20
14.1829353072
 11
78.1429922976
 21
31.2845609146
  0
LINE
  5
288
100
AcDbEntity
  8
0
100
AcDbLine
 62
7
  6
CONTINUOUS
 10
78.1429922976
 20
31.2845609146
 11
78.3882772512
 21
31.5398553329
  0
LINE
  5
289
100
AcDbEntity
  8
0
100
AcDbLine
 62
7
  6
CONTINUOUS
 10
51.776938052
 20
112.3941779681
 11
76.5257784322
 21
98.1057515599
  0
LINE
  5
28A
100
AcDbEntity
  8
0
100
AcDbLine
 62
7
  6
CONTINUOUS
 10
52.9598362567
 20
112.4866136226
 11
77.7086766368
 21
98.1981872144
  0
ARC
  5
28B
100
AcDbEntity
  8
0
100
AcDbCircle
 62
7
  6
CONTINUOUS
 10
16.2139788929
 20
48.1908092153
 40
10.4048167928
100
AcDbArc
 50
30.5357173135
 51
30.8143827986
  0
ARC
  5
28C
100
AcDbEntity
  8
0
100
AcDbCircle
 62
7
  6
CONTINUOUS
 10
28.5970077518
 20
41.052273549
 40
10.3945174335
100
AcDbArc
 50
30.5328715069
 51
34.2942266688
  0
ARC
  5
28D
100
AcDbEntity
  8
0
100
AcDbCircle
 62
7
  6
CONTINUOUS
 10
79.8952121507
 20
79.6656965188
 40
0.4623514504
100
AcDbArc
 50
359.9953459187
 51
1.3583479306
  0
ARC
  5
28E
100
AcDbEntity
  8
0
100
AcDbCircle
 62
7
  6
CONTINUOUS
 10
37.3275218405
 20
57.8715383139
 40
0.2597772446
100
AcDbArc
 50
356.8744443153
 51
359.9755430016
  0
SPLINE
  5
28F
100
AcDbEntity
  8
0
100
AcDbSpline
 62
7
  6
CONTINUOUS
 70
0
 71
3
 72
11
 73
7
 74
0
 42
0.0000001
 43
0.0000001
 44
0.0000000001
 40
0.0
 40
0.0
 40
0.0
 40
0.0
 40
0.2896586258
 40
0.5491345301
 40
0.7822532901
 40
1.0
 40
1.0
 40
1.0
 40
1.0
 10
61.7261136132
 20
96.7070232862
 30
0.0
 10
61.6383744824
 20
96.757678351
 30
0.0
 10
61.4791747423
 20
96.8673682594
 30
0.0
 10
61.2888573898
 20
97.0672962908
 30
0.0
 10
61.1684276575
 20
97.2885161708
 30
0.0
 10
61.1403876604
 20
97.4472779405
 30
0.0
 10
61.140357059
 20
97.5234376608
 30
0.0
  0
SPLINE
  5
290
100
AcDbEntity
  8
0
100
AcDbSpline
 62
7
  6
CONTINUOUS
 70
0
 71
3
 72
11
 73
7
 74
0
 42
0.0000001
 43
0.0000001
 44
0.0000000001
 40
0.0
 40
0.0
 40
0.0
 40
0.0
 40
0.2896586258
 40
0.5491345301
 40
0.7822532901
 40
1.0
 40
1.0
 40
1.0
 40
1.0
 10
49.3516934231
 20
103.8512364903
 30
0.0
 10
49.2639542923
 20
103.9018915551
 30
0.0
 10
49.1047545522
 20
104.0115814635
 30
0.0
 10
48.9144371997
 20
104.2115094949
 30
0.0
 10
48.7940074674
 20
104.4327293749
 30
0.0
 10
48.7659674703
 20
104.5914911446
 30
0.0
 10
48.765936869
 20
104.6676508649
 30
0.0
  0
SPLINE
  5
291
100
AcDbEntity
  8
0
100
AcDbSpline
 62
7
  6
CONTINUOUS
 70
0
 71
3
 72
17
 73
13
 74
0
 42
0.0000001
 43
0.0000001
 44
0.0000000001
 40
0.0
 40
0.0
 40
0.0
 40
0.0
 40
0.0428519647
 40
0.0874733204
 40
0.1353003186
 40
0.1872592077
 40
0.3045149619
 40
0.4381827144
 40
0.582529717
 40
0.7296959612
 40
0.8713033871
 40
1.0
 40
1.0
 40
1.0
 40
1.0
 10
52.7658653261
 20
104.6672934737
 30
0.0
 10
52.7658881975
 20
104.610371707
 30
0.0
 10
52.7506445791
 20
104.4936815953
 30
0.0
 10
52.6837304264
 20
104.3251933116
 30
0.0
 10
52.5750992946
 20
104.1654730901
 30
0.0
 10
52.370652917
 20
103.9603009456
 30
0.0
 10
52.0222419289
 20
103.7482854771
 30
0.0
 10
51.5213035842
 20
103.5810213953
 30
0.0
 10
50.9591285679
 20
103.5020801455
 30
0.0
 10
50.3812879022
 20
103.5181133273
 30
0.0
 10
49.8349597179
 20
103.6274484278
 30
0.0
 10
49.4997432392
 20
103.7657618228
 30
0.0
 10
49.3516934231
 20
103.8512364903
 30
0.0
  0
SPLINE
  5
292
100
AcDbEntity
  8
0
100
AcDbSpline
 62
7
  6
CONTINUOUS
 70
0
 71
3
 72
11
 73
7
 74
0
 42
0.0000001
 43
0.0000001
 44
0.0000000001
 40
0.0
 40
0.0
 40
0.0
 40
0.0
 40
0.2879142373
 40
0.5466481709
 40
0.7805110756
 40
1.0
 40
1.0
 40
1.0
 40
1.0
 10
51.776938052
 20
112.3941779681
 30
0.0
 10
51.8812697024
 20
112.4507114148
 30
0.0
 10
52.0885462757
 20
112.5426631714
 30
0.0
 10
52.4056838966
 20
112.6112238902
 30
0.0
 10
52.7026863311
 20
112.5981936548
 30
0.0
 10
52.8814751537
 20
112.5318130115
 30
0.0
 10
52.9598305966
 20
112.4866038173
 30
0.0
  0
SPLINE
  5
293
100
AcDbEntity
  8
0
100
AcDbSpline
 62
7
  6
CONTINUOUS
 70
0
 71
3
 72
13
 73
9
 74
0
 42
0.0000001
 43
0.0000001
 44
0.0000000001
 40
0.0
 40
0.0
 40
0.0
 40
0.0
 40
0.1141768771
 40
0.2375714635
 40
0.5000018953
 40
0.7624301048
 40
0.8858262307
 40
1.0
 40
1.0
 40
1.0
 40
1.0
 10
22.7353829234
 20
94.4076133536
 30
0.0
 10
22.7353829234
 20
94.491380921
 30
0.0
 10
22.7508219325
 20
94.6658435503
 30
0.0
 10
22.8340255102
 20
95.024019894
 30
0.0
 10
23.0278892031
 20
95.4632426291
 30
0.0
 10
23.3113380416
 20
95.8507429714
 30
0.0
 10
23.5799155707
 20
96.1018933302
 30
0.0
 10
23.7232829215
 20
96.2024989942
 30
0.0
 10
23.7958307661
 20
96.244373015
 30
0.0
  0
SPLINE
  5
294
100
AcDbEntity
  8
0
100
AcDbSpline
 62
7
  6
CONTINUOUS
 70
0
 71
3
 72
11
 73
7
 74
0
 42
0.0000001
 43
0.0000001
 44
0.0000000001
 40
0.0
 40
0.0
 40
0.0
 40
0.0
 40
0.2375729055
 40
0.5003252152
 40
0.7629007609
 40
1.0
 40
1.0
 40
1.0
 40
1.0
 10
22.0320986373
 20
80.5022843201
 30
0.0
 10
22.1320589451
 20
80.5605947285
 30
0.0
 10
22.321071606
 20
80.7206057263
 30
0.0
 10
22.5415447519
 20
81.0231456398
 30
0.0
 10
22.6922235051
 20
81.365579901
 30
0.0
 10
22.7353829234
 20
81.6091441469
 30
0.0
 10
22.7353829234
 20
81.7246379486
 30
0.0
  0
SPLINE
  5
295
100
AcDbEntity
  8
0
100
AcDbSpline
 62
7
  6
CONTINUOUS
 70
0
 71
3
 72
11
 73
7
 74
0
 42
0.0000001
 43
0.0000001
 44
0.0000000001
 40
0.0
 40
0.0
 40
0.0
 40
0.0
 40
0.2642527887
 40
0.520043149
 40
0.7657299387
 40
1.0
 40
1.0
 40
1.0
 40
1.0
 10
16.0193506976
 20
75.4638671893
 30
0.0
 10
16.481480136
 20
75.9810886467
 30
0.0
 10
17.4252898159
 20
76.9689706745
 30
0.0
 10
18.9152261899
 20
78.3205889877
 30
0.0
 10
20.4426954993
 20
79.5053853865
 30
0.0
 10
21.5009589309
 20
80.1924516109
 30
0.0
 10
22.0320986373
 20
80.5022843201
 30
0.0
  0
SPLINE
  5
296
100
AcDbEntity
  8
0
100
AcDbSpline
 62
7
  6
CONTINUOUS
 70
0
 71
3
 72
11
 73
7
 74
0
 42
0.0000001
 43
0.0000001
 44
0.0000000001
 40
0.0
 40
0.0
 40
0.0
 40
0.0
 40
0.2177825102
 40
0.4509091639
 40
0.7102957096
 40
1.0
 40
1.0
 40
1.0
 40
1.0
 10
54.3597443867
 20
69.5769033903
 30
0.0
 10
54.2772777834
 20
69.6245144384
 30
0.0
 10
54.1229859447
 20
69.7542260717
 30
0.0
 10
53.9587242138
 20
70.0228009346
 30
0.0
 10
53.8611624613
 20
70.353785983
 30
0.0
 10
53.8419573476
 20
70.5946870237
 30
0.0
 10
53.8419573476
 20
70.7213579564
 30
0.0
  0
SPLINE
  5
297
100
AcDbEntity
  8
0
100
AcDbSpline
 62
7
  6
CONTINUOUS
 70
0
 71
3
 72
11
 73
7
 74
0
 42
0.0000001
 43
0.0000001
 44
0.0000000001
 40
0.0
 40
0.0
 40
0.0
 40
0.0
 40
0.2177825102
 40
0.4509091639
 40
0.7102957096
 40
1.0
 40
1.0
 40
1.0
 40
1.0
 10
70.6231326426
 20
38.4679990397
 30
0.0
 10
70.5406660393
 20
38.5156100878
 30
0.0
 10
70.3863742006
 20
38.6453217211
 30
0.0
 10
70.2221124698
 20
38.913896584
 30
0.0
 10
70.1245507172
 20
39.2448816324
 30
0.0
 10
70.1053456035
 20
39.4857826731
 30
0.0
 10
70.1053456035
 20
39.6124536058
 30
0.0
  0
SPLINE
  5
298
100
AcDbEntity
  8
0
100
AcDbSpline
 62
7
  6
CONTINUOUS
 70
0
 71
3
 72
11
 73
7
 74
0
 42
0.0000001
 43
0.0000001
 44
0.0000000001
 40
0.0
 40
0.0
 40
0.0
 40
0.0
 40
0.2176859351
 40
0.4508846719
 40
0.7106259954
 40
1.0
 40
1.0
 40
1.0
 40
1.0
 10
42.0283221974
 20
35.1541185784
 30
0.0
 10
41.9953382203
 20
35.1731313112
 30
0.0
 10
41.9336219124
 20
35.2250069438
 30
0.0
 10
41.8678488684
 20
35.3324696392
 30
0.0
 10
41.8289765834
 20
35.4649212995
 30
0.0
 10
41.821192115
 20
35.5612650049
 30
0.0
 10
41.821192115
 20
35.6118739496
 30
0.0
  0
SPLINE
  5
299
100
AcDbEntity
  8
0
100
AcDbSpline
 62
7
  6
CONTINUOUS
 70
0
 71
3
 72
11
 73
7
 74
0
 42
0.0000001
 43
0.0000001
 44
0.0000000001
 40
0.0
 40
0.0
 40
0.0
 40
0.0
 40
0.2177651606
 40
0.4508956102
 40
0.7103690052
 40
1.0
 40
1.0
 40
1.0
 40
1.0
 10
70.8731432381
 20
59.8035014986
 30
0.0
 10
70.8071905627
 20
59.8416133731
 30
0.0
 10
70.683690532
 20
59.9452809293
 30
0.0
 10
70.5522988664
 20
60.1602092441
 30
0.0
 10
70.474297362
 20
60.4250048996
 30
0.0
 10
70.4588975222
 20
60.6177267911
 30
0.0
 10
70.4588975222
 20
60.7190375613
 30
0.0
  0
SPLINE
  5
29A
100
AcDbEntity
  8
0
100
AcDbSpline
 62
7
  6
CONTINUOUS
 70
0
 71
3
 72
13
 73
9
 74
0
 42
0.0000001
 43
0.0000001
 44
0.0000000001
 40
0.0
 40
0.0
 40
0.0
 40
0.0
 40
0.114176888
 40
0.2375715548
 40
0.5000017735
 40
0.762431024
 40
0.8858245003
 40
1.0
 40
1.0
 40
1.0
 40
1.0
 10
10.3637446126
 20
72.5661994449
 30
0.0
 10
10.3637446126
 20
72.6499652881
 30
0.0
 10
10.3791833662
 20
72.824424341
 30
0.0
 10
10.4623848511
 20
73.182593424
 30
0.0
 10
10.6562471219
 20
73.6218059306
 30
0.0
 10
10.9396828032
 20
74.0093025641
 30
0.0
 10
11.2082630383
 20
74.2604406605
 30
0.0
 10
11.3516281791
 20
74.3610393695
 30
0.0
 10
11.4241707534
 20
74.4029215944
 30
0.0
  0
SPLINE
  5
29B
100
AcDbEntity
  8
0
100
AcDbSpline
 62
7
  6
CONTINUOUS
 70
0
 71
3
 72
19
 73
15
 74
0
 42
0.0000001
 43
0.0000001
 44
0.0000000001
 40
0.0
 40
0.0
 40
0.0
 40
0.0
 40
0.0428394104
 40
0.0874448899
 40
0.1352571039
 40
0.1871950253
 40
0.2436735499
 40
0.3046656819
 40
0.4382689093
 40
0.5825434307
 40
0.7296392143
 40
0.871166535
 40
0.9376088396
 40
1.0
 40
1.0
 40
1.0
 40
1.0
 10
27.4226048514
 20
33.4162424622
 30
0.0
 10
27.4965614354
 20
33.4589485125
 30
0.0
 10
27.6596111882
 20
33.5266517606
 30
0.0
 10
27.9287152377
 20
33.5661556673
 30
0.0
 10
28.2177058937
 20
33.5448412793
 30
0.0
 10
28.5201490226
 20
33.4645072659
 30
0.0
 10
28.8301398876
 20
33.3275414285
 30
0.0
 10
29.2580394037
 20
33.0656053993
 30
0.0
 10
29.7678036476
 20
32.6141728909
 30
0.0
 10
30.2917426107
 20
31.9433853719
 30
0.0
 10
30.7043047985
 20
31.1810131762
 30
0.0
 10
30.9325916467
 20
30.5063015255
 30
0.0
 10
31.0269751954
 20
29.974836538
 30
0.0
 10
31.0439221939
 20
29.7178271117
 30
0.0
 10
31.0439221939
 20
29.5934489629
 30
0.0
  0
SPLINE
  5
29C
100
AcDbEntity
  8
0
100
AcDbSpline
 62
7
  6
CONTINUOUS
 70
0
 71
3
 72
19
 73
15
 74
0
 42
0.0000001
 43
0.0000001
 44
0.0000000001
 40
0.0
 40
0.0
 40
0.0
 40
0.0
 40
0.0428394104
 40
0.0874448899
 40
0.1352571039
 40
0.1871950253
 40
0.2436735499
 40
0.3046656819
 40
0.4382689093
 40
0.5825434307
 40
0.7296392143
 40
0.871166535
 40
0.9376088396
 40
1.0
 40
1.0
 40
1.0
 40
1.0
 10
39.7970250415
 20
26.2720292581
 30
0.0
 10
39.8709816254
 20
26.3147353084
 30
0.0
 10
40.0340313783
 20
26.3824385565
 30
0.0
 10
40.3031354278
 20
26.4219424632
 30
0.0
 10
40.5921260837
 20
26.4006280752
 30
0.0
 10
40.8945692127
 20
26.3202940618
 30
0.0
 10
41.2045600776
 20
26.1833282244
 30
0.0
 10
41.6324595937
 20
25.9213921952
 30
0.0
 10
42.1422238377
 20
25.4699596868
 30
0.0
 10
42.6661628007
 20
24.7991721678
 30
0.0
 10
43.0787249885
 20
24.036799972
 30
0.0
 10
43.3070118368
 20
23.3620883214
 30
0.0
 10
43.4013953855
 20
22.8306233339
 30
0.0
 10
43.4183423839
 20
22.5736139076
 30
0.0
 10
43.4183423839
 20
22.4492357588
 30
0.0
  0
SPLINE
  5
29D
100
AcDbEntity
  8
0
100
AcDbSpline
 62
7
  6
CONTINUOUS
 70
0
 71
3
 72
11
 73
7
 74
0
 42
0.0000001
 43
0.0000001
 44
0.0000000001
 40
0.0
 40
0.0
 40
0.0
 40
0.0
 40
0.2043694495
 40
0.4256240276
 40
0.6840153834
 40
1.0
 40
1.0
 40
1.0
 40
1.0
 10
23.218979184
 20
52.702991782
 30
0.0
 10
23.2652182997
 20
52.6763054581
 30
0.0
 10
23.3713413936
 20
52.6362143425
 30
0.0
 10
23.5523992962
 20
52.6285518457
 30
0.0
 10
23.756702149
 20
52.6762332077
 30
0.0
 10
23.893580023
 20
52.7396626762
 30
0.0
 10
23.9661940919
 20
52.7789158682
 30
0.0
  0
SPLINE
  5
29E
100
AcDbEntity
  8
0
100
AcDbSpline
 62
7
  6
CONTINUOUS
 70
0
 71
3
 72
10
 73
6
 74
0
 42
0.0000001
 43
0.0000001
 44
0.0000000001
 40
0.0
 40
0.0
 40
0.0
 40
0.0
 40
0.2503072264
 40
0.5006309853
 40
1.0
 40
1.0
 40
1.0
 40
1.0
 10
19.395759916
 20
54.9101489325
 30
0.0
 10
19.2583697685
 20
54.9895424789
 30
0.0
 10
18.9916753984
 20
55.1631731909
 30
0.0
 10
18.5007060918
 20
55.5647416341
 30
0.0
 10
18.1884776539
 20
55.9346336522
 30
0.0
 10
18.0276359565
 20
56.2073000949
 30
0.0
  0
SPLINE
  5
29F
100
AcDbEntity
  8
0
100
AcDbSpline
 62
7
  6
CONTINUOUS
 70
0
 71
3
 72
11
 73
7
 74
0
 42
0.0000001
 43
0.0000001
 44
0.0000000001
 40
0.0
 40
0.0
 40
0.0
 40
0.0
 40
0.2043694495
 40
0.4256240276
 40
0.6840153834
 40
1.0
 40
1.0
 40
1.0
 40
1.0
 10
35.593399374
 20
45.5587785778
 30
0.0
 10
35.6396384898
 20
45.5320922539
 30
0.0
 10
35.7457615836
 20
45.4920011384
 30
0.0
 10
35.9268194863
 20
45.4843386416
 30
0.0
 10
36.1311223391
 20
45.5320200036
 30
0.0
 10
36.2680002131
 20
45.5954494721
 30
0.0
 10
36.340614282
 20
45.6347026641
 30
0.0
  0
SPLINE
  5
2A0
100
AcDbEntity
  8
0
100
AcDbSpline
 62
7
  6
CONTINUOUS
 70
0
 71
3
 72
10
 73
6
 74
0
 42
0.0000001
 43
0.0000001
 44
0.0000000001
 40
0.0
 40
0.0
 40
0.0
 40
0.0
 40
0.2503072264
 40
0.5006309853
 40
1.0
 40
1.0
 40
1.0
 40
1.0
 10
31.770180106
 20
47.7659357284
 30
0.0
 10
31.6327899585
 20
47.8453292748
 30
0.0
 10
31.3660955884
 20
48.0189599868
 30
0.0
 10
30.8751262819
 20
48.42052843
 30
0.0
 10
30.5628978439
 20
48.7904204481
 30
0.0
 10
30.4020561466
 20
49.0630868908
 30
0.0
  0
SPLINE
  5
2A1
100
AcDbEntity
  8
0
100
AcDbSpline
 62
7
  6
CONTINUOUS
 70
0
 71
3
 72
19
 73
15
 74
0
 42
0.0000001
 43
0.0000001
 44
0.0000000001
 40
0.0
 40
0.0
 40
0.0
 40
0.0
 40
0.0428394104
 40
0.0874448899
 40
0.1352571039
 40
0.1871950253
 40
0.2436735499
 40
0.3046656819
 40
0.4382689093
 40
0.5825434307
 40
0.7296392143
 40
0.871166535
 40
0.9376088396
 40
1.0
 40
1.0
 40
1.0
 40
1.0
 10
27.4226048514
 20
88.1219044099
 30
0.0
 10
27.4965614354
 20
88.1646104602
 30
0.0
 10
27.6596111882
 20
88.2323137083
 30
0.0
 10
27.9287152377
 20
88.271817615
 30
0.0
 10
28.2177058937
 20
88.250503227
 30
0.0
 10
28.5201490226
 20
88.1701692136
 30
0.0
 10
28.8301398876
 20
88.0332033762
 30
0.0
 10
29.2580394037
 20
87.7712673469
 30
0.0
 10
29.7678036476
 20
87.3198348385
 30
0.0
 10
30.2917426107
 20
86.6490473196
 30
0.0
 10
30.7043047985
 20
85.8866751238
 30
0.0
 10
30.9325916467
 20
85.2119634732
 30
0.0
 10
31.0269751954
 20
84.6804984857
 30
0.0
 10
31.0439221939
 20
84.4234890594
 30
0.0
 10
31.0439221939
 20
84.2991109106
 30
0.0
  0
SPLINE
  5
2A2
100
AcDbEntity
  8
0
100
AcDbSpline
 62
7
  6
CONTINUOUS
 70
0
 71
3
 72
19
 73
15
 74
0
 42
0.0000001
 43
0.0000001
 44
0.0000000001
 40
0.0
 40
0.0
 40
0.0
 40
0.0
 40
0.0428394104
 40
0.0874448899
 40
0.1352571039
 40
0.1871950253
 40
0.2436735499
 40
0.3046656819
 40
0.4382689093
 40
0.5825434307
 40
0.7296392143
 40
0.871166535
 40
0.9376088396
 40
1.0
 40
1.0
 40
1.0
 40
1.0
 10
39.7970250415
 20
80.9776912058
 30
0.0
 10
39.8709816254
 20
81.0203972561
 30
0.0
 10
40.0340313783
 20
81.0881005042
 30
0.0
 10
40.3031354278
 20
81.1276044109
 30
0.0
 10
40.5921260837
 20
81.1062900229
 30
0.0
 10
40.8945692127
 20
81.0259560095
 30
0.0
 10
41.2045600776
 20
80.8889901721
 30
0.0
 10
41.6324595938
 20
80.6270541428
 30
0.0
 10
42.1422238377
 20
80.1756216344
 30
0.0
 10
42.6661628007
 20
79.5048341155
 30
0.0
 10
43.0787249885
 20
78.7424619197
 30
0.0
 10
43.3070118368
 20
78.0677502691
 30
0.0
 10
43.4013953855
 20
77.5362852816
 30
0.0
 10
43.4183423839
 20
77.2792758553
 30
0.0
 10
43.4183423839
 20
77.1548977065
 30
0.0
  0
SPLINE
  5
2A3
100
AcDbEntity
  8
0
100
AcDbSpline
 62
7
  6
CONTINUOUS
 70
0
 71
3
 72
11
 73
7
 74
0
 42
0.0000001
 43
0.0000001
 44
0.0000000001
 40
0.0
 40
0.0
 40
0.0
 40
0.0
 40
0.2177689497
 40
0.4509142384
 40
0.7102541163
 40
1.0
 40
1.0
 40
1.0
 40
1.0
 10
38.2081168489
 20
52.9997387283
 30
0.0
 10
38.1091836795
 20
53.0568549876
 30
0.0
 10
37.9241003654
 20
53.2125097707
 30
0.0
 10
37.7270042766
 20
53.5346810059
 30
0.0
 10
37.6099301908
 20
53.931783988
 30
0.0
 10
37.5869126535
 20
54.2208024498
 30
0.0
 10
37.5869126535
 20
54.3727967228
 30
0.0
  0
SPLINE
  5
2A4
100
AcDbEntity
  8
0
100
AcDbSpline
 62
7
  6
CONTINUOUS
 70
0
 71
3
 72
12
 73
8
 74
0
 42
0.0000001
 43
0.0000001
 44
0.0000000001
 40
0.0
 40
0.0
 40
0.0
 40
0.0
 40
0.1081649225
 40
0.2183553039
 40
0.4513581151
 40
0.7104220363
 40
1.0
 40
1.0
 40
1.0
 40
1.0
 10
11.3990804281
 20
61.4572740154
 30
0.0
 10
11.3171177085
 20
61.5045927987
 30
0.0
 10
11.1595481377
 20
61.6145767273
 30
0.0
 10
10.8768834201
 20
61.8926268983
 30
0.0
 10
10.5969226893
 20
62.3490329762
 30
0.0
 10
10.4021465334
 20
63.0105777801
 30
0.0
 10
10.3637446126
 20
63.4923396871
 30
0.0
 10
10.3637446126
 20
63.7457120574
 30
0.0
  0
SPLINE
  5
2A5
100
AcDbEntity
  8
0
100
AcDbSpline
 62
7
  6
CONTINUOUS
 70
0
 71
3
 72
11
 73
7
 74
0
 42
0.0000001
 43
0.0000001
 44
0.0000000001
 40
0.0
 40
0.0
 40
0.0
 40
0.0
 40
0.2187110597
 40
0.4522642901
 40
0.711471125
 40
1.0
 40
1.0
 40
1.0
 40
1.0
 10
41.0788323247
 20
26.725875239
 30
0.0
 10
41.1271715816
 20
26.6979613919
 30
0.0
 10
41.2377898671
 20
26.6571692427
 30
0.0
 10
41.421688807
 20
26.6506133312
 30
0.0
 10
41.6178065236
 20
26.6952698533
 30
0.0
 10
41.7457828686
 20
26.753740649
 30
0.0
 10
41.8101102306
 20
26.7895832905
 30
0.0
  0
SPLINE
  5
2A6
100
AcDbEntity
  8
0
100
AcDbSpline
 62
7
  6
CONTINUOUS
 70
0
 71
3
 72
11
 73
7
 74
0
 42
0.0000001
 43
0.0000001
 44
0.0000000001
 40
0.0
 40
0.0
 40
0.0
 40
0.0
 40
0.2177488625
 40
0.4508835943
 40
0.7104460086
 40
1.0
 40
1.0
 40
1.0
 40
1.0
 10
16.3299919435
 20
41.0143016434
 30
0.0
 10
16.2805338022
 20
41.0428616312
 30
0.0
 10
16.1879003454
 20
41.1205569512
 30
0.0
 10
16.0893667138
 20
41.2817431678
 30
0.0
 10
16.0309398032
 20
41.480312735
 30
0.0
 10
16.0193506976
 20
41.6248176532
 30
0.0
 10
16.0193506976
 20
41.7007629767
 30
0.0
  0
SPLINE
  5
2A7
100
AcDbEntity
  8
0
100
AcDbSpline
 62
7
  6
CONTINUOUS
 70
0
 71
3
 72
11
 73
7
 74
0
 42
0.0000001
 43
0.0000001
 44
0.0000000001
 40
0.0
 40
0.0
 40
0.0
 40
0.0
 40
0.2179573785
 40
0.4511858825
 40
0.7106807677
 40
1.0
 40
1.0
 40
1.0
 40
1.0
 10
47.7940256517
 20
14.1112664612
 30
0.0
 10
47.8431044547
 20
14.0829301263
 30
0.0
 10
47.9557412356
 20
14.0417964159
 30
0.0
 10
48.1429962324
 20
14.0366611158
 30
0.0
 10
48.3425150304
 20
14.0843274235
 30
0.0
 10
48.4724502015
 20
14.14553932
 30
0.0
 10
48.5377233734
 20
14.1829353072
 30
0.0
  0
SPLINE
  5
2A8
100
AcDbEntity
  8
0
100
AcDbSpline
 62
7
  6
CONTINUOUS
 70
0
 71
3
 72
11
 73
7
 74
0
 42
0.0000001
 43
0.0000001
 44
0.0000000001
 40
0.0
 40
0.0
 40
0.0
 40
0.0
 40
0.2177453797
 40
0.4508822471
 40
0.7104559339
 40
1.0
 40
1.0
 40
1.0
 40
1.0
 10
23.0451852721
 20
28.399692868
 30
0.0
 10
22.9958599894
 20
28.428171546
 30
0.0
 10
22.9034779982
 20
28.5056572065
 30
0.0
 10
22.8052071957
 20
28.666406971
 30
0.0
 10
22.7469456875
 20
28.8644415769
 30
0.0
 10
22.7353829234
 20
29.0085542457
 30
0.0
 10
22.7353829234
 20
29.0842911219
 30
0.0
  0
SPLINE
  5
2A9
100
AcDbEntity
  8
0
100
AcDbSpline
 62
7
  6
CONTINUOUS
 70
0
 71
3
 72
11
 73
7
 74
0
 42
0.0000001
 43
0.0000001
 44
0.0000000001
 40
0.0
 40
0.0
 40
0.0
 40
0.0
 40
0.2895161052
 40
0.5491679737
 40
0.78232675
 40
1.0
 40
1.0
 40
1.0
 40
1.0
 10
80.3568112968
 20
50.6234303668
 30
0.0
 10
80.3568112755
 20
50.6740458806
 30
0.0
 10
80.3490679918
 20
50.7703715095
 30
0.0
 10
80.3101419991
 20
50.9027566029
 30
0.0
 10
80.2444166986
 20
51.0101665851
 30
0.0
 10
80.1827214308
 20
51.061999114
 30
0.0
 10
80.1497643173
 20
51.081026465
 30
0.0
  0
SPLINE
  5
2AA
100
AcDbEntity
  8
0
100
AcDbSpline
 62
7
  6
CONTINUOUS
 70
0
 71
3
 72
11
 73
7
 74
0
 42
0.0000001
 43
0.0000001
 44
0.0000000001
 40
0.0
 40
0.0
 40
0.0
 40
0.0
 40
0.2371250145
 40
0.4992136582
 40
0.7617285751
 40
1.0
 40
1.0
 40
1.0
 40
1.0
 10
79.6313698807
 20
32.2580161536
 30
0.0
 10
79.7331314739
 20
32.3176687863
 30
0.0
 10
79.9257690952
 20
32.4804831136
 30
0.0
 10
80.1516452474
 20
32.7881020724
 30
0.0
 10
80.3078201412
 20
33.1369517699
 30
0.0
 10
80.3547489458
 20
33.3855021727
 30
0.0
 10
80.3568112968
 20
33.5040115264
 30
0.0
  0
SPLINE
  5
2AB
100
AcDbEntity
  8
0
100
AcDbSpline
 62
7
  6
CONTINUOUS
 70
0
 71
3
 72
11
 73
7
 74
0
 42
0.0000001
 43
0.0000001
 44
0.0000000001
 40
0.0
 40
0.0
 40
0.0
 40
0.0
 40
0.2885288374
 40
0.5477358614
 40
0.7812890728
 40
1.0
 40
1.0
 40
1.0
 40
1.0
 10
46.7896105356
 20
29.5641171502
 30
0.0
 10
46.8324954373
 20
29.588012241
 30
0.0
 10
46.917813041
 20
29.6269927295
 30
0.0
 10
47.0485581944
 20
29.6567638164
 30
0.0
 10
47.1711574878
 20
29.6523931478
 30
0.0
 10
47.2449029978
 20
29.625198423
 30
0.0
 10
47.2771291398
 20
29.606589187
 30
0.0
  0
SPLINE
  5
2AC
100
AcDbEntity
  8
0
100
AcDbSpline
 62
7
  6
CONTINUOUS
 70
0
 71
3
 72
9
 73
5
 74
0
 42
0.0000001
 43
0.0000001
 44
0.0000000001
 40
0.0
 40
0.0
 40
0.0
 40
0.0
 40
0.2627985467
 40
1.0
 40
1.0
 40
1.0
 40
1.0
 10
37.0323704926
 20
59.9269843939
 30
0.0
 10
37.0323704926
 20
59.9310862524
 30
0.0
 10
37.0319276017
 20
59.9466770918
 30
0.0
 10
37.030096118
 20
59.9623378199
 30
0.0
 10
37.0271172382
 20
59.9734520547
 30
0.0
  0
SPLINE
  5
2AD
100
AcDbEntity
  8
0
100
AcDbSpline
 62
7
  6
CONTINUOUS
 70
0
 71
3
 72
10
 73
6
 74
0
 42
0.0000001
 43
0.0000001
 44
0.0000000001
 40
0.0
 40
0.0
 40
0.0
 40
0.0
 40
0.513345148
 40
0.7688315975
 40
1.0
 40
1.0
 40
1.0
 40
1.0
 10
36.9035985297
 20
59.6562501222
 30
0.0
 10
36.9425161387
 20
59.6913828117
 30
0.0
 10
36.989624265
 20
59.7575026233
 30
0.0
 10
37.0250149662
 20
59.853583956
 30
0.0
 10
37.0323704926
 20
59.9033743178
 30
0.0
 10
37.0323704926
 20
59.9269843939
 30
0.0
  0
SPLINE
  5
2AE
100
AcDbEntity
  8
0
100
AcDbSpline
 62
7
  6
CONTINUOUS
 70
0
 71
3
 72
11
 73
7
 74
0
 42
0.0000001
 43
0.0000001
 44
0.0000000001
 40
0.0
 40
0.0
 40
0.0
 40
0.0
 40
0.27205618
 40
0.526421066
 40
0.7669395747
 40
1.0
 40
1.0
 40
1.0
 40
1.0
 10
78.1561148738
 20
97.5731896604
 30
0.0
 10
78.1367346626
 20
97.6419006083
 30
0.0
 10
78.0894789272
 20
97.7724330011
 30
0.0
 10
77.989059196
 20
97.9481533299
 30
0.0
 10
77.8625834493
 20
98.093079317
 30
0.0
 10
77.761644541
 20
98.1676129374
 30
0.0
 10
77.7086709807
 20
98.1981774159
 30
0.0
  0
SPLINE
  5
2AF
100
AcDbEntity
  8
0
100
AcDbSpline
 62
7
  6
CONTINUOUS
 70
0
 71
3
 72
11
 73
7
 74
0
 42
0.0000001
 43
0.0000001
 44
0.0000000001
 40
0.0
 40
0.0
 40
0.0
 40
0.0
 40
0.237242511
 40
0.4999983851
 40
0.7627553013
 40
1.0
 40
1.0
 40
1.0
 40
1.0
 10
80.0036293487
 20
79.0526232286
 30
0.0
 10
80.0538653868
 20
79.0816573858
 30
0.0
 10
80.1489707256
 20
79.1616570653
 30
0.0
 10
80.2599422791
 20
79.3133321228
 30
0.0
 10
80.3357953234
 20
79.4852705384
 30
0.0
 10
80.3575635996
 20
79.6076356577
 30
0.0
 10
80.3575635996
 20
79.6656589625
 30
0.0
  0
SPLINE
  5
2B0
100
AcDbEntity
  8
0
100
AcDbSpline
 62
7
  6
CONTINUOUS
 70
0
 71
3
 72
11
 73
7
 74
0
 42
0.0000001
 43
0.0000001
 44
0.0000000001
 40
0.0
 40
0.0
 40
0.0
 40
0.0
 40
0.2177180596
 40
0.4509447287
 40
0.7102968642
 40
1.0
 40
1.0
 40
1.0
 40
1.0
 10
78.6107206267
 20
78.3680268788
 30
0.0
 10
78.6272097257
 20
78.3585038128
 30
0.0
 10
78.6651170175
 20
78.3447619877
 30
0.0
 10
78.7280685034
 20
78.3431400867
 30
0.0
 10
78.795164651
 20
78.3593645414
 30
0.0
 10
78.8388134499
 20
78.3801240571
 30
0.0
 10
78.8607577728
 20
78.3927899553
 30
0.0
  0
SPLINE
  5
2B1
100
AcDbEntity
  8
0
100
AcDbSpline
 62
7
  6
CONTINUOUS
 70
0
 71
3
 72
17
 73
13
 74
0
 42
0.0000001
 43
0.0000001
 44
0.0000000001
 40
0.0
 40
0.0
 40
0.0
 40
0.0
 40
0.1286891333
 40
0.2702803493
 40
0.4174326844
 40
0.5617743804
 40
0.6954465661
 40
0.8127104963
 40
0.8646756522
 40
0.91250911
 40
0.9571392634
 40
1.0
 40
1.0
 40
1.0
 40
1.0
 10
70.4588975222
 20
60.7190375613
 30
0.0
 10
70.4588975222
 20
60.8899871402
 30
0.0
 10
70.5067229672
 20
61.2494346061
 30
0.0
 10
70.6852147244
 20
61.7772040258
 30
0.0
 10
70.960270376
 20
62.2856096276
 30
0.0
 10
71.3097670084
 20
62.7329680502
 30
0.0
 10
71.7051521054
 20
63.0831451664
 30
0.0
 10
72.0630309283
 20
63.2788380963
 30
0.0
 10
72.3429817503
 20
63.3533059908
 30
0.0
 10
72.5356569746
 20
63.3674955344
 30
0.0
 10
72.7150696628
 20
63.3412028753
 30
0.0
 10
72.8237702985
 20
63.296037266
 30
0.0
 10
72.8730671551
 20
63.2675502395
 30
0.0
  0
SPLINE
  5
2B2
100
AcDbEntity
  8
0
100
AcDbSpline
 62
7
  6
CONTINUOUS
 70
0
 71
3
 72
17
 73
13
 74
0
 42
0.0000001
 43
0.0000001
 44
0.0000000001
 40
0.0
 40
0.0
 40
0.0
 40
0.0
 40
0.1286649615
 40
0.2703279162
 40
0.4174444215
 40
0.5617796908
 40
0.6954460797
 40
0.8127193961
 40
0.8646774119
 40
0.9125160398
 40
0.9571389068
 40
1.0
 40
1.0
 40
1.0
 40
1.0
 10
41.821192115
 20
35.6118739496
 30
0.0
 10
41.821192115
 20
35.6973316003
 30
0.0
 10
41.8451604033
 20
35.8770749294
 30
0.0
 10
41.9343409835
 20
36.1409866501
 30
0.0
 10
42.0719415623
 20
36.3951689059
 30
0.0
 10
42.2466346863
 20
36.6188470765
 30
0.0
 10
42.4443396071
 20
36.793902057
 30
0.0
 10
42.6232549091
 20
36.8918081639
 30
0.0
 10
42.7632460097
 20
36.9289734403
 30
0.0
 10
42.8595728496
 20
36.9361397157
 30
0.0
 10
42.9492728172
 20
36.9229164982
 30
0.0
 10
43.0036059756
 20
36.9003343779
 30
0.0
 10
43.028269707
 20
36.8861176286
 30
0.0
  0
SPLINE
  5
2B3
100
AcDbEntity
  8
0
100
AcDbSpline
 62
7
  6
CONTINUOUS
 70
0
 71
3
 72
11
 73
7
 74
0
 42
0.0000001
 43
0.0000001
 44
0.0000000001
 40
0.0
 40
0.0
 40
0.0
 40
0.0
 40
0.289702809
 40
0.549088757
 40
0.7822160314
 40
1.0
 40
1.0
 40
1.0
 40
1.0
 10
71.8731051966
 20
46.756832119
 30
0.0
 10
71.9828006999
 20
46.8201644693
 30
0.0
 10
72.2010203984
 20
46.9239779171
 30
0.0
 10
72.5364287792
 20
47.0049760045
 30
0.0
 10
72.85114032
 20
46.9970102552
 30
0.0
 10
73.0406138615
 20
46.928250508
 30
0.0
 10
73.1230777506
 20
46.880641027
 30
0.0
  0
SPLINE
  5
2B4
100
AcDbEntity
  8
0
100
AcDbSpline
 62
7
  6
CONTINUOUS
 70
0
 71
3
 72
15
 73
11
 74
0
 42
0.0000001
 43
0.0000001
 44
0.0000000001
 40
0.0
 40
0.0
 40
0.0
 40
0.0
 40
0.1141242661
 40
0.2373486253
 40
0.3669740476
 40
0.5000015346
 40
0.6330288076
 40
0.7626536034
 40
0.8858770013
 40
1.0
 40
1.0
 40
1.0
 40
1.0
 10
70.1053456035
 20
43.6949656915
 30
0.0
 10
70.1053456035
 20
43.8346669131
 30
0.0
 10
70.1309964792
 20
44.1254731125
 30
0.0
 10
70.2329508241
 20
44.5641722733
 30
0.0
 10
70.3964730989
 20
45.0085426171
 30
0.0
 10
70.6151828583
 20
45.4418578872
 30
0.0
 10
70.8810875532
 20
45.8479244264
 30
0.0
 10
71.1841594718
 20
46.2117236562
 30
0.0
 10
71.513103611
 20
46.5193667445
 30
0.0
 10
71.7521215527
 20
46.6869825966
 30
0.0
 10
71.8731051966
 20
46.756832119
 30
0.0
  0
SPLINE
  5
2B5
100
AcDbEntity
  8
0
100
AcDbSpline
 62
7
  6
CONTINUOUS
 70
0
 71
3
 72
11
 73
7
 74
0
 42
0.0000001
 43
0.0000001
 44
0.0000000001
 40
0.0
 40
0.0
 40
0.0
 40
0.0
 40
0.289702809
 40
0.549088757
 40
0.7822160314
 40
1.0
 40
1.0
 40
1.0
 40
1.0
 10
59.1452361267
 20
75.8244451533
 30
0.0
 10
59.2549316301
 20
75.8877775036
 30
0.0
 10
59.4731513286
 20
75.9915909514
 30
0.0
 10
59.8085597093
 20
76.0725890388
 30
0.0
 10
60.1232712501
 20
76.0646232895
 30
0.0
 10
60.3127447916
 20
75.9958635423
 30
0.0
 10
60.3952086807
 20
75.9482540612
 30
0.0
  0
SPLINE
  5
2B6
100
AcDbEntity
  8
0
100
AcDbSpline
 62
7
  6
CONTINUOUS
 70
0
 71
3
 72
15
 73
11
 74
0
 42
0.0000001
 43
0.0000001
 44
0.0000000001
 40
0.0
 40
0.0
 40
0.0
 40
0.0
 40
0.1141242661
 40
0.2373486253
 40
0.3669740476
 40
0.5000015346
 40
0.6330288076
 40
0.7626536034
 40
0.8858770013
 40
1.0
 40
1.0
 40
1.0
 40
1.0
 10
53.8419573476
 20
70.7213579564
 30
0.0
 10
53.8419573476
 20
70.8610591781
 30
0.0
 10
53.8676082233
 20
71.1518653774
 30
0.0
 10
53.9695625682
 20
71.5905645382
 30
0.0
 10
54.133084843
 20
72.034934882
 30
0.0
 10
54.3517946023
 20
72.4682501521
 30
0.0
 10
54.6176992972
 20
72.8743166914
 30
0.0
 10
54.9207712159
 20
73.2381159211
 30
0.0
 10
55.2497153551
 20
73.5457590094
 30
0.0
 10
55.4887332968
 20
73.7133748615
 30
0.0
 10
55.6097169407
 20
73.7832243839
 30
0.0
  0
SPLINE
  5
2B7
100
AcDbEntity
  8
0
100
AcDbSpline
 62
7
  6
CONTINUOUS
 70
0
 71
3
 72
11
 73
7
 74
0
 42
0.0000001
 43
0.0000001
 44
0.0000000001
 40
0.0
 40
0.0
 40
0.0
 40
0.0
 40
0.2897030037
 40
0.5490834836
 40
0.7821945523
 40
1.0
 40
1.0
 40
1.0
 40
1.0
 10
78.1758862132
 20
52.8237431985
 30
0.0
 10
78.1758862132
 20
52.8997291611
 30
0.0
 10
78.1643752134
 20
53.0442392075
 30
0.0
 10
78.1058284307
 20
53.2427741199
 30
0.0
 10
78.0073207956
 20
53.4038958251
 30
0.0
 10
77.9147662031
 20
53.4817217276
 30
0.0
 10
77.8652824799
 20
53.5102694222
 30
0.0
  0
SPLINE
  5
2B8
100
AcDbEntity
  8
0
100
AcDbSpline
 62
7
  6
CONTINUOUS
 70
0
 71
3
 72
17
 73
13
 74
0
 42
0.0000001
 43
0.0000001
 44
0.0000000001
 40
0.0
 40
0.0
 40
0.0
 40
0.0
 40
0.0428519647
 40
0.0874733204
 40
0.1353003186
 40
0.1872592077
 40
0.3045149619
 40
0.4381827144
 40
0.582529717
 40
0.7296959612
 40
0.8713033871
 40
1.0
 40
1.0
 40
1.0
 40
1.0
 10
65.1402855161
 20
97.5230802696
 30
0.0
 10
65.1403083876
 20
97.4661585029
 30
0.0
 10
65.1250647692
 20
97.3494683912
 30
0.0
 10
65.0581506165
 20
97.1809801074
 30
0.0
 10
64.9495194847
 20
97.021259886
 30
0.0
 10
64.7450731071
 20
96.8160877415
 30
0.0
 10
64.396662119
 20
96.604072273
 30
0.0
 10
63.8957237743
 20
96.4368081912
 30
0.0
 10
63.333548758
 20
96.3578669414
 30
0.0
 10
62.7557080922
 20
96.3739001232
 30
0.0
 10
62.209379908
 20
96.4832352237
 30
0.0
 10
61.8741634293
 20
96.6215486187
 30
0.0
 10
61.7261136132
 20
96.7070232862
 30
0.0
  0
SPLINE
  5
2B9
100
AcDbEntity
  8
0
100
AcDbSpline
 62
7
  6
CONTINUOUS
 70
0
 71
3
 72
11
 73
7
 74
0
 42
0.0000001
 43
0.0000001
 44
0.0000000001
 40
0.0
 40
0.0
 40
0.0
 40
0.0
 40
0.2897016594
 40
0.5490895814
 40
0.7822189142
 40
1.0
 40
1.0
 40
1.0
 40
1.0
 10
43.4183423839
 20
22.4492357588
 30
0.0
 10
43.4183423839
 20
22.297231861
 30
0.0
 10
43.3952965192
 20
22.0081511791
 30
0.0
 10
43.2782284356
 20
21.610966543
 30
0.0
 10
43.0811103015
 20
21.2886739515
 30
0.0
 10
42.8959560312
 20
21.1330279129
 30
0.0
 10
42.7970013755
 20
21.0758867866
 30
0.0
  0
SPLINE
  5
2BA
100
AcDbEntity
  8
0
100
AcDbSpline
 62
7
  6
CONTINUOUS
 70
0
 71
3
 72
11
 73
7
 74
0
 42
0.0000001
 43
0.0000001
 44
0.0000000001
 40
0.0
 40
0.0
 40
0.0
 40
0.0
 40
0.2897016594
 40
0.5490895814
 40
0.7822189142
 40
1.0
 40
1.0
 40
1.0
 40
1.0
 10
31.0439221939
 20
29.5934489629
 30
0.0
 10
31.0439221939
 20
29.4414450651
 30
0.0
 10
31.0208763292
 20
29.1523643832
 30
0.0
 10
30.9038082455
 20
28.7551797471
 30
0.0
 10
30.7066901114
 20
28.4328871556
 30
0.0
 10
30.5215358412
 20
28.277241117
 30
0.0
 10
30.4225811854
 20
28.2200999907
 30
0.0
  0
SPLINE
  5
2BB
100
AcDbEntity
  8
0
100
AcDbSpline
 62
7
  6
CONTINUOUS
 70
0
 71
3
 72
11
 73
7
 74
0
 42
0.0000001
 43
0.0000001
 44
0.0000000001
 40
0.0
 40
0.0
 40
0.0
 40
0.0
 40
0.2897016594
 40
0.5490895814
 40
0.7822189142
 40
1.0
 40
1.0
 40
1.0
 40
1.0
 10
43.4183423839
 20
77.1548977065
 30
0.0
 10
43.4183423839
 20
77.0028938086
 30
0.0
 10
43.3952965192
 20
76.7138131268
 30
0.0
 10
43.2782284356
 20
76.3166284907
 30
0.0
 10
43.0811103015
 20
75.9943358992
 30
0.0
 10
42.8959560312
 20
75.8386898606
 30
0.0
 10
42.7970013755
 20
75.7815487343
 30
0.0
  0
SPLINE
  5
2BC
100
AcDbEntity
  8
0
100
AcDbSpline
 62
7
  6
CONTINUOUS
 70
0
 71
3
 72
11
 73
7
 74
0
 42
0.0000001
 43
0.0000001
 44
0.0000000001
 40
0.0
 40
0.0
 40
0.0
 40
0.0
 40
0.2897016594
 40
0.5490895814
 40
0.7822189142
 40
1.0
 40
1.0
 40
1.0
 40
1.0
 10
31.0439221939
 20
84.2991109106
 30
0.0
 10
31.0439221939
 20
84.1471070127
 30
0.0
 10
31.0208763292
 20
83.8580263309
 30
0.0
 10
30.9038082455
 20
83.4608416948
 30
0.0
 10
30.7066901114
 20
83.1385491033
 30
0.0
 10
30.5215358412
 20
82.9829030647
 30
0.0
 10
30.4225811854
 20
82.9257619384
 30
0.0
  0
SPLINE
  5
2BD
100
AcDbEntity
  8
0
100
AcDbSpline
 62
7
  6
CONTINUOUS
 70
0
 71
3
 72
19
 73
15
 74
0
 42
0.0000001
 43
0.0000001
 44
0.0000000001
 40
0.0
 40
0.0
 40
0.0
 40
0.0
 40
0.0428394104
 40
0.0874448899
 40
0.1352571039
 40
0.1871950253
 40
0.2436735499
 40
0.3046656819
 40
0.4382689093
 40
0.5825434307
 40
0.7296392143
 40
0.871166535
 40
0.9376088396
 40
1.0
 40
1.0
 40
1.0
 40
1.0
 10
42.7970013755
 20
21.0758867866
 30
0.0
 10
42.7230447916
 20
21.0331807363
 30
0.0
 10
42.5599950387
 20
20.9654774882
 30
0.0
 10
42.2908909892
 20
20.9259735815
 30
0.0
 10
42.0019003333
 20
20.9472879696
 30
0.0
 10
41.6994572043
 20
21.0276219829
 30
0.0
 10
41.3894663394
 20
21.1645878203
 30
0.0
 10
40.9615668233
 20
21.4265238496
 30
0.0
 10
40.4518025793
 20
21.877956358
 30
0.0
 10
39.9278636163
 20
22.5487438769
 30
0.0
 10
39.5153014285
 20
23.3111160727
 30
0.0
 10
39.2870145802
 20
23.9858277233
 30
0.0
 10
39.1926310315
 20
24.5172927108
 30
0.0
 10
39.1756840331
 20
24.7743021371
 30
0.0
 10
39.1756840331
 20
24.8986802859
 30
0.0
  0
SPLINE
  5
2BE
100
AcDbEntity
  8
0
100
AcDbSpline
 62
7
  6
CONTINUOUS
 70
0
 71
3
 72
17
 73
13
 74
0
 42
0.0000001
 43
0.0000001
 44
0.0000000001
 40
0.0
 40
0.0
 40
0.0
 40
0.0
 40
0.0428519647
 40
0.0874733204
 40
0.1353003186
 40
0.1872592077
 40
0.3045149619
 40
0.4381827144
 40
0.582529717
 40
0.7296959612
 40
0.8713033871
 40
1.0
 40
1.0
 40
1.0
 40
1.0
 10
48.765936869
 20
104.6676508649
 30
0.0
 10
48.7659139975
 20
104.7245726316
 30
0.0
 10
48.7811576159
 20
104.8412627433
 30
0.0
 10
48.8480717686
 20
105.0097510271
 30
0.0
 10
48.9567029004
 20
105.1694712485
 30
0.0
 10
49.161149278
 20
105.374643393
 30
0.0
 10
49.5095602661
 20
105.5866588615
 30
0.0
 10
50.0104986108
 20
105.7539229433
 30
0.0
 10
50.5726736271
 20
105.8328641931
 30
0.0
 10
51.1505142929
 20
105.8168310113
 30
0.0
 10
51.6968424771
 20
105.7074959108
 30
0.0
 10
52.0320589558
 20
105.5691825158
 30
0.0
 10
52.1801087719
 20
105.4837078483
 30
0.0
  0
SPLINE
  5
2BF
100
AcDbEntity
  8
0
100
AcDbSpline
 62
7
  6
CONTINUOUS
 70
0
 71
3
 72
11
 73
7
 74
0
 42
0.0000001
 43
0.0000001
 44
0.0000000001
 40
0.0
 40
0.0
 40
0.0
 40
0.0
 40
0.2177651606
 40
0.4508956102
 40
0.7103690052
 40
1.0
 40
1.0
 40
1.0
 40
1.0
 10
72.8730671551
 20
63.2675502395
 30
0.0
 10
72.9390198305
 20
63.229438365
 30
0.0
 10
73.0625198612
 20
63.1257708088
 30
0.0
 10
73.1939115268
 20
62.910842494
 30
0.0
 10
73.2719130311
 20
62.6460468384
 30
0.0
 10
73.287312871
 20
62.453324947
 30
0.0
 10
73.287312871
 20
62.3520141768
 30
0.0
  0
SPLINE
  5
2C0
100
AcDbEntity
  8
0
100
AcDbSpline
 62
7
  6
CONTINUOUS
 70
0
 71
3
 72
11
 73
7
 74
0
 42
0.0000001
 43
0.0000001
 44
0.0000000001
 40
0.0
 40
0.0
 40
0.0
 40
0.0
 40
0.2179470069
 40
0.4527123807
 40
0.712591706
 40
1.0
 40
1.0
 40
1.0
 40
1.0
 10
52.7622098502
 20
104.6549194213
 30
0.0
 10
52.7548009686
 20
104.7257580467
 30
0.0
 10
52.7153998725
 20
104.8711348188
 30
0.0
 10
52.5920996344
 20
105.0716280516
 30
0.0
 10
52.4101005376
 20
105.253666685
 30
0.0
 10
52.261450615
 20
105.3548934256
 30
0.0
 10
52.1801087719
 20
105.4018550982
 30
0.0
  0
SPLINE
  5
2C1
100
AcDbEntity
  8
0
100
AcDbSpline
 62
7
  6
CONTINUOUS
 70
0
 71
3
 72
11
 73
7
 74
0
 42
0.0000001
 43
0.0000001
 44
0.0000000001
 40
0.0
 40
0.0
 40
0.0
 40
0.0
 40
0.2194889743
 40
0.4533519122
 40
0.7120857728
 40
1.0
 40
1.0
 40
1.0
 40
1.0
 10
77.7086709807
 20
98.1981774159
 30
0.0
 10
77.6303155302
 20
98.2433866384
 30
0.0
 10
77.4515266429
 20
98.3097672287
 30
0.0
 10
77.1545242178
 20
98.3227974769
 30
0.0
 10
76.8373866054
 20
98.2542367832
 30
0.0
 10
76.630110079
 20
98.1622850047
 30
0.0
 10
76.5257784322
 20
98.1057515599
 30
0.0
  0
SPLINE
  5
2C2
100
AcDbEntity
  8
0
100
AcDbSpline
 62
7
  6
CONTINUOUS
 70
0
 71
3
 72
17
 73
13
 74
0
 42
0.0000001
 43
0.0000001
 44
0.0000000001
 40
0.0
 40
0.0
 40
0.0
 40
0.0
 40
0.0428519647
 40
0.0874733204
 40
0.1353003186
 40
0.1872592077
 40
0.3045149619
 40
0.4381827144
 40
0.582529717
 40
0.7296959612
 40
0.8713033871
 40
1.0
 40
1.0
 40
1.0
 40
1.0
 10
61.140357059
 20
97.5234376608
 30
0.0
 10
61.1403341876
 20
97.5803594275
 30
0.0
 10
61.155577806
 20
97.6970495392
 30
0.0
 10
61.2224919587
 20
97.865537823
 30
0.0
 10
61.3311230904
 20
98.0252580444
 30
0.0
 10
61.5355694681
 20
98.2304301889
 30
0.0
 10
61.8839804562
 20
98.4424456574
 30
0.0
 10
62.3849188009
 20
98.6097097392
 30
0.0
 10
62.9470938172
 20
98.688650989
 30
0.0
 10
63.5249344829
 20
98.6726178072
 30
0.0
 10
64.0712626671
 20
98.5632827067
 30
0.0
 10
64.4064791459
 20
98.4249693117
 30
0.0
 10
64.554528962
 20
98.3394946442
 30
0.0
  0
SPLINE
  5
2C3
100
AcDbEntity
  8
0
100
AcDbSpline
 62
7
  6
CONTINUOUS
 70
0
 71
3
 72
11
 73
7
 74
0
 42
0.0000001
 43
0.0000001
 44
0.0000000001
 40
0.0
 40
0.0
 40
0.0
 40
0.0
 40
0.2179470069
 40
0.4527123807
 40
0.712591706
 40
1.0
 40
1.0
 40
1.0
 40
1.0
 10
65.1366300403
 20
97.5107062172
 30
0.0
 10
65.1292211587
 20
97.5815448426
 30
0.0
 10
65.0898200626
 20
97.7269216146
 30
0.0
 10
64.9665198245
 20
97.9274148475
 30
0.0
 10
64.7845207277
 20
98.1094534809
 30
0.0
 10
64.6358708051
 20
98.2106802215
 30
0.0
 10
64.554528962
 20
98.2576418941
 30
0.0
  0
SPLINE
  5
2C4
100
AcDbEntity
  8
0
100
AcDbSpline
 62
7
  6
CONTINUOUS
 70
0
 71
3
 72
17
 73
13
 74
0
 42
0.0000001
 43
0.0000001
 44
0.0000000001
 40
0.0
 40
0.0
 40
0.0
 40
0.0
 40
0.1270716893
 40
0.2667038297
 40
0.4121603969
 40
0.5557145792
 40
0.689954596
 40
0.809159482
 40
0.8623737386
 40
0.9114170856
 40
0.9569170993
 40
1.0
 40
1.0
 40
1.0
 40
1.0
 10
64.554528962
 20
98.2576418941
 30
0.0
 10
64.411572095
 20
98.3401762125
 30
0.0
 10
64.0888725035
 20
98.4749529457
 30
0.0
 10
63.5624872456
 20
98.5853040826
 30
0.0
 10
63.00364366
 20
98.6083546256
 30
0.0
 10
62.4552166948
 20
98.5420797433
 30
0.0
 10
61.9590776348
 20
98.3916872967
 30
0.0
 10
61.6060309542
 20
98.1974576291
 30
0.0
 10
61.3891026969
 20
98.0068648893
 30
0.0
 10
61.2672845709
 20
97.857126843
 30
0.0
 10
61.1833449836
 20
97.6978413835
 30
0.0
 10
61.1536433211
 20
97.5853356238
 30
0.0
 10
61.1462439648
 20
97.5298604269
 30
0.0
  0
SPLINE
  5
2C5
100
AcDbEntity
  8
0
100
AcDbSpline
 62
7
  6
CONTINUOUS
 70
0
 71
3
 72
17
 73
13
 74
0
 42
0.0000001
 43
0.0000001
 44
0.0000000001
 40
0.0
 40
0.0
 40
0.0
 40
0.0
 40
0.1270716893
 40
0.2667038297
 40
0.4121603969
 40
0.5557145792
 40
0.689954596
 40
0.809159482
 40
0.8623737386
 40
0.9114170856
 40
0.9569170993
 40
1.0
 40
1.0
 40
1.0
 40
1.0
 10
52.1801087719
 20
105.4018550982
 30
0.0
 10
52.0371519049
 20
105.4843894166
 30
0.0
 10
51.7144523134
 20
105.6191661498
 30
0.0
 10
51.1880670555
 20
105.7295172867
 30
0.0
 10
50.6292234699
 20
105.7525678298
 30
0.0
 10
50.0807965047
 20
105.6862929474
 30
0.0
 10
49.5846574448
 20
105.5359005009
 30
0.0
 10
49.2316107641
 20
105.3416708332
 30
0.0
 10
49.0146825068
 20
105.1510780934
 30
0.0
 10
48.8928643809
 20
105.0013400471
 30
0.0
 10
48.8089247935
 20
104.8420545876
 30
0.0
 10
48.779223131
 20
104.7295488279
 30
0.0
 10
48.7718237747
 20
104.6740736311
 30
0.0
  0
SPLINE
  5
2C6
100
AcDbEntity
  8
0
100
AcDbSpline
 62
7
  6
CONTINUOUS
 70
0
 71
3
 72
11
 73
7
 74
0
 42
0.0000001
 43
0.0000001
 44
0.0000000001
 40
0.0
 40
0.0
 40
0.0
 40
0.0
 40
0.2890626683
 40
0.5489980567
 40
0.7822658392
 40
1.0
 40
1.0
 40
1.0
 40
1.0
 10
40.7681910777
 20
53.8778299888
 30
0.0
 10
40.7681910777
 20
53.8525581939
 30
0.0
 10
40.7721327779
 20
53.8044122653
 30
0.0
 10
40.7915164832
 20
53.738199028
 30
0.0
 10
40.8243591741
 20
53.684420205
 30
0.0
 10
40.8552263615
 20
53.6584818036
 30
0.0
 10
40.8717232148
 20
53.648983661
 30
0.0
  0
SPLINE
  5
2C7
100
AcDbEntity
  8
0
100
AcDbSpline
 62
7
  6
CONTINUOUS
 70
0
 71
3
 72
11
 73
7
 74
0
 42
0.0000001
 43
0.0000001
 44
0.0000000001
 40
0.0
 40
0.0
 40
0.0
 40
0.0
 40
0.2342700613
 40
0.479956851
 40
0.7357472113
 40
1.0
 40
1.0
 40
1.0
 40
1.0
 10
46.7809390174
 20
66.2138579119
 30
0.0
 10
46.249799311
 20
65.9040252026
 30
0.0
 10
45.1915358794
 20
65.2169589783
 30
0.0
 10
43.66406657
 20
64.0321625795
 30
0.0
 10
42.1741301961
 20
62.6805442663
 30
0.0
 10
41.2303205161
 20
61.6926622385
 30
0.0
 10
40.7681910777
 20
61.1754407811
 30
0.0
  0
SPLINE
  5
2C8
100
AcDbEntity
  8
0
100
AcDbSpline
 62
7
  6
CONTINUOUS
 70
0
 71
3
 72
11
 73
7
 74
0
 42
0.0000001
 43
0.0000001
 44
0.0000000001
 40
0.0
 40
0.0
 40
0.0
 40
0.0
 40
0.237099481
 40
0.499675115
 40
0.7624273367
 40
1.0
 40
1.0
 40
1.0
 40
1.0
 10
47.4842233035
 20
67.4362115404
 30
0.0
 10
47.4842233035
 20
67.3207176209
 30
0.0
 10
47.4410638155
 20
67.0771532142
 30
0.0
 10
47.2903849308
 20
66.734718882
 30
0.0
 10
47.0699117803
 20
66.4321791177
 30
0.0
 10
46.8808992233
 20
66.2721682609
 30
0.0
 10
46.7809390174
 20
66.2138579119
 30
0.0
  0
SPLINE
  5
2C9
100
AcDbEntity
  8
0
100
AcDbSpline
 62
7
  6
CONTINUOUS
 70
0
 71
3
 72
13
 73
9
 74
0
 42
0.0000001
 43
0.0000001
 44
0.0000000001
 40
0.0
 40
0.0
 40
0.0
 40
0.0
 40
0.1141738511
 40
0.2375701392
 40
0.4999984383
 40
0.7624287806
 40
0.8858232052
 40
1.0
 40
1.0
 40
1.0
 40
1.0
 10
48.5446711462
 20
81.9559466068
 30
0.0
 10
48.4721232497
 20
81.914072556
 30
0.0
 10
48.3287557969
 20
81.8134667241
 30
0.0
 10
48.0601780621
 20
81.5623162319
 30
0.0
 10
47.7767292698
 20
81.1748156789
 30
0.0
 10
47.5828657842
 20
80.735593008
 30
0.0
 10
47.4996622156
 20
80.3774169097
 30
0.0
 10
47.4842233035
 20
80.2029544524
 30
0.0
 10
47.4842233035
 20
80.1191869453
 30
0.0
  0
SPLINE
  5
2CA
100
AcDbEntity
  8
0
100
AcDbSpline
 62
7
  6
CONTINUOUS
 70
0
 71
3
 72
11
 73
7
 74
0
 42
0.0000001
 43
0.0000001
 44
0.0000000001
 40
0.0
 40
0.0
 40
0.0
 40
0.0
 40
0.2177825102
 40
0.4509091639
 40
0.7102957096
 40
1.0
 40
1.0
 40
1.0
 40
1.0
 10
73.1230777506
 20
46.880641027
 30
0.0
 10
73.2055443539
 20
46.8330299789
 30
0.0
 10
73.3598361926
 20
46.7033183456
 30
0.0
 10
73.5240979234
 20
46.4347434827
 30
0.0
 10
73.6216596759
 20
46.1037584343
 30
0.0
 10
73.6408647896
 20
45.8628573936
 30
0.0
 10
73.6408647896
 20
45.7361864608
 30
0.0
  0
SPLINE
  5
2CB
100
AcDbEntity
  8
0
100
AcDbSpline
 62
7
  6
CONTINUOUS
 70
0
 71
3
 72
10
 73
6
 74
0
 42
0.0000001
 43
0.0000001
 44
0.0000000001
 40
0.0
 40
0.0
 40
0.0
 40
0.0
 40
0.4620294686
 40
0.7214605962
 40
1.0
 40
1.0
 40
1.0
 40
1.0
 10
70.3463197177
 20
38.7230088388
 30
0.0
 10
70.4893735509
 20
38.7092651815
 30
0.0
 10
70.7183057789
 20
38.736514292
 30
0.0
 10
71.0117729323
 20
38.840158269
 30
0.0
 10
71.1616750804
 20
38.9159055074
 30
0.0
 10
71.236706444
 20
38.9592246268
 30
0.0
  0
SPLINE
  5
2CC
100
AcDbEntity
  8
0
100
AcDbSpline
 62
7
  6
CONTINUOUS
 70
0
 71
3
 72
11
 73
7
 74
0
 42
0.0000001
 43
0.0000001
 44
0.0000000001
 40
0.0
 40
0.0
 40
0.0
 40
0.0
 40
0.2896586258
 40
0.5491345301
 40
0.7822532901
 40
1.0
 40
1.0
 40
1.0
 40
1.0
 10
64.554528962
 20
98.3394946442
 30
0.0
 10
64.6422680927
 20
98.2888395794
 30
0.0
 10
64.8014678329
 20
98.179149671
 30
0.0
 10
64.9917851854
 20
97.9792216396
 30
0.0
 10
65.1122149177
 20
97.7580017596
 30
0.0
 10
65.1402549147
 20
97.5992399899
 30
0.0
 10
65.1402855161
 20
97.5230802696
 30
0.0
  0
SPLINE
  5
2CD
100
AcDbEntity
  8
0
100
AcDbSpline
 62
7
  6
CONTINUOUS
 70
0
 71
3
 72
11
 73
7
 74
0
 42
0.0000001
 43
0.0000001
 44
0.0000000001
 40
0.0
 40
0.0
 40
0.0
 40
0.0
 40
0.2177825102
 40
0.4509091639
 40
0.7102957096
 40
1.0
 40
1.0
 40
1.0
 40
1.0
 10
60.3952086807
 20
75.9482540612
 30
0.0
 10
60.477675284
 20
75.9006430132
 30
0.0
 10
60.6319671227
 20
75.7709313799
 30
0.0
 10
60.7962288536
 20
75.502356517
 30
0.0
 10
60.8937906061
 20
75.1713714686
 30
0.0
 10
60.9129957198
 20
74.9304704279
 30
0.0
 10
60.9129957198
 20
74.8037994951
 30
0.0
  0
SPLINE
  5
2CE
100
AcDbEntity
  8
0
100
AcDbSpline
 62
7
  6
CONTINUOUS
 70
0
 71
3
 72
11
 73
7
 74
0
 42
0.0000001
 43
0.0000001
 44
0.0000000001
 40
0.0
 40
0.0
 40
0.0
 40
0.0
 40
0.2176859351
 40
0.4508846719
 40
0.7106259954
 40
1.0
 40
1.0
 40
1.0
 40
1.0
 10
43.028269707
 20
36.8861176286
 30
0.0
 10
43.0612536842
 20
36.8671048959
 30
0.0
 10
43.122969992
 20
36.8152292632
 30
0.0
 10
43.188743036
 20
36.7077665678
 30
0.0
 10
43.2276153211
 20
36.5753149075
 30
0.0
 10
43.2353997894
 20
36.4789712021
 30
0.0
 10
43.2353997894
 20
36.4283622574
 30
0.0
  0
SPLINE
  5
2CF
100
AcDbEntity
  8
0
100
AcDbSpline
 62
7
  6
CONTINUOUS
 70
0
 71
3
 72
17
 73
13
 74
0
 42
0.0000001
 43
0.0000001
 44
0.0000000001
 40
0.0
 40
0.0
 40
0.0
 40
0.0
 40
0.1286891333
 40
0.2702803493
 40
0.4174326844
 40
0.5617743804
 40
0.6954465661
 40
0.8127104963
 40
0.8646756522
 40
0.91250911
 40
0.9571392634
 40
1.0
 40
1.0
 40
1.0
 40
1.0
 10
73.287312871
 20
62.3520141768
 30
0.0
 10
73.287312871
 20
62.1810645979
 30
0.0
 10
73.2394874259
 20
61.8216171319
 30
0.0
 10
73.0609956687
 20
61.2938477122
 30
0.0
 10
72.7859400171
 20
60.7854421104
 30
0.0
 10
72.4364433847
 20
60.3380836879
 30
0.0
 10
72.0410582878
 20
59.9879065717
 30
0.0
 10
71.6831794648
 20
59.7922136418
 30
0.0
 10
71.4032286429
 20
59.7177457473
 30
0.0
 10
71.2105534185
 20
59.7035562037
 30
0.0
 10
71.0311407304
 20
59.7298488627
 30
0.0
 10
70.9224400947
 20
59.7750144721
 30
0.0
 10
70.8731432381
 20
59.8035014986
 30
0.0
  0
SPLINE
  5
2D0
100
AcDbEntity
  8
0
100
AcDbSpline
 62
7
  6
CONTINUOUS
 70
0
 71
3
 72
17
 73
13
 74
0
 42
0.0000001
 43
0.0000001
 44
0.0000000001
 40
0.0
 40
0.0
 40
0.0
 40
0.0
 40
0.1286649615
 40
0.2703279162
 40
0.4174444215
 40
0.5617796908
 40
0.6954460797
 40
0.8127193961
 40
0.8646774119
 40
0.9125160398
 40
0.9571389068
 40
1.0
 40
1.0
 40
1.0
 40
1.0
 10
43.2353997894
 20
36.4283622574
 30
0.0
 10
43.2353997894
 20
36.3429046067
 30
0.0
 10
43.2114315012
 20
36.1631612776
 30
0.0
 10
43.1222509209
 20
35.8992495569
 30
0.0
 10
42.9846503421
 20
35.6450673011
 30
0.0
 10
42.8099572181
 20
35.4213891305
 30
0.0
 10
42.6122522974
 20
35.24633415
 30
0.0
 10
42.4333369953
 20
35.1484280431
 30
0.0
 10
42.2933458947
 20
35.1112627667
 30
0.0
 10
42.1970190548
 20
35.1040964913
 30
0.0
 10
42.1073190872
 20
35.1173197088
 30
0.0
 10
42.0529859289
 20
35.1399018291
 30
0.0
 10
42.0283221974
 20
35.1541185784
 30
0.0
  0
SPLINE
  5
2D1
100
AcDbEntity
  8
0
100
AcDbSpline
 62
7
  6
CONTINUOUS
 70
0
 71
3
 72
15
 73
11
 74
0
 42
0.0000001
 43
0.0000001
 44
0.0000000001
 40
0.0
 40
0.0
 40
0.0
 40
0.0
 40
0.1141242661
 40
0.2373486253
 40
0.3669740476
 40
0.5000015346
 40
0.6330288076
 40
0.7626536034
 40
0.8858770013
 40
1.0
 40
1.0
 40
1.0
 40
1.0
 10
73.6408647896
 20
41.6536743752
 30
0.0
 10
73.6408647896
 20
41.5139731535
 30
0.0
 10
73.6152139139
 20
41.2231669542
 30
0.0
 10
73.5132595691
 20
40.7844677934
 30
0.0
 10
73.3497372942
 20
40.3400974496
 30
0.0
 10
73.1310275349
 20
39.9067821795
 30
0.0
 10
72.86512284
 20
39.5007156402
 30
0.0
 10
72.5620509214
 20
39.1369164105
 30
0.0
 10
72.2331067821
 20
38.8292733222
 30
0.0
 10
71.9940888404
 20
38.6616574701
 30
0.0
 10
71.8731051966
 20
38.5918079477
 30
0.0
  0
SPLINE
  5
2D2
100
AcDbEntity
  8
0
100
AcDbSpline
 62
7
  6
CONTINUOUS
 70
0
 71
3
 72
11
 73
7
 74
0
 42
0.0000001
 43
0.0000001
 44
0.0000000001
 40
0.0
 40
0.0
 40
0.0
 40
0.0
 40
0.2897016594
 40
0.5490895814
 40
0.7822189142
 40
1.0
 40
1.0
 40
1.0
 40
1.0
 10
39.1756840331
 20
24.8986802859
 30
0.0
 10
39.1756840331
 20
25.0506841838
 30
0.0
 10
39.1987298978
 20
25.3397648656
 30
0.0
 10
39.3157979814
 20
25.7369495017
 30
0.0
 10
39.5129161155
 20
26.0592420932
 30
0.0
 10
39.6980703858
 20
26.2148881318
 30
0.0
 10
39.7970250415
 20
26.2720292581
 30
0.0
  0
SPLINE
  5
2D3
100
AcDbEntity
  8
0
100
AcDbSpline
 62
7
  6
CONTINUOUS
 70
0
 71
3
 72
11
 73
7
 74
0
 42
0.0000001
 43
0.0000001
 44
0.0000000001
 40
0.0
 40
0.0
 40
0.0
 40
0.0
 40
0.2897016594
 40
0.5490895814
 40
0.7822189142
 40
1.0
 40
1.0
 40
1.0
 40
1.0
 10
26.801263843
 20
32.04289349
 30
0.0
 10
26.801263843
 20
32.1948973879
 30
0.0
 10
26.8243097077
 20
32.4839780697
 30
0.0
 10
26.9413777913
 20
32.8811627059
 30
0.0
 10
27.1384959254
 20
33.2034552973
 30
0.0
 10
27.3236501957
 20
33.3591013359
 30
0.0
 10
27.4226048514
 20
33.4162424622
 30
0.0
  0
SPLINE
  5
2D4
100
AcDbEntity
  8
0
100
AcDbSpline
 62
7
  6
CONTINUOUS
 70
0
 71
3
 72
11
 73
7
 74
0
 42
0.0000001
 43
0.0000001
 44
0.0000000001
 40
0.0
 40
0.0
 40
0.0
 40
0.0
 40
0.289702809
 40
0.549088757
 40
0.7822160314
 40
1.0
 40
1.0
 40
1.0
 40
1.0
 10
71.8731051966
 20
38.5918079477
 30
0.0
 10
71.7634096932
 20
38.5284755973
 30
0.0
 10
71.5451899947
 20
38.4246621496
 30
0.0
 10
71.209781614
 20
38.3436640622
 30
0.0
 10
70.8950700732
 20
38.3516298115
 30
0.0
 10
70.7055965317
 20
38.4203895587
 30
0.0
 10
70.6231326426
 20
38.4679990397
 30
0.0
  0
SPLINE
  5
2D5
100
AcDbEntity
  8
0
100
AcDbSpline
 62
7
  6
CONTINUOUS
 70
0
 71
3
 72
11
 73
7
 74
0
 42
0.0000001
 43
0.0000001
 44
0.0000000001
 40
0.0
 40
0.0
 40
0.0
 40
0.0
 40
0.289702809
 40
0.549088757
 40
0.7822160314
 40
1.0
 40
1.0
 40
1.0
 40
1.0
 10
55.6097169407
 20
69.7007122983
 30
0.0
 10
55.5000214373
 20
69.6373799479
 30
0.0
 10
55.2818017388
 20
69.5335665002
 30
0.0
 10
54.9463933581
 20
69.4525684127
 30
0.0
 10
54.6316818173
 20
69.460534162
 30
0.0
 10
54.4422082758
 20
69.5292939093
 30
0.0
 10
54.3597443867
 20
69.5769033903
 30
0.0
  0
SPLINE
  5
2D6
100
AcDbEntity
  8
0
100
AcDbSpline
 62
7
  6
CONTINUOUS
 70
0
 71
3
 72
15
 73
11
 74
0
 42
0.0000001
 43
0.0000001
 44
0.0000000001
 40
0.0
 40
0.0
 40
0.0
 40
0.0
 40
0.1141229605
 40
0.2373462928
 40
0.366971064
 40
0.4999983279
 40
0.633025824
 40
0.762651271
 40
0.8858756957
 40
1.0
 40
1.0
 40
1.0
 40
1.0
 10
58.5088373741
 20
72.1093497467
 30
0.0
 10
58.6298209774
 20
72.1791992457
 30
0.0
 10
58.8688388397
 20
72.3468149884
 30
0.0
 10
59.1977828605
 20
72.6544579744
 30
0.0
 10
59.5008547423
 20
73.0182570733
 30
0.0
 10
59.7667594689
 20
73.4243235567
 30
0.0
 10
59.9854692925
 20
73.8576388273
 30
0.0
 10
60.1489916622
 20
74.3020092684
 30
0.0
 10
60.2509460364
 20
74.7407085829
 30
0.0
 10
60.2765969671
 20
75.0315149058
 30
0.0
 10
60.2765969671
 20
75.1712161742
 30
0.0
  0
SPLINE
  5
2D7
100
AcDbEntity
  8
0
100
AcDbSpline
 62
7
  6
CONTINUOUS
 70
0
 71
3
 72
10
 73
6
 74
0
 42
0.0000001
 43
0.0000001
 44
0.0000000001
 40
0.0
 40
0.0
 40
0.0
 40
0.0
 40
0.2785421116
 40
0.537974013
 40
1.0
 40
1.0
 40
1.0
 40
1.0
 10
60.2765969671
 20
75.1712161742
 30
0.0
 10
60.2765969671
 20
75.257863756
 30
0.0
 10
60.2672438448
 20
75.4255733252
 30
0.0
 10
60.2102599696
 20
75.7315733412
 30
0.0
 10
60.1193772265
 20
75.943476518
 30
0.0
 10
60.0359342235
 20
76.0604983511
 30
0.0
  0
SPLINE
  5
2D8
100
AcDbEntity
  8
0
100
AcDbSpline
 62
7
  6
CONTINUOUS
 70
0
 71
3
 72
15
 73
11
 74
0
 42
0.0000001
 43
0.0000001
 44
0.0000000001
 40
0.0
 40
0.0
 40
0.0
 40
0.0
 40
0.1141242661
 40
0.2373486253
 40
0.3669740476
 40
0.5000015346
 40
0.6330288076
 40
0.7626536034
 40
0.8858770013
 40
1.0
 40
1.0
 40
1.0
 40
1.0
 10
60.9129957198
 20
74.8037994951
 30
0.0
 10
60.9129957198
 20
74.6640982735
 30
0.0
 10
60.8873448441
 20
74.3732920741
 30
0.0
 10
60.7853904992
 20
73.9345929133
 30
0.0
 10
60.6218682244
 20
73.4902225695
 30
0.0
 10
60.4031584651
 20
73.0569072995
 30
0.0
 10
60.1372537702
 20
72.6508407602
 30
0.0
 10
59.8341818515
 20
72.2870415304
 30
0.0
 10
59.5052377123
 20
71.9793984421
 30
0.0
 10
59.2662197706
 20
71.81178259
 30
0.0
 10
59.1452361267
 20
71.7419330676
 30
0.0
  0
SPLINE
  5
2D9
100
AcDbEntity
  8
0
100
AcDbSpline
 62
7
  6
CONTINUOUS
 70
0
 71
3
 72
10
 73
6
 74
0
 42
0.0000001
 43
0.0000001
 44
0.0000000001
 40
0.0
 40
0.0
 40
0.0
 40
0.0
 40
0.2785421116
 40
0.537974013
 40
1.0
 40
1.0
 40
1.0
 40
1.0
 10
73.004466037
 20
46.1036031399
 30
0.0
 10
73.004466037
 20
46.1902507217
 30
0.0
 10
72.9951129147
 20
46.3579602909
 30
0.0
 10
72.9381290394
 20
46.6639603069
 30
0.0
 10
72.8472462963
 20
46.8758634837
 30
0.0
 10
72.7638032933
 20
46.9928853168
 30
0.0
  0
SPLINE
  5
2DA
100
AcDbEntity
  8
0
100
AcDbSpline
 62
7
  6
CONTINUOUS
 70
0
 71
3
 72
15
 73
11
 74
0
 42
0.0000001
 43
0.0000001
 44
0.0000000001
 40
0.0
 40
0.0
 40
0.0
 40
0.0
 40
0.1141229605
 40
0.2373462928
 40
0.366971064
 40
0.4999983279
 40
0.633025824
 40
0.762651271
 40
0.8858756957
 40
1.0
 40
1.0
 40
1.0
 40
1.0
 10
71.236706444
 20
38.9592246268
 30
0.0
 10
71.3576900473
 20
39.0290741258
 30
0.0
 10
71.5967079096
 20
39.1966898684
 30
0.0
 10
71.9256519303
 20
39.5043328545
 30
0.0
 10
72.2287238122
 20
39.8681319534
 30
0.0
 10
72.4946285387
 20
40.2741984367
 30
0.0
 10
72.7133383623
 20
40.7075137073
 30
0.0
 10
72.876860732
 20
41.1518841484
 30
0.0
 10
72.9788151062
 20
41.590583463
 30
0.0
 10
73.004466037
 20
41.8813897858
 30
0.0
 10
73.004466037
 20
42.0210910543
 30
0.0
  0
SPLINE
  5
2DB
100
AcDbEntity
  8
0
100
AcDbSpline
 62
7
  6
CONTINUOUS
 70
0
 71
3
 72
11
 73
7
 74
0
 42
0.0000001
 43
0.0000001
 44
0.0000000001
 40
0.0
 40
0.0
 40
0.0
 40
0.0
 40
0.2897016594
 40
0.5490895814
 40
0.7822189142
 40
1.0
 40
1.0
 40
1.0
 40
1.0
 10
39.1756840331
 20
79.6043422336
 30
0.0
 10
39.1756840331
 20
79.7563461314
 30
0.0
 10
39.1987298978
 20
80.0454268133
 30
0.0
 10
39.3157979814
 20
80.4426114494
 30
0.0
 10
39.5129161155
 20
80.7649040409
 30
0.0
 10
39.6980703858
 20
80.9205500795
 30
0.0
 10
39.7970250415
 20
80.9776912058
 30
0.0
  0
SPLINE
  5
2DC
100
AcDbEntity
  8
0
100
AcDbSpline
 62
7
  6
CONTINUOUS
 70
0
 71
3
 72
10
 73
6
 74
0
 42
0.0000001
 43
0.0000001
 44
0.0000000001
 40
0.0
 40
0.0
 40
0.0
 40
0.0
 40
0.4620294686
 40
0.7214605962
 40
1.0
 40
1.0
 40
1.0
 40
1.0
 10
54.0829314618
 20
69.8319131894
 30
0.0
 10
54.225985295
 20
69.8181695321
 30
0.0
 10
54.454917523
 20
69.8454186426
 30
0.0
 10
54.7483846764
 20
69.9490626196
 30
0.0
 10
54.8982868245
 20
70.024809858
 30
0.0
 10
54.973318188
 20
70.0681289773
 30
0.0
  0
SPLINE
  5
2DD
100
AcDbEntity
  8
0
100
AcDbSpline
 62
7
  6
CONTINUOUS
 70
0
 71
3
 72
11
 73
7
 74
0
 42
0.0000001
 43
0.0000001
 44
0.0000000001
 40
0.0
 40
0.0
 40
0.0
 40
0.0
 40
0.2897016594
 40
0.5490895814
 40
0.7822189142
 40
1.0
 40
1.0
 40
1.0
 40
1.0
 10
26.801263843
 20
86.7485554377
 30
0.0
 10
26.801263843
 20
86.9005593355
 30
0.0
 10
26.8243097077
 20
87.1896400174
 30
0.0
 10
26.9413777913
 20
87.5868246535
 30
0.0
 10
27.1384959254
 20
87.909117245
 30
0.0
 10
27.3236501957
 20
88.0647632836
 30
0.0
 10
27.4226048514
 20
88.1219044099
 30
0.0
  0
SPLINE
  5
2DE
100
AcDbEntity
  8
0
100
AcDbSpline
 62
7
  6
CONTINUOUS
 70
0
 71
3
 72
11
 73
7
 74
0
 42
0.0000001
 43
0.0000001
 44
0.0000000001
 40
0.0
 40
0.0
 40
0.0
 40
0.0
 40
0.2177488625
 40
0.4508835943
 40
0.7104460086
 40
1.0
 40
1.0
 40
1.0
 40
1.0
 10
47.2771291398
 20
29.606589187
 30
0.0
 10
47.3101012339
 20
29.5875491952
 30
0.0
 10
47.3718568717
 20
29.5357523152
 30
0.0
 10
47.4375459594
 20
29.4282948376
 30
0.0
 10
47.4764972331
 20
29.2959151262
 30
0.0
 10
47.4842233035
 20
29.1995785142
 30
0.0
 10
47.4842233035
 20
29.1489482985
 30
0.0
  0
SPLINE
  5
2DF
100
AcDbEntity
  8
0
100
AcDbSpline
 62
7
  6
CONTINUOUS
 70
0
 71
3
 72
9
 73
5
 74
0
 42
0.0000001
 43
0.0000001
 44
0.0000000001
 40
0.0
 40
0.0
 40
0.0
 40
0.0
 40
0.2550908205
 40
1.0
 40
1.0
 40
1.0
 40
1.0
 10
77.5108890123
 20
52.4499335292
 30
0.0
 10
77.5164939698
 20
52.4514353996
 30
0.0
 10
77.5385498297
 20
52.4570046105
 30
0.0
 10
77.5609381943
 20
52.461276109
 30
0.0
 10
77.5777184091
 20
52.4636323997
 30
0.0
  0
SPLINE
  5
2E0
100
AcDbEntity
  8
0
100
AcDbSpline
 62
7
  6
CONTINUOUS
 70
0
 71
3
 72
9
 73
5
 74
0
 42
0.0000001
 43
0.0000001
 44
0.0000000001
 40
0.0
 40
0.0
 40
0.0
 40
0.0
 40
0.5197634828
 40
1.0
 40
1.0
 40
1.0
 40
1.0
 10
77.5777184091
 20
52.4636323997
 30
0.0
 10
77.6218391051
 20
52.4698278621
 30
0.0
 10
77.7090609945
 20
52.4710264632
 30
0.0
 10
77.7920956041
 20
52.4421963192
 30
0.0
 10
77.8277460525
 20
52.4216140071
 30
0.0
  0
SPLINE
  5
2E1
100
AcDbEntity
  8
0
100
AcDbSpline
 62
7
  6
CONTINUOUS
 70
0
 71
3
 72
19
 73
15
 74
0
 42
0.0000001
 43
0.0000001
 44
0.0000000001
 40
0.0
 40
0.0
 40
0.0
 40
0.0
 40
0.0428394104
 40
0.0874448899
 40
0.1352571039
 40
0.1871950253
 40
0.2436735499
 40
0.3046656819
 40
0.4382689093
 40
0.5825434307
 40
0.7296392143
 40
0.871166535
 40
0.9376088396
 40
1.0
 40
1.0
 40
1.0
 40
1.0
 10
30.4225811854
 20
82.9257619384
 30
0.0
 10
30.3486246015
 20
82.8830558881
 30
0.0
 10
30.1855748487
 20
82.81535264
 30
0.0
 10
29.9164707992
 20
82.7758487333
 30
0.0
 10
29.6274801432
 20
82.7971631213
 30
0.0
 10
29.3250370142
 20
82.8774971347
 30
0.0
 10
29.0150461493
 20
83.0144629721
 30
0.0
 10
28.5871466332
 20
83.2763990014
 30
0.0
 10
28.0773823893
 20
83.7278315098
 30
0.0
 10
27.5534434262
 20
84.3986190287
 30
0.0
 10
27.1408812384
 20
85.1609912245
 30
0.0
 10
26.9125943901
 20
85.8357028751
 30
0.0
 10
26.8182108414
 20
86.3671678626
 30
0.0
 10
26.801263843
 20
86.6241772889
 30
0.0
 10
26.801263843
 20
86.7485554377
 30
0.0
  0
SPLINE
  5
2E2
100
AcDbEntity
  8
0
100
AcDbSpline
 62
7
  6
CONTINUOUS
 70
0
 71
3
 72
11
 73
7
 74
0
 42
0.0000001
 43
0.0000001
 44
0.0000000001
 40
0.0
 40
0.0
 40
0.0
 40
0.0
 40
0.2895440315
 40
0.5491179146
 40
0.7822547581
 40
1.0
 40
1.0
 40
1.0
 40
1.0
 10
47.4842233035
 20
14.7958647144
 30
0.0
 10
47.4842233035
 20
14.7201278483
 30
0.0
 10
47.4957861567
 20
14.5760151541
 30
0.0
 10
47.5540475741
 20
14.3779804804
 30
0.0
 10
47.6523184564
 20
14.2172307601
 30
0.0
 10
47.744700386
 20
14.1397450947
 30
0.0
 10
47.7940256517
 20
14.1112664612
 30
0.0
  0
SPLINE
  5
2E3
100
AcDbEntity
  8
0
100
AcDbSpline
 62
7
  6
CONTINUOUS
 70
0
 71
3
 72
11
 73
7
 74
0
 42
0.0000001
 43
0.0000001
 44
0.0000000001
 40
0.0
 40
0.0
 40
0.0
 40
0.0
 40
0.2896586258
 40
0.5491345301
 40
0.7822532901
 40
1.0
 40
1.0
 40
1.0
 40
1.0
 10
52.1801087719
 20
105.4837078483
 30
0.0
 10
52.2678479027
 20
105.4330527835
 30
0.0
 10
52.4270476428
 20
105.3233628751
 30
0.0
 10
52.6173649953
 20
105.1234348437
 30
0.0
 10
52.7377947276
 20
104.9022149637
 30
0.0
 10
52.7658347247
 20
104.743453194
 30
0.0
 10
52.7658653261
 20
104.6672934737
 30
0.0
  0
SPLINE
  5
2E4
100
AcDbEntity
  8
0
100
AcDbSpline
 62
7
  6
CONTINUOUS
 70
0
 71
3
 72
11
 73
7
 74
0
 42
0.0000001
 43
0.0000001
 44
0.0000000001
 40
0.0
 40
0.0
 40
0.0
 40
0.0
 40
0.289553961
 40
0.5491165647
 40
0.7822512711
 40
1.0
 40
1.0
 40
1.0
 40
1.0
 10
40.7681910777
 20
27.4123365685
 30
0.0
 10
40.7681910777
 20
27.336391254
 30
0.0
 10
40.7797802686
 20
27.1918863101
 30
0.0
 10
40.838207094
 20
26.9933166788
 30
0.0
 10
40.9367407986
 20
26.8321305023
 30
0.0
 10
41.0293742002
 20
26.7544351841
 30
0.0
 10
41.0788323247
 20
26.725875239
 30
0.0
  0
SPLINE
  5
2E5
100
AcDbEntity
  8
0
100
AcDbSpline
 62
7
  6
CONTINUOUS
 70
0
 71
3
 72
12
 73
8
 74
0
 42
0.0000001
 43
0.0000001
 44
0.0000000001
 40
0.0
 40
0.0
 40
0.0
 40
0.0
 40
0.2895779637
 40
0.5486418849
 40
0.7816446961
 40
0.8918350775
 40
1.0
 40
1.0
 40
1.0
 40
1.0
 10
35.1125849928
 20
49.4572856492
 30
0.0
 10
35.1125849928
 20
49.2039132788
 30
0.0
 10
35.1509869135
 20
48.7221513719
 30
0.0
 10
35.3457630694
 20
48.060606568
 30
0.0
 10
35.6257238002
 20
47.6042004901
 30
0.0
 10
35.9083885178
 20
47.3261503191
 30
0.0
 10
36.0659580887
 20
47.2161663905
 30
0.0
 10
36.1479208083
 20
47.1688476072
 30
0.0
  0
SPLINE
  5
2E6
100
AcDbEntity
  8
0
100
AcDbSpline
 62
7
  6
CONTINUOUS
 70
0
 71
3
 72
11
 73
7
 74
0
 42
0.0000001
 43
0.0000001
 44
0.0000000001
 40
0.0
 40
0.0
 40
0.0
 40
0.0
 40
0.2851035144
 40
0.5511356888
 40
0.7924780047
 40
1.0
 40
1.0
 40
1.0
 40
1.0
 10
32.0329095818
 20
49.5446003423
 30
0.0
 10
31.8729765765
 20
49.5175797743
 30
0.0
 10
31.5645609078
 20
49.4603212262
 30
0.0
 10
31.1268516758
 20
49.3506919307
 30
0.0
 10
30.7403487587
 20
49.2229241671
 30
0.0
 10
30.5061033037
 20
49.1192876601
 30
0.0
 10
30.4022445721
 20
49.0631444529
 30
0.0
  0
SPLINE
  5
2E7
100
AcDbEntity
  8
0
100
AcDbSpline
 62
7
  6
CONTINUOUS
 70
0
 71
3
 72
13
 73
9
 74
0
 42
0.0000001
 43
0.0000001
 44
0.0000000001
 40
0.0
 40
0.0
 40
0.0
 40
0.0
 40
0.114175582
 40
0.23756922
 40
0.49999856
 40
0.7624286893
 40
0.8858231943
 40
1.0
 40
1.0
 40
1.0
 40
1.0
 10
36.1730111336
 20
60.1144951861
 30
0.0
 10
36.1004685069
 20
60.0726129311
 30
0.0
 10
35.9571032657
 20
59.972014052
 30
0.0
 10
35.6885228227
 20
59.720875825
 30
0.0
 10
35.4050871889
 20
59.33337898
 30
0.0
 10
35.211225125
 20
58.894166538
 30
0.0
 10
35.1280236493
 20
58.5359977005
 30
0.0
 10
35.1125849928
 20
58.3615388195
 30
0.0
 10
35.1125849928
 20
58.2777730367
 30
0.0
  0
SPLINE
  5
2E8
100
AcDbEntity
  8
0
100
AcDbSpline
 62
7
  6
CONTINUOUS
 70
0
 71
3
 72
11
 73
7
 74
0
 42
0.0000001
 43
0.0000001
 44
0.0000000001
 40
0.0
 40
0.0
 40
0.0
 40
0.0
 40
0.2331790737
 40
0.479455882
 40
0.7362808799
 40
1.0
 40
1.0
 40
1.0
 40
1.0
 10
35.5124631009
 20
47.5357246793
 30
0.0
 10
35.5600265956
 20
47.381424648
 30
0.0
 10
35.6693109403
 20
47.0676989897
 30
0.0
 10
35.8586080266
 20
46.5941624903
 30
0.0
 10
36.078436854
 20
46.1105961208
 30
0.0
 10
36.2476928195
 20
45.7918821584
 30
0.0
 10
36.3404733745
 20
45.6345961793
 30
0.0
  0
SPLINE
  5
2E9
100
AcDbEntity
  8
0
100
AcDbSpline
 62
7
  6
CONTINUOUS
 70
0
 71
3
 72
11
 73
7
 74
0
 42
0.0000001
 43
0.0000001
 44
0.0000000001
 40
0.0
 40
0.0
 40
0.0
 40
0.0
 40
0.2851035144
 40
0.5511356888
 40
0.7924780047
 40
1.0
 40
1.0
 40
1.0
 40
1.0
 10
19.6584893917
 20
56.6888135464
 30
0.0
 10
19.4985563864
 20
56.6617929784
 30
0.0
 10
19.1901407178
 20
56.6045344304
 30
0.0
 10
18.7524314857
 20
56.4949051348
 30
0.0
 10
18.3659285686
 20
56.3671373712
 30
0.0
 10
18.1316831136
 20
56.2635008642
 30
0.0
 10
18.0278243821
 20
56.207357657
 30
0.0
  0
SPLINE
  5
2EA
100
AcDbEntity
  8
0
100
AcDbSpline
 62
7
  6
CONTINUOUS
 70
0
 71
3
 72
19
 73
15
 74
0
 42
0.0000001
 43
0.0000001
 44
0.0000000001
 40
0.0
 40
0.0
 40
0.0
 40
0.0
 40
0.0428394104
 40
0.0874448899
 40
0.1352571039
 40
0.1871950253
 40
0.2436735499
 40
0.3046656819
 40
0.4382689093
 40
0.5825434307
 40
0.7296392143
 40
0.871166535
 40
0.9376088396
 40
1.0
 40
1.0
 40
1.0
 40
1.0
 10
42.7970013755
 20
75.7815487343
 30
0.0
 10
42.7230447916
 20
75.738842684
 30
0.0
 10
42.5599950387
 20
75.6711394359
 30
0.0
 10
42.2908909892
 20
75.6316355292
 30
0.0
 10
42.0019003333
 20
75.6529499172
 30
0.0
 10
41.6994572043
 20
75.7332839306
 30
0.0
 10
41.3894663394
 20
75.870249768
 30
0.0
 10
40.9615668233
 20
76.1321857973
 30
0.0
 10
40.4518025793
 20
76.5836183056
 30
0.0
 10
39.9278636163
 20
77.2544058246
 30
0.0
 10
39.5153014285
 20
78.0167780204
 30
0.0
 10
39.2870145802
 20
78.691489671
 30
0.0
 10
39.1926310315
 20
79.2229546585
 30
0.0
 10
39.1756840331
 20
79.4799640848
 30
0.0
 10
39.1756840331
 20
79.6043422336
 30
0.0
  0
SPLINE
  5
2EB
100
AcDbEntity
  8
0
100
AcDbSpline
 62
7
  6
CONTINUOUS
 70
0
 71
3
 72
11
 73
7
 74
0
 42
0.0000001
 43
0.0000001
 44
0.0000000001
 40
0.0
 40
0.0
 40
0.0
 40
0.0
 40
0.2331790737
 40
0.479455882
 40
0.7362808799
 40
1.0
 40
1.0
 40
1.0
 40
1.0
 10
23.1380429109
 20
54.6799378834
 30
0.0
 10
23.1856064055
 20
54.5256378521
 30
0.0
 10
23.2948907503
 20
54.2119121938
 30
0.0
 10
23.4841878365
 20
53.7383756944
 30
0.0
 10
23.7040166639
 20
53.2548093249
 30
0.0
 10
23.8732726294
 20
52.9360953625
 30
0.0
 10
23.9660531844
 20
52.7788093834
 30
0.0
  0
SPLINE
  5
2EC
100
AcDbEntity
  8
0
100
AcDbSpline
 62
7
  6
CONTINUOUS
 70
0
 71
3
 72
19
 73
15
 74
0
 42
0.0000001
 43
0.0000001
 44
0.0000000001
 40
0.0
 40
0.0
 40
0.0
 40
0.0
 40
0.0428394104
 40
0.0874448899
 40
0.1352571039
 40
0.1871950253
 40
0.2436735499
 40
0.3046656819
 40
0.4382689093
 40
0.5825434307
 40
0.7296392143
 40
0.871166535
 40
0.9376088396
 40
1.0
 40
1.0
 40
1.0
 40
1.0
 10
30.4225811854
 20
28.2200999907
 30
0.0
 10
30.3486246015
 20
28.1773939404
 30
0.0
 10
30.1855748487
 20
28.1096906923
 30
0.0
 10
29.9164707992
 20
28.0701867856
 30
0.0
 10
29.6274801432
 20
28.0915011737
 30
0.0
 10
29.3250370142
 20
28.171835187
 30
0.0
 10
29.0150461493
 20
28.3088010244
 30
0.0
 10
28.5871466332
 20
28.5707370537
 30
0.0
 10
28.0773823893
 20
29.0221695621
 30
0.0
 10
27.5534434262
 20
29.692957081
 30
0.0
 10
27.1408812384
 20
30.4553292768
 30
0.0
 10
26.9125943901
 20
31.1300409274
 30
0.0
 10
26.8182108414
 20
31.6615059149
 30
0.0
 10
26.801263843
 20
31.9185153413
 30
0.0
 10
26.801263843
 20
32.04289349
 30
0.0
  0
ELLIPSE
  5
2ED
100
AcDbEntity
  8
0
100
AcDbEllipse
 62
7
  6
CONTINUOUS
 10
43.9283615499
 20
60.3845362624
 30
0.0
 11
0.4999995164
 21
0.8660303017
 31
0.0
 40
0.5773519923
 41
0.0
 42
6.2831853072
  0
ENDSEC
  0
SECTION
  2
OBJECTS
  0
DICTIONARY
  5
C
100
AcDbDictionary
280
0
281
1
  3
ACAD_GROUP
350
D
  3
ACAD_MLINESTYLE
350
17
  3
ACAD_LAYOUT
350
1A
  3
ACAD_PLOTSETTINGS
350
19
  3
ACAD_PLOTSTYLENAME
350
E
  0
DICTIONARY
  5
D
102
{ACAD_REACTORS
330
C
102
}
100
AcDbDictionary
280
0
281
1
  0
ACDBDICTIONARYWDFLT
  5
E
102
{ACAD_REACTORS
330
C
102
}
100
AcDbDictionary
281
1
  3
Normal
350
F
100
AcDbDictionaryWithDefault
340
F
  0
DICTIONARY
  5
17
102
{ACAD_REACTORS
330
C
102
}
100
AcDbDictionary
280
0
281
1
  3
Standard
350
18
  0
DICTIONARY
  5
19
102
{ACAD_REACTORS
330
C
102
}
100
AcDbDictionary
281
1
  0
DICTIONARY
  5
1A
102
{ACAD_REACTORS
330
C
102
}
100
AcDbDictionary
281
1
  3
Model
350
2EE
  3
Layout1
350
2EF
  0
ACDBPLACEHOLDER
  5
F
102
{ACAD_REACTORS
330
E
102
}
  0
MLINESTYLE
  5
18
102
{ACAD_REACTORS
330
17
102
}
100
AcDbMlineStyle
  2
STANDARD
 70
0
  3

 62
256
 51
90.0
 52
90.0
 71
2
 49
0.5
 62
256
  6
BYLAYER
 49
-0.5
 62
256
  6
BYLAYER
  0
LAYOUT
  5
2EE
102
{ACAD_REACTORS
330
1A
102
}
100
AcDbPlotSettings
  1

  2
none_device
  4

  6

 40
0.0
 41
0.0
 42
0.0
 43
0.0
 44
210.0
 45
297.0
 46
0.0
 47
0.0
 48
0.0
 49
0.0
140
0.0
141
0.0
142
1.0
143
1.0
 70
1024
 72
1
 73
0
 74
0
  7

 75
0
147
1.0
148
0.0
149
0.0
100
AcDbLayout
  1
Model
 70
0
 71
0
 10
0.0
 20
0.0
 11
210.0
 21
297.0
 12
0.0
 22
0.0
 32
0.0
 14
0.0
 24
0.0
 34
0.0
 15
0.0
 25
0.0
 35
0.0
146
0.0
 13
0.0
 23
0.0
 33
0.0
 16
1.0
 26
0.0
 36
0.0
 17
0.0
 27
1.0
 37
0.0
 76
0
330
210
345
0
346
0
  0
LAYOUT
  5
2EF
102
{ACAD_REACTORS
330
1A
102
}
100
AcDbPlotSettings
  1

  2
none_device
  4

  6

 40
0.0
 41
0.0
 42
0.0
 43
0.0
 44
210.0
 45
297.0
 46
0.0
 47
0.0
 48
0.0
 49
0.0
140
0.0
141
0.0
142
1.0
143
1.0
 70
0
 72
1
 73
0
 74
0
  7

 75
0
147
1.0
148
0.0
149
0.0
100
AcDbLayout
  1
Layout1
 70
0
 71
1
 10
0.0
 20
0.0
 11
210.0
 21
297.0
 12
0.0
 22
0.0
 32
0.0
 14
0.0
 24
0.0
 34
0.0
 15
0.0
 25
0.0
 35
0.0
146
0.0
 13
0.0
 23
0.0
 33
0.0
 16
1.0
 26
0.0
 36
0.0
 17
0.0
 27
1.0
 37
0.0
 76
0
330
211
345
0
346
0
  0
ENDSEC
  0
EOF
