999
DXF file: C:\Users\sesa63760\Dev\_Creo\CAD\MCADID0003808_3D-CAD\drw0001_6.dxf
999
Pro/ENGINEER 2019471 by Parametric Technology Corporation
  0
SECTION
  2
HEADER
  9
$ACADVER
  1
AC1024
  9
$DWGCODEPAGE
  3
ANSI_1252
  9
$EXTMAX
 10
109.8091483765
 20
155.3015098468
 30
0.0
  9
$EXTMIN
 10
0.0
 20
0.0
 30
0.0
  9
$LIMMIN
 10
0.0
 20
0.0
  9
$LIMMAX
 10
109.8091483765
 20
155.3015098468
  9
$VIEWCTR
 10
54.9045741883
 20
77.6507549234
  9
$VIEWSIZE
 40
155.3015098468
  9
$CLAYER
  8
0
  9
$LTSCALE
 40
10.1233576789
  9
$CELTYPE
  6
BYLAYER
  9
$DIMSCALE
 40
1.0
  9
$DIMASZ
 40
1.3072517664
  9
$DIMEXO
 40
1.0
  9
$DIMDLI
 40
6.9943198509
  9
$DIMEXE
 40
1.0
  9
$DIMCEN
 40
1.6565494384
  9
$DIMLFAC
 40
1.0
  9
$DIMBLK
  1
_FILLED
  9
$DIMALT
 70
0
  9
$DIMALTF
 40
0.0393700787
  9
$DIMTXT
 40
1.8301524729
  9
$DIMTOL
 70
1
  9
$DIMLIM
 70
0
  9
$DIMTFAC
 40
1.0
  9
$DIMTP
 40
0.01
  9
$DIMTM
 40
0.01
  9
$DIMGAP
 40
0.625
  9
$DIMDSEP
 70
46
  9
$AUNITS
 70
0
  9
$PDMODE
 70
3
  9
$PDSIZE
 40
0.3125
  9
$HANDSEED
  5
2A8
  9
$TILEMODE
 70
1
  9
$MEASUREMENT
 70
1
  9
$INSUNITS
 70
4
  0
ENDSEC
  0
SECTION
  2
CLASSES
  0
CLASS
  1
ACDBDICTIONARYWDFLT
  2
AcDbDictionaryWithDefault
  3
AutoCAD 2000
 90
0
 91
1
280
0
281
0
  0
CLASS
  1
ACDBPLACEHOLDER
  2
AcDbPlaceHolder
  3
AutoCAD 2000
 90
0
 91
1
280
0
281
0
  0
CLASS
  1
LAYOUT
  2
AcDbLayout
  3
AutoCAD 2000
 90
0
 91
0
280
0
281
0
  0
ENDSEC
  0
SECTION
  2
TABLES
  0
TABLE
  2
VPORT
  5
8
100
AcDbSymbolTable
 70
2
  0
VPORT
  5
1F4
100
AcDbSymbolTableRecord
100
AcDbViewportTableRecord
  2
*ACTIVE
 70
0
 10
0.0
 20
0.0
 11
1.0
 21
1.0
 12
54.9045741883
 22
77.6507549234
 13
0.0
 23
0.0
 14
1.0
 24
1.0
 15
0.0
 25
0.0
 16
0.0
 26
0.0
 36
1.0
 17
0.0
 27
0.0
 37
0.0
 40
155.3015098468
 41
0.7070707071
 42
50.0
 43
0.0
 44
0.0
 50
0.0
 51
0.0
 71
0
 72
100
 73
1
 74
1
 75
0
 76
0
 77
0
 78
0
  0
ENDTAB
  0
TABLE
  2
LTYPE
  5
5
100
AcDbSymbolTable
 70
6
  0
LTYPE
  5
14
100
AcDbSymbolTableRecord
100
AcDbLinetypeTableRecord
  2
BYBLOCK
 70
0
  3

 72
65
 73
0
 40
0.0
  0
LTYPE
  5
15
100
AcDbSymbolTableRecord
100
AcDbLinetypeTableRecord
  2
BYLAYER
 70
0
  3

 72
65
 73
0
 40
0.0
  0
LTYPE
  5
16
100
AcDbSymbolTableRecord
100
AcDbLinetypeTableRecord
  2
CONTINUOUS
 70
64
  3
Solid line
 72
65
 73
0
 40
0.0
  0
LTYPE
  5
1F5
100
AcDbSymbolTableRecord
100
AcDbLinetypeTableRecord
  2
CENTER
 70
64
  3
____ _ ____ _ ____ _ ____ _ ____ _ ____ _ ____
 72
65
 73
4
 40
0.6
 49
0.375
 74
0
 49
-0.075
 74
0
 49
0.075
 74
0
 49
-0.075
 74
0
  0
LTYPE
  5
1F6
100
AcDbSymbolTableRecord
100
AcDbLinetypeTableRecord
  2
HIDDEN
 70
64
  3
- - - - - - - - - - - - - - - - - - - -
 72
65
 73
2
 40
0.2
 49
0.1
 74
0
 49
-0.1
 74
0
  0
LTYPE
  5
1F7
100
AcDbSymbolTableRecord
100
AcDbLinetypeTableRecord
  2
PHANTOM
 70
64
  3
_____ _ _ _____ _ _ _____ _ _ _____
 72
65
 73
6
 40
0.8
 49
0.45
 74
0
 49
-0.05
 74
0
 49
0.1
 74
0
 49
-0.05
 74
0
 49
0.1
 74
0
 49
-0.05
 74
0
  0
LTYPE
  5
1F8
100
AcDbSymbolTableRecord
100
AcDbLinetypeTableRecord
  2
DOT
 70
64
  3
. . . . . . . . . . . . . . . . . . . .
 72
65
 73
2
 40
0.2
 49
0.1
 74
0
 49
-0.1
 74
0
  0
LTYPE
  5
1F9
100
AcDbSymbolTableRecord
100
AcDbLinetypeTableRecord
  2
DASHED
 70
64
  3
- - - - - - - - - - - - - - - - - - - -
 72
65
 73
2
 40
0.2
 49
0.1
 74
0
 49
-0.1
 74
0
  0
ENDTAB
  0
TABLE
  2
LAYER
  5
2
100
AcDbSymbolTable
 70
36
  0
LAYER
  5
10
100
AcDbSymbolTableRecord
100
AcDbLayerTableRecord
  2
0
 70
0
 62
7
  6
CONTINUOUS
370
-3
390
F
  0
LAYER
  5
1FA
100
AcDbSymbolTableRecord
100
AcDbLayerTableRecord
  2
DEFAULT_1
 70
0
 62
7
  6
CENTER
370
-3
390
F
  0
LAYER
  5
1FB
100
AcDbSymbolTableRecord
100
AcDbLayerTableRecord
  2
DEFAULT_2
 70
0
 62
7
  6
HIDDEN
370
-3
390
F
  0
LAYER
  5
1FC
100
AcDbSymbolTableRecord
100
AcDbLayerTableRecord
  2
DEFAULT_3
 70
0
 62
7
  6
PHANTOM
370
-3
390
F
  0
LAYER
  5
1FD
100
AcDbSymbolTableRecord
100
AcDbLayerTableRecord
  2
00_COMPONENTS
 70
0
 62
7
  6
CONTINUOUS
370
-3
390
F
  0
LAYER
  5
1FE
100
AcDbSymbolTableRecord
100
AcDbLayerTableRecord
  2
01_1_DEFAULT_DATUMS
 70
0
 62
7
  6
CONTINUOUS
370
-3
390
F
  0
LAYER
  5
1FF
100
AcDbSymbolTableRecord
100
AcDbLayerTableRecord
  2
01_PLANES
 70
0
 62
7
  6
CONTINUOUS
370
-3
390
F
  0
LAYER
  5
200
100
AcDbSymbolTableRecord
100
AcDbLayerTableRecord
  2
02_COORD_SYS
 70
0
 62
7
  6
CONTINUOUS
370
-3
390
F
  0
LAYER
  5
201
100
AcDbSymbolTableRecord
100
AcDbLayerTableRecord
  2
03_AXES
 70
0
 62
7
  6
CONTINUOUS
370
-3
390
F
  0
LAYER
  5
202
100
AcDbSymbolTableRecord
100
AcDbLayerTableRecord
  2
04_POINTS
 70
0
 62
7
  6
CONTINUOUS
370
-3
390
F
  0
LAYER
  5
203
100
AcDbSymbolTableRecord
100
AcDbLayerTableRecord
  2
05_CURVES
 70
0
 62
7
  6
CONTINUOUS
370
-3
390
F
  0
LAYER
  5
204
100
AcDbSymbolTableRecord
100
AcDbLayerTableRecord
  2
06_SURFS
 70
0
 62
7
  6
CONTINUOUS
370
-3
390
F
  0
LAYER
  5
205
100
AcDbSymbolTableRecord
100
AcDbLayerTableRecord
  2
07_COSMETICS
 70
0
 62
7
  6
CONTINUOUS
370
-3
390
F
  0
LAYER
  5
206
100
AcDbSymbolTableRecord
100
AcDbLayerTableRecord
  2
10_NOTES
 70
0
 62
7
  6
CONTINUOUS
370
-3
390
F
  0
LAYER
  5
207
100
AcDbSymbolTableRecord
100
AcDbLayerTableRecord
  2
11_NOTES_PUB
 70
0
 62
7
  6
CONTINUOUS
370
-3
390
F
  0
LAYER
  5
208
100
AcDbSymbolTableRecord
100
AcDbLayerTableRecord
  2
13_REF_GTOL
 70
0
 62
7
  6
CONTINUOUS
370
-3
390
F
  0
LAYER
  5
209
100
AcDbSymbolTableRecord
100
AcDbLayerTableRecord
  2
16_MISC
 70
0
 62
7
  6
CONTINUOUS
370
-3
390
F
  0
LAYER
  5
20A
100
AcDbSymbolTableRecord
100
AcDbLayerTableRecord
  2
17_NO_PRINT
 70
0
 62
7
  6
CONTINUOUS
370
-3
390
F
  0
LAYER
  5
20B
100
AcDbSymbolTableRecord
100
AcDbLayerTableRecord
  2
18_DATUM_CAMS_JOINTS
 70
0
 62
7
  6
CONTINUOUS
370
-3
390
F
  0
LAYER
  5
20C
100
AcDbSymbolTableRecord
100
AcDbLayerTableRecord
  2
19_DATUM_FUNCTIONAL
 70
0
 62
7
  6
CONTINUOUS
370
-3
390
F
  0
LAYER
  5
20D
100
AcDbSymbolTableRecord
100
AcDbLayerTableRecord
  2
20_DATUM_KINEMATIC_SCHEME
 70
0
 62
7
  6
CONTINUOUS
370
-3
390
F
  0
ENDTAB
  0
TABLE
  2
STYLE
  5
3
100
AcDbSymbolTable
 70
1
  0
STYLE
  5
11
100
AcDbSymbolTableRecord
100
AcDbTextStyleTableRecord
  2
STANDARD
 70
0
 40
0.0
 41
1.0
 50
0.0
 71
0
 42
0.2
  3
ARIAL.TTF
  4

  0
STYLE
  5
20E
100
AcDbSymbolTableRecord
100
AcDbTextStyleTableRecord
  2
TEXTSTYLE_1
 70
0
 40
0.0
 41
0.8
 50
0.0
 71
0
 42
0.2
  3
gdt
  4

  0
ENDTAB
  0
TABLE
  2
VIEW
  5
6
100
AcDbSymbolTable
 70
0
  0
ENDTAB
  0
TABLE
  2
UCS
  5
7
100
AcDbSymbolTable
 70
0
  0
ENDTAB
  0
TABLE
  2
APPID
  5
9
100
AcDbSymbolTable
 70
1
  0
APPID
  5
20F
100
AcDbSymbolTableRecord
100
AcDbRegAppTableRecord
  2
ACAD
 70
0
  0
ENDTAB
  0
TABLE
  2
BLOCK_RECORD
  5
1
100
AcDbSymbolTable
 70
0
  0
BLOCK_RECORD
  5
210
100
AcDbSymbolTableRecord
100
AcDbBlockTableRecord
  2
*Model_Space
  0
BLOCK_RECORD
  5
211
100
AcDbSymbolTableRecord
100
AcDbBlockTableRecord
  2
*Paper_Space
  0
BLOCK_RECORD
  5
212
100
AcDbSymbolTableRecord
100
AcDbBlockTableRecord
  2
_FILLED
  0
ENDTAB
  0
TABLE
  2
DIMSTYLE
  5
A
100
AcDbSymbolTable
 70
1
100
AcDbDimStyleTable
 71
0
  0
DIMSTYLE
105
213
100
AcDbSymbolTableRecord
100
AcDbDimStyleTableRecord
  2
STANDARD
 70
0
  3

  4

 40
1.0
 41
1.3072517664
 42
1.0
 43
0.38
 44
1.0
 45
0.0
 46
0.0
 47
0.01
 48
0.01
140
1.8301524729
141
0.09
142
0.0
143
25.4
144
1.0
145
0.0
146
1.0
147
0.625
 71
1
 72
0
 73
0
 74
0
 75
0
 76
0
 77
1
 78
8
 79
2
170
0
171
1
172
0
173
0
174
0
175
0
176
0
177
0
178
0
270
2
179
2
271
2
272
2
273
2
274
2
275
0
280
0
281
0
282
0
283
1
284
8
285
0
286
0
287
3
288
0
340
11
278
46
341
212
342
212
343
212
344
212
  0
ENDTAB
  0
ENDSEC
  0
SECTION
  2
BLOCKS
  0
BLOCK
  5
20
100
AcDbEntity
  8
0
100
AcDbBlockBegin
  2
*Model_Space
 70
0
 10
0.0
 20
0.0
 30
0.0
  3
*Model_Space
  1

  0
ENDBLK
  5
21
100
AcDbEntity
  8
0
100
AcDbBlockEnd
  0
BLOCK
  5
1C
100
AcDbEntity
  8
0
100
AcDbBlockBegin
  2
*Paper_Space
 70
0
 10
0.0
 20
0.0
 30
0.0
  3
*Paper_Space
  1

  0
ENDBLK
  5
1D
100
AcDbEntity
  8
0
100
AcDbBlockEnd
  0
BLOCK
  5
214
100
AcDbEntity
  8
0
100
AcDbBlockBegin
  2
_FILLED
 70
64
 10
0.0
 20
0.0
  3
_FILLED
  1

  0
SOLID
  5
215
100
AcDbEntity
  8
0
  6
BYBLOCK
 62
0
100
AcDbTrace
 10
0.0
 20
0.0
 11
-1.0
 21
0.25
 12
-1.0
 22
-0.25
 13
-1.0
 23
-0.25
  0
ENDBLK
  5
216
100
AcDbEntity
  8
0
  6
BYBLOCK
 62
0
100
AcDbBlockEnd
  0
ENDSEC
  0
SECTION
  2
ENTITIES
  0
LINE
  5
217
100
AcDbEntity
  8
0
100
AcDbLine
 62
7
  6
BYLAYER
 10
12.420011825
 20
73.6387302009
 11
12.420011825
 21
83.6386701007
  0
LINE
  5
218
100
AcDbEntity
  8
0
100
AcDbLine
 62
7
  6
BYLAYER
 10
13.420011825
 20
73.4387001508
 11
13.420011825
 21
83.8387001508
  0
LINE
  5
219
100
AcDbEntity
  8
0
100
AcDbLine
 62
7
  6
BYLAYER
 10
14.120011825
 20
83.8387001508
 11
14.120011825
 21
73.4387001508
  0
LINE
  5
21A
100
AcDbEntity
  8
0
100
AcDbLine
 62
7
  6
BYLAYER
 10
14.4664219865
 20
73.6387001508
 11
14.4664219865
 21
83.6387001508
  0
LINE
  5
21B
100
AcDbEntity
  8
0
100
AcDbLine
 62
7
  6
BYLAYER
 10
15.620011825
 20
83.6387001508
 11
15.620011825
 21
73.6387001508
  0
LINE
  5
21C
100
AcDbEntity
  8
0
100
AcDbLine
 62
7
  6
BYLAYER
 10
16.620011825
 20
72.6387001508
 11
16.620011825
 21
84.6387001508
  0
LINE
  5
21D
100
AcDbEntity
  8
0
100
AcDbLine
 62
7
  6
BYLAYER
 10
22.420011825
 20
84.6387001508
 11
22.420011825
 21
72.6387001508
  0
LINE
  5
21E
100
AcDbEntity
  8
0
100
AcDbLine
 62
7
  6
BYLAYER
 10
23.420011825
 20
70.9446056819
 11
23.420011825
 21
86.3327946197
  0
LINE
  5
21F
100
AcDbEntity
  8
0
100
AcDbLine
 62
7
  6
BYLAYER
 10
23.720011825
 20
70.6446056819
 11
23.720011825
 21
86.6327946197
  0
LINE
  5
220
100
AcDbEntity
  8
0
100
AcDbLine
 62
7
  6
BYLAYER
 10
23.5078797907
 20
86.5449266541
 11
23.420011825
 21
86.3327946197
  0
LINE
  5
221
100
AcDbEntity
  8
0
100
AcDbLine
 62
7
  6
BYLAYER
 10
15.620011825
 20
83.6387001508
 11
16.620011825
 21
84.6387001508
  0
LINE
  5
222
100
AcDbEntity
  8
0
100
AcDbLine
 62
7
  6
BYLAYER
 10
23.5078797907
 20
70.7324736476
 11
23.420011825
 21
70.9446056819
  0
LINE
  5
223
100
AcDbEntity
  8
0
100
AcDbLine
 62
7
  6
BYLAYER
 10
26.920011825
 20
77.162924467
 11
26.920011825
 21
63.1677219174
  0
LINE
  5
224
100
AcDbEntity
  8
0
100
AcDbLine
 62
7
  6
BYLAYER
 10
27.170011825
 20
63.4228710403
 11
27.170011825
 21
76.9182449274
  0
LINE
  5
225
100
AcDbEntity
  8
0
100
AcDbLine
 62
7
  6
BYLAYER
 10
24.2651491282
 20
60.8978157922
 11
24.5754971689
 21
79.1535147629
  0
LINE
  5
226
100
AcDbEntity
  8
0
100
AcDbLine
 62
7
  6
BYLAYER
 10
25.5751921222
 20
79.162239125
 11
25.2638763346
 21
60.8496099767
  0
LINE
  5
227
100
AcDbEntity
  8
0
100
AcDbLine
 62
7
  6
BYLAYER
 10
24.0893791112
 20
70.340318106
 11
23.9249673128
 21
60.9225562879
  0
LINE
  5
228
100
AcDbEntity
  8
0
100
AcDbLine
 62
7
  6
BYLAYER
 10
24.5662525043
 20
97.6561309659
 11
24.3789723842
 21
86.9284917172
  0
LINE
  5
229
100
AcDbEntity
  8
0
100
AcDbLine
 62
7
  6
BYLAYER
 10
15.620011825
 20
73.6387001508
 11
16.620011825
 21
72.6387001508
  0
LINE
  5
22A
100
AcDbEntity
  8
0
100
AcDbLine
 62
7
  6
BYLAYER
 10
23.720011825
 20
86.6327946197
 11
23.5078797907
 21
86.5449266541
  0
LINE
  5
22B
100
AcDbEntity
  8
0
100
AcDbLine
 62
7
  6
BYLAYER
 10
78.5925205094
 20
56.662517701
 11
24.2032066002
 21
60.6181041672
  0
LINE
  5
22C
100
AcDbEntity
  8
0
100
AcDbLine
 62
7
  6
BYLAYER
 10
23.9249673128
 20
60.9225562879
 11
24.2651491282
 21
60.8978157922
  0
LINE
  5
22D
100
AcDbEntity
  8
0
100
AcDbLine
 62
7
  6
BYLAYER
 10
25.2638763346
 20
60.8496099767
 11
77.5718566681
 21
57.0453932252
  0
LINE
  5
22E
100
AcDbEntity
  8
0
100
AcDbLine
 62
7
  6
BYLAYER
 10
78.5723148345
 20
56.9918268134
 11
78.914281218
 21
56.966956531
  0
LINE
  5
22F
100
AcDbEntity
  8
0
100
AcDbLine
 62
7
  6
BYLAYER
 10
14.4664219865
 20
73.6387001508
 11
14.120011825
 21
73.4387001508
  0
LINE
  5
230
100
AcDbEntity
  8
0
100
AcDbLine
 62
7
  6
BYLAYER
 10
82.6028867452
 20
65.3829965766
 11
82.2664219865
 21
65.3387001508
  0
LINE
  5
231
100
AcDbEntity
  8
0
100
AcDbLine
 62
7
  6
BYLAYER
 10
23.720011825
 20
70.6446056819
 11
23.5078797907
 21
70.7324736476
  0
LINE
  5
232
100
AcDbEntity
  8
0
100
AcDbLine
 62
7
  6
BYLAYER
 10
27.920011825
 20
62.1680645924
 11
74.920011825
 21
62.1680645924
  0
LINE
  5
233
100
AcDbEntity
  8
0
100
AcDbLine
 62
7
  6
BYLAYER
 10
74.670011825
 20
62.4232137153
 11
28.170011825
 21
62.4232137153
  0
LINE
  5
234
100
AcDbEntity
  8
0
100
AcDbLine
 62
7
  6
BYLAYER
 10
12.420011825
 20
73.6385198685
 11
13.420011825
 21
73.4387001508
  0
LINE
  5
235
100
AcDbEntity
  8
0
100
AcDbLine
 62
7
  6
BYLAYER
 10
14.4664219865
 20
83.6387001508
 11
14.120011825
 21
83.8387001508
  0
LINE
  5
236
100
AcDbEntity
  8
0
100
AcDbLine
 62
7
  6
BYLAYER
 10
82.2664219865
 20
65.3387001508
 11
78.7681296865
 21
65.3387001508
  0
LINE
  5
237
100
AcDbEntity
  8
0
100
AcDbLine
 62
7
  6
BYLAYER
 10
84.520011825
 20
66.6387001508
 11
84.4759342766
 21
66.6387001508
  0
LINE
  5
238
100
AcDbEntity
  8
0
100
AcDbLine
 62
7
  6
BYLAYER
 10
49.5400269081
 20
77.9179017023
 11
49.5400269081
 21
78.1625817727
  0
LINE
  5
239
100
AcDbEntity
  8
0
100
AcDbLine
 62
7
  6
BYLAYER
 10
84.520011825
 20
69.6387001508
 11
91.0013366649
 21
69.6387001508
  0
LINE
  5
23A
100
AcDbEntity
  8
0
100
AcDbLine
 62
7
  6
BYLAYER
 10
98.790011825
 20
70.1387001508
 11
91.290011825
 21
70.1387001508
  0
LINE
  5
23B
100
AcDbEntity
  8
0
100
AcDbLine
 62
7
  6
BYLAYER
 10
23.7897522107
 20
70.6446056819
 11
23.720011825
 21
70.6446056819
  0
LINE
  5
23C
100
AcDbEntity
  8
0
100
AcDbLine
 62
7
  6
BYLAYER
 10
90.4239864213
 20
71.3085731319
 11
85.8673620942
 21
71.3085731319
  0
LINE
  5
23D
100
AcDbEntity
  8
0
100
AcDbLine
 62
7
  6
BYLAYER
 10
22.420011825
 20
72.6387001508
 11
16.620011825
 21
72.6387001508
  0
LINE
  5
23E
100
AcDbEntity
  8
0
100
AcDbLine
 62
7
  6
BYLAYER
 10
14.120011825
 20
73.4387001508
 11
13.420011825
 21
73.4387001508
  0
LINE
  5
23F
100
AcDbEntity
  8
0
100
AcDbLine
 62
7
  6
BYLAYER
 10
15.620011825
 20
73.6387001508
 11
14.4664219866
 21
73.6387001508
  0
LINE
  5
240
100
AcDbEntity
  8
0
100
AcDbLine
 62
7
  6
BYLAYER
 10
65.5400269081
 20
77.9179017023
 11
74.670011825
 21
77.9179022524
  0
LINE
  5
241
100
AcDbEntity
  8
0
100
AcDbLine
 62
7
  6
BYLAYER
 10
28.170011825
 20
77.9179022524
 11
49.5400269081
 21
77.9179017023
  0
LINE
  5
242
100
AcDbEntity
  8
0
100
AcDbLine
 62
7
  6
BYLAYER
 10
74.920011825
 20
78.162581792
 11
65.5400269081
 21
78.162581792
  0
LINE
  5
243
100
AcDbEntity
  8
0
100
AcDbLine
 62
7
  6
BYLAYER
 10
49.5400269081
 20
78.162581792
 11
27.920011825
 21
78.162581792
  0
LINE
  5
244
100
AcDbEntity
  8
0
100
AcDbLine
 62
7
  6
BYLAYER
 10
77.195843893
 20
79.1622393099
 11
25.5751921222
 21
79.162239125
  0
LINE
  5
245
100
AcDbEntity
  8
0
100
AcDbLine
 62
7
  6
BYLAYER
 10
85.8673620942
 20
79.9688271697
 11
90.4239864213
 21
79.9688271697
  0
LINE
  5
246
100
AcDbEntity
  8
0
100
AcDbLine
 62
7
  6
BYLAYER
 10
90.4239864213
 20
83.3085731319
 11
85.8673620942
 21
83.3085731319
  0
LINE
  5
247
100
AcDbEntity
  8
0
100
AcDbLine
 62
7
  6
BYLAYER
 10
15.620011825
 20
83.6387001508
 11
14.4664219866
 21
83.6387001508
  0
LINE
  5
248
100
AcDbEntity
  8
0
100
AcDbLine
 62
7
  6
BYLAYER
 10
14.120011825
 20
83.8387001508
 11
13.420011825
 21
83.8387001508
  0
LINE
  5
249
100
AcDbEntity
  8
0
100
AcDbLine
 62
7
  6
BYLAYER
 10
65.5400269081
 20
77.9179010564
 11
65.5400269081
 21
78.1625817342
  0
LINE
  5
24A
100
AcDbEntity
  8
0
100
AcDbLine
 62
7
  6
BYLAYER
 10
22.420011825
 20
84.6387001508
 11
16.620011825
 21
84.6387001508
  0
LINE
  5
24B
100
AcDbEntity
  8
0
100
AcDbLine
 62
7
  6
BYLAYER
 10
24.07843874
 20
86.6327946197
 11
23.720011825
 21
86.6327946197
  0
LINE
  5
24C
100
AcDbEntity
  8
0
100
AcDbLine
 62
7
  6
BYLAYER
 10
24.07843874
 20
86.6327946197
 11
24.0782396162
 21
86.6327873374
  0
LINE
  5
24D
100
AcDbEntity
  8
0
100
AcDbLine
 62
7
  6
BYLAYER
 10
12.420011825
 20
83.6388804331
 11
13.420011825
 21
83.8387001508
  0
LINE
  5
24E
100
AcDbEntity
  8
0
100
AcDbLine
 62
7
  6
BYLAYER
 10
85.8673620942
 20
91.9688271697
 11
90.4239864213
 21
91.9688271697
  0
LINE
  5
24F
100
AcDbEntity
  8
0
100
AcDbLine
 62
7
  6
BYLAYER
 10
98.790011825
 20
93.1387001508
 11
91.290011825
 21
93.1387001508
  0
LINE
  5
250
100
AcDbEntity
  8
0
100
AcDbLine
 62
7
  6
BYLAYER
 10
91.0013366521
 20
93.6387001508
 11
84.520011825
 21
93.6387001508
  0
LINE
  5
251
100
AcDbEntity
  8
0
100
AcDbLine
 62
7
  6
BYLAYER
 10
84.520011825
 20
96.6387001508
 11
84.4759342766
 21
96.6387001508
  0
LINE
  5
252
100
AcDbEntity
  8
0
100
AcDbLine
 62
7
  6
BYLAYER
 10
78.768130492
 20
65.338654011
 11
78.9142812181
 21
56.966956531
  0
LINE
  5
253
100
AcDbEntity
  8
0
100
AcDbLine
 62
7
  6
BYLAYER
 10
77.5718566681
 20
57.0453932252
 11
77.195843893
 21
79.1622393099
  0
LINE
  5
254
100
AcDbEntity
  8
0
100
AcDbLine
 62
7
  6
BYLAYER
 10
78.1955394495
 20
79.1535141047
 11
78.5723148345
 21
56.9918268134
  0
LWPOLYLINE
  5
255
100
AcDbEntity
  8
0
100
AcDbPolyline
 62
7
  6
BYLAYER
 90
3
 70
0
 10
78.0710921806
 20
90.1121937864
 10
78.113082439
 20
84.9366236284
 10
78.1955394495
 20
79.1535141047
  0
LINE
  5
256
100
AcDbEntity
  8
0
100
AcDbLine
 62
7
  6
BYLAYER
 10
75.670011825
 20
76.9182449274
 11
75.670011825
 21
63.4228710403
  0
LINE
  5
257
100
AcDbEntity
  8
0
100
AcDbLine
 62
7
  6
BYLAYER
 10
75.920011825
 20
63.1677219174
 11
75.920011825
 21
77.162924467
  0
LINE
  5
258
100
AcDbEntity
  8
0
100
AcDbLine
 62
7
  6
BYLAYER
 10
78.120011825
 20
87.1430030477
 11
78.120011825
 21
96.9890263349
  0
LWPOLYLINE
  5
259
100
AcDbEntity
  8
0
100
AcDbPolyline
 62
7
  6
BYLAYER
 90
3
 70
0
 10
78.1200118202
 20
96.7930844264
 10
78.0734462882
 20
94.1935961799
 10
78.0710921806
 20
90.1121937864
  0
LINE
  5
25A
100
AcDbEntity
  8
0
100
AcDbLine
 62
7
  6
BYLAYER
 10
82.9164219865
 20
65.5128671259
 11
82.6028867452
 21
65.3829965766
  0
LINE
  5
25B
100
AcDbEntity
  8
0
100
AcDbLine
 62
7
  6
BYLAYER
 10
82.2664219865
 20
97.9387001508
 11
78.1990077634
 21
97.9387001508
  0
LINE
  5
25C
100
AcDbEntity
  8
0
100
AcDbLine
 62
7
  6
BYLAYER
 10
25.5662533766
 20
98.6387001508
 11
77.2449214014
 21
98.6387001508
  0
LINE
  5
25D
100
AcDbEntity
  8
0
100
AcDbLine
 62
7
  6
BYLAYER
 10
84.120011825
 20
66.2077600431
 11
82.9164219865
 21
65.5128671259
  0
LINE
  5
25E
100
AcDbEntity
  8
0
100
AcDbLine
 62
7
  6
BYLAYER
 10
82.6028867452
 20
97.894403725
 11
82.2664219865
 21
97.9387001508
  0
LINE
  5
25F
100
AcDbEntity
  8
0
100
AcDbLine
 62
7
  6
BYLAYER
 10
82.2664219865
 20
97.9387001508
 11
82.2664219865
 21
65.3387001508
  0
LINE
  5
260
100
AcDbEntity
  8
0
100
AcDbLine
 62
7
  6
BYLAYER
 10
82.9164219865
 20
65.5128671259
 11
82.9164219865
 21
97.7645331757
  0
LINE
  5
261
100
AcDbEntity
  8
0
100
AcDbLine
 62
7
  6
BYLAYER
 10
84.120011825
 20
97.0696402585
 11
84.120011825
 21
66.2077600431
  0
LINE
  5
262
100
AcDbEntity
  8
0
100
AcDbLine
 62
7
  6
BYLAYER
 10
84.4759342766
 20
66.6387001508
 11
84.4759342766
 21
96.6387001508
  0
LINE
  5
263
100
AcDbEntity
  8
0
100
AcDbLine
 62
7
  6
BYLAYER
 10
84.520011825
 20
96.6384517643
 11
84.520011825
 21
66.6389485373
  0
LINE
  5
264
100
AcDbEntity
  8
0
100
AcDbLine
 62
7
  6
BYLAYER
 10
84.4759342766
 20
66.6387001508
 11
84.120011825
 21
66.2077600431
  0
LINE
  5
265
100
AcDbEntity
  8
0
100
AcDbLine
 62
7
  6
BYLAYER
 10
82.9164219865
 20
97.7645331757
 11
82.6028867452
 21
97.894403725
  0
LINE
  5
266
100
AcDbEntity
  8
0
100
AcDbLine
 62
7
  6
BYLAYER
 10
85.290011825
 20
93.6387001508
 11
85.290011825
 21
69.6387001508
  0
LINE
  5
267
100
AcDbEntity
  8
0
100
AcDbLine
 62
7
  6
BYLAYER
 10
85.8673620942
 20
69.6387001508
 11
85.8673620942
 21
71.3085731319
  0
LINE
  5
268
100
AcDbEntity
  8
0
100
AcDbLine
 62
7
  6
BYLAYER
 10
85.8673620942
 20
79.9688271697
 11
85.8673620942
 21
83.3085731319
  0
LINE
  5
269
100
AcDbEntity
  8
0
100
AcDbLine
 62
7
  6
BYLAYER
 10
85.8673620942
 20
91.9688271697
 11
85.8673620942
 21
93.6387001508
  0
LINE
  5
26A
100
AcDbEntity
  8
0
100
AcDbLine
 62
7
  6
BYLAYER
 10
84.120011825
 20
97.0696402585
 11
82.9164219865
 21
97.7645331757
  0
LINE
  5
26B
100
AcDbEntity
  8
0
100
AcDbLine
 62
7
  6
BYLAYER
 10
90.4239864213
 20
93.6387001508
 11
90.4239864213
 21
91.9688271697
  0
LINE
  5
26C
100
AcDbEntity
  8
0
100
AcDbLine
 62
7
  6
BYLAYER
 10
90.4239864213
 20
83.3085731319
 11
90.4239864213
 21
79.9688271697
  0
LINE
  5
26D
100
AcDbEntity
  8
0
100
AcDbLine
 62
7
  6
BYLAYER
 10
90.4239864213
 20
71.3085731319
 11
90.4239864213
 21
69.6387001508
  0
LINE
  5
26E
100
AcDbEntity
  8
0
100
AcDbLine
 62
7
  6
BYLAYER
 10
91.290011825
 20
70.1387001508
 11
91.290011825
 21
93.1387001508
  0
LINE
  5
26F
100
AcDbEntity
  8
0
100
AcDbLine
 62
7
  6
BYLAYER
 10
91.0013366841
 20
69.6387001398
 11
91.290011825
 21
70.1387001508
  0
LINE
  5
270
100
AcDbEntity
  8
0
100
AcDbLine
 62
7
  6
BYLAYER
 10
98.790011825
 20
70.1387001508
 11
99.290011825
 21
70.6387001508
  0
LINE
  5
271
100
AcDbEntity
  8
0
100
AcDbLine
 62
7
  6
BYLAYER
 10
84.4759342766
 20
96.6387001508
 11
84.120011825
 21
97.0696402585
  0
LINE
  5
272
100
AcDbEntity
  8
0
100
AcDbLine
 62
7
  6
BYLAYER
 10
91.0013366713
 20
93.638700184
 11
91.290011825
 21
93.1387001508
  0
LINE
  5
273
100
AcDbEntity
  8
0
100
AcDbLine
 62
7
  6
BYLAYER
 10
98.790011825
 20
93.1387001508
 11
99.290011825
 21
92.6387001508
  0
LINE
  5
274
100
AcDbEntity
  8
0
100
AcDbLine
 62
7
  6
BYLAYER
 10
98.790011825
 20
93.1387001508
 11
98.790011825
 21
70.1387001508
  0
LINE
  5
275
100
AcDbEntity
  8
0
100
AcDbLine
 62
7
  6
BYLAYER
 10
99.290011825
 20
92.6387001508
 11
99.290011825
 21
70.6387001508
  0
ARC
  5
276
100
AcDbEntity
  8
0
100
AcDbCircle
 62
7
  6
BYLAYER
 10
972.0271522495
 20
97.285028176
 40
893.9646728901
100
AcDbArc
 50
180.6500343014
 51
181.0028725
  0
ARC
  5
277
100
AcDbEntity
  8
0
100
AcDbCircle
 62
7
  6
BYLAYER
 10
-415.2182690294
 20
86.3173235771
 40
439.6644490695
100
AcDbArc
 50
358.4174589503
 51
359.5456929871
  0
ARC
  5
278
100
AcDbEntity
  8
0
100
AcDbCircle
 62
7
  6
BYLAYER
 10
31.220011825
 20
118.4855980681
 40
20.003733575
100
AcDbArc
 50
262.8205915223
 51
277.1794084777
  0
ARC
  5
279
100
AcDbEntity
  8
0
100
AcDbCircle
 62
7
  6
BYLAYER
 10
25.569355382
 20
97.6378902721
 40
1.0010967852
100
AcDbArc
 50
90.1775955009
 51
178.9580987707
  0
ARC
  5
27A
100
AcDbEntity
  8
0
100
AcDbCircle
 62
7
  6
BYLAYER
 10
77.2449132296
 20
97.6384793454
 40
1.0002183828
100
AcDbArc
 50
17.4670785423
 51
89.9989181729
  0
ARC
  5
27B
100
AcDbEntity
  8
0
100
AcDbCircle
 62
7
  6
BYLAYER
 10
22.420011825
 20
85.6387001508
 40
1.0
100
AcDbArc
 50
270.0
 51
360.0
  0
ARC
  5
27C
100
AcDbEntity
  8
0
100
AcDbCircle
 62
7
  6
BYLAYER
 10
22.420011825
 20
71.6387001508
 40
1.0
100
AcDbArc
 50
0.0
 51
90.0
  0
ARC
  5
27D
100
AcDbEntity
  8
0
100
AcDbCircle
 62
7
  6
BYLAYER
 10
74.6701193453
 20
76.9179847531
 40
0.9999096411
100
AcDbArc
 50
0.014839961
 51
90.0061609784
  0
ARC
  5
27E
100
AcDbEntity
  8
0
100
AcDbCircle
 62
7
  6
BYLAYER
 10
28.1699043095
 20
76.9179847581
 40
0.999909641
100
AcDbArc
 50
89.9938392963
 51
179.9851603275
  0
ARC
  5
27F
100
AcDbEntity
  8
0
100
AcDbCircle
 62
7
  6
BYLAYER
 10
74.6701193452
 20
63.4231288225
 40
0.9999096412
100
AcDbArc
 50
269.9938390303
 51
359.9851600428
  0
ARC
  5
280
100
AcDbEntity
  8
0
100
AcDbCircle
 62
7
  6
BYLAYER
 10
28.1699043096
 20
63.4231288178
 40
0.9999096412
100
AcDbArc
 50
180.0148396866
 51
270.0061606987
  0
ARC
  5
281
100
AcDbEntity
  8
0
100
AcDbCircle
 62
7
  6
BYLAYER
 10
27.9198048672
 20
63.1678933813
 40
0.9997894826
100
AcDbArc
 50
180.0098261944
 51
270.0118598427
  0
ARC
  5
282
100
AcDbEntity
  8
0
100
AcDbCircle
 62
7
  6
BYLAYER
 10
74.9202186698
 20
63.167893268
 40
0.9997894824
100
AcDbArc
 50
269.9881466376
 51
359.9901802994
  0
ARC
  5
283
100
AcDbEntity
  8
0
100
AcDbCircle
 62
7
  6
BYLAYER
 10
27.9198048657
 20
77.1627530018
 40
0.999789482
100
AcDbArc
 50
89.9881400768
 51
179.9901737351
  0
ARC
  5
284
100
AcDbEntity
  8
0
100
AcDbCircle
 62
7
  6
BYLAYER
 10
74.9202186713
 20
77.1627531151
 40
0.9997894819
100
AcDbArc
 50
0.0098197747
 51
90.0118534448
  0
ARC
  5
285
100
AcDbEntity
  8
0
100
AcDbCircle
 62
7
  6
BYLAYER
 10
24.2249477545
 20
60.9173428449
 40
0.3000262909
100
AcDbArc
 50
179.0043378109
 51
265.8444825169
  0
ARC
  5
286
100
AcDbEntity
  8
0
100
AcDbCircle
 62
7
  6
BYLAYER
 10
78.6143088067
 20
56.9617453345
 40
0.3000183421
100
AcDbArc
 50
265.8353507019
 51
0.9952508108
  0
ARC
  5
287
100
AcDbEntity
  8
0
100
AcDbCircle
 62
7
  6
BYLAYER
 10
78.2723770304
 20
56.9865731132
 40
0.2999818873
100
AcDbArc
 50
265.8456452168
 51
1.0034882721
  0
ARC
  5
288
100
AcDbEntity
  8
0
100
AcDbCircle
 62
7
  6
BYLAYER
 10
24.5650783297
 20
60.8925509493
 40
0.2999739321
100
AcDbArc
 50
178.9943550027
 51
265.8360121186
  0
SPLINE
  5
289
100
AcDbEntity
  8
0
100
AcDbSpline
 62
7
  6
BYLAYER
 70
0
 71
3
 72
10
 73
6
 74
0
 42
0.0000001
 43
0.0000001
 44
0.0000000001
 40
0.0
 40
0.0
 40
0.0
 40
0.0
 40
0.249387859
 40
0.4990804774
 40
1.0
 40
1.0
 40
1.0
 40
1.0
 10
85.290011825
 20
87.6387001508
 30
0.0
 10
85.290011825
 20
88.0026774209
 30
0.0
 10
85.3160254337
 20
88.7313536266
 30
0.0
 10
85.4676274166
 20
90.1837523149
 30
0.0
 10
85.6857790022
 20
91.2606531107
 30
0.0
 10
85.8673620942
 20
91.9688271697
 30
0.0
  0
SPLINE
  5
28A
100
AcDbEntity
  8
0
100
AcDbSpline
 62
7
  6
BYLAYER
 70
0
 71
3
 72
10
 73
6
 74
0
 42
0.0000001
 43
0.0000001
 44
0.0000000001
 40
0.0
 40
0.0
 40
0.0
 40
0.0
 40
0.5009210754
 40
0.7506125194
 40
1.0
 40
1.0
 40
1.0
 40
1.0
 10
85.8673620942
 20
71.3085731319
 30
0.0
 10
85.6857773185
 20
72.0167537571
 30
0.0
 10
85.4673524257
 20
73.0936084171
 30
0.0
 10
85.3158832636
 20
74.5460411384
 30
0.0
 10
85.290011825
 20
75.2747211865
 30
0.0
 10
85.290011825
 20
75.6387001508
 30
0.0
  0
SPLINE
  5
28B
100
AcDbEntity
  8
0
100
AcDbSpline
 62
7
  6
BYLAYER
 70
0
 71
3
 72
10
 73
6
 74
0
 42
0.0000001
 43
0.0000001
 44
0.0000000001
 40
0.0
 40
0.0
 40
0.0
 40
0.0
 40
0.249387859
 40
0.4990804774
 40
1.0
 40
1.0
 40
1.0
 40
1.0
 10
85.290011825
 20
75.6387001508
 30
0.0
 10
85.290011825
 20
76.0026774209
 30
0.0
 10
85.3160254337
 20
76.7313536266
 30
0.0
 10
85.4676274166
 20
78.1837523149
 30
0.0
 10
85.6857790022
 20
79.2606531107
 30
0.0
 10
85.8673620942
 20
79.9688271697
 30
0.0
  0
SPLINE
  5
28C
100
AcDbEntity
  8
0
100
AcDbSpline
 62
7
  6
BYLAYER
 70
0
 71
3
 72
10
 73
6
 74
0
 42
0.0000001
 43
0.0000001
 44
0.0000000001
 40
0.0
 40
0.0
 40
0.0
 40
0.0
 40
0.5009210754
 40
0.7506125194
 40
1.0
 40
1.0
 40
1.0
 40
1.0
 10
85.8673620942
 20
83.3085731319
 30
0.0
 10
85.6857773185
 20
84.0167537571
 30
0.0
 10
85.4673524257
 20
85.0936084171
 30
0.0
 10
85.3158832636
 20
86.5460411384
 30
0.0
 10
85.290011825
 20
87.2747211865
 30
0.0
 10
85.290011825
 20
87.6387001508
 30
0.0
  0
SPLINE
  5
28D
100
AcDbEntity
  8
0
100
AcDbSpline
 62
7
  6
BYLAYER
 70
0
 71
3
 72
13
 73
9
 74
0
 42
0.0000001
 43
0.0000001
 44
0.0000000001
 40
0.0
 40
0.0
 40
0.0
 40
0.0
 40
0.2504607073
 40
0.3753016912
 40
0.4999999975
 40
0.6246982985
 40
0.7495393908
 40
1.0
 40
1.0
 40
1.0
 40
1.0
 10
90.4239864213
 20
79.9688271697
 30
0.0
 10
90.6055725573
 20
79.260641239
 30
0.0
 10
90.8242820054
 20
78.1838723388
 30
0.0
 10
90.9756402852
 20
76.7313453288
 30
0.0
 10
91.0141558108
 20
75.6387002146
 30
0.0
 10
90.9756496016
 20
74.5460539369
 30
0.0
 10
90.8242734639
 20
73.0935287565
 30
0.0
 10
90.6055724862
 20
72.0167587851
 30
0.0
 10
90.4239864213
 20
71.3085731319
 30
0.0
  0
SPLINE
  5
28E
100
AcDbEntity
  8
0
100
AcDbSpline
 62
7
  6
BYLAYER
 70
0
 71
3
 72
13
 73
9
 74
0
 42
0.0000001
 43
0.0000001
 44
0.0000000001
 40
0.0
 40
0.0
 40
0.0
 40
0.0
 40
0.2504607073
 40
0.3753016912
 40
0.4999999975
 40
0.6246982985
 40
0.7495393908
 40
1.0
 40
1.0
 40
1.0
 40
1.0
 10
90.4239864213
 20
91.9688271697
 30
0.0
 10
90.6055725573
 20
91.260641239
 30
0.0
 10
90.8242820054
 20
90.1838723388
 30
0.0
 10
90.9756402852
 20
88.7313453288
 30
0.0
 10
91.0141558108
 20
87.6387002146
 30
0.0
 10
90.9756496016
 20
86.5460539369
 30
0.0
 10
90.8242734639
 20
85.0935287565
 30
0.0
 10
90.6055724862
 20
84.0167587851
 30
0.0
 10
90.4239864213
 20
83.3085731319
 30
0.0
  0
SPLINE
  5
28F
100
AcDbEntity
  8
0
100
AcDbSpline
 62
7
  6
BYLAYER
 70
0
 71
3
 72
8
 73
4
 74
0
 42
0.0000001
 43
0.0000001
 44
0.0000000001
 40
0.0
 40
0.0
 40
0.0
 40
0.0
 40
1.0
 40
1.0
 40
1.0
 40
1.0
 10
23.9203753316
 20
70.615372348
 30
0.0
 10
23.8804109033
 20
70.6361048669
 30
0.0
 10
23.8344282859
 20
70.6478536343
 30
0.0
 10
23.7894094736
 20
70.6484008182
 30
0.0
  0
SPLINE
  5
290
100
AcDbEntity
  8
0
100
AcDbSpline
 62
7
  6
BYLAYER
 70
0
 71
3
 72
9
 73
5
 74
0
 42
0.0000001
 43
0.0000001
 44
0.0000000001
 40
0.0
 40
0.0
 40
0.0
 40
0.0
 40
0.4998905809
 40
1.0
 40
1.0
 40
1.0
 40
1.0
 10
24.0833521567
 20
70.3404429663
 30
0.0
 10
24.0848644728
 20
70.3958591677
 30
0.0
 10
24.0559893188
 20
70.5100651259
 30
0.0
 10
23.9696045739
 20
70.5898299219
 30
0.0
 10
23.9203753316
 20
70.615372348
 30
0.0
  0
SPLINE
  5
291
100
AcDbEntity
  8
0
100
AcDbSpline
 62
7
  6
BYLAYER
 70
0
 71
3
 72
11
 73
7
 74
0
 42
0.0000001
 43
0.0000001
 44
0.0000000001
 40
0.0
 40
0.0
 40
0.0
 40
0.0
 40
0.2499803301
 40
0.4999833492
 40
0.7500084654
 40
1.0
 40
1.0
 40
1.0
 40
1.0
 10
24.0775106354
 20
86.6322753284
 30
0.0
 10
24.1165703313
 20
86.6314047997
 30
0.0
 10
24.1958548013
 20
86.6461963405
 30
0.0
 10
24.2964544437
 20
86.7117216219
 30
0.0
 10
24.3649568949
 20
86.8105087364
 30
0.0
 10
24.3814249902
 20
86.8893770959
 30
0.0
 10
24.3819003128
 20
86.9284453511
 30
0.0
  0
SPLINE
  5
292
100
AcDbEntity
  8
0
100
AcDbSpline
 62
7
  6
BYLAYER
 70
0
 71
3
 72
29
 73
25
 74
0
 42
0.0000001
 43
0.0000001
 44
0.0000000001
 40
0.0
 40
0.0
 40
0.0
 40
0.0
 40
0.1964873237
 40
0.2920546599
 40
0.3846487476
 40
0.4734125362
 40
0.5575087694
 40
0.636155841
 40
0.7086230843
 40
0.7742312726
 40
0.8323733811
 40
0.8825065545
 40
0.9044194846
 40
0.9241612536
 40
0.9416904697
 40
0.956966262
 40
0.9699516949
 40
0.9806150508
 40
0.9889267036
 40
0.9948759149
 40
0.996974948
 40
0.9985016072
 40
0.9994788637
 40
1.0
 40
1.0
 40
1.0
 40
1.0
 10
24.5754971689
 20
79.1535147629
 30
0.0
 10
24.5960831748
 20
80.3659063539
 30
0.0
 10
24.6237719561
 20
82.1680316573
 30
0.0
 10
24.6538829753
 20
84.5415933725
 30
0.0
 10
24.6723854898
 20
86.2504605164
 30
0.0
 10
24.6868529534
 20
87.8885733115
 30
0.0
 10
24.6971450625
 20
89.4406459932
 30
0.0
 10
24.7031785409
 20
90.8921710212
 30
0.0
 10
24.7049110085
 20
92.2296140566
 30
0.0
 10
24.7023438424
 20
93.4405158549
 30
0.0
 10
24.6955245252
 20
94.5135705934
 30
0.0
 10
24.6860470075
 20
95.316941465
 30
0.0
 10
24.6759754029
 20
95.8832965279
 30
0.0
 10
24.6677532147
 20
96.2484428672
 30
0.0
 10
24.658559472
 20
96.5725914858
 30
0.0
 10
24.6484264134
 20
96.85499913
 30
0.0
 10
24.6374061372
 20
97.0949546817
 30
0.0
 10
24.6255622055
 20
97.2918682721
 30
0.0
 10
24.6130496023
 20
97.4451238316
 30
0.0
 10
24.6011323421
 20
97.5455529999
 30
0.0
 10
24.5907171981
 20
97.6035877453
 30
0.0
 10
24.5831611913
 20
97.6313124348
 30
0.0
 10
24.5770048276
 20
97.6483378293
 30
0.0
 10
24.56946826
 20
97.656087743
 30
0.0
 10
24.5662525043
 20
97.6561309659
 30
0.0
  0
SPLINE
  5
293
100
AcDbEntity
  8
0
100
AcDbSpline
 62
7
  6
BYLAYER
 70
0
 71
3
 72
23
 73
19
 74
0
 42
0.0000001
 43
0.0000001
 44
0.0000000001
 40
0.0
 40
0.0
 40
0.0
 40
0.0
 40
0.2184995746
 40
0.4153787062
 40
0.587542717
 40
0.6635040876
 40
0.7322989634
 40
0.793675592
 40
0.8474043455
 40
0.893263775
 40
0.9310708825
 40
0.9606578433
 40
0.9723228046
 40
0.9819019013
 40
0.989409652
 40
0.9948687353
 40
0.9983290497
 40
1.0
 40
1.0
 40
1.0
 40
1.0
 10
24.2784818221
 20
74.1750928698
 30
0.0
 10
24.2704806755
 20
73.8952969875
 30
0.0
 10
24.2544968199
 20
73.3634123941
 30
0.0
 10
24.2291554826
 20
72.6111620969
 30
0.0
 10
24.2073789139
 20
72.0414991781
 30
0.0
 10
24.1899129375
 20
71.6358815352
 30
0.0
 10
24.1775518748
 20
71.3721025533
 30
0.0
 10
24.1654332525
 20
71.1368263851
 30
0.0
 10
24.1536127817
 20
70.9309602657
 30
0.0
 10
24.1421541455
 20
70.7553162679
 30
0.0
 10
24.1311170971
 20
70.6106592621
 30
0.0
 10
24.1217773981
 20
70.5097803732
 30
0.0
 10
24.1142742099
 20
70.4451253379
 30
0.0
 10
24.1091964942
 20
70.4085718877
 30
0.0
 10
24.1044340916
 20
70.3802591146
 30
0.0
 10
24.0995679591
 20
70.359331149
 30
0.0
 10
24.0957048033
 20
70.3471673407
 30
0.0
 10
24.0915070021
 20
70.340550849
 30
0.0
 10
24.0893791112
 20
70.340318106
 30
0.0
  0
SPLINE
  5
294
100
AcDbEntity
  8
0
100
AcDbSpline
 62
7
  6
BYLAYER
 70
0
 71
3
 72
21
 73
17
 74
0
 42
0.0000001
 43
0.0000001
 44
0.0000000001
 40
0.0
 40
0.0
 40
0.0
 40
0.0
 40
0.0010172813
 40
0.004109969
 40
0.0093548991
 40
0.016827354
 40
0.0387552185
 40
0.070494034
 40
0.1124399736
 40
0.1641727967
 40
0.2250681497
 40
0.2945016695
 40
0.4551434151
 40
0.6343914567
 40
0.8196330267
 40
1.0
 40
1.0
 40
1.0
 40
1.0
 10
25.2421156258
 20
60.5425471471
 30
0.0
 10
25.2420115159
 20
60.5425547188
 30
0.0
 10
25.2422556542
 20
60.5432141207
 30
0.0
 10
25.2420757831
 20
60.5439401418
 30
0.0
 10
25.2422998783
 20
60.5456942592
 30
0.0
 10
25.2424357033
 20
60.5491580039
 30
0.0
 10
25.242908436
 20
60.5554831421
 30
0.0
 10
25.243536559
 20
60.5652393619
 30
0.0
 10
25.2444322178
 20
60.5780914856
 30
0.0
 10
25.24552849
 20
60.5939095163
 30
0.0
 10
25.2468382292
 20
60.6125469521
 30
0.0
 10
25.2489425587
 20
60.6423289462
 30
0.0
 10
25.2519296673
 20
60.684224357
 30
0.0
 10
25.2557882406
 20
60.7379704654
 30
0.0
 10
25.2598165009
 20
60.7937338346
 30
0.0
 10
25.2625329462
 20
60.8311510441
 30
0.0
 10
25.2638763346
 20
60.8496099767
 30
0.0
  0
SPLINE
  5
295
100
AcDbEntity
  8
0
100
AcDbSpline
 62
7
  6
BYLAYER
 70
0
 71
3
 72
30
 73
26
 74
0
 42
0.0000001
 43
0.0000001
 44
0.0000000001
 40
0.0
 40
0.0
 40
0.0
 40
0.0
 40
0.0004899297
 40
0.0014631376
 40
0.0030013191
 40
0.0051209139
 40
0.0111210471
 40
0.0194746583
 40
0.0301667197
 40
0.0431737047
 40
0.058470123
 40
0.0760207232
 40
0.0957828644
 40
0.1177133519
 40
0.1417622417
 40
0.1678708883
 40
0.2260260838
 40
0.2916375675
 40
0.3640980944
 40
0.4427291033
 40
0.5268007979
 40
0.6155322912
 40
0.7080877601
 40
0.8036110424
 40
1.0
 40
1.0
 40
1.0
 40
1.0
 10
25.5662533766
 20
98.6387001508
 30
0.0
 10
25.5694356422
 20
98.6387001468
 30
0.0
 10
25.5767361026
 20
98.6299802949
 30
0.0
 10
25.582328148
 20
98.6122357919
 30
0.0
 10
25.5895734945
 20
98.5825347754
 30
0.0
 10
25.5993582052
 20
98.5208040085
 30
0.0
 10
25.6106551195
 20
98.4141668656
 30
0.0
 10
25.6225044749
 20
98.251999903
 30
0.0
 10
25.6337658084
 20
98.0440662356
 30
0.0
 10
25.6442411812
 20
97.7910024381
 30
0.0
 10
25.6538691962
 20
97.4933127295
 30
0.0
 10
25.6625962492
 20
97.1517087327
 30
0.0
 10
25.6703977562
 20
96.7669803644
 30
0.0
 10
25.6772443995
 20
96.3400201193
 30
0.0
 10
25.6831172546
 20
95.8718190746
 30
0.0
 10
25.6898697823
 20
95.1683214474
 30
0.0
 10
25.6954384855
 20
94.1948408746
 30
0.0
 10
25.6978914128
 20
92.9202764422
 30
0.0
 10
25.6962583144
 20
91.5127132519
 30
0.0
 10
25.6905451701
 20
89.9852547478
 30
0.0
 10
25.6807898061
 20
88.3521292701
 30
0.0
 10
25.6670840054
 20
86.6285851088
 30
0.0
 10
25.6495366601
 20
84.830689974
 30
0.0
 10
25.6209179148
 20
82.3336005428
 30
0.0
 10
25.5948774706
 20
80.4377025613
 30
0.0
 10
25.5751919263
 20
79.1622392174
 30
0.0
  0
SPLINE
  5
296
100
AcDbEntity
  8
0
100
AcDbSpline
 62
7
  6
BYLAYER
 70
0
 71
3
 72
21
 73
17
 74
0
 42
0.0000001
 43
0.0000001
 44
0.0000000001
 40
0.0
 40
0.0
 40
0.0
 40
0.0
 40
0.0020976096
 40
0.0065140626
 40
0.0132546883
 40
0.0223052544
 40
0.0472638145
 40
0.0812140527
 40
0.1238079325
 40
0.1746244386
 40
0.2332324245
 40
0.2990692491
 40
0.4497887105
 40
0.6212225585
 40
0.8071524833
 40
1.0
 40
1.0
 40
1.0
 40
1.0
 10
24.2651491309
 20
60.8978157904
 30
0.0
 10
24.2657343646
 20
60.8974332058
 30
0.0
 10
24.2679838406
 20
60.8971558142
 30
0.0
 10
24.2722778417
 20
60.8964804343
 30
0.0
 10
24.2790298402
 20
60.8959116174
 30
0.0
 10
24.2925483805
 20
60.894844087
 30
0.0
 10
24.3151792354
 20
60.89350491
 30
0.0
 10
24.3489580489
 20
60.8917238661
 30
0.0
 10
24.3913665365
 20
60.8897147919
 30
0.0
 10
24.4419869915
 20
60.8874535538
 30
0.0
 10
24.5003535623
 20
60.8849583302
 30
0.0
 10
24.5919930401
 20
60.8811204472
 30
0.0
 10
24.7212074674
 20
60.8756996512
 30
0.0
 10
24.8904016469
 20
60.8682396636
 30
0.0
 10
25.073598048
 20
60.8595748363
 30
0.0
 10
25.1996888946
 20
60.8530857378
 30
0.0
 10
25.2638763346
 20
60.8496099767
 30
0.0
  0
SPLINE
  5
297
100
AcDbEntity
  8
0
100
AcDbSpline
 62
7
  6
BYLAYER
 70
0
 71
3
 72
10
 73
6
 74
0
 42
0.0000001
 43
0.0000001
 44
0.0000000001
 40
0.0
 40
0.0
 40
0.0
 40
0.0
 40
0.2072771825
 40
0.4505904941
 40
1.0
 40
1.0
 40
1.0
 40
1.0
 10
23.9203691214
 20
72.6065250778
 30
0.0
 10
23.936203194
 20
73.0231244256
 30
0.0
 10
23.9651462025
 20
73.9289566927
 30
0.0
 10
24.0171594184
 20
75.9396054139
 30
0.0
 10
24.0463535617
 20
77.5337842183
 30
0.0
 10
24.062737928
 20
78.6386995003
 30
0.0
  0
SPLINE
  5
298
100
AcDbEntity
  8
0
100
AcDbSpline
 62
7
  6
BYLAYER
 70
0
 71
3
 72
16
 73
12
 74
0
 42
0.0000001
 43
0.0000001
 44
0.0000000001
 40
0.0
 40
0.0
 40
0.0
 40
0.0
 40
0.0074387554
 40
0.020732206
 40
0.0691635762
 40
0.1480385139
 40
0.2576129337
 40
0.3978287426
 40
0.5685338395
 40
0.7694024691
 40
1.0
 40
1.0
 40
1.0
 40
1.0
 10
78.1989896258
 20
97.9387001411
 30
0.0
 10
78.1966113246
 20
97.9386954451
 30
0.0
 10
78.1909027331
 20
97.9336269947
 30
0.0
 10
78.1825765908
 20
97.9135485396
 30
0.0
 10
78.172671328
 20
97.8690474667
 30
0.0
 10
78.1626008975
 20
97.7942574311
 30
0.0
 10
78.1527123907
 20
97.689494974
 30
0.0
 10
78.1434857648
 20
97.5554139606
 30
0.0
 10
78.1349090445
 20
97.3919874856
 30
0.0
 10
78.1269632074
 20
97.1996301445
 30
0.0
 10
78.122312665
 20
97.0617582716
 30
0.0
 10
78.120011825
 20
96.9880679441
 30
0.0
  0
SPLINE
  5
299
100
AcDbEntity
  8
0
100
AcDbSpline
 62
7
  6
BYLAYER
 70
0
 71
3
 72
19
 73
15
 74
0
 42
0.0000001
 43
0.0000001
 44
0.0000000001
 40
0.0
 40
0.0
 40
0.0
 40
0.0
 40
0.0055922059
 40
0.0182726162
 40
0.038797785
 40
0.0672794408
 40
0.1037242806
 40
0.1480660716
 40
0.2002162684
 40
0.2600816671
 40
0.4025134762
 40
0.57427926
 40
0.7740754021
 40
1.0
 40
1.0
 40
1.0
 40
1.0
 10
23.7895641747
 20
70.6446102131
 30
0.0
 10
23.7932340441
 20
70.6444333263
 30
0.0
 10
23.800966278
 20
70.6576275474
 30
0.0
 10
23.8067272683
 20
70.6800617682
 30
0.0
 10
23.8150360699
 20
70.7210357292
 30
0.0
 10
23.8225884129
 20
70.7761408156
 30
0.0
 10
23.830755708
 20
70.8476763248
 30
0.0
 10
23.8388725124
 20
70.9345696265
 30
0.0
 10
23.8471193434
 20
71.036993094
 30
0.0
 10
23.8588218091
 20
71.2037490251
 30
0.0
 10
23.873046079
 20
71.4491138701
 30
0.0
 10
23.8892669644
 20
71.7864230117
 30
0.0
 10
23.9053109953
 20
72.1786525518
 30
0.0
 10
23.9153231288
 20
72.4581763662
 30
0.0
 10
23.9203691214
 20
72.6065250778
 30
0.0
  0
SPLINE
  5
29A
100
AcDbEntity
  8
0
100
AcDbSpline
 62
7
  6
BYLAYER
 70
0
 71
3
 72
11
 73
7
 74
0
 42
0.0000001
 43
0.0000001
 44
0.0000000001
 40
0.0
 40
0.0
 40
0.0
 40
0.0
 40
0.2449496125
 40
0.4939823219
 40
0.746332432
 40
1.0
 40
1.0
 40
1.0
 40
1.0
 10
78.1200138277
 20
96.9890170024
 30
0.0
 10
78.1021089138
 20
97.1011763238
 30
0.0
 10
78.0224935912
 20
97.3223418912
 30
0.0
 10
77.7946307905
 20
97.5918120159
 30
0.0
 10
77.4859002995
 20
97.7706001729
 30
0.0
 10
77.2499459238
 20
97.8145766813
 30
0.0
 10
77.1323345162
 20
97.8161455233
 30
0.0
  0
SPLINE
  5
29B
100
AcDbEntity
  8
0
100
AcDbSpline
 62
7
  6
BYLAYER
 70
0
 71
3
 72
14
 73
10
 74
0
 42
0.0000001
 43
0.0000001
 44
0.0000000001
 40
0.0
 40
0.0
 40
0.0
 40
0.0
 40
0.062008391
 40
0.1472485892
 40
0.2536785495
 40
0.3787410315
 40
0.5194279588
 40
0.6723541929
 40
1.0
 40
1.0
 40
1.0
 40
1.0
 10
77.1203165802
 20
97.7303050064
 30
0.0
 10
77.1068246211
 20
97.3467270133
 30
0.0
 10
77.088334507
 20
96.4354182439
 30
0.0
 10
77.0729352925
 20
94.8652961583
 30
0.0
 10
77.0678767832
 20
92.9047932177
 30
0.0
 10
77.0731156174
 20
90.6011058716
 30
0.0
 10
77.0888606863
 20
88.0096580438
 30
0.0
 10
77.1243381959
 20
84.1643930355
 30
0.0
 10
77.1637836666
 20
81.1900248655
 30
0.0
 10
77.1958458204
 20
79.1622392174
 30
0.0
  0
SPLINE
  5
29C
100
AcDbEntity
  8
0
100
AcDbSpline
 62
7
  6
BYLAYER
 70
0
 71
3
 72
14
 73
10
 74
0
 42
0.0000001
 43
0.0000001
 44
0.0000000001
 40
0.0
 40
0.0
 40
0.0
 40
0.0
 40
0.2399290887
 40
0.3674778397
 40
0.4974568797
 40
0.6274607208
 40
0.7557791443
 40
0.8805090147
 40
1.0
 40
1.0
 40
1.0
 40
1.0
 10
77.1203156368
 20
97.7302817743
 30
0.0
 10
77.2266925008
 20
97.7299192336
 30
0.0
 10
77.3910265249
 20
97.7042721925
 30
0.0
 10
77.5952829396
 20
97.6191431825
 30
0.0
 10
77.7416889501
 20
97.5275797561
 30
0.0
 10
77.8704174287
 20
97.4118908095
 30
0.0
 10
77.9748806514
 20
97.2768692276
 30
0.0
 10
78.0527032303
 20
97.1302597315
 30
0.0
 10
78.0857485474
 20
97.0264556984
 30
0.0
 10
78.097457369
 20
96.974786999
 30
0.0
  0
SPLINE
  5
29D
100
AcDbEntity
  8
0
100
AcDbSpline
 62
7
  6
BYLAYER
 70
0
 71
3
 72
21
 73
17
 74
0
 42
0.0000001
 43
0.0000001
 44
0.0000000001
 40
0.0
 40
0.0
 40
0.0
 40
0.0
 40
0.1926190055
 40
0.3783449052
 40
0.5496238115
 40
0.7002489548
 40
0.7660607196
 40
0.8246541757
 40
0.8754698364
 40
0.9180804762
 40
0.9520710578
 40
0.9771084525
 40
0.9862223857
 40
0.9930533034
 40
0.9976118441
 40
1.0
 40
1.0
 40
1.0
 40
1.0
 10
77.1958432955
 20
79.162239117
 30
0.0
 10
77.2600773263
 20
79.1633304256
 30
0.0
 10
77.3862523189
 20
79.1651559559
 30
0.0
 10
77.5695586912
 20
79.1668649172
 30
0.0
 10
77.7388659894
 20
79.1674562625
 30
0.0
 10
77.8681800844
 20
79.1670015751
 30
0.0
 10
77.9599042294
 20
79.1659895176
 30
0.0
 10
78.0183373944
 20
79.1649918561
 30
0.0
 10
78.0690228448
 20
79.1637303436
 30
0.0
 10
78.111499829
 20
79.1622346261
 30
0.0
 10
78.1453424507
 20
79.1605100117
 30
0.0
 10
78.1680411017
 20
79.1588233997
 30
0.0
 10
78.1815812573
 20
79.157235487
 30
0.0
 10
78.1884068507
 20
79.1561657785
 30
0.0
 10
78.192737199
 20
79.155064805
 30
0.0
 10
78.1950862869
 20
79.1541698559
 30
0.0
 10
78.1955390955
 20
79.153514575
 30
0.0
  0
SPLINE
  5
29E
100
AcDbEntity
  8
0
100
AcDbSpline
 62
7
  6
BYLAYER
 70
0
 71
3
 72
27
 73
23
 74
0
 42
0.0000001
 43
0.0000001
 44
0.0000000001
 40
0.0
 40
0.0
 40
0.0
 40
0.0
 40
0.194991506
 40
0.3824794868
 40
0.4711364491
 40
0.5552694004
 40
0.6340548719
 40
0.7067387548
 40
0.7726080859
 40
0.8310412299
 40
0.8814658293
 40
0.903526351
 40
0.9234107381
 40
0.9410677871
 40
0.9564607653
 40
0.9695560196
 40
0.9803208394
 40
0.9887284725
 40
0.9947725314
 40
0.9984669768
 40
0.9994649619
 40
1.0
 40
1.0
 40
1.0
 40
1.0
 10
24.0627392017
 20
78.6386995003
 30
0.0
 10
24.070891201
 20
79.1585172493
 30
0.0
 10
24.0854425501
 20
80.1781730099
 30
0.0
 10
24.099513426
 20
81.4342281359
 30
0.0
 10
24.1090209706
 20
82.394745396
 30
0.0
 10
24.1149266586
 20
83.065463825
 30
0.0
 10
24.1195648724
 20
83.6936041914
 30
0.0
 10
24.1226219633
 20
84.2730599485
 30
0.0
 10
24.1238022048
 20
84.7982599053
 30
0.0
 10
24.1232297792
 20
85.2641136197
 30
0.0
 10
24.1213407264
 20
85.6131613098
 30
0.0
 10
24.1188361611
 20
85.8594225986
 30
0.0
 10
24.1166124081
 20
86.0183163304
 30
0.0
 10
24.1139536516
 20
86.1594260146
 30
0.0
 10
24.1108204977
 20
86.2824140971
 30
0.0
 10
24.1071588003
 20
86.387021562
 30
0.0
 10
24.1029875677
 20
86.4729169582
 30
0.0
 10
24.098175558
 20
86.5400862084
 30
0.0
 10
24.0931259032
 20
86.5879830572
 30
0.0
 10
24.0877577639
 20
86.6165807313
 30
0.0
 10
24.0832419769
 20
86.6293999211
 30
0.0
 10
24.0798652524
 20
86.6327939174
 30
0.0
 10
24.0784387467
 20
86.6327945737
 30
0.0
  0
SPLINE
  5
29F
100
AcDbEntity
  8
0
100
AcDbSpline
 62
7
  6
BYLAYER
 70
0
 71
3
 72
21
 73
17
 74
0
 42
0.0000001
 43
0.0000001
 44
0.0000000001
 40
0.0
 40
0.0
 40
0.0
 40
0.0
 40
0.1925278956
 40
0.3782447217
 40
0.5495633126
 40
0.7003294767
 40
0.7662396344
 40
0.8249338428
 40
0.8758424972
 40
0.918529944
 40
0.9525696175
 40
0.9776046293
 40
0.9866874135
 40
0.9934558301
 40
0.9978941342
 40
1.0
 40
1.0
 40
1.0
 40
1.0
 10
77.5718566681
 20
57.0453932252
 30
0.0
 10
77.6360892434
 20
57.0423402992
 30
0.0
 10
77.7622883613
 20
57.0364766567
 30
0.0
 10
77.9456459219
 20
57.027935432
 30
0.0
 10
78.1150568452
 20
57.0197665206
 30
0.0
 10
78.2444905629
 20
57.0133620698
 30
0.0
 10
78.3363393875
 20
57.0085491054
 30
0.0
 10
78.3948713727
 20
57.0052932253
 30
0.0
 10
78.4456447108
 20
57.0022418652
 30
0.0
 10
78.4881883575
 20
56.9994772052
 30
0.0
 10
78.5220838733
 20
56.9970369407
 30
0.0
 10
78.5447901205
 20
56.9952297891
 30
0.0
 10
78.5583646192
 20
56.99389608
 30
0.0
 10
78.5651349141
 20
56.9931993234
 30
0.0
 10
78.5694694595
 20
56.992473839
 30
0.0
 10
78.5717046843
 20
56.9921767315
 30
0.0
 10
78.5723148345
 20
56.9918268133
 30
0.0
  0
SPLINE
  5
2A0
100
AcDbEntity
  8
0
100
AcDbSpline
 62
7
  6
BYLAYER
 70
0
 71
3
 72
21
 73
17
 74
0
 42
0.0000001
 43
0.0000001
 44
0.0000000001
 40
0.0
 40
0.0
 40
0.0
 40
0.0
 40
0.1803669733
 40
0.3656085433
 40
0.5448565849
 40
0.7054983305
 40
0.7749318503
 40
0.8358272033
 40
0.8875600264
 40
0.929505966
 40
0.9612447815
 40
0.983172646
 40
0.9906451009
 40
0.995890031
 40
0.9989827187
 40
1.0
 40
1.0
 40
1.0
 40
1.0
 10
77.5718566681
 20
57.0453932252
 30
0.0
 10
77.5705132797
 20
57.0269342926
 30
0.0
 10
77.5677968344
 20
56.9895170831
 30
0.0
 10
77.5637685741
 20
56.9337537139
 30
0.0
 10
77.5599100008
 20
56.8800076055
 30
0.0
 10
77.5569228923
 20
56.8381121947
 30
0.0
 10
77.5548185627
 20
56.8083302005
 30
0.0
 10
77.5535088235
 20
56.7896927647
 30
0.0
 10
77.5524125513
 20
56.7738747341
 30
0.0
 10
77.5515168925
 20
56.7610226104
 30
0.0
 10
77.5508887695
 20
56.7512663906
 30
0.0
 10
77.5504160368
 20
56.7449412524
 30
0.0
 10
77.5502802118
 20
56.7414775077
 30
0.0
 10
77.5500561166
 20
56.7397233903
 30
0.0
 10
77.5502359877
 20
56.7389973691
 30
0.0
 10
77.5499918494
 20
56.7383379672
 30
0.0
 10
77.5500959594
 20
56.7383303956
 30
0.0
  0
SPLINE
  5
2A1
100
AcDbEntity
  8
0
100
AcDbSpline
 62
7
  6
BYLAYER
 70
0
 71
3
 72
16
 73
12
 74
0
 42
0.0000001
 43
0.0000001
 44
0.0000000001
 40
0.0
 40
0.0
 40
0.0
 40
0.0
 40
0.228848156
 40
0.4283181626
 40
0.5981623544
 40
0.7381455635
 40
0.8480628494
 40
0.9277912368
 40
0.977500452
 40
0.9916102487
 40
1.0
 40
1.0
 40
1.0
 40
1.0
 10
77.132346861
 20
97.8161421473
 30
0.0
 10
77.1363670583
 20
97.8797917404
 30
0.0
 10
77.1446164931
 20
97.998877666
 30
0.0
 10
77.1586229065
 20
98.1649891859
 30
0.0
 10
77.1730979563
 20
98.3062055074
 30
0.0
 10
77.1876873188
 20
98.422244095
 30
0.0
 10
77.2020591871
 20
98.5130967478
 30
0.0
 10
77.2156552162
 20
98.5782112586
 30
0.0
 10
77.2274394123
 20
98.6169640116
 30
0.0
 10
77.2369378527
 20
98.6344935175
 30
0.0
 10
77.2425940539
 20
98.6386849782
 30
0.0
 10
77.2449321126
 20
98.638697728
 30
0.0
  0
SPLINE
  5
2A2
100
AcDbEntity
  8
0
100
AcDbSpline
 62
7
  6
BYLAYER
 70
0
 71
3
 72
8
 73
4
 74
0
 42
0.0000001
 43
0.0000001
 44
0.0000000001
 40
0.0
 40
0.0
 40
0.0
 40
0.0
 40
1.0
 40
1.0
 40
1.0
 40
1.0
 10
77.1203164483
 20
97.7303050068
 30
0.0
 10
77.121371043
 20
97.7591783701
 30
0.0
 10
77.1252573157
 20
97.7881333288
 30
0.0
 10
77.1323355512
 20
97.8161455023
 30
0.0
  0
SPLINE
  5
2A3
100
AcDbEntity
  8
0
100
AcDbSpline
 62
7
  6
BYLAYER
 70
0
 71
3
 72
29
 73
25
 74
0
 42
0.0000001
 43
0.0000001
 44
0.0000000001
 40
0.0
 40
0.0
 40
0.0
 40
0.0
 40
0.0005271103
 40
0.0015336309
 40
0.0031051989
 40
0.0052600252
 40
0.0113381123
 40
0.0197804503
 40
0.0305720786
 40
0.0436891212
 40
0.0591054679
 40
0.0767846716
 40
0.0966822477
 40
0.1187531056
 40
0.1691979675
 40
0.2276339423
 40
0.2934991824
 40
0.3661639491
 40
0.4449255896
 40
0.5290291764
 40
0.6176679799
 40
0.7099796914
 40
0.8050824748
 40
1.0
 40
1.0
 40
1.0
 40
1.0
 10
78.7681304391
 20
65.3386569682
 30
0.0
 10
78.7652631551
 20
65.338656955
 30
0.0
 10
78.7585060338
 20
65.3457452589
 30
0.0
 10
78.7526656042
 20
65.3609410872
 30
0.0
 10
78.7452362803
 20
65.385952806
 30
0.0
 10
78.7344106122
 20
65.4380238139
 30
0.0
 10
78.7209619096
 20
65.5279037382
 30
0.0
 10
78.7053589807
 20
65.6646511231
 30
0.0
 10
78.6890112165
 20
65.839901855
 30
0.0
 10
78.6720743293
 20
66.0531389016
 30
0.0
 10
78.6546205284
 20
66.3039177008
 30
0.0
 10
78.6367149876
 20
66.5916248615
 30
0.0
 10
78.6184080212
 20
66.9155706986
 30
0.0
 10
78.59236543
 20
67.4175908977
 30
0.0
 10
78.5596259732
 20
68.1291724306
 30
0.0
 10
78.5210080471
 20
69.0789442275
 30
0.0
 10
78.4819370934
 20
70.1496559234
 30
0.0
 10
78.442809542
 20
71.3309956713
 30
0.0
 10
78.4040170903
 20
72.6116053127
 30
0.0
 10
78.3659448066
 20
73.9791650703
 30
0.0
 10
78.3289693572
 20
75.4204876394
 30
0.0
 10
78.2934453649
 20
76.9216956611
 30
0.0
 10
78.248116107
 20
79.0009464299
 30
0.0
 10
78.2179250521
 20
80.5782643436
 30
0.0
 10
78.1994178239
 20
81.6383816642
 30
0.0
  0
SPLINE
  5
2A4
100
AcDbEntity
  8
0
100
AcDbSpline
 62
7
  6
BYLAYER
 70
0
 71
3
 72
21
 73
17
 74
0
 42
0.0000001
 43
0.0000001
 44
0.0000000001
 40
0.0
 40
0.0
 40
0.0
 40
0.0
 40
0.0023893027
 40
0.0069480376
 40
0.0137784776
 40
0.0228917075
 40
0.0479288696
 40
0.0819203878
 40
0.1245299351
 40
0.1753457971
 40
0.2339427872
 40
0.2997580028
 40
0.4503918318
 40
0.621678362
 40
0.807393261
 40
1.0
 40
1.0
 40
1.0
 40
1.0
 10
24.5754973482
 20
79.1535145792
 30
0.0
 10
24.575951144
 20
79.1541696411
 30
0.0
 10
24.5782999914
 20
79.1550645377
 30
0.0
 10
24.5826311869
 20
79.1561655254
 30
0.0
 10
24.5894561711
 20
79.1572351462
 30
0.0
 10
24.6029960119
 20
79.1588229092
 30
0.0
 10
24.6256945582
 20
79.1605091318
 30
0.0
 10
24.6595370762
 20
79.1622334075
 30
0.0
 10
24.7020140008
 20
79.1637293129
 30
0.0
 10
24.7527002801
 20
79.1649909626
 30
0.0
 10
24.8111357738
 20
79.1659886421
 30
0.0
 10
24.9028650413
 20
79.1670008818
 30
0.0
 10
25.0321855814
 20
79.1674556519
 30
0.0
 10
25.2014944596
 20
79.1668642772
 30
0.0
 10
25.3847954116
 20
79.16515571
 30
0.0
 10
25.510962503
 20
79.1633302812
 30
0.0
 10
25.5751923721
 20
79.162239117
 30
0.0
  0
SPLINE
  5
2A5
100
AcDbEntity
  8
0
100
AcDbSpline
 62
7
  6
BYLAYER
 70
0
 71
3
 72
23
 73
19
 74
0
 42
0.0000001
 43
0.0000001
 44
0.0000000001
 40
0.0
 40
0.0
 40
0.0
 40
0.0
 40
0.0016418392
 40
0.0051026996
 40
0.0105851773
 40
0.0181356423
 40
0.0277744969
 40
0.0395142746
 40
0.0692758041
 40
0.1072812511
 40
0.1533590664
 40
0.2073119778
 40
0.2689045689
 40
0.3378955836
 40
0.4139998467
 40
0.5862126788
 40
0.7826473903
 40
1.0
 40
1.0
 40
1.0
 40
1.0
 10
24.3789723842
 20
86.9284917172
 30
0.0
 10
24.3811973948
 20
86.9281955931
 30
0.0
 10
24.3853007365
 20
86.9208733639
 30
0.0
 10
24.3888270184
 20
86.9078076057
 30
0.0
 10
24.3931000842
 20
86.8851425098
 30
0.0
 10
24.3969823545
 20
86.8545963485
 30
0.0
 10
24.4008922844
 20
86.8151555188
 30
0.0
 10
24.4062706984
 20
86.7454810706
 30
0.0
 10
24.4122142724
 20
86.6369115634
 30
0.0
 10
24.4182932124
 20
86.4813964171
 30
0.0
 10
24.4236561194
 20
86.2927505497
 30
0.0
 10
24.428268772
 20
86.07183643
 30
0.0
 10
24.4320935144
 20
85.8195759971
 30
0.0
 10
24.4351026606
 20
85.5370194525
 30
0.0
 10
24.4381244442
 20
85.1032234719
 30
0.0
 10
24.4394991228
 20
84.4951823432
 30
0.0
 10
24.437755394
 20
83.694036263
 30
0.0
 10
24.434498024
 20
83.1283378163
 30
0.0
 10
24.4323589373
 20
82.8311933383
 30
0.0
  0
ENDSEC
  0
SECTION
  2
OBJECTS
  0
DICTIONARY
  5
C
100
AcDbDictionary
280
0
281
1
  3
ACAD_GROUP
350
D
  3
ACAD_MLINESTYLE
350
17
  3
ACAD_LAYOUT
350
1A
  3
ACAD_PLOTSETTINGS
350
19
  3
ACAD_PLOTSTYLENAME
350
E
  0
DICTIONARY
  5
D
102
{ACAD_REACTORS
330
C
102
}
100
AcDbDictionary
280
0
281
1
  0
ACDBDICTIONARYWDFLT
  5
E
102
{ACAD_REACTORS
330
C
102
}
100
AcDbDictionary
281
1
  3
Normal
350
F
100
AcDbDictionaryWithDefault
340
F
  0
DICTIONARY
  5
17
102
{ACAD_REACTORS
330
C
102
}
100
AcDbDictionary
280
0
281
1
  3
Standard
350
18
  0
DICTIONARY
  5
19
102
{ACAD_REACTORS
330
C
102
}
100
AcDbDictionary
281
1
  0
DICTIONARY
  5
1A
102
{ACAD_REACTORS
330
C
102
}
100
AcDbDictionary
281
1
  3
Model
350
2A6
  3
Layout1
350
2A7
  0
ACDBPLACEHOLDER
  5
F
102
{ACAD_REACTORS
330
E
102
}
  0
MLINESTYLE
  5
18
102
{ACAD_REACTORS
330
17
102
}
100
AcDbMlineStyle
  2
STANDARD
 70
0
  3

 62
256
 51
90.0
 52
90.0
 71
2
 49
0.5
 62
256
  6
BYLAYER
 49
-0.5
 62
256
  6
BYLAYER
  0
LAYOUT
  5
2A6
102
{ACAD_REACTORS
330
1A
102
}
100
AcDbPlotSettings
  1

  2
none_device
  4

  6

 40
0.0
 41
0.0
 42
0.0
 43
0.0
 44
210.0
 45
297.0
 46
0.0
 47
0.0
 48
0.0
 49
0.0
140
0.0
141
0.0
142
1.0
143
1.0
 70
1024
 72
1
 73
0
 74
0
  7

 75
0
147
1.0
148
0.0
149
0.0
100
AcDbLayout
  1
Model
 70
0
 71
0
 10
0.0
 20
0.0
 11
210.0
 21
297.0
 12
0.0
 22
0.0
 32
0.0
 14
0.0
 24
0.0
 34
0.0
 15
0.0
 25
0.0
 35
0.0
146
0.0
 13
0.0
 23
0.0
 33
0.0
 16
1.0
 26
0.0
 36
0.0
 17
0.0
 27
1.0
 37
0.0
 76
0
330
210
345
0
346
0
  0
LAYOUT
  5
2A7
102
{ACAD_REACTORS
330
1A
102
}
100
AcDbPlotSettings
  1

  2
none_device
  4

  6

 40
0.0
 41
0.0
 42
0.0
 43
0.0
 44
210.0
 45
297.0
 46
0.0
 47
0.0
 48
0.0
 49
0.0
140
0.0
141
0.0
142
1.0
143
1.0
 70
0
 72
1
 73
0
 74
0
  7

 75
0
147
1.0
148
0.0
149
0.0
100
AcDbLayout
  1
Layout1
 70
0
 71
1
 10
0.0
 20
0.0
 11
210.0
 21
297.0
 12
0.0
 22
0.0
 32
0.0
 14
0.0
 24
0.0
 34
0.0
 15
0.0
 25
0.0
 35
0.0
146
0.0
 13
0.0
 23
0.0
 33
0.0
 16
1.0
 26
0.0
 36
0.0
 17
0.0
 27
1.0
 37
0.0
 76
0
330
211
345
0
346
0
  0
ENDSEC
  0
EOF
