999
DXF file: C:\Users\sesa63760\Dev\_Creo\CAD\MCADID0003536_3D-CAD\drw0001_1.dxf
999
Pro/ENGINEER 2019471 by Parametric Technology Corporation
  0
SECTION
  2
HEADER
  9
$ACADVER
  1
AC1024
  9
$DWGCODEPAGE
  3
ANSI_1252
  9
$EXTMAX
 10
67.6092154706
 20
95.6187475941
 30
0.0
  9
$EXTMIN
 10
0.0
 20
0.0
 30
0.0
  9
$LIMMIN
 10
0.0
 20
0.0
  9
$LIMMAX
 10
67.6092154706
 20
95.6187475941
  9
$VIEWCTR
 10
33.8046077353
 20
47.8093737971
  9
$VIEWSIZE
 40
95.6187475941
  9
$CLAYER
  8
0
  9
$LTSCALE
 40
6.2329257691
  9
$CELTYPE
  6
BYLAYER
  9
$DIMSCALE
 40
1.0
  9
$DIMASZ
 40
0.8048716127
  9
$DIMEXO
 40
1.0
  9
$DIMDLI
 40
4.3063850768
  9
$DIMEXE
 40
1.0
  9
$DIMCEN
 40
1.0199333077
  9
$DIMLFAC
 40
1.0
  9
$DIMBLK
  1
_FILLED
  9
$DIMALT
 70
0
  9
$DIMALTF
 40
0.0393700787
  9
$DIMTXT
 40
1.1268202578
  9
$DIMTOL
 70
1
  9
$DIMLIM
 70
0
  9
$DIMTFAC
 40
1.0
  9
$DIMTP
 40
0.01
  9
$DIMTM
 40
0.01
  9
$DIMGAP
 40
0.625
  9
$DIMDSEP
 70
46
  9
$AUNITS
 70
0
  9
$PDMODE
 70
3
  9
$PDSIZE
 40
0.3125
  9
$HANDSEED
  5
3E8
  9
$TILEMODE
 70
1
  9
$MEASUREMENT
 70
1
  9
$INSUNITS
 70
4
  0
ENDSEC
  0
SECTION
  2
CLASSES
  0
CLASS
  1
ACDBDICTIONARYWDFLT
  2
AcDbDictionaryWithDefault
  3
AutoCAD 2000
 90
0
 91
1
280
0
281
0
  0
CLASS
  1
ACDBPLACEHOLDER
  2
AcDbPlaceHolder
  3
AutoCAD 2000
 90
0
 91
1
280
0
281
0
  0
CLASS
  1
LAYOUT
  2
AcDbLayout
  3
AutoCAD 2000
 90
0
 91
0
280
0
281
0
  0
ENDSEC
  0
SECTION
  2
TABLES
  0
TABLE
  2
VPORT
  5
8
100
AcDbSymbolTable
 70
2
  0
VPORT
  5
1F4
100
AcDbSymbolTableRecord
100
AcDbViewportTableRecord
  2
*ACTIVE
 70
0
 10
0.0
 20
0.0
 11
1.0
 21
1.0
 12
33.8046077353
 22
47.8093737971
 13
0.0
 23
0.0
 14
1.0
 24
1.0
 15
0.0
 25
0.0
 16
0.0
 26
0.0
 36
1.0
 17
0.0
 27
0.0
 37
0.0
 40
95.6187475941
 41
0.7070707071
 42
50.0
 43
0.0
 44
0.0
 50
0.0
 51
0.0
 71
0
 72
100
 73
1
 74
1
 75
0
 76
0
 77
0
 78
0
  0
ENDTAB
  0
TABLE
  2
LTYPE
  5
5
100
AcDbSymbolTable
 70
6
  0
LTYPE
  5
14
100
AcDbSymbolTableRecord
100
AcDbLinetypeTableRecord
  2
BYBLOCK
 70
0
  3

 72
65
 73
0
 40
0.0
  0
LTYPE
  5
15
100
AcDbSymbolTableRecord
100
AcDbLinetypeTableRecord
  2
BYLAYER
 70
0
  3

 72
65
 73
0
 40
0.0
  0
LTYPE
  5
16
100
AcDbSymbolTableRecord
100
AcDbLinetypeTableRecord
  2
CONTINUOUS
 70
64
  3
Solid line
 72
65
 73
0
 40
0.0
  0
LTYPE
  5
1F5
100
AcDbSymbolTableRecord
100
AcDbLinetypeTableRecord
  2
CENTER
 70
64
  3
____ _ ____ _ ____ _ ____ _ ____ _ ____ _ ____
 72
65
 73
4
 40
0.6
 49
0.375
 74
0
 49
-0.075
 74
0
 49
0.075
 74
0
 49
-0.075
 74
0
  0
LTYPE
  5
1F6
100
AcDbSymbolTableRecord
100
AcDbLinetypeTableRecord
  2
HIDDEN
 70
64
  3
- - - - - - - - - - - - - - - - - - - -
 72
65
 73
2
 40
0.2
 49
0.1
 74
0
 49
-0.1
 74
0
  0
LTYPE
  5
1F7
100
AcDbSymbolTableRecord
100
AcDbLinetypeTableRecord
  2
PHANTOM
 70
64
  3
_____ _ _ _____ _ _ _____ _ _ _____
 72
65
 73
6
 40
0.8
 49
0.45
 74
0
 49
-0.05
 74
0
 49
0.1
 74
0
 49
-0.05
 74
0
 49
0.1
 74
0
 49
-0.05
 74
0
  0
LTYPE
  5
1F8
100
AcDbSymbolTableRecord
100
AcDbLinetypeTableRecord
  2
DOT
 70
64
  3
. . . . . . . . . . . . . . . . . . . .
 72
65
 73
2
 40
0.2
 49
0.1
 74
0
 49
-0.1
 74
0
  0
LTYPE
  5
1F9
100
AcDbSymbolTableRecord
100
AcDbLinetypeTableRecord
  2
DASHED
 70
64
  3
- - - - - - - - - - - - - - - - - - - -
 72
65
 73
2
 40
0.2
 49
0.1
 74
0
 49
-0.1
 74
0
  0
ENDTAB
  0
TABLE
  2
LAYER
  5
2
100
AcDbSymbolTable
 70
36
  0
LAYER
  5
10
100
AcDbSymbolTableRecord
100
AcDbLayerTableRecord
  2
0
 70
0
 62
7
  6
CONTINUOUS
370
-3
390
F
  0
LAYER
  5
1FA
100
AcDbSymbolTableRecord
100
AcDbLayerTableRecord
  2
DEFAULT_1
 70
0
 62
7
  6
CENTER
370
-3
390
F
  0
LAYER
  5
1FB
100
AcDbSymbolTableRecord
100
AcDbLayerTableRecord
  2
DEFAULT_2
 70
0
 62
7
  6
HIDDEN
370
-3
390
F
  0
LAYER
  5
1FC
100
AcDbSymbolTableRecord
100
AcDbLayerTableRecord
  2
DEFAULT_3
 70
0
 62
7
  6
PHANTOM
370
-3
390
F
  0
LAYER
  5
1FD
100
AcDbSymbolTableRecord
100
AcDbLayerTableRecord
  2
00_COMPONENTS
 70
0
 62
7
  6
CONTINUOUS
370
-3
390
F
  0
LAYER
  5
1FE
100
AcDbSymbolTableRecord
100
AcDbLayerTableRecord
  2
01_1_DEFAULT_DATUMS
 70
0
 62
7
  6
CONTINUOUS
370
-3
390
F
  0
LAYER
  5
1FF
100
AcDbSymbolTableRecord
100
AcDbLayerTableRecord
  2
01_PLANES
 70
0
 62
7
  6
CONTINUOUS
370
-3
390
F
  0
LAYER
  5
200
100
AcDbSymbolTableRecord
100
AcDbLayerTableRecord
  2
02_COORD_SYS
 70
0
 62
7
  6
CONTINUOUS
370
-3
390
F
  0
LAYER
  5
201
100
AcDbSymbolTableRecord
100
AcDbLayerTableRecord
  2
03_AXES
 70
0
 62
7
  6
CONTINUOUS
370
-3
390
F
  0
LAYER
  5
202
100
AcDbSymbolTableRecord
100
AcDbLayerTableRecord
  2
04_POINTS
 70
0
 62
7
  6
CONTINUOUS
370
-3
390
F
  0
LAYER
  5
203
100
AcDbSymbolTableRecord
100
AcDbLayerTableRecord
  2
05_CURVES
 70
0
 62
7
  6
CONTINUOUS
370
-3
390
F
  0
LAYER
  5
204
100
AcDbSymbolTableRecord
100
AcDbLayerTableRecord
  2
06_SURFS
 70
0
 62
7
  6
CONTINUOUS
370
-3
390
F
  0
LAYER
  5
205
100
AcDbSymbolTableRecord
100
AcDbLayerTableRecord
  2
07_COSMETICS
 70
0
 62
7
  6
CONTINUOUS
370
-3
390
F
  0
LAYER
  5
206
100
AcDbSymbolTableRecord
100
AcDbLayerTableRecord
  2
10_NOTES
 70
0
 62
7
  6
CONTINUOUS
370
-3
390
F
  0
LAYER
  5
207
100
AcDbSymbolTableRecord
100
AcDbLayerTableRecord
  2
11_NOTES_PUB
 70
0
 62
7
  6
CONTINUOUS
370
-3
390
F
  0
LAYER
  5
208
100
AcDbSymbolTableRecord
100
AcDbLayerTableRecord
  2
13_REF_GTOL
 70
0
 62
7
  6
CONTINUOUS
370
-3
390
F
  0
LAYER
  5
209
100
AcDbSymbolTableRecord
100
AcDbLayerTableRecord
  2
16_MISC
 70
0
 62
7
  6
CONTINUOUS
370
-3
390
F
  0
LAYER
  5
20A
100
AcDbSymbolTableRecord
100
AcDbLayerTableRecord
  2
17_NO_PRINT
 70
0
 62
7
  6
CONTINUOUS
370
-3
390
F
  0
LAYER
  5
20B
100
AcDbSymbolTableRecord
100
AcDbLayerTableRecord
  2
18_DATUM_CAMS_JOINTS
 70
0
 62
7
  6
CONTINUOUS
370
-3
390
F
  0
LAYER
  5
20C
100
AcDbSymbolTableRecord
100
AcDbLayerTableRecord
  2
19_DATUM_FUNCTIONAL
 70
0
 62
7
  6
CONTINUOUS
370
-3
390
F
  0
LAYER
  5
20D
100
AcDbSymbolTableRecord
100
AcDbLayerTableRecord
  2
20_DATUM_KINEMATIC_SCHEME
 70
0
 62
7
  6
CONTINUOUS
370
-3
390
F
  0
ENDTAB
  0
TABLE
  2
STYLE
  5
3
100
AcDbSymbolTable
 70
1
  0
STYLE
  5
11
100
AcDbSymbolTableRecord
100
AcDbTextStyleTableRecord
  2
STANDARD
 70
0
 40
0.0
 41
1.0
 50
0.0
 71
0
 42
0.2
  3
ARIAL.TTF
  4

  0
STYLE
  5
20E
100
AcDbSymbolTableRecord
100
AcDbTextStyleTableRecord
  2
TEXTSTYLE_1
 70
0
 40
0.0
 41
0.8
 50
0.0
 71
0
 42
0.2
  3
gdt
  4

  0
ENDTAB
  0
TABLE
  2
VIEW
  5
6
100
AcDbSymbolTable
 70
0
  0
ENDTAB
  0
TABLE
  2
UCS
  5
7
100
AcDbSymbolTable
 70
0
  0
ENDTAB
  0
TABLE
  2
APPID
  5
9
100
AcDbSymbolTable
 70
1
  0
APPID
  5
20F
100
AcDbSymbolTableRecord
100
AcDbRegAppTableRecord
  2
ACAD
 70
0
  0
ENDTAB
  0
TABLE
  2
BLOCK_RECORD
  5
1
100
AcDbSymbolTable
 70
0
  0
BLOCK_RECORD
  5
210
100
AcDbSymbolTableRecord
100
AcDbBlockTableRecord
  2
*Model_Space
  0
BLOCK_RECORD
  5
211
100
AcDbSymbolTableRecord
100
AcDbBlockTableRecord
  2
*Paper_Space
  0
BLOCK_RECORD
  5
212
100
AcDbSymbolTableRecord
100
AcDbBlockTableRecord
  2
_FILLED
  0
ENDTAB
  0
TABLE
  2
DIMSTYLE
  5
A
100
AcDbSymbolTable
 70
1
100
AcDbDimStyleTable
 71
0
  0
DIMSTYLE
105
213
100
AcDbSymbolTableRecord
100
AcDbDimStyleTableRecord
  2
STANDARD
 70
0
  3

  4

 40
1.0
 41
0.8048716127
 42
1.0
 43
0.38
 44
1.0
 45
0.0
 46
0.0
 47
0.01
 48
0.01
140
1.1268202578
141
0.09
142
0.0
143
25.4
144
1.0
145
0.0
146
1.0
147
0.625
 71
1
 72
0
 73
0
 74
0
 75
0
 76
0
 77
1
 78
8
 79
2
170
0
171
1
172
0
173
0
174
0
175
0
176
0
177
0
178
0
270
2
179
2
271
2
272
2
273
2
274
2
275
0
280
0
281
0
282
0
283
1
284
8
285
0
286
0
287
3
288
0
340
11
278
46
341
212
342
212
343
212
344
212
  0
ENDTAB
  0
ENDSEC
  0
SECTION
  2
BLOCKS
  0
BLOCK
  5
20
100
AcDbEntity
  8
0
100
AcDbBlockBegin
  2
*Model_Space
 70
0
 10
0.0
 20
0.0
 30
0.0
  3
*Model_Space
  1

  0
ENDBLK
  5
21
100
AcDbEntity
  8
0
100
AcDbBlockEnd
  0
BLOCK
  5
1C
100
AcDbEntity
  8
0
100
AcDbBlockBegin
  2
*Paper_Space
 70
0
 10
0.0
 20
0.0
 30
0.0
  3
*Paper_Space
  1

  0
ENDBLK
  5
1D
100
AcDbEntity
  8
0
100
AcDbBlockEnd
  0
BLOCK
  5
214
100
AcDbEntity
  8
0
100
AcDbBlockBegin
  2
_FILLED
 70
64
 10
0.0
 20
0.0
  3
_FILLED
  1

  0
SOLID
  5
215
100
AcDbEntity
  8
0
  6
BYBLOCK
 62
0
100
AcDbTrace
 10
0.0
 20
0.0
 11
-1.0
 21
0.25
 12
-1.0
 22
-0.25
 13
-1.0
 23
-0.25
  0
ENDBLK
  5
216
100
AcDbEntity
  8
0
  6
BYBLOCK
 62
0
100
AcDbBlockEnd
  0
ENDSEC
  0
SECTION
  2
ENTITIES
  0
LWPOLYLINE
  5
217
100
AcDbEntity
  8
0
100
AcDbPolyline
 62
7
  6
BYLAYER
 90
3
 70
0
 10
29.6167539972
 20
83.2127806649
 10
29.4102812939
 20
83.1493037513
 10
29.3293567293
 20
83.1612429034
  0
LINE
  5
218
100
AcDbEntity
  8
0
100
AcDbLine
 62
7
  6
BYLAYER
 10
33.588791672
 20
82.9309510186
 11
37.5454222089
 21
85.2152990884
  0
LWPOLYLINE
  5
219
100
AcDbEntity
  8
0
100
AcDbPolyline
 62
7
  6
BYLAYER
 90
4
 70
0
 10
33.9171926693
 20
79.25563879
 10
33.7824392673
 20
79.2120014058
 10
33.5633415522
 20
79.1470116836
 10
33.4457492617
 20
79.1155170571
  0
LINE
  5
21A
100
AcDbEntity
  8
0
100
AcDbLine
 62
7
  6
BYLAYER
 10
29.1581659103
 20
73.391797557
 11
29.1839001949
 21
73.4066551644
  0
LINE
  5
21B
100
AcDbEntity
  8
0
100
AcDbLine
 62
7
  6
BYLAYER
 10
29.0264297137
 20
24.6523258503
 11
29.1678582756
 21
24.6523261884
  0
LINE
  5
21C
100
AcDbEntity
  8
0
100
AcDbLine
 62
7
  6
BYLAYER
 10
29.5213996011
 20
24.6523270336
 11
29.7335364947
 21
24.6523275407
  0
LINE
  5
21D
100
AcDbEntity
  8
0
100
AcDbLine
 62
7
  6
BYLAYER
 10
29.6628233724
 20
24.7339775987
 11
29.7335364944
 21
24.7339777686
  0
LINE
  5
21E
100
AcDbEntity
  8
0
100
AcDbLine
 62
7
  6
BYLAYER
 10
19.5967673847
 20
28.4053582551
 11
23.155075347
 21
26.3510146706
  0
LINE
  5
21F
100
AcDbEntity
  8
0
100
AcDbLine
 62
7
  6
BYLAYER
 10
26.5036833545
 20
24.4177386726
 11
30.0619913168
 21
22.3633950882
  0
LINE
  5
220
100
AcDbEntity
  8
0
100
AcDbLine
 62
7
  6
BYLAYER
 10
36.8399132778
 20
20.1410308727
 11
38.1480662693
 21
19.3857854768
  0
LINE
  5
221
100
AcDbEntity
  8
0
100
AcDbLine
 62
7
  6
BYLAYER
 10
29.0264297135
 20
24.6523258501
 11
18.5612057809
 21
30.6942890057
  0
LINE
  5
222
100
AcDbEntity
  8
0
100
AcDbLine
 62
7
  6
BYLAYER
 10
18.1015850485
 20
31.0412974772
 11
29.3446296783
 21
24.5502694803
  0
LINE
  5
223
100
AcDbEntity
  8
0
100
AcDbLine
 62
7
  6
BYLAYER
 10
39.1026643982
 20
19.8144633588
 11
36.8399132778
 21
21.1208337733
  0
LINE
  5
224
100
AcDbEntity
  8
0
100
AcDbLine
 62
7
  6
BYLAYER
 10
33.37730457
 20
78.9236530219
 11
33.3839694394
 21
78.9339691809
  0
LINE
  5
225
100
AcDbEntity
  8
0
100
AcDbLine
 62
7
  6
BYLAYER
 10
41.2239759099
 20
21.0391958204
 11
38.9612247894
 21
22.3455662349
  0
LINE
  5
226
100
AcDbEntity
  8
0
100
AcDbLine
 62
7
  6
BYLAYER
 10
18.1015850485
 20
31.0412974772
 11
18.1015850485
 21
66.3142018972
  0
LINE
  5
227
100
AcDbEntity
  8
0
100
AcDbLine
 62
7
  6
BYLAYER
 10
18.561205781
 20
30.7759392359
 11
18.5612057809
 21
30.6942890057
  0
LINE
  5
228
100
AcDbEntity
  8
0
100
AcDbLine
 62
7
  6
BYLAYER
 10
29.4334383314
 20
78.6233776271
 11
28.754741888
 21
76.5967020993
  0
LINE
  5
229
100
AcDbEntity
  8
0
100
AcDbLine
 62
7
  6
BYLAYER
 10
33.377696868
 20
78.9233417967
 11
33.3839694394
 21
78.9339691809
  0
LWPOLYLINE
  5
22A
100
AcDbEntity
  8
0
100
AcDbPolyline
 62
7
  6
BYLAYER
 90
5
 70
0
 10
39.8164427068
 20
68.9605668182
 10
40.2559533525
 20
69.2329841201
 10
41.4966000101
 20
70.6107765821
 10
41.8152715044
 20
72.1548898267
 10
41.1702436167
 20
73.6622122254
  0
LINE
  5
22B
100
AcDbEntity
  8
0
100
AcDbLine
 62
7
  6
BYLAYER
 10
40.6936571307
 20
67.840664773
 11
40.5826511545
 21
67.7785464503
  0
LINE
  5
22C
100
AcDbEntity
  8
0
100
AcDbLine
 62
7
  6
BYLAYER
 10
40.6935889807
 20
67.8359018679
 11
40.5826511545
 21
67.7785464503
  0
LINE
  5
22D
100
AcDbEntity
  8
0
100
AcDbLine
 62
7
  6
BYLAYER
 10
21.0303751948
 20
11.3636303586
 11
21.0303751948
 21
19.1204033213
  0
LINE
  5
22E
100
AcDbEntity
  8
0
100
AcDbLine
 62
7
  6
BYLAYER
 10
22.9334079826
 20
19.1510216328
 11
22.9334079826
 21
26.4789914879
  0
LWPOLYLINE
  5
22F
100
AcDbEntity
  8
0
100
AcDbPolyline
 62
7
  6
BYLAYER
 90
4
 70
0
 10
28.3396974441
 20
82.1485047451
 10
28.2106785848
 20
81.4600600915
 10
28.1384421599
 20
80.620181504
 10
28.1296687417
 20
80.1642483263
  0
LINE
  5
230
100
AcDbEntity
  8
0
100
AcDbLine
 62
7
  6
BYLAYER
 10
29.8368588845
 20
78.5054588841
 11
29.1581659103
 21
76.4787937158
  0
LINE
  5
231
100
AcDbEntity
  8
0
100
AcDbLine
 62
7
  6
BYLAYER
 10
32.5843361192
 20
61.6316571079
 11
32.5334649085
 21
61.5923042562
  0
LINE
  5
232
100
AcDbEntity
  8
0
100
AcDbLine
 62
7
  6
BYLAYER
 10
32.1338208499
 20
62.513388846
 11
32.1551135298
 21
62.5296032203
  0
LINE
  5
233
100
AcDbEntity
  8
0
100
AcDbLine
 62
7
  6
BYLAYER
 10
32.5198715063
 20
62.8073663937
 11
32.5865652102
 21
62.8581536445
  0
LINE
  5
234
100
AcDbEntity
  8
0
100
AcDbLine
 62
7
  6
BYLAYER
 10
33.4394037985
 20
62.2768739808
 11
33.4309306189
 21
62.2704216552
  0
LINE
  5
235
100
AcDbEntity
  8
0
100
AcDbLine
 62
7
  6
BYLAYER
 10
32.5851810395
 20
61.6263834101
 11
32.5342273308
 21
61.5875821644
  0
LINE
  5
236
100
AcDbEntity
  8
0
100
AcDbLine
 62
7
  6
BYLAYER
 10
32.1327162663
 20
62.5208079652
 11
32.1540170124
 21
62.536993551
  0
LINE
  5
237
100
AcDbEntity
  8
0
100
AcDbLine
 62
7
  6
BYLAYER
 10
33.4386830404
 20
62.2820348614
 11
33.4301963532
 21
62.2756716957
  0
LINE
  5
238
100
AcDbEntity
  8
0
100
AcDbLine
 62
7
  6
BYLAYER
 10
32.519150283
 20
62.8125303517
 11
32.5859576196
 21
62.8625537974
  0
LINE
  5
239
100
AcDbEntity
  8
0
100
AcDbLine
 62
7
  6
BYLAYER
 10
34.2234182918
 20
64.54961
 11
32.3665559457
 21
63.2142886194
  0
LINE
  5
23A
100
AcDbEntity
  8
0
100
AcDbLine
 62
7
  6
BYLAYER
 10
32.5656215488
 20
63.1938061841
 11
34.4339322511
 21
64.5373603961
  0
LINE
  5
23B
100
AcDbEntity
  8
0
100
AcDbLine
 62
7
  6
BYLAYER
 10
32.4927811046
 20
62.9040452141
 11
32.4159566821
 21
62.8487986342
  0
LINE
  5
23C
100
AcDbEntity
  8
0
100
AcDbLine
 62
7
  6
BYLAYER
 10
35.3178194075
 20
64.027059453
 11
33.4495087053
 21
62.6835052409
  0
LINE
  5
23D
100
AcDbEntity
  8
0
100
AcDbLine
 62
7
  6
BYLAYER
 10
35.6006632976
 20
63.5347094681
 11
33.6533987011
 21
62.1343773138
  0
LINE
  5
23E
100
AcDbEntity
  8
0
100
AcDbLine
 62
7
  6
BYLAYER
 10
35.6006632976
 20
63.2128374224
 11
39.9511872365
 21
66.062350164
  0
LINE
  5
23F
100
AcDbEntity
  8
0
100
AcDbLine
 62
7
  6
BYLAYER
 10
35.5761381091
 20
63.0126614642
 11
35.6697014937
 21
63.0666799871
  0
LINE
  5
240
100
AcDbEntity
  8
0
100
AcDbLine
 62
7
  6
BYLAYER
 10
35.3020179444
 20
61.6730919634
 11
46.5693955153
 21
68.1782766063
  0
LWPOLYLINE
  5
241
100
AcDbEntity
  8
0
100
AcDbPolyline
 62
7
  6
BYLAYER
 90
3
 70
0
 10
46.4131560218
 20
69.2693793027
 10
46.4335628853
 20
69.2810445423
 10
46.4644930133
 20
69.2982792312
  0
LINE
  5
242
100
AcDbEntity
  8
0
100
AcDbLine
 62
7
  6
BYLAYER
 10
46.5802857104
 20
69.3617914303
 11
46.4644930133
 21
69.2982792312
  0
LINE
  5
243
100
AcDbEntity
  8
0
100
AcDbLine
 62
7
  6
BYLAYER
 10
39.9511872365
 20
66.062350164
 11
46.4094748679
 21
69.2767752935
  0
LINE
  5
244
100
AcDbEntity
  8
0
100
AcDbLine
 62
7
  6
BYLAYER
 10
32.3101142353
 20
77.0085845874
 11
31.6314212611
 21
74.981919419
  0
LINE
  5
245
100
AcDbEntity
  8
0
100
AcDbLine
 62
7
  6
BYLAYER
 10
31.7246062029
 20
74.8821012898
 11
32.403299177
 21
76.9087664581
  0
LINE
  5
246
100
AcDbEntity
  8
0
100
AcDbLine
 62
7
  6
BYLAYER
 10
37.6806117627
 20
80.5501616493
 11
37.6414967754
 21
80.4677316829
  0
LINE
  5
247
100
AcDbEntity
  8
0
100
AcDbLine
 62
7
  6
BYLAYER
 10
32.4472363343
 20
62.9027507387
 11
32.4159566821
 21
62.8487986342
  0
LINE
  5
248
100
AcDbEntity
  8
0
100
AcDbLine
 62
7
  6
BYLAYER
 10
46.6013693178
 20
67.455336085
 11
40.4142107422
 21
63.8831997386
  0
LINE
  5
249
100
AcDbEntity
  8
0
100
AcDbLine
 62
7
  6
BYLAYER
 10
39.707106905
 20
63.4749555847
 11
35.1299773069
 21
60.8323643533
  0
LINE
  5
24A
100
AcDbEntity
  8
0
100
AcDbLine
 62
7
  6
BYLAYER
 10
39.5946000472
 20
63.1869224086
 11
38.9250239313
 21
62.8003447654
  0
LINE
  5
24B
100
AcDbEntity
  8
0
100
AcDbLine
 62
7
  6
BYLAYER
 10
32.253514782
 20
57.8282963914
 11
33.0922582302
 21
58.3125422564
  0
LINE
  5
24C
100
AcDbEntity
  8
0
100
AcDbLine
 62
7
  6
BYLAYER
 10
33.2396798062
 20
58.1138985645
 11
32.2951357641
 21
57.7273414305
  0
LINE
  5
24D
100
AcDbEntity
  8
0
100
AcDbLine
 62
7
  6
BYLAYER
 10
33.4404020472
 20
57.9210301882
 11
32.4926511248
 21
57.5372758588
  0
LINE
  5
24E
100
AcDbEntity
  8
0
100
AcDbLine
 62
7
  6
BYLAYER
 10
26.3296649216
 20
71.4785569748
 11
26.3296649216
 21
70.455587138
  0
LINE
  5
24F
100
AcDbEntity
  8
0
100
AcDbLine
 62
7
  6
BYLAYER
 10
28.0767202397
 20
67.7810841854
 11
28.0767202397
 21
68.597580384
  0
LINE
  5
250
100
AcDbEntity
  8
0
100
AcDbLine
 62
7
  6
BYLAYER
 10
28.1296649216
 20
71.8868081833
 11
28.1296649216
 21
80.1707491616
  0
LINE
  5
251
100
AcDbEntity
  8
0
100
AcDbLine
 62
7
  6
BYLAYER
 10
28.6722889964
 20
73.4434089014
 11
28.6722889964
 21
76.5304050603
  0
LINE
  5
252
100
AcDbEntity
  8
0
100
AcDbLine
 62
7
  6
BYLAYER
 10
31.6314212611
 20
74.981919419
 11
31.6158938411
 21
74.8866780731
  0
LINE
  5
253
100
AcDbEntity
  8
0
100
AcDbLine
 62
7
  6
BYLAYER
 10
34.0120768717
 20
79.2160042725
 11
34.0263385496
 21
79.2707156668
  0
LINE
  5
254
100
AcDbEntity
  8
0
100
AcDbLine
 62
7
  6
BYLAYER
 10
37.6414906419
 20
80.4677111564
 11
37.641479325
 21
80.4676730872
  0
LWPOLYLINE
  5
255
100
AcDbEntity
  8
0
100
AcDbPolyline
 62
7
  6
BYLAYER
 90
6
 70
0
 10
37.6414851324
 20
80.4676936192
 10
37.5181982491
 20
80.1289496983
 10
37.1008406268
 20
79.523760358
 10
36.8344178864
 20
79.3461470117
 10
36.189301897
 20
79.2739670874
 10
35.8735471339
 20
79.3845920754
  0
LINE
  5
256
100
AcDbEntity
  8
0
100
AcDbLine
 62
7
  6
BYLAYER
 10
28.1584035097
 20
79.2854380767
 11
28.1296666154
 21
80.1642531385
  0
LINE
  5
257
100
AcDbEntity
  8
0
100
AcDbLine
 62
7
  6
BYLAYER
 10
29.0264297135
 20
24.6523258501
 11
29.0264297132
 21
24.733976069
  0
LINE
  5
258
100
AcDbEntity
  8
0
100
AcDbLine
 62
7
  6
BYLAYER
 10
29.0931682401
 20
69.9703194276
 11
29.0931682401
 21
72.991378371
  0
LINE
  5
259
100
AcDbEntity
  8
0
100
AcDbLine
 62
7
  6
BYLAYER
 10
29.1581659103
 20
73.391797557
 11
29.1581659103
 21
76.4787937158
  0
LINE
  5
25A
100
AcDbEntity
  8
0
100
AcDbLine
 62
7
  6
BYLAYER
 10
29.3396585918
 20
67.8684468436
 11
29.3396585918
 21
67.0519428833
  0
LINE
  5
25B
100
AcDbEntity
  8
0
100
AcDbLine
 62
7
  6
BYLAYER
 10
29.3446296783
 20
24.5502694803
 11
29.3446296783
 21
59.8231739003
  0
LINE
  5
25C
100
AcDbEntity
  8
0
100
AcDbLine
 62
7
  6
BYLAYER
 10
29.7335364947
 20
24.6523275407
 11
29.7335364944
 21
24.7339777686
  0
LINE
  5
25D
100
AcDbEntity
  8
0
100
AcDbLine
 62
7
  6
BYLAYER
 10
30.762511588
 20
77.9452149484
 11
30.762511588
 21
72.5771078678
  0
LINE
  5
25E
100
AcDbEntity
  8
0
100
AcDbLine
 62
7
  6
BYLAYER
 10
30.8503786705
 20
77.8944860123
 11
30.8503786705
 21
72.6040501612
  0
LINE
  5
25F
100
AcDbEntity
  8
0
100
AcDbLine
 62
7
  6
BYLAYER
 10
30.9489283011
 20
77.2279770294
 11
30.9489283011
 21
77.8375896438
  0
LINE
  5
260
100
AcDbEntity
  8
0
100
AcDbLine
 62
7
  6
BYLAYER
 10
31.0102051727
 20
71.8846016206
 11
31.0102051727
 21
68.8635426772
  0
LINE
  5
261
100
AcDbEntity
  8
0
100
AcDbLine
 62
7
  6
BYLAYER
 10
31.5543120946
 20
17.0894058225
 11
31.5543120946
 21
22.2344406739
  0
LINE
  5
262
100
AcDbEntity
  8
0
100
AcDbLine
 62
7
  6
BYLAYER
 10
31.6158938384
 20
74.8866547731
 11
31.6158938384
 21
71.7996586143
  0
LINE
  5
263
100
AcDbEntity
  8
0
100
AcDbLine
 62
7
  6
BYLAYER
 10
31.7931597155
 20
74.7286102725
 11
31.7931597155
 21
71.6416141137
  0
LINE
  5
264
100
AcDbEntity
  8
0
100
AcDbLine
 62
7
  6
BYLAYER
 10
32.1222698504
 20
62.5727334665
 11
32.2038237646
 21
62.9712708605
  0
LINE
  5
265
100
AcDbEntity
  8
0
100
AcDbLine
 62
7
  6
BYLAYER
 10
32.4159566821
 20
62.8487986342
 11
32.3867313002
 21
62.7059801361
  0
LINE
  5
266
100
AcDbEntity
  8
0
100
AcDbLine
 62
7
  6
BYLAYER
 10
32.7315975853
 20
58.7888453698
 11
33.4412657836
 21
62.2568495401
  0
LINE
  5
267
100
AcDbEntity
  8
0
100
AcDbLine
 62
7
  6
BYLAYER
 10
33.6533987011
 20
62.1343773138
 11
32.9437305028
 21
58.6663731434
  0
LINE
  5
268
100
AcDbEntity
  8
0
100
AcDbLine
 62
7
  6
BYLAYER
 10
32.8094322983
 20
8.5467691524
 11
32.8094322983
 21
16.3035421151
  0
LINE
  5
269
100
AcDbEntity
  8
0
100
AcDbLine
 62
7
  6
BYLAYER
 10
33.4238123391
 20
82.6724010545
 11
33.4238123391
 21
79.1155189122
  0
LINE
  5
26A
100
AcDbEntity
  8
0
100
AcDbLine
 62
7
  6
BYLAYER
 10
34.0822147894
 20
65.2250080713
 11
34.0822147894
 21
64.4480666323
  0
LINE
  5
26B
100
AcDbEntity
  8
0
100
AcDbLine
 62
7
  6
BYLAYER
 10
34.78785712
 20
59.1604925719
 11
35.5886163081
 21
63.0736398852
  0
LINE
  5
26C
100
AcDbEntity
  8
0
100
AcDbLine
 62
7
  6
BYLAYER
 10
34.8378409116
 20
59.3751236307
 11
34.7186188411
 21
58.7925096168
  0
LINE
  5
26D
100
AcDbEntity
  8
0
100
AcDbLine
 62
7
  6
BYLAYER
 10
30.6695780919
 20
60.1013193041
 11
30.5467062016
 21
60.8350315242
  0
LINE
  5
26E
100
AcDbEntity
  8
0
100
AcDbLine
 62
7
  6
BYLAYER
 10
31.1830996551
 20
56.8782515109
 11
31.1173556335
 21
57.3804613713
  0
LINE
  5
26F
100
AcDbEntity
  8
0
100
AcDbLine
 62
7
  6
BYLAYER
 10
37.1352305549
 20
59.4925066217
 11
37.1128150211
 21
60.0639679982
  0
LINE
  5
270
100
AcDbEntity
  8
0
100
AcDbLine
 62
7
  6
BYLAYER
 10
35.3550122946
 20
64.4901747132
 11
35.3550122946
 21
63.9919567385
  0
LINE
  5
271
100
AcDbEntity
  8
0
100
AcDbLine
 62
7
  6
BYLAYER
 10
35.6006632976
 20
63.1862583643
 11
35.6006632976
 21
63.5347094681
  0
LINE
  5
272
100
AcDbEntity
  8
0
100
AcDbLine
 62
7
  6
BYLAYER
 10
36.8399132778
 20
21.1208337733
 11
36.8399132778
 21
20.1410308727
  0
LINE
  5
273
100
AcDbEntity
  8
0
100
AcDbLine
 62
7
  6
BYLAYER
 10
37.1192557286
 20
60.8764540976
 11
37.1241277999
 21
61.1099722089
  0
LINE
  5
274
100
AcDbEntity
  8
0
100
AcDbLine
 62
7
  6
BYLAYER
 10
31.0416788876
 20
51.5456400815
 11
30.8427246764
 21
51.6400728375
  0
LINE
  5
275
100
AcDbEntity
  8
0
100
AcDbLine
 62
7
  6
BYLAYER
 10
37.8825961316
 20
81.3641519322
 11
37.8946649216
 21
81.1949357386
  0
LINE
  5
276
100
AcDbEntity
  8
0
100
AcDbLine
 62
7
  6
BYLAYER
 10
37.143614612
 20
59.2787635855
 11
37.1293559225
 21
59.4922761896
  0
LINE
  5
277
100
AcDbEntity
  8
0
100
AcDbLine
 62
7
  6
BYLAYER
 10
39.6751331024
 20
64.1978961061
 11
39.707106905
 21
63.4749555847
  0
LINE
  5
278
100
AcDbEntity
  8
0
100
AcDbLine
 62
7
  6
BYLAYER
 10
37.8296649216
 20
84.6242458905
 11
37.8296649216
 21
80.8541161699
  0
LINE
  5
279
100
AcDbEntity
  8
0
100
AcDbLine
 62
7
  6
BYLAYER
 10
38.1480662693
 20
11.6290125141
 11
38.1480662693
 21
19.3857854768
  0
LINE
  5
27A
100
AcDbEntity
  8
0
100
AcDbLine
 62
7
  6
BYLAYER
 10
38.2894882143
 20
12.1568100642
 11
38.2894882143
 21
16.860725444
  0
LINE
  5
27B
100
AcDbEntity
  8
0
100
AcDbLine
 62
7
  6
BYLAYER
 10
40.410799726
 20
13.3815425259
 11
40.410799726
 21
17.8100294089
  0
LINE
  5
27C
100
AcDbEntity
  8
0
100
AcDbLine
 62
7
  6
BYLAYER
 10
40.5296649216
 20
71.8868081833
 11
40.5296649216
 21
80.1707673826
  0
LINE
  5
27D
100
AcDbEntity
  8
0
100
AcDbLine
 62
7
  6
BYLAYER
 10
42.6122407146
 20
65.0420816875
 11
42.6377993537
 21
65.1669815589
  0
LINE
  5
27E
100
AcDbEntity
  8
0
100
AcDbLine
 62
7
  6
BYLAYER
 10
37.4959933261
 20
60.20441359
 11
37.1310726006
 21
61.9876903634
  0
LINE
  5
27F
100
AcDbEntity
  8
0
100
AcDbLine
 62
7
  6
BYLAYER
 10
40.4142107422
 20
63.8831997386
 11
40.3822369397
 21
64.6061402599
  0
LINE
  5
280
100
AcDbEntity
  8
0
100
AcDbLine
 62
7
  6
BYLAYER
 10
42.3296649216
 20
71.4785569748
 11
42.3296649216
 21
70.455587138
  0
LINE
  5
281
100
AcDbEntity
  8
0
100
AcDbLine
 62
7
  6
BYLAYER
 10
32.8123835639
 20
56.7344322659
 11
32.0521423324
 21
56.7048626616
  0
LINE
  5
282
100
AcDbEntity
  8
0
100
AcDbLine
 62
7
  6
BYLAYER
 10
32.8520781348
 20
56.8153544698
 11
32.0918514177
 21
56.7857851723
  0
LINE
  5
283
100
AcDbEntity
  8
0
100
AcDbLine
 62
7
  6
BYLAYER
 10
18.1015850485
 20
66.3142018972
 11
29.3446296783
 21
59.8231739003
  0
LINE
  5
284
100
AcDbEntity
  8
0
100
AcDbLine
 62
7
  6
BYLAYER
 10
32.3352460727
 20
58.6176731509
 11
32.5876818368
 21
58.4719325916
  0
LINE
  5
285
100
AcDbEntity
  8
0
100
AcDbLine
 62
7
  6
BYLAYER
 10
32.6016498446
 20
58.7638688619
 11
32.6425854187
 21
58.7402352318
  0
LINE
  5
286
100
AcDbEntity
  8
0
100
AcDbLine
 62
7
  6
BYLAYER
 10
38.8988321936
 20
63.0083007481
 11
38.9071176206
 21
62.9678119285
  0
LINE
  5
287
100
AcDbEntity
  8
0
100
AcDbLine
 62
7
  6
BYLAYER
 10
39.6142214578
 20
63.3760560824
 11
39.6059360308
 21
63.416544902
  0
LINE
  5
288
100
AcDbEntity
  8
0
100
AcDbLine
 62
7
  6
BYLAYER
 10
44.2468259726
 20
29.3572682198
 11
44.2468259726
 21
24.4173883845
  0
LINE
  5
289
100
AcDbEntity
  8
0
100
AcDbLine
 62
7
  6
BYLAYER
 10
45.6080117519
 20
23.6927613002
 11
45.6080117519
 21
15.9359883375
  0
LINE
  5
28A
100
AcDbEntity
  8
0
100
AcDbLine
 62
7
  6
BYLAYER
 10
45.7259218606
 20
26.4790041948
 11
45.7259218606
 21
30.2112195315
  0
LINE
  5
28B
100
AcDbEntity
  8
0
100
AcDbLine
 62
7
  6
BYLAYER
 10
34.608538344
 20
58.9374178722
 11
32.7644117268
 21
58.4432984438
  0
LINE
  5
28C
100
AcDbEntity
  8
0
100
AcDbLine
 62
7
  6
BYLAYER
 10
32.9437305028
 20
58.6663731434
 11
34.78785712
 21
59.1604925719
  0
LINE
  5
28D
100
AcDbEntity
  8
0
100
AcDbLine
 62
7
  6
BYLAYER
 10
32.7180957548
 20
58.7604676409
 11
32.6425854187
 21
58.7402352318
  0
LINE
  5
28E
100
AcDbEntity
  8
0
100
AcDbLine
 62
7
  6
BYLAYER
 10
34.7186188411
 20
58.7925096168
 11
34.9175730524
 21
58.6980768608
  0
LINE
  5
28F
100
AcDbEntity
  8
0
100
AcDbLine
 62
7
  6
BYLAYER
 10
30.5467062016
 20
60.8350315242
 11
29.2739086963
 21
61.5698648823
  0
LINE
  5
290
100
AcDbEntity
  8
0
100
AcDbLine
 62
7
  6
BYLAYER
 10
34.7186188411
 20
58.7925096168
 11
34.5122924361
 21
58.9116295275
  0
LINE
  5
291
100
AcDbEntity
  8
0
100
AcDbLine
 62
7
  6
BYLAYER
 10
32.1655718148
 20
62.5477336312
 11
32.1222698504
 21
62.5727334665
  0
LINE
  5
292
100
AcDbEntity
  8
0
100
AcDbLine
 62
7
  6
BYLAYER
 10
40.0286048224
 20
64.4019718805
 11
40.2023685454
 21
63.9926843906
  0
LINE
  5
293
100
AcDbEntity
  8
0
100
AcDbLine
 62
7
  6
BYLAYER
 10
39.5238870138
 20
63.3691741627
 11
39.5946000472
 21
63.1869224086
  0
LINE
  5
294
100
AcDbEntity
  8
0
100
AcDbLine
 62
7
  6
BYLAYER
 10
37.8296649216
 20
84.6242458905
 11
37.7104015421
 21
85.1472488988
  0
LINE
  5
295
100
AcDbEntity
  8
0
100
AcDbLine
 62
7
  6
BYLAYER
 10
41.3736956239
 20
64.4371552867
 11
41.7386163494
 21
62.6538785133
  0
LINE
  5
296
100
AcDbEntity
  8
0
100
AcDbLine
 62
7
  6
BYLAYER
 10
46.5693955153
 20
68.1782766063
 11
46.6013693178
 21
67.455336085
  0
LINE
  5
297
100
AcDbEntity
  8
0
100
AcDbLine
 62
7
  6
BYLAYER
 10
46.5802857104
 20
67.206225049
 11
46.5802857104
 21
67.4431635312
  0
LINE
  5
298
100
AcDbEntity
  8
0
100
AcDbLine
 62
7
  6
BYLAYER
 10
46.5802857104
 20
67.9320449194
 11
46.5802857104
 21
69.3617914303
  0
LINE
  5
299
100
AcDbEntity
  8
0
100
AcDbLine
 62
7
  6
BYLAYER
 10
47.6289546484
 20
18.7528495436
 11
47.6289546484
 21
26.5096225064
  0
LINE
  5
29A
100
AcDbEntity
  8
0
100
AcDbLine
 62
7
  6
BYLAYER
 10
38.1480662693
 20
11.6290125141
 11
38.2894882143
 21
12.1568100642
  0
LINE
  5
29B
100
AcDbEntity
  8
0
100
AcDbLine
 62
7
  6
BYLAYER
 10
40.410799726
 20
13.3815425259
 11
40.2693777809
 21
12.8537449757
  0
LINE
  5
29C
100
AcDbEntity
  8
0
100
AcDbLine
 62
7
  6
BYLAYER
 10
32.5064061282
 20
62.9044324651
 11
33.3902932846
 21
62.3941315219
  0
LINE
  5
29D
100
AcDbEntity
  8
0
100
AcDbLine
 62
7
  6
BYLAYER
 10
33.4495087053
 20
62.6835052409
 11
32.5656215488
 21
63.1938061841
  0
LINE
  5
29E
100
AcDbEntity
  8
0
100
AcDbLine
 62
7
  6
BYLAYER
 10
29.3396585918
 20
67.0519428833
 11
28.0767202397
 21
67.7810841854
  0
LINE
  5
29F
100
AcDbEntity
  8
0
100
AcDbLine
 62
7
  6
BYLAYER
 10
35.3178194075
 20
64.027059453
 11
34.4339322511
 21
64.5373603961
  0
LINE
  5
2A0
100
AcDbEntity
  8
0
100
AcDbLine
 62
7
  6
BYLAYER
 10
34.0822147894
 20
65.2250080713
 11
35.3550122946
 21
64.4901747132
  0
LINE
  5
2A1
100
AcDbEntity
  8
0
100
AcDbLine
 62
7
  6
BYLAYER
 10
42.7587598601
 20
62.5206498441
 11
42.0789785772
 21
64.0019768819
  0
LWPOLYLINE
  5
2A2
100
AcDbEntity
  8
0
100
AcDbPolyline
 62
7
  6
BYLAYER
 90
3
 70
0
 10
40.5296597442
 20
80.1707911349
 10
40.4877596326
 20
80.3835348781
 10
40.3247005478
 20
80.5637269581
  0
LINE
  5
2A3
100
AcDbEntity
  8
0
100
AcDbLine
 62
7
  6
BYLAYER
 10
50.0981267117
 20
36.5322350565
 11
50.0981270061
 21
36.409759172
  0
LINE
  5
2A4
100
AcDbEntity
  8
0
100
AcDbLine
 62
7
  6
BYLAYER
 10
50.5577447947
 20
36.7975940964
 11
50.5577447947
 21
72.0704985164
  0
LINE
  5
2A5
100
AcDbEntity
  8
0
100
AcDbLine
 62
7
  6
BYLAYER
 10
29.3446296783
 20
24.5502694803
 11
50.5577447947
 21
36.7975940964
  0
LINE
  5
2A6
100
AcDbEntity
  8
0
100
AcDbLine
 62
7
  6
BYLAYER
 10
29.7335364944
 20
24.7339777686
 11
50.0981270061
 21
36.4914094001
  0
LINE
  5
2A7
100
AcDbEntity
  8
0
100
AcDbLine
 62
7
  6
BYLAYER
 10
32.5064061282
 20
62.9044324651
 11
32.4472363343
 21
62.9027507387
  0
LINE
  5
2A8
100
AcDbEntity
  8
0
100
AcDbLine
 62
7
  6
BYLAYER
 10
40.2023685454
 20
63.9926843906
 11
40.4142107422
 21
63.8831997386
  0
LINE
  5
2A9
100
AcDbEntity
  8
0
100
AcDbLine
 62
7
  6
BYLAYER
 10
29.0931682401
 20
69.9703194276
 11
31.0102051727
 21
68.8635426772
  0
LINE
  5
2AA
100
AcDbEntity
  8
0
100
AcDbLine
 62
7
  6
BYLAYER
 10
29.0931682401
 20
72.991378371
 11
31.0102051727
 21
71.8846016206
  0
LINE
  5
2AB
100
AcDbEntity
  8
0
100
AcDbLine
 62
7
  6
BYLAYER
 10
29.1839001949
 20
73.4066551644
 11
31.6158938384
 21
72.0025747442
  0
LINE
  5
2AC
100
AcDbEntity
  8
0
100
AcDbLine
 62
7
  6
BYLAYER
 10
46.4769233998
 20
67.3822690069
 11
46.5802857104
 21
67.206225049
  0
LINE
  5
2AD
100
AcDbEntity
  8
0
100
AcDbLine
 62
7
  6
BYLAYER
 10
46.9161597279
 20
30.8983995827
 11
32.5619489084
 21
22.6110345162
  0
LINE
  5
2AE
100
AcDbEntity
  8
0
100
AcDbLine
 62
7
  6
BYLAYER
 10
36.8399132778
 20
21.1208337733
 11
38.9612247894
 21
22.3455662349
  0
LINE
  5
2AF
100
AcDbEntity
  8
0
100
AcDbLine
 62
7
  6
BYLAYER
 10
44.2468259726
 20
24.4173883845
 11
39.8097711227
 21
21.8556688639
  0
LINE
  5
2B0
100
AcDbEntity
  8
0
100
AcDbLine
 62
7
  6
BYLAYER
 10
36.8399132778
 20
20.1410308727
 11
31.5543120946
 21
17.0894058225
  0
LINE
  5
2B1
100
AcDbEntity
  8
0
100
AcDbLine
 62
7
  6
BYLAYER
 10
28.2657252973
 20
79.29754181
 11
29.4334383314
 21
78.6233776271
  0
LINE
  5
2B2
100
AcDbEntity
  8
0
100
AcDbLine
 62
7
  6
BYLAYER
 10
32.403299177
 20
76.9087664581
 11
33.571012211
 21
76.2346022752
  0
LINE
  5
2B3
100
AcDbEntity
  8
0
100
AcDbLine
 62
7
  6
BYLAYER
 10
30.3867272814
 20
78.1621692109
 11
32.3236777799
 21
77.0438956178
  0
LINE
  5
2B4
100
AcDbEntity
  8
0
100
AcDbLine
 62
7
  6
BYLAYER
 10
35.7380543739
 20
79.3618831146
 11
35.6719462112
 21
79.4095579366
  0
LINE
  5
2B5
100
AcDbEntity
  8
0
100
AcDbLine
 62
7
  6
BYLAYER
 10
41.1702436167
 20
73.6622122254
 11
40.481430881
 21
74.2386172385
  0
LINE
  5
2B6
100
AcDbEntity
  8
0
100
AcDbLine
 62
7
  6
BYLAYER
 10
32.8094322983
 20
16.3035421151
 11
38.1480662693
 21
19.3857854768
  0
LINE
  5
2B7
100
AcDbEntity
  8
0
100
AcDbLine
 62
7
  6
BYLAYER
 10
41.1179241142
 20
21.100423468
 11
45.6080117519
 21
23.6927613002
  0
LINE
  5
2B8
100
AcDbEntity
  8
0
100
AcDbLine
 62
7
  6
BYLAYER
 10
41.2239759099
 20
21.0391958204
 11
39.1026643982
 21
19.8144633588
  0
LINE
  5
2B9
100
AcDbEntity
  8
0
100
AcDbLine
 62
7
  6
BYLAYER
 10
41.9239727761
 20
18.6836550618
 11
39.8026612644
 21
17.4589226002
  0
LINE
  5
2BA
100
AcDbEntity
  8
0
100
AcDbLine
 62
7
  6
BYLAYER
 10
29.3515470446
 20
83.1501365235
 11
29.3293582987
 21
83.1612426799
  0
LINE
  5
2BB
100
AcDbEntity
  8
0
100
AcDbLine
 62
7
  6
BYLAYER
 10
35.8738961
 20
79.3844150373
 11
35.873808529
 21
79.3844593309
  0
LINE
  5
2BC
100
AcDbEntity
  8
0
100
AcDbLine
 62
7
  6
BYLAYER
 10
35.8809330287
 20
79.3804786144
 11
35.8738961
 21
79.3844150373
  0
LINE
  5
2BD
100
AcDbEntity
  8
0
100
AcDbLine
 62
7
  6
BYLAYER
 10
28.5073561517
 20
82.2050017972
 11
29.2706878882
 21
81.7643019836
  0
LINE
  5
2BE
100
AcDbEntity
  8
0
100
AcDbLine
 62
7
  6
BYLAYER
 10
33.8882300782
 20
79.0984230675
 11
35.7347647433
 21
78.0323498993
  0
LINE
  5
2BF
100
AcDbEntity
  8
0
100
AcDbLine
 62
7
  6
BYLAYER
 10
35.8586037944
 20
78.1499369766
 11
34.0120469672
 21
79.2160229398
  0
LINE
  5
2C0
100
AcDbEntity
  8
0
100
AcDbLine
 62
7
  6
BYLAYER
 10
29.2988861597
 20
81.9371060416
 11
28.6312095198
 21
82.3225806087
  0
LINE
  5
2C1
100
AcDbEntity
  8
0
100
AcDbLine
 62
7
  6
BYLAYER
 10
29.2086632423
 20
83.131543561
 11
29.5231134314
 21
82.9499997667
  0
LINE
  5
2C2
100
AcDbEntity
  8
0
100
AcDbLine
 62
7
  6
BYLAYER
 10
35.73805678
 20
79.3618817255
 11
37.2597849498
 21
78.4833314325
  0
LINE
  5
2C3
100
AcDbEntity
  8
0
100
AcDbLine
 62
7
  6
BYLAYER
 10
37.4026681194
 20
78.5019248272
 11
35.8809379244
 21
79.3804762894
  0
LINE
  5
2C4
100
AcDbEntity
  8
0
100
AcDbLine
 62
7
  6
BYLAYER
 10
29.552988384
 20
83.0338370099
 11
29.3515477164
 21
83.1501362025
  0
LINE
  5
2C5
100
AcDbEntity
  8
0
100
AcDbLine
 62
7
  6
BYLAYER
 10
50.5577447947
 20
72.0704985164
 11
40.5296649216
 21
77.8600821528
  0
LINE
  5
2C6
100
AcDbEntity
  8
0
100
AcDbLine
 62
7
  6
BYLAYER
 10
39.7389943162
 20
17.4283150413
 11
39.8025471984
 21
17.459120226
  0
LINE
  5
2C7
100
AcDbEntity
  8
0
100
AcDbLine
 62
7
  6
BYLAYER
 10
38.2894882143
 20
16.860725444
 11
39.7389943162
 21
17.4283150413
  0
LINE
  5
2C8
100
AcDbEntity
  8
0
100
AcDbLine
 62
7
  6
BYLAYER
 10
33.4457313571
 20
79.1155189122
 11
33.4457623667
 21
79.1155268721
  0
LINE
  5
2C9
100
AcDbEntity
  8
0
100
AcDbLine
 62
7
  6
BYLAYER
 10
29.3293582987
 20
83.1612426799
 11
29.3286934004
 21
83.1615340832
  0
LINE
  5
2CA
100
AcDbEntity
  8
0
100
AcDbLine
 62
7
  6
BYLAYER
 10
38.4895499576
 20
81.6232323579
 11
38.217980114
 21
81.7536808941
  0
LINE
  5
2CB
100
AcDbEntity
  8
0
100
AcDbLine
 62
7
  6
BYLAYER
 10
37.7860519318
 20
80.4803878088
 11
39.3077821267
 21
79.6018363466
  0
LINE
  5
2CC
100
AcDbEntity
  8
0
100
AcDbLine
 62
7
  6
BYLAYER
 10
39.4506660656
 20
79.7482296756
 11
37.9289379237
 21
80.6267799525
  0
LINE
  5
2CD
100
AcDbEntity
  8
0
100
AcDbLine
 62
7
  6
BYLAYER
 10
38.181560363
 20
81.6232800908
 11
40.0281255481
 21
80.5571893023
  0
LINE
  5
2CE
100
AcDbEntity
  8
0
100
AcDbLine
 62
7
  6
BYLAYER
 10
38.3053557624
 20
81.6487326052
 11
40.1519644691
 21
80.5826166901
  0
LINE
  5
2CF
100
AcDbEntity
  8
0
100
AcDbLine
 62
7
  6
BYLAYER
 10
38.4895499576
 20
81.6232323579
 11
40.325711152
 21
80.5631481804
  0
LINE
  5
2D0
100
AcDbEntity
  8
0
100
AcDbLine
 62
7
  6
BYLAYER
 10
40.410799726
 20
13.3815425259
 11
38.2894882143
 21
12.1568100642
  0
LINE
  5
2D1
100
AcDbEntity
  8
0
100
AcDbLine
 62
7
  6
BYLAYER
 10
32.8094322983
 20
8.5467691524
 11
45.6080117519
 21
15.9359883375
  0
LINE
  5
2D2
100
AcDbEntity
  8
0
100
AcDbLine
 62
7
  6
BYLAYER
 10
40.1519644691
 20
80.5826166901
 11
40.3246602835
 21
80.5637495821
  0
LINE
  5
2D3
100
AcDbEntity
  8
0
100
AcDbLine
 62
7
  6
BYLAYER
 10
38.217980114
 20
81.7536808941
 11
38.217610156
 21
81.7538259255
  0
LINE
  5
2D4
100
AcDbEntity
  8
0
100
AcDbLine
 62
7
  6
BYLAYER
 10
36.1866288726
 20
88.2081207104
 11
38.2726025618
 21
87.0038104846
  0
ARC
  5
2D5
100
AcDbEntity
  8
0
100
AcDbCircle
 62
7
  6
BYLAYER
 10
-65.7556093791
 20
63.4358826291
 40
102.9060139006
100
AcDbArc
 50
358.7047593821
 51
358.820169518
  0
ARC
  5
2D6
100
AcDbEntity
  8
0
100
AcDbCircle
 62
7
  6
BYLAYER
 10
81.5256906652
 20
-0.9474375082
 40
80.0995027243
100
AcDbArc
 50
129.5272923475
 51
130.6512412936
  0
ARC
  5
2D7
100
AcDbEntity
  8
0
100
AcDbCircle
 62
7
  6
BYLAYER
 10
78.8501025859
 20
1.7811536965
 40
75.6478992241
100
AcDbArc
 50
127.7535314502
 51
129.5614176383
  0
ARC
  5
2D8
100
AcDbEntity
  8
0
100
AcDbCircle
 62
7
  6
BYLAYER
 10
77.7834594554
 20
2.4986237981
 40
75.409944953
100
AcDbArc
 50
127.4126296409
 51
129.0954738703
  0
ARC
  5
2D9
100
AcDbEntity
  8
0
100
AcDbCircle
 62
7
  6
BYLAYER
 10
76.3951565149
 20
4.2923258117
 40
73.1417784214
100
AcDbArc
 50
127.2403184664
 51
127.4024954768
  0
ARC
  5
2DA
100
AcDbEntity
  8
0
100
AcDbCircle
 62
7
  6
BYLAYER
 10
77.177542696
 20
3.9396363147
 40
72.9172362065
100
AcDbArc
 50
126.8669556221
 51
127.7023287987
  0
ARC
  5
2DB
100
AcDbEntity
  8
0
100
AcDbCircle
 62
7
  6
BYLAYER
 10
76.0746564842
 20
4.7143532262
 40
72.6118468691
100
AcDbArc
 50
126.8584551038
 51
127.219400215
  0
ARC
  5
2DC
100
AcDbEntity
  8
0
100
AcDbCircle
 62
7
  6
BYLAYER
 10
66.4459967811
 20
21.747924313
 40
51.5919259013
100
AcDbArc
 50
112.6471331633
 51
112.850978214
  0
ARC
  5
2DD
100
AcDbEntity
  8
0
100
AcDbCircle
 62
7
  6
BYLAYER
 10
75.9711578735
 20
55.7050813094
 40
50.3737327013
100
AcDbArc
 50
147.2838489411
 51
147.6326968453
  0
ARC
  5
2DE
100
AcDbEntity
  8
0
100
AcDbCircle
 62
7
  6
BYLAYER
 10
35.299560665
 20
54.8172682667
 40
4.8202921259
100
AcDbArc
 50
122.4909497156
 51
123.3204657749
  0
ARC
  5
2DF
100
AcDbEntity
  8
0
100
AcDbCircle
 62
7
  6
BYLAYER
 10
35.2507277676
 20
54.893748884
 40
4.7295511478
100
AcDbArc
 50
122.0705207919
 51
122.489658616
  0
ARC
  5
2E0
100
AcDbEntity
  8
0
100
AcDbCircle
 62
7
  6
BYLAYER
 10
29.7381387288
 20
28.1651368618
 40
0.8726656548
100
AcDbArc
 50
285.7465111987
 51
287.3069079802
  0
ARC
  5
2E1
100
AcDbEntity
  8
0
100
AcDbCircle
 62
7
  6
BYLAYER
 10
29.7465379346
 20
28.1410246863
 40
0.8471469021
100
AcDbArc
 50
287.2497032456
 51
297.4799389839
  0
ARC
  5
2E2
100
AcDbEntity
  8
0
100
AcDbCircle
 62
7
  6
BYLAYER
 10
14.6552674432
 20
57.5128862421
 40
22.7928914577
100
AcDbArc
 50
9.6078188144
 51
10.8678873301
  0
ARC
  5
2E3
100
AcDbEntity
  8
0
100
AcDbCircle
 62
7
  6
BYLAYER
 10
33.8890047476
 20
78.1069319153
 40
10.5051342108
100
AcDbArc
 50
253.8618802415
 51
254.0957241918
  0
ARC
  5
2E4
100
AcDbEntity
  8
0
100
AcDbCircle
 62
7
  6
BYLAYER
 10
33.8733094963
 20
76.0785928857
 40
9.8470204635
100
AcDbArc
 50
67.0660099715
 51
68.1044249419
  0
ARC
  5
2E5
100
AcDbEntity
  8
0
100
AcDbCircle
 62
7
  6
BYLAYER
 10
35.2265479646
 20
66.7756667723
 40
9.2845057118
100
AcDbArc
 50
54.7684829084
 51
55.1669494941
  0
ARC
  5
2E6
100
AcDbEntity
  8
0
100
AcDbCircle
 62
7
  6
BYLAYER
 10
27.4740083138
 20
82.4448530751
 40
8.9364838775
100
AcDbArc
 50
311.8193260659
 51
314.4620616518
  0
ARC
  5
2E7
100
AcDbEntity
  8
0
100
AcDbCircle
 62
7
  6
BYLAYER
 10
24.3922949114
 20
60.8687263113
 40
8.5716098207
100
AcDbArc
 50
54.7475419374
 51
58.1900241316
  0
ARC
  5
2E8
100
AcDbEntity
  8
0
100
AcDbCircle
 62
7
  6
BYLAYER
 10
37.5380157037
 20
75.9054707807
 40
8.5481689273
100
AcDbArc
 50
158.2816391088
 51
161.4608883128
  0
ARC
  5
2E9
100
AcDbEntity
  8
0
100
AcDbCircle
 62
7
  6
BYLAYER
 10
37.2755873125
 20
76.0141786814
 40
7.8448172492
100
AcDbArc
 50
160.641840144
 51
161.4839554929
  0
ARC
  5
2EA
100
AcDbEntity
  8
0
100
AcDbCircle
 62
7
  6
BYLAYER
 10
24.9248153427
 20
61.7163897018
 40
7.5705733269
100
AcDbArc
 50
58.2333884938
 51
61.7685474791
  0
ARC
  5
2EB
100
AcDbEntity
  8
0
100
AcDbCircle
 62
7
  6
BYLAYER
 10
25.2678760582
 20
62.3466912949
 40
6.8529716211
100
AcDbArc
 50
61.8028027356
 51
65.8031782316
  0
ARC
  5
2EC
100
AcDbEntity
  8
0
100
AcDbCircle
 62
7
  6
BYLAYER
 10
34.5531663191
 20
80.6060024098
 40
6.2537264065
100
AcDbArc
 50
165.1854722993
 51
165.97181746
  0
ARC
  5
2ED
100
AcDbEntity
  8
0
100
AcDbCircle
 62
7
  6
BYLAYER
 10
36.0988966325
 20
83.0520325194
 40
5.6226367753
100
AcDbArc
 50
120.0105925047
 51
121.6307568961
  0
ARC
  5
2EE
100
AcDbEntity
  8
0
100
AcDbCircle
 62
7
  6
BYLAYER
 10
34.7734269424
 20
80.8169943979
 40
5.5879473941
100
AcDbArc
 50
178.3367512222
 51
179.996952747
  0
ARC
  5
2EF
100
AcDbEntity
  8
0
100
AcDbCircle
 62
7
  6
BYLAYER
 10
34.3103516576
 20
84.1857305735
 40
5.1634980804
100
AcDbArc
 50
359.9962071197
 51
1.8228942456
  0
ARC
  5
2F0
100
AcDbEntity
  8
0
100
AcDbCircle
 62
7
  6
BYLAYER
 10
34.214877302
 20
80.5046832188
 40
4.722692669
100
AcDbArc
 50
240.0177969749
 51
242.84450039
  0
ARC
  5
2F1
100
AcDbEntity
  8
0
100
AcDbCircle
 62
7
  6
BYLAYER
 10
28.4108828183
 20
58.4976345026
 40
4.5232053787
100
AcDbArc
 50
353.3858573631
 51
356.395458114
  0
ARC
  5
2F2
100
AcDbEntity
  8
0
100
AcDbCircle
 62
7
  6
BYLAYER
 10
43.2940347893
 20
66.6305781727
 40
3.7812000559
100
AcDbArc
 50
359.9990559661
 51
0.6529620149
  0
ARC
  5
2F3
100
AcDbEntity
  8
0
100
AcDbCircle
 62
7
  6
BYLAYER
 10
29.4954548716
 20
58.3134905299
 40
3.5968034835
100
AcDbArc
 50
359.9848943457
 51
3.6340172206
  0
ARC
  5
2F4
100
AcDbEntity
  8
0
100
AcDbCircle
 62
7
  6
BYLAYER
 10
31.6818027608
 20
80.6798847558
 40
3.4823914161
100
AcDbArc
 50
135.2499079826
 51
138.0380421972
  0
ARC
  5
2F5
100
AcDbEntity
  8
0
100
AcDbCircle
 62
7
  6
BYLAYER
 10
28.5686067277
 20
56.3237410915
 40
3.3676137332
100
AcDbArc
 50
295.7081978896
 51
296.9760528899
  0
ARC
  5
2F6
100
AcDbEntity
  8
0
100
AcDbCircle
 62
7
  6
BYLAYER
 10
34.7570476427
 20
81.2639628071
 40
3.1287139644
100
AcDbArc
 50
344.3850939707
 51
345.4961802396
  0
ARC
  5
2F7
100
AcDbEntity
  8
0
100
AcDbCircle
 62
7
  6
BYLAYER
 10
29.2995044164
 20
57.8371238654
 40
2.9541600611
100
AcDbArc
 50
355.1018443235
 51
358.2789007555
  0
ARC
  5
2F8
100
AcDbEntity
  8
0
100
AcDbCircle
 62
7
  6
BYLAYER
 10
29.5200711929
 20
57.828811017
 40
2.7334436375
100
AcDbArc
 50
358.3142100771
 51
359.9892129193
  0
ARC
  5
2F9
100
AcDbEntity
  8
0
100
AcDbCircle
 62
7
  6
BYLAYER
 10
30.9799357711
 20
75.0735895385
 40
2.5059317643
100
AcDbArc
 50
259.605477884
 51
265.0225415841
  0
ARC
  5
2FA
100
AcDbEntity
  8
0
100
AcDbCircle
 62
7
  6
BYLAYER
 10
40.5366560638
 20
61.0601709184
 40
2.492831662
100
AcDbArc
 50
108.9697541526
 51
111.7177669819
  0
ARC
  5
2FB
100
AcDbEntity
  8
0
100
AcDbCircle
 62
7
  6
BYLAYER
 10
37.4909992114
 20
79.892370173
 40
1.998246105
100
AcDbArc
 50
60.0189465475
 51
68.6598458409
  0
ARC
  5
2FC
100
AcDbEntity
  8
0
100
AcDbCircle
 62
7
  6
BYLAYER
 10
35.3054699195
 20
82.3851007091
 40
1.1561233798
100
AcDbArc
 50
359.9948792577
 51
2.1408454672
  0
ARC
  5
2FD
100
AcDbEntity
  8
0
100
AcDbCircle
 62
7
  6
BYLAYER
 10
38.1089511727
 20
81.4741967195
 40
0.3
100
AcDbArc
 50
68.5749726482
 51
160.4817409714
  0
ARC
  5
2FE
100
AcDbEntity
  8
0
100
AcDbCircle
 62
7
  6
BYLAYER
 10
35.7380543739
 20
79.1169323895
 40
0.3
100
AcDbArc
 50
63.1702902858
 51
102.7302175771
  0
ARC
  5
2FF
100
AcDbEntity
  8
0
100
AcDbCircle
 62
7
  6
BYLAYER
 10
34.012077058
 20
78.9710548421
 40
0.3
100
AcDbArc
 50
87.2747068675
 51
108.4367449907
  0
ARC
  5
300
100
AcDbEntity
  8
0
100
AcDbCircle
 62
7
  6
BYLAYER
 10
28.6312031316
 20
82.0776335718
 40
0.3
100
AcDbArc
 50
155.0758156069
 51
166.334427958
  0
ARC
  5
301
100
AcDbEntity
  8
0
100
AcDbCircle
 62
7
  6
BYLAYER
 10
29.2086641659
 20
82.8865923026
 40
0.3
100
AcDbArc
 50
66.4160446658
 51
135.2569853485
  0
ARC
  5
302
100
AcDbEntity
  8
0
100
AcDbCircle
 62
7
  6
BYLAYER
 10
33.5202395161
 20
78.8249186234
 40
0.3
100
AcDbArc
 50
104.3744041132
 51
147.0986440129
  0
ARC
  5
303
100
AcDbEntity
  8
0
100
AcDbCircle
 62
7
  6
BYLAYER
 10
38.1220354338
 20
81.4882296923
 40
0.2808271759
100
AcDbArc
 50
63.9651735926
 51
69.478215559
  0
ARC
  5
304
100
AcDbEntity
  8
0
100
AcDbCircle
 62
7
  6
BYLAYER
 10
35.8376850931
 20
79.2893561963
 40
0.1008646558
100
AcDbArc
 50
64.6072711295
 51
68.9064266202
  0
ARC
  5
305
100
AcDbEntity
  8
0
100
AcDbCircle
 62
7
  6
BYLAYER
 10
11.0395314979
 20
112.5425932811
 40
57.4887497748
100
AcDbArc
 50
294.6551065118
 51
296.9887812931
  0
ARC
  5
306
100
AcDbEntity
  8
0
100
AcDbCircle
 62
7
  6
BYLAYER
 10
27.9946914332
 20
86.4143291537
 40
9.649693302
100
AcDbArc
 50
287.8272596513
 51
291.5198160464
  0
ARC
  5
307
100
AcDbEntity
  8
0
100
AcDbCircle
 62
7
  6
BYLAYER
 10
34.3275189345
 20
85.843432256
 40
6.6349134739
100
AcDbArc
 50
267.2747150577
 51
267.3958112205
  0
ARC
  5
308
100
AcDbEntity
  8
0
100
AcDbCircle
 62
7
  6
BYLAYER
 10
34.4516424234
 20
85.0564310372
 40
5.8380436587
100
AcDbArc
 50
282.1814579046
 51
282.7296054558
  0
ARC
  5
309
100
AcDbEntity
  8
0
100
AcDbCircle
 62
7
  6
BYLAYER
 10
79.7436720513
 20
75.1094088149
 40
44.9092402767
100
AcDbArc
 50
198.3621655609
 51
198.4780440809
  0
ARC
  5
30A
100
AcDbEntity
  8
0
100
AcDbCircle
 62
7
  6
BYLAYER
 10
62.5971423374
 20
69.6028816553
 40
20.450539736
100
AcDbArc
 50
192.84992219
 51
194.2280929504
  0
SPLINE
  5
30B
100
AcDbEntity
  8
0
100
AcDbSpline
 62
7
  6
BYLAYER
 70
0
 71
3
 72
11
 73
7
 74
0
 42
0.0000001
 43
0.0000001
 44
0.0000000001
 40
0.0
 40
0.0
 40
0.0
 40
0.0
 40
0.2660723518
 40
0.5232392941
 40
0.7686472899
 40
1.0
 40
1.0
 40
1.0
 40
1.0
 10
38.8708798529
 20
81.4118663101
 30
0.0
 10
38.9674810548
 20
81.6459136443
 30
0.0
 10
39.1386463321
 20
82.1142428591
 30
0.0
 10
39.3288424976
 20
82.821569551
 30
0.0
 10
39.4456132877
 20
83.511254245
 30
0.0
 10
39.4738513416
 20
83.9652291975
 30
0.0
 10
39.4738497267
 20
84.185388759
 30
0.0
  0
SPLINE
  5
30C
100
AcDbEntity
  8
0
100
AcDbSpline
 62
7
  6
BYLAYER
 70
0
 71
3
 72
15
 73
11
 74
0
 42
0.0000001
 43
0.0000001
 44
0.0000000001
 40
0.0
 40
0.0
 40
0.0
 40
0.0
 40
0.1485888269
 40
0.2895052898
 40
0.4227199292
 40
0.5486407959
 40
0.6679993992
 40
0.7819370084
 40
0.8919868036
 40
1.0
 40
1.0
 40
1.0
 40
1.0
 10
33.286678077
 20
87.92085898
 30
0.0
 10
33.4174906149
 20
87.9963831831
 30
0.0
 10
33.6786254188
 20
88.1330877977
 30
0.0
 10
34.0769482676
 20
88.2961197696
 30
0.0
 10
34.4681773364
 20
88.4101688653
 30
0.0
 10
34.8486096468
 20
88.4739977638
 30
0.0
 10
35.214717218
 20
88.4867306252
 30
0.0
 10
35.5629611908
 20
88.4478886757
 30
0.0
 10
35.8896424781
 20
88.3575676911
 30
0.0
 10
36.0915340036
 20
88.2630148095
 30
0.0
 10
36.1866274123
 20
88.2081181809
 30
0.0
  0
SPLINE
  5
30D
100
AcDbEntity
  8
0
100
AcDbSpline
 62
7
  6
BYLAYER
 70
0
 71
3
 72
23
 73
19
 74
0
 42
0.0000001
 43
0.0000001
 44
0.0000000001
 40
0.0
 40
0.0
 40
0.0
 40
0.0
 40
0.0558383874
 40
0.1141793602
 40
0.1747833973
 40
0.2373537243
 40
0.3015489296
 40
0.3669927308
 40
0.4332827706
 40
0.5000000532
 40
0.5667174855
 40
0.6330076378
 40
0.6984510537
 40
0.7626466617
 40
0.8252174271
 40
0.8858180427
 40
0.9441672556
 40
1.0
 40
1.0
 40
1.0
 40
1.0
 10
29.1854801165
 20
80.9805909346
 30
0.0
 10
29.1854790325
 20
81.1337837568
 30
0.0
 10
29.1990758564
 20
81.4471501264
 30
0.0
 10
29.2567872624
 20
81.9235942383
 30
0.0
 10
29.3517181791
 20
82.4128558416
 30
0.0
 10
29.482942821
 20
82.9102377473
 30
0.0
 10
29.6492051863
 20
83.4110150556
 30
0.0
 10
29.8489239594
 20
83.9104013985
 30
0.0
 10
30.0801858383
 20
84.4036260394
 30
0.0
 10
30.3407730964
 20
84.8859741854
 30
0.0
 10
30.628195955
 20
85.3528297432
 30
0.0
 10
30.9397109144
 20
85.7997198621
 30
0.0
 10
31.2723290245
 20
86.2223776462
 30
0.0
 10
31.6228756677
 20
86.6167627438
 30
0.0
 10
31.9880028262
 20
86.9790933703
 30
0.0
 10
32.3642559074
 20
87.3059527544
 30
0.0
 10
32.7480173744
 20
87.5941442915
 30
0.0
 10
33.0126004657
 20
87.76261832
 30
0.0
 10
33.145256132
 20
87.8392066475
 30
0.0
  0
SPLINE
  5
30E
100
AcDbEntity
  8
0
100
AcDbSpline
 62
7
  6
BYLAYER
 70
0
 71
3
 72
17
 73
13
 74
0
 42
0.0000001
 43
0.0000001
 44
0.0000000001
 40
0.0
 40
0.0
 40
0.0
 40
0.0
 40
0.1485777575
 40
0.2894459198
 40
0.4226432182
 40
0.5485392319
 40
0.6678752991
 40
0.7817915737
 40
0.8372268733
 40
0.8919110311
 40
0.9460848191
 40
1.0
 40
1.0
 40
1.0
 40
1.0
 10
39.4738502869
 20
84.3486881048
 30
0.0
 10
39.4738491984
 20
84.4997585028
 30
0.0
 10
39.4616838224
 20
84.7942640843
 30
0.0
 10
39.4036912171
 20
85.220750463
 30
0.0
 10
39.3068519102
 20
85.6165836866
 30
0.0
 10
39.1718907026
 20
85.977981752
 30
0.0
 10
38.99989449
 20
86.301394429
 30
0.0
 10
38.8250840924
 20
86.5387599901
 30
0.0
 10
38.6688895754
 20
86.7048650988
 30
0.0
 10
38.5447634158
 20
86.8169573296
 30
0.0
 10
38.4129644484
 20
86.9173650739
 30
0.0
 10
38.3200775583
 20
86.976400194
 30
0.0
 10
38.2726011015
 20
87.0038079551
 30
0.0
  0
SPLINE
  5
30F
100
AcDbEntity
  8
0
100
AcDbSpline
 62
7
  6
BYLAYER
 70
0
 71
3
 72
17
 73
13
 74
0
 42
0.0000001
 43
0.0000001
 44
0.0000000001
 40
0.0
 40
0.0
 40
0.0
 40
0.0
 40
0.0539151809
 40
0.1080889689
 40
0.1627731267
 40
0.2182084263
 40
0.3321247009
 40
0.4514607681
 40
0.5773567818
 40
0.7105540802
 40
0.8514222425
 40
1.0
 40
1.0
 40
1.0
 40
1.0
 10
30.3867287417
 20
78.1621717404
 30
0.0
 10
30.3392522848
 20
78.1895795014
 30
0.0
 10
30.2463653947
 20
78.2486146215
 30
0.0
 10
30.1145664274
 20
78.3490223658
 30
0.0
 10
29.9904402678
 20
78.4611145966
 30
0.0
 10
29.8342457508
 20
78.6272197053
 30
0.0
 10
29.6594353532
 20
78.8645852665
 30
0.0
 10
29.4874391406
 20
79.1879979435
 30
0.0
 10
29.352477933
 20
79.5493960088
 30
0.0
 10
29.255638626
 20
79.9452292324
 30
0.0
 10
29.1976460208
 20
80.3717156111
 30
0.0
 10
29.1854806448
 20
80.6662211926
 30
0.0
 10
29.1854795562
 20
80.8172915907
 30
0.0
  0
SPLINE
  5
310
100
AcDbEntity
  8
0
100
AcDbSpline
 62
7
  6
BYLAYER
 70
0
 71
3
 72
23
 73
19
 74
0
 42
0.0000001
 43
0.0000001
 44
0.0000000001
 40
0.0
 40
0.0
 40
0.0
 40
0.0
 40
0.0563688811
 40
0.1150577069
 40
0.1758328959
 40
0.2384133372
 40
0.3024805838
 40
0.3676876391
 40
0.4336656647
 40
0.5000318974
 40
0.566396998
 40
0.6323712263
 40
0.6975718095
 40
0.7616308912
 40
0.8242011541
 40
0.8849607328
 40
0.9436389183
 40
1.0
 40
1.0
 40
1.0
 40
1.0
 10
29.1878338439
 20
80.9791850768
 30
0.0
 10
29.1922806511
 20
81.1332665913
 30
0.0
 10
29.2139952351
 20
81.4475079363
 30
0.0
 10
29.2815977561
 20
81.9239246917
 30
0.0
 10
29.3843481185
 20
82.411382964
 30
0.0
 10
29.5213317052
 20
82.9055891097
 30
0.0
 10
29.6913390265
 20
83.4022372174
 30
0.0
 10
29.8928887405
 20
83.8969731531
 30
0.0
 10
30.1242161446
 20
84.3854602991
 30
0.0
 10
30.3832814809
 20
84.8634197227
 30
0.0
 10
30.6678175096
 20
85.3266564972
 30
0.0
 10
30.975335497
 20
85.7711012742
 30
0.0
 10
31.3031266161
 20
86.192865161
 30
0.0
 10
31.6483231887
 20
86.588251473
 30
0.0
 10
32.0079074682
 20
86.9537763399
 30
0.0
 10
32.3787377197
 20
87.2862796763
 30
0.0
 10
32.7575751733
 20
87.5828211226
 30
0.0
 10
33.0189104824
 20
87.7585800182
 30
0.0
 10
33.1501438799
 20
87.8394014744
 30
0.0
  0
SPLINE
  5
311
100
AcDbEntity
  8
0
100
AcDbSpline
 62
7
  6
BYLAYER
 70
0
 71
3
 72
15
 73
11
 74
0
 42
0.0000001
 43
0.0000001
 44
0.0000000001
 40
0.0
 40
0.0
 40
0.0
 40
0.0
 40
0.1080131964
 40
0.2180629916
 40
0.3320006008
 40
0.4513592041
 40
0.5772800708
 40
0.7104947102
 40
0.8514111731
 40
1.0
 40
1.0
 40
1.0
 40
1.0
 10
38.2726011015
 20
87.0038079551
 30
0.0
 10
38.1775076928
 20
87.0587045837
 30
0.0
 10
37.9756161672
 20
87.1532574652
 30
0.0
 10
37.64893488
 20
87.2435784499
 30
0.0
 10
37.3006909072
 20
87.2824203994
 30
0.0
 10
36.9345833359
 20
87.269687538
 30
0.0
 10
36.5541510256
 20
87.2058586394
 30
0.0
 10
36.1629219568
 20
87.0918095437
 30
0.0
 10
35.764599108
 20
86.9287775718
 30
0.0
 10
35.5034643041
 20
86.7920729573
 30
0.0
 10
35.3726517662
 20
86.7165487542
 30
0.0
  0
SPLINE
  5
312
100
AcDbEntity
  8
0
100
AcDbSpline
 62
7
  6
BYLAYER
 70
0
 71
3
 72
28
 73
24
 74
0
 42
0.0000001
 43
0.0000001
 44
0.0000000001
 40
0.0
 40
0.0
 40
0.0
 40
0.0
 40
0.0304307262
 40
0.0619033422
 40
0.1276303432
 40
0.1965511652
 40
0.2678459304
 40
0.3405889214
 40
0.4137912675
 40
0.4864451425
 40
0.5575656322
 40
0.6262340571
 40
0.6916442278
 40
0.7531544236
 40
0.8103483522
 40
0.837295849
 40
0.863150413
 40
0.8879582799
 40
0.9117945765
 40
0.9347652471
 40
0.9570077018
 40
0.978688552
 40
1.0
 40
1.0
 40
1.0
 40
1.0
 10
35.3726517662
 20
86.7165487542
 30
0.0
 10
35.2725381872
 20
86.6587484974
 30
0.0
 10
35.0725661799
 20
86.5346797719
 30
0.0
 10
34.6759013096
 20
86.2555077181
 30
0.0
 10
34.190641457
 20
85.8501138311
 30
0.0
 10
33.6410105454
 20
85.2918579998
 30
0.0
 10
33.126728247
 20
84.6660277301
 30
0.0
 10
32.6583002528
 20
83.985431727
 30
0.0
 10
32.2452611365
 20
83.2639247977
 30
0.0
 10
31.8960412706
 20
82.5162349489
 30
0.0
 10
31.6177610864
 20
81.7575977522
 30
0.0
 10
31.4160893119
 20
81.0034457303
 30
0.0
 10
31.2951512969
 20
80.2689848296
 30
0.0
 10
31.2574770241
 20
79.5690812612
 30
0.0
 10
31.2971078051
 20
79.0152753409
 30
0.0
 10
31.3734315611
 20
78.6040705325
 30
0.0
 10
31.4503023339
 20
78.3190819269
 30
0.0
 10
31.5475458425
 20
78.0528969057
 30
0.0
 10
31.6647312663
 20
77.8068926072
 30
0.0
 10
31.8013068662
 20
77.5823772517
 30
0.0
 10
31.9566278082
 20
77.380559267
 30
0.0
 10
32.1298933475
 20
77.2026078986
 30
0.0
 10
32.2575384585
 20
77.0999441664
 30
0.0
 10
32.3236669516
 20
77.0532397983
 30
0.0
  0
SPLINE
  5
313
100
AcDbEntity
  8
0
100
AcDbSpline
 62
7
  6
BYLAYER
 70
0
 71
3
 72
24
 73
20
 74
0
 42
0.0000001
 43
0.0000001
 44
0.0000000001
 40
0.0
 40
0.0
 40
0.0
 40
0.0
 40
0.0732853171
 40
0.1427759198
 40
0.2085404984
 40
0.2708090468
 40
0.3299923043
 40
0.3866887034
 40
0.4416740961
 40
0.495863214
 40
0.5502401465
 40
0.6057723794
 40
0.6633280196
 40
0.7236199464
 40
0.754979674
 40
0.7872035034
 40
0.8543573792
 40
0.9252974034
 40
1.0
 40
1.0
 40
1.0
 40
1.0
 10
39.4712366437
 20
84.349982167
 30
0.0
 10
39.4667564092
 20
84.4897604306
 30
0.0
 10
39.4465994863
 20
84.761907105
 30
0.0
 10
39.3795145013
 20
85.1548221698
 30
0.0
 10
39.2768289861
 20
85.5183273488
 30
0.0
 10
39.1392925738
 20
85.8490684543
 30
0.0
 10
38.967939088
 20
86.1439528987
 30
0.0
 10
38.7641046808
 20
86.4000547869
 30
0.0
 10
38.5295348562
 20
86.6146432119
 30
0.0
 10
38.2665099164
 20
86.7853358059
 30
0.0
 10
37.9777961662
 20
86.9102656737
 30
0.0
 10
37.6664882196
 20
86.9882185878
 30
0.0
 10
37.3358496011
 20
87.0186867695
 30
0.0
 10
37.0505518032
 20
87.0047136683
 30
0.0
 10
36.8164637574
 20
86.9709824793
 30
0.0
 10
36.571980314
 20
86.9205937551
 30
0.0
 10
36.2598511324
 20
86.8274822046
 30
0.0
 10
35.8840086299
 20
86.672197071
 30
0.0
 10
35.6375298304
 20
86.542877118
 30
0.0
 10
35.5140737112
 20
86.4716001198
 30
0.0
  0
SPLINE
  5
314
100
AcDbEntity
  8
0
100
AcDbSpline
 62
7
  6
BYLAYER
 70
0
 71
3
 72
15
 73
11
 74
0
 42
0.0000001
 43
0.0000001
 44
0.0000000001
 40
0.0
 40
0.0
 40
0.0
 40
0.0
 40
0.1109556043
 40
0.2277757872
 40
0.3497004635
 40
0.4758241698
 40
0.6050878891
 40
0.736346262
 40
0.8683928409
 40
1.0
 40
1.0
 40
1.0
 40
1.0
 10
35.5140737112
 20
86.4716001198
 30
0.0
 10
35.3535657771
 20
86.378931374
 30
0.0
 10
35.0338910924
 20
86.1713073658
 30
0.0
 10
34.5744715321
 20
85.8094496388
 30
0.0
 10
34.1281067284
 20
85.3934970299
 30
0.0
 10
33.7009771368
 20
84.9292631067
 30
0.0
 10
33.2989472449
 20
84.4231112566
 30
0.0
 10
32.9275635332
 20
83.8820405835
 30
0.0
 10
32.5919792115
 20
83.3135648409
 30
0.0
 10
32.3942404231
 20
82.9195912866
 30
0.0
 10
32.3025210236
 20
82.7198046992
 30
0.0
  0
SPLINE
  5
315
100
AcDbEntity
  8
0
100
AcDbSpline
 62
7
  6
BYLAYER
 70
0
 71
3
 72
22
 73
18
 74
0
 42
0.0000001
 43
0.0000001
 44
0.0000000001
 40
0.0
 40
0.0
 40
0.0
 40
0.0
 40
0.1532976106
 40
0.2281629037
 40
0.3014260604
 40
0.3728168037
 40
0.4420926777
 40
0.5090481506
 40
0.5735170424
 40
0.635383978
 40
0.6945896383
 40
0.7511401903
 40
0.805118506
 40
0.8566892494
 40
0.9061105973
 40
0.9537336612
 40
1.0
 40
1.0
 40
1.0
 40
1.0
 10
32.3025210236
 20
82.7198046992
 30
0.0
 10
32.1792651329
 20
82.4513241609
 30
0.0
 10
32.0143038519
 20
82.0427551282
 30
0.0
 10
31.8378440521
 20
81.489136619
 30
0.0
 10
31.7303813879
 20
81.0797567216
 30
0.0
 10
31.6474795689
 20
80.6756964801
 30
0.0
 10
31.5896907422
 20
80.2795434773
 30
0.0
 10
31.5573688906
 20
79.8938647331
 30
0.0
 10
31.550763999
 20
79.5211387639
 30
0.0
 10
31.5699130085
 20
79.1637639866
 30
0.0
 10
31.6147299036
 20
78.8240320565
 30
0.0
 10
31.6849805332
 20
78.5041268277
 30
0.0
 10
31.7802485831
 20
78.2061017146
 30
0.0
 10
31.9000355745
 20
77.9319123292
 30
0.0
 10
32.0436456608
 20
77.6833571143
 30
0.0
 10
32.2102118864
 20
77.4621988476
 30
0.0
 10
32.3373661802
 20
77.3325796274
 30
0.0
 10
32.404041458
 20
77.2733852535
 30
0.0
  0
SPLINE
  5
316
100
AcDbEntity
  8
0
100
AcDbSpline
 62
7
  6
BYLAYER
 70
0
 71
3
 72
15
 73
11
 74
0
 42
0.0000001
 43
0.0000001
 44
0.0000000001
 40
0.0
 40
0.0
 40
0.0
 40
0.0
 40
0.1203326619
 40
0.2453493857
 40
0.3734660882
 40
0.5029658595
 40
0.6320746249
 40
0.7590345553
 40
0.8821628363
 40
1.0
 40
1.0
 40
1.0
 40
1.0
 10
36.271942031
 20
82.2436063498
 30
0.0
 10
36.2610494608
 20
82.1863967979
 30
0.0
 10
36.2328364487
 20
82.0708309736
 30
0.0
 10
36.1739875109
 20
81.8996996986
 30
0.0
 10
36.0988405906
 20
81.7302047536
 30
0.0
 10
36.0089261409
 20
81.5658122083
 30
0.0
 10
35.9060677468
 20
81.4098604579
 30
0.0
 10
35.7923475671
 20
81.2655280243
 30
0.0
 10
35.6701052898
 20
81.1357375071
 30
0.0
 10
35.5822766888
 20
81.0586592988
 30
0.0
 10
35.5374382987
 20
81.0234188831
 30
0.0
  0
SPLINE
  5
317
100
AcDbEntity
  8
0
100
AcDbSpline
 62
7
  6
BYLAYER
 70
0
 71
3
 72
11
 73
7
 74
0
 42
0.0000001
 43
0.0000001
 44
0.0000000001
 40
0.0
 40
0.0
 40
0.0
 40
0.0
 40
0.2302076731
 40
0.4691966038
 40
0.7241659225
 40
1.0
 40
1.0
 40
1.0
 40
1.0
 10
35.7477938562
 20
80.303563328
 30
0.0
 10
35.7178982666
 20
80.3208231615
 30
0.0
 10
35.6611353987
 20
80.3637771702
 30
0.0
 10
35.591940979
 20
80.448617143
 30
0.0
 10
35.5391302395
 20
80.55208914
 30
0.0
 10
35.5163017481
 20
80.6287918302
 30
0.0
 10
35.5074657609
 20
80.669199072
 30
0.0
  0
SPLINE
  5
318
100
AcDbEntity
  8
0
100
AcDbSpline
 62
7
  6
BYLAYER
 70
0
 71
3
 72
9
 73
5
 74
0
 42
0.0000001
 43
0.0000001
 44
0.0000000001
 40
0.0
 40
0.0
 40
0.0
 40
0.0
 40
0.242775441
 40
1.0
 40
1.0
 40
1.0
 40
1.0
 10
35.5074657609
 20
80.669199072
 30
0.0
 10
35.5051793104
 20
80.6796550803
 30
0.0
 10
35.4965957867
 20
80.722904422
 30
0.0
 10
35.4912544218
 20
80.7667769728
 30
0.0
 10
35.4887897
 20
80.8000691255
 30
0.0
  0
SPLINE
  5
319
100
AcDbEntity
  8
0
100
AcDbSpline
 62
7
  6
BYLAYER
 70
0
 71
3
 72
15
 73
11
 74
0
 42
0.0000001
 43
0.0000001
 44
0.0000000001
 40
0.0
 40
0.0
 40
0.0
 40
0.0
 40
0.1112235814
 40
0.2326399572
 40
0.3617159092
 40
0.4951566536
 40
0.6292775708
 40
0.7603396009
 40
0.8848681336
 40
1.0
 40
1.0
 40
1.0
 40
1.0
 10
35.5008002659
 20
80.8002566334
 30
0.0
 10
35.5651200734
 20
80.8318758168
 30
0.0
 10
35.6931792697
 20
80.9115310052
 30
0.0
 10
35.8702376342
 20
81.0642196422
 30
0.0
 10
36.0348566189
 20
81.2498228618
 30
0.0
 10
36.180267794
 20
81.4607455952
 30
0.0
 10
36.3005633224
 20
81.6883747871
 30
0.0
 10
36.3908161186
 20
81.92342416
 30
0.0
 10
36.4473292026
 20
82.1562217704
 30
0.0
 10
36.4615932947
 20
82.3108073705
 30
0.0
 10
36.4615932947
 20
82.384997382
 30
0.0
  0
SPLINE
  5
31A
100
AcDbEntity
  8
0
100
AcDbSpline
 62
7
  6
BYLAYER
 70
0
 71
3
 72
17
 73
13
 74
0
 42
0.0000001
 43
0.0000001
 44
0.0000000001
 40
0.0
 40
0.0
 40
0.0
 40
0.0
 40
0.0575247896
 40
0.1191648303
 40
0.1837709107
 40
0.2502190428
 40
0.384948138
 40
0.5180626584
 40
0.6468130927
 40
0.7700560929
 40
0.88762085
 40
1.0
 40
1.0
 40
1.0
 40
1.0
 10
36.8045489596
 20
82.6769242148
 30
0.0
 10
36.7632065091
 20
82.6530552824
 30
0.0
 10
36.6795369387
 20
82.6001506072
 30
0.0
 10
36.5561425255
 20
82.5103863824
 30
0.0
 10
36.4323620511
 20
82.4090098696
 30
0.0
 10
36.2692537349
 20
82.2604178648
 30
0.0
 10
36.0783666734
 20
82.0584388849
 30
0.0
 10
35.8766842393
 20
81.7976359807
 30
0.0
 10
35.7095659336
 20
81.524366785
 30
0.0
 10
35.583633302
 20
81.2436417584
 30
0.0
 10
35.5046027289
 20
80.9601542361
 30
0.0
 10
35.4857975734
 20
80.7689689514
 30
0.0
 10
35.4857982628
 20
80.6757089026
 30
0.0
  0
SPLINE
  5
31B
100
AcDbEntity
  8
0
100
AcDbSpline
 62
7
  6
BYLAYER
 70
0
 71
3
 72
11
 73
7
 74
0
 42
0.0000001
 43
0.0000001
 44
0.0000000001
 40
0.0
 40
0.0
 40
0.0
 40
0.0
 40
0.2792085669
 40
0.5350394208
 40
0.7726154098
 40
1.0
 40
1.0
 40
1.0
 40
1.0
 10
36.5321137051
 20
82.5046346829
 30
0.0
 10
36.5752935985
 20
82.5209834562
 30
0.0
 10
36.6606651305
 20
82.546099764
 30
0.0
 10
36.7887370121
 20
82.55843492
 30
0.0
 10
36.9080482829
 20
82.5429161572
 30
0.0
 10
36.9802084372
 20
82.5134203716
 30
0.0
 10
37.0127723929
 20
82.4946199912
 30
0.0
  0
SPLINE
  5
31C
100
AcDbEntity
  8
0
100
AcDbSpline
 62
7
  6
BYLAYER
 70
0
 71
3
 72
13
 73
9
 74
0
 42
0.0000001
 43
0.0000001
 44
0.0000000001
 40
0.0
 40
0.0
 40
0.0
 40
0.0
 40
0.2092195217
 40
0.323557662
 40
0.4448121533
 40
0.5731678877
 40
0.7086303995
 40
1.0
 40
1.0
 40
1.0
 40
1.0
 10
30.9489283011
 20
77.2279770294
 30
0.0
 10
30.9905439911
 20
77.1528676369
 30
0.0
 10
31.0679589276
 20
77.0437171036
 30
0.0
 10
31.1906678184
 20
76.908475131
 30
0.0
 10
31.2988926133
 20
76.8053155857
 30
0.0
 10
31.4200930742
 20
76.7037470845
 30
0.0
 10
31.602833044
 20
76.5674818105
 30
0.0
 10
31.7512382402
 20
76.4737690373
 30
0.0
 10
31.8548014913
 20
76.413978119
 30
0.0
  0
SPLINE
  5
31D
100
AcDbEntity
  8
0
100
AcDbSpline
 62
7
  6
BYLAYER
 70
0
 71
3
 72
23
 73
19
 74
0
 42
0.0000001
 43
0.0000001
 44
0.0000000001
 40
0.0
 40
0.0
 40
0.0
 40
0.0
 40
0.0742461184
 40
0.1493585391
 40
0.2246371649
 40
0.2994532709
 40
0.3731561577
 40
0.4451307656
 40
0.5148132185
 40
0.5817053627
 40
0.6454020548
 40
0.7056146607
 40
0.7621991283
 40
0.8151921895
 40
0.8648466672
 40
0.9116604009
 40
0.9563871052
 40
1.0
 40
1.0
 40
1.0
 40
1.0
 10
33.4238123391
 20
82.6724002414
 30
0.0
 10
33.5539497289
 20
82.6522685493
 30
0.0
 10
33.8172352248
 20
82.6208895058
 30
0.0
 10
34.2153987644
 20
82.6002220059
 30
0.0
 10
34.6150875888
 20
82.6058706992
 30
0.0
 10
35.0110364242
 20
82.6377280632
 30
0.0
 10
35.3981475764
 20
82.6953985451
 30
0.0
 10
35.7713892173
 20
82.7781261907
 30
0.0
 10
36.125930435
 20
82.8848428866
 30
0.0
 10
36.457189307
 20
83.0141966029
 30
0.0
 10
36.7609042231
 20
83.1645350594
 30
0.0
 10
37.03317746
 20
83.3339785476
 30
0.0
 10
37.2704974535
 20
83.5204654856
 30
0.0
 10
37.4697658782
 20
83.7217687494
 30
0.0
 10
37.6282803274
 20
83.9355037254
 30
0.0
 10
37.7436628946
 20
84.1591716693
 30
0.0
 10
37.8138587831
 20
84.3897906903
 30
0.0
 10
37.8296652928
 20
84.5468926428
 30
0.0
 10
37.829664847
 20
84.6242458893
 30
0.0
  0
SPLINE
  5
31E
100
AcDbEntity
  8
0
100
AcDbSpline
 62
7
  6
BYLAYER
 70
0
 71
3
 72
11
 73
7
 74
0
 42
0.0000001
 43
0.0000001
 44
0.0000000001
 40
0.0
 40
0.0
 40
0.0
 40
0.0
 40
0.2501340243
 40
0.5023582794
 40
0.753349229
 40
1.0
 40
1.0
 40
1.0
 40
1.0
 10
33.5887951828
 20
82.9309530455
 30
0.0
 10
33.7386385175
 20
82.9110220212
 30
0.0
 10
34.0413760289
 20
82.8835212884
 30
0.0
 10
34.4970848962
 20
82.8786954032
 30
0.0
 10
34.9496307708
 20
82.9100790892
 30
0.0
 10
35.2473708056
 20
82.9552984436
 30
0.0
 10
35.3936272657
 20
82.9840620427
 30
0.0
  0
SPLINE
  5
31F
100
AcDbEntity
  8
0
100
AcDbSpline
 62
7
  6
BYLAYER
 70
0
 71
3
 72
9
 73
5
 74
0
 42
0.0000001
 43
0.0000001
 44
0.0000000001
 40
0.0
 40
0.0
 40
0.0
 40
0.0
 40
0.2555681965
 40
1.0
 40
1.0
 40
1.0
 40
1.0
 10
35.3936272657
 20
82.9840620427
 30
0.0
 10
35.4481795593
 20
82.9947905965
 30
0.0
 10
35.6609296732
 20
83.0402305995
 30
0.0
 10
35.8707596471
 20
83.0996953075
 30
0.0
 10
36.0238331756
 20
83.1525644812
 30
0.0
  0
SPLINE
  5
320
100
AcDbEntity
  8
0
100
AcDbSpline
 62
7
  6
BYLAYER
 70
0
 71
3
 72
20
 73
16
 74
0
 42
0.0000001
 43
0.0000001
 44
0.0000000001
 40
0.0
 40
0.0
 40
0.0
 40
0.0
 40
0.1588747087
 40
0.3068612336
 40
0.4430115559
 40
0.5066997479
 40
0.5675783561
 40
0.6258785485
 40
0.6819291609
 40
0.7361580226
 40
0.7890814201
 40
0.8412926617
 40
0.8934394531
 40
0.9461585406
 40
1.0
 40
1.0
 40
1.0
 40
1.0
 10
36.0238331756
 20
83.1525644812
 30
0.0
 10
36.1677556693
 20
83.2022730323
 30
0.0
 10
36.4409893461
 20
83.3131759414
 30
0.0
 10
36.8126543381
 20
83.5207826103
 30
0.0
 10
37.0784688454
 20
83.7245792698
 30
0.0
 10
37.2551351736
 20
83.9017299842
 30
0.0
 10
37.3667109789
 20
84.0372660654
 30
0.0
 10
37.4595741968
 20
84.1775894017
 30
0.0
 10
37.5330989249
 20
84.3218769021
 30
0.0
 10
37.5867430484
 20
84.4692430447
 30
0.0
 10
37.6201321168
 20
84.6187404756
 30
0.0
 10
37.6329452145
 20
84.7693999755
 30
0.0
 10
37.6250964056
 20
84.9202126916
 30
0.0
 10
37.5966185546
 20
85.0700692539
 30
0.0
 10
37.56454432
 20
85.1673708426
 30
0.0
 10
37.5454186984
 20
85.2152970616
 30
0.0
  0
SPLINE
  5
321
100
AcDbEntity
  8
0
100
AcDbSpline
 62
7
  6
BYLAYER
 70
0
 71
3
 72
14
 73
10
 74
0
 42
0.0000001
 43
0.0000001
 44
0.0000000001
 40
0.0
 40
0.0
 40
0.0
 40
0.0
 40
0.2892710638
 40
0.4225536218
 40
0.5484974626
 40
0.6678867806
 40
0.7818678973
 40
0.8919526758
 40
1.0
 40
1.0
 40
1.0
 40
1.0
 10
36.3802831245
 20
80.3662161019
 30
0.0
 10
36.3247578891
 20
80.3341587837
 30
0.0
 10
36.239507686
 20
80.2935828327
 30
0.0
 10
36.1225977353
 20
80.2594963158
 30
0.0
 10
36.0396162922
 20
80.2455710393
 30
0.0
 10
35.9597735208
 20
80.2428084848
 30
0.0
 10
35.8838177957
 20
80.251262432
 30
0.0
 10
35.8125708114
 20
80.2709777712
 30
0.0
 10
35.7685334982
 20
80.2915895628
 30
0.0
 10
35.7477938562
 20
80.303563328
 30
0.0
  0
SPLINE
  5
322
100
AcDbEntity
  8
0
100
AcDbSpline
 62
7
  6
BYLAYER
 70
0
 71
3
 72
34
 73
30
 74
0
 42
0.0000001
 43
0.0000001
 44
0.0000000001
 40
0.0
 40
0.0
 40
0.0
 40
0.0
 40
0.0344815891
 40
0.0705415486
 40
0.1080896846
 40
0.1469178789
 40
0.1867623145
 40
0.2273461152
 40
0.3096474925
 40
0.3919101982
 40
0.4722859092
 40
0.548888151
 40
0.6197967689
 40
0.6525630263
 40
0.6832903811
 40
0.7118482326
 40
0.7381596529
 40
0.7622124706
 40
0.7840761656
 40
0.8039307982
 40
0.8221133753
 40
0.8391760117
 40
0.8559217966
 40
0.8733533035
 40
0.8925129669
 40
0.9142975815
 40
0.9393344229
 40
0.9679187602
 40
1.0
 40
1.0
 40
1.0
 40
1.0
 10
36.8045489596
 20
79.631370199
 30
0.0
 10
36.8450421855
 20
79.6547488343
 30
0.0
 10
36.9240283934
 20
79.7094977382
 30
0.0
 10
37.0315055404
 20
79.809764057
 30
0.0
 10
37.1293511717
 20
79.9271452109
 30
0.0
 10
37.2169032081
 20
80.0584859672
 30
0.0
 10
37.2941665036
 20
80.2007628853
 30
0.0
 10
37.3843692591
 20
80.4023344303
 30
0.0
 10
37.4729537231
 20
80.6667368174
 30
0.0
 10
37.5480973847
 20
80.9906183568
 30
0.0
 10
37.597871725
 20
81.3114453157
 30
0.0
 10
37.6263320783
 20
81.6193133561
 30
0.0
 10
37.6347523174
 20
81.8637974985
 30
0.0
 10
37.6318224104
 20
82.0460592365
 30
0.0
 10
37.6250658865
 20
82.1707350371
 30
0.0
 10
37.6135508818
 20
82.2862804397
 30
0.0
 10
37.5970050063
 20
82.3920828917
 30
0.0
 10
37.5750463703
 20
82.4876378088
 30
0.0
 10
37.5471604682
 20
82.5725209357
 30
0.0
 10
37.5126645211
 20
82.6463343972
 30
0.0
 10
37.4706573523
 20
82.708590768
 30
0.0
 10
37.4200509235
 20
82.7584806869
 30
0.0
 10
37.3599261553
 20
82.7946867102
 30
0.0
 10
37.2900094562
 20
82.815789018
 30
0.0
 10
37.2104371697
 20
82.820928106
 30
0.0
 10
37.1212475062
 20
82.8097040786
 30
0.0
 10
37.0225597212
 20
82.7818263665
 30
0.0
 10
36.9150222
 20
82.7372289399
 30
0.0
 10
36.8422233512
 20
82.6986754052
 30
0.0
 10
36.8045489596
 20
82.6769242148
 30
0.0
  0
SPLINE
  5
323
100
AcDbEntity
  8
0
100
AcDbSpline
 62
7
  6
BYLAYER
 70
0
 71
3
 72
15
 73
11
 74
0
 42
0.0000001
 43
0.0000001
 44
0.0000000001
 40
0.0
 40
0.0
 40
0.0
 40
0.0
 40
0.1141549864
 40
0.2373269314
 40
0.3669770891
 40
0.5000016033
 40
0.6330258946
 40
0.7626754009
 40
0.8858463197
 40
1.0
 40
1.0
 40
1.0
 40
1.0
 10
37.2747694786
 20
81.9155205143
 30
0.0
 10
37.2747694786
 20
81.8448123461
 30
0.0
 10
37.2618187646
 20
81.6976735473
 30
0.0
 10
37.210189874
 20
81.475697912
 30
0.0
 10
37.1274826929
 20
81.2508533957
 30
0.0
 10
37.0167877077
 20
81.0315952995
 30
0.0
 10
36.8822533466
 20
80.826101258
 30
0.0
 10
36.7288873851
 20
80.6420527415
 30
0.0
 10
36.5624670244
 20
80.4863538263
 30
0.0
 10
36.4415175852
 20
80.4015696233
 30
0.0
 10
36.3802831245
 20
80.3662161019
 30
0.0
  0
SPLINE
  5
324
100
AcDbEntity
  8
0
100
AcDbSpline
 62
7
  6
BYLAYER
 70
0
 71
3
 72
14
 73
10
 74
0
 42
0.0000001
 43
0.0000001
 44
0.0000000001
 40
0.0
 40
0.0
 40
0.0
 40
0.0
 40
0.1080465712
 40
0.2181307126
 40
0.3321114022
 40
0.4515005647
 40
0.577444535
 40
0.7107274922
 40
1.0
 40
1.0
 40
1.0
 40
1.0
 10
37.0127723929
 20
82.4946199912
 30
0.0
 10
37.0335127137
 20
82.4826458342
 30
0.0
 10
37.0733835128
 20
82.4548140243
 30
0.0
 10
37.1260833992
 20
82.4029688107
 30
0.0
 10
37.1713846685
 20
82.3414142733
 30
0.0
 10
37.2089153063
 20
82.2708845393
 30
0.0
 10
37.2383476745
 20
82.1920546834
 30
0.0
 10
37.2672840563
 20
82.0737592967
 30
0.0
 10
37.2747694786
 20
81.9796383031
 30
0.0
 10
37.2747694786
 20
81.9155205143
 30
0.0
  0
SPLINE
  5
325
100
AcDbEntity
  8
0
100
AcDbSpline
 62
7
  6
BYLAYER
 70
0
 71
3
 72
19
 73
15
 74
0
 42
0.0000001
 43
0.0000001
 44
0.0000000001
 40
0.0
 40
0.0
 40
0.0
 40
0.0
 40
0.1323946827
 40
0.2607320327
 40
0.3859055489
 40
0.5084244031
 40
0.5689307755
 40
0.6289941531
 40
0.6888011357
 40
0.748662899
 40
0.8090497104
 40
0.870592658
 40
0.9340149174
 40
1.0
 40
1.0
 40
1.0
 40
1.0
 10
35.4857982628
 20
80.6757089026
 30
0.0
 10
35.4857989259
 20
80.5860046153
 30
0.0
 10
35.502568283
 20
80.4087756111
 30
0.0
 10
35.5799170202
 20
80.1571097793
 30
0.0
 10
35.7046719018
 20
79.9328106099
 30
0.0
 10
35.8447314667
 20
79.7752305486
 30
0.0
 10
35.974781662
 20
79.67355985
 30
0.0
 10
36.080249278
 20
79.6110730143
 30
0.0
 10
36.193019577
 20
79.5639930916
 30
0.0
 10
36.3118969069
 20
79.5344044171
 30
0.0
 10
36.4352602181
 20
79.5245003144
 30
0.0
 10
36.5609543457
 20
79.5362882395
 30
0.0
 10
36.686236225
 20
79.5710957684
 30
0.0
 10
36.7658303546
 20
79.6090161354
 30
0.0
 10
36.8045489596
 20
79.631370199
 30
0.0
  0
SPLINE
  5
326
100
AcDbEntity
  8
0
100
AcDbSpline
 62
7
  6
BYLAYER
 70
0
 71
3
 72
15
 73
11
 74
0
 42
0.0000001
 43
0.0000001
 44
0.0000000001
 40
0.0
 40
0.0
 40
0.0
 40
0.0
 40
0.1141574716
 40
0.2373241512
 40
0.3669750325
 40
0.499998387
 40
0.633021966
 40
0.7626735027
 40
0.8858412151
 40
1.0
 40
1.0
 40
1.0
 40
1.0
 10
46.9161597397
 20
30.8983995896
 30
0.0
 10
47.1339969277
 20
31.024167198
 30
0.0
 10
47.5642536442
 20
31.3257673614
 30
0.0
 10
48.1562506305
 20
31.8796519512
 30
0.0
 10
48.7018215921
 20
32.5343576412
 30
0.0
 10
49.1803941259
 20
33.2653675447
 30
0.0
 10
49.5741778393
 20
34.0453316763
 30
0.0
 10
49.8683822558
 20
34.8451679752
 30
0.0
 10
50.052061388
 20
35.6348015579
 30
0.0
 10
50.0981270067
 20
36.1582199333
 30
0.0
 10
50.098127006
 20
36.40975917
 30
0.0
  0
SPLINE
  5
327
100
AcDbEntity
  8
0
100
AcDbSpline
 62
7
  6
BYLAYER
 70
0
 71
3
 72
15
 73
11
 74
0
 42
0.0000001
 43
0.0000001
 44
0.0000000001
 40
0.0
 40
0.0
 40
0.0
 40
0.0
 40
0.1088612656
 40
0.2196286485
 40
0.3340508618
 40
0.4535947346
 40
0.5793661204
 40
0.7121197316
 40
0.8523137699
 40
1.0
 40
1.0
 40
1.0
 40
1.0
 10
47.6289495883
 20
26.5096225064
 30
0.0
 10
47.6289495902
 20
26.6354275468
 30
0.0
 10
47.6079181276
 20
26.8897135714
 30
0.0
 10
47.514081471
 20
27.2657605111
 30
0.0
 10
47.3590287821
 20
27.6343433999
 30
0.0
 10
47.144565173
 20
27.9919555411
 30
0.0
 10
46.8730059649
 20
28.3356049116
 30
0.0
 10
46.5468682277
 20
28.662412195
 30
0.0
 10
46.1691894078
 20
28.9696331012
 30
0.0
 10
45.8923110278
 20
29.1549857373
 30
0.0
 10
45.7467197056
 20
29.2440498661
 30
0.0
  0
SPLINE
  5
328
100
AcDbEntity
  8
0
100
AcDbSpline
 62
7
  6
BYLAYER
 70
0
 71
3
 72
15
 73
11
 74
0
 42
0.0000001
 43
0.0000001
 44
0.0000000001
 40
0.0
 40
0.0
 40
0.0
 40
0.0
 40
0.1080122391
 40
0.2180597303
 40
0.3319967515
 40
0.4513581881
 40
0.5772717689
 40
0.7104884249
 40
0.8514260584
 40
1.0
 40
1.0
 40
1.0
 40
1.0
 10
47.6289495883
 20
18.7528495436
 30
0.0
 10
47.6289495863
 20
18.6222245094
 30
0.0
 10
47.606247557
 20
18.3579843501
 30
0.0
 10
47.5050102477
 20
17.96768914
 30
0.0
 10
47.3378893874
 20
17.5857922553
 30
0.0
 10
47.1069742823
 20
17.2162000928
 30
0.0
 10
46.8149508632
 20
16.8621995926
 30
0.0
 10
46.4647142487
 20
16.5269571868
 30
0.0
 10
46.059789868
 20
16.2135675089
 30
0.0
 10
45.7636181224
 20
16.0258271811
 30
0.0
 10
45.6080117519
 20
15.9359883375
 30
0.0
  0
SPLINE
  5
329
100
AcDbEntity
  8
0
100
AcDbSpline
 62
7
  6
BYLAYER
 70
0
 71
3
 72
15
 73
11
 74
0
 42
0.0000001
 43
0.0000001
 44
0.0000000001
 40
0.0
 40
0.0
 40
0.0
 40
0.0
 40
0.1080128524
 40
0.2180624991
 40
0.3320019015
 40
0.4513628563
 40
0.5772700647
 40
0.7104927807
 40
0.8514462312
 40
1.0
 40
1.0
 40
1.0
 40
1.0
 10
30.061998041
 20
22.363406735
 30
0.0
 10
30.1439731069
 20
22.3160794761
 30
0.0
 10
30.3180121428
 20
22.2345566873
 30
0.0
 10
30.5996384491
 20
22.1567068272
 30
0.0
 10
30.8998506462
 20
22.1232125294
 30
0.0
 10
31.2154513277
 20
22.1342058808
 30
0.0
 10
31.5434090237
 20
22.1892088681
 30
0.0
 10
31.8807048589
 20
22.2875306717
 30
0.0
 10
32.2240780193
 20
22.42811612
 30
0.0
 10
32.4492062558
 20
22.545942904
 30
0.0
 10
32.5619488993
 20
22.6110345109
 30
0.0
  0
SPLINE
  5
32A
100
AcDbEntity
  8
0
100
AcDbSpline
 62
7
  6
BYLAYER
 70
0
 71
3
 72
15
 73
11
 74
0
 42
0.0000001
 43
0.0000001
 44
0.0000000001
 40
0.0
 40
0.0
 40
0.0
 40
0.0
 40
0.1080120997
 40
0.2180611089
 40
0.3320000825
 40
0.4513608798
 40
0.5772682182
 40
0.7104913349
 40
0.8514454204
 40
1.0
 40
1.0
 40
1.0
 40
1.0
 10
19.5967741088
 20
28.4053699019
 30
0.0
 10
19.5147963588
 20
28.4526987105
 30
0.0
 10
19.3571688722
 20
28.562660597
 30
0.0
 10
19.1489262539
 20
28.7676359086
 30
0.0
 10
18.9698050315
 20
29.0108877383
 30
0.0
 10
18.8215185247
 20
29.2897128624
 30
0.0
 10
18.7051685575
 20
29.6012466209
 30
0.0
 10
18.6216664292
 20
29.9425288909
 30
0.0
 10
18.5717287904
 20
30.3102077898
 30
0.0
 10
18.5612057806
 20
30.5640993342
 30
0.0
 10
18.561205781
 20
30.6942890114
 30
0.0
  0
SPLINE
  5
32B
100
AcDbEntity
  8
0
100
AcDbSpline
 62
7
  6
BYLAYER
 70
0
 71
3
 72
20
 73
16
 74
0
 42
0.0000001
 43
0.0000001
 44
0.0000000001
 40
0.0
 40
0.0
 40
0.0
 40
0.0
 40
0.0623874221
 40
0.1288045021
 40
0.2702893682
 40
0.4173450458
 40
0.5615899772
 40
0.630222811
 40
0.6953477321
 40
0.7563284052
 40
0.8127995554
 40
0.8647326665
 40
0.9125290083
 40
0.9571400384
 40
1.0
 40
1.0
 40
1.0
 40
1.0
 10
41.2239759099
 20
21.0391958204
 30
0.0
 10
41.2742494908
 20
21.0101710116
 30
0.0
 10
41.3741678199
 20
20.9433647422
 30
0.0
 10
41.5669057449
 20
20.7812121685
 30
0.0
 10
41.7863201971
 20
20.5315332964
 30
0.0
 10
41.9980981983
 20
20.1870534133
 30
0.0
 10
42.1243945864
 20
19.8747612973
 30
0.0
 10
42.1867409301
 20
19.6233395181
 30
0.0
 10
42.2122115344
 20
19.4435707845
 30
0.0
 10
42.2165424465
 20
19.2733136471
 30
0.0
 10
42.1995952305
 20
19.1160719852
 30
0.0
 10
42.1615160531
 20
18.9750834926
 30
0.0
 10
42.1027024748
 20
18.8533089218
 30
0.0
 10
42.0239720397
 20
18.7536942177
 30
0.0
 10
41.9584913228
 20
18.7036284448
 30
0.0
 10
41.9239606364
 20
18.6836761923
 30
0.0
  0
SPLINE
  5
32C
100
AcDbEntity
  8
0
100
AcDbSpline
 62
7
  6
BYLAYER
 70
0
 71
3
 72
15
 73
11
 74
0
 42
0.0000001
 43
0.0000001
 44
0.0000000001
 40
0.0
 40
0.0
 40
0.0
 40
0.0
 40
0.1476862614
 40
0.2878803404
 40
0.4206339746
 40
0.546405366
 40
0.6659492313
 40
0.7803714226
 40
0.8911387729
 40
1.0
 40
1.0
 40
1.0
 40
1.0
 10
22.9126163921
 20
21.8548345103
 30
0.0
 10
22.7670246261
 20
21.7657703468
 30
0.0
 10
22.4901453822
 20
21.5804175857
 30
0.0
 10
22.1124653262
 20
21.2731963946
 30
0.0
 10
21.7863264947
 20
20.9463887092
 30
0.0
 10
21.5147663666
 20
20.6027388538
 30
0.0
 10
21.3003020096
 20
20.2451261626
 30
0.0
 10
21.1452487845
 20
19.8765426569
 30
0.0
 10
21.0514117864
 20
19.5004950645
 30
0.0
 10
21.0303802568
 20
19.246208583
 30
0.0
 10
21.0303802549
 20
19.1204033213
 30
0.0
  0
SPLINE
  5
32D
100
AcDbEntity
  8
0
100
AcDbSpline
 62
7
  6
BYLAYER
 70
0
 71
3
 72
15
 73
11
 74
0
 42
0.0000001
 43
0.0000001
 44
0.0000000001
 40
0.0
 40
0.0
 40
0.0
 40
0.0
 40
0.148574205
 40
0.2895120449
 40
0.4227288316
 40
0.5486424549
 40
0.6680038396
 40
0.7819407218
 40
0.8919880057
 40
1.0
 40
1.0
 40
1.0
 40
1.0
 10
23.051358718
 20
8.5467456969
 30
0.0
 10
22.8957494147
 20
8.6365847376
 30
0.0
 10
22.5995720247
 20
8.8243256848
 30
0.0
 10
22.1946396813
 20
9.1377170718
 30
0.0
 10
21.8443960175
 20
9.4729618416
 30
0.0
 10
21.5523666001
 20
9.8269652813
 30
0.0
 10
21.3214466714
 20
10.196560874
 30
0.0
 10
21.1543222593
 20
10.578461582
 30
0.0
 10
21.0530827824
 20
10.9687609004
 30
0.0
 10
21.0303802529
 20
11.233003934
 30
0.0
 10
21.0303802549
 20
11.3636303586
 30
0.0
  0
SPLINE
  5
32E
100
AcDbEntity
  8
0
100
AcDbSpline
 62
7
  6
BYLAYER
 70
0
 71
3
 72
19
 73
15
 74
0
 42
0.0000001
 43
0.0000001
 44
0.0000000001
 40
0.0
 40
0.0
 40
0.0
 40
0.0
 40
0.0558399479
 40
0.1142088924
 40
0.1748235771
 40
0.2374061361
 40
0.3670167079
 40
0.4999994795
 40
0.6329823237
 40
0.7625931072
 40
0.8251758192
 40
0.8857906839
 40
0.9441598315
 40
1.0
 40
1.0
 40
1.0
 40
1.0
 10
32.8094322983
 20
8.5467691524
 30
0.0
 10
32.6459982547
 20
8.4524110265
 30
0.0
 10
32.3032134994
 20
8.2738885247
 30
0.0
 10
31.7592793989
 20
8.0419181394
 30
0.0
 10
31.1786747647
 20
7.84178722
 30
0.0
 10
30.3537457722
 20
7.6174020606
 30
0.0
 10
29.2679572573
 20
7.4298157991
 30
0.0
 10
27.9304037367
 20
7.3547337387
 30
0.0
 10
26.5928491457
 20
7.4298094506
 30
0.0
 10
25.5070582494
 20
7.6173905091
 30
0.0
 10
24.6821262613
 20
7.8417716529
 30
0.0
 10
24.1015187554
 20
8.0418997876
 30
0.0
 10
23.5575813286
 20
8.2738675615
 30
0.0
 10
23.2147940876
 20
8.4523883769
 30
0.0
 10
23.051358718
 20
8.5467456969
 30
0.0
  0
SPLINE
  5
32F
100
AcDbEntity
  8
0
100
AcDbSpline
 62
7
  6
BYLAYER
 70
0
 71
3
 72
20
 73
16
 74
0
 42
0.0000001
 43
0.0000001
 44
0.0000000001
 40
0.0
 40
0.0
 40
0.0
 40
0.0
 40
0.0428599616
 40
0.0874709917
 40
0.1352673335
 40
0.1872004446
 40
0.2436715948
 40
0.3046522679
 40
0.369777189
 40
0.4384100228
 40
0.5826549542
 40
0.7297106318
 40
0.8711954979
 40
0.9376125779
 40
1.0
 40
1.0
 40
1.0
 40
1.0
 10
39.8026491247
 20
17.4589437307
 30
0.0
 10
39.8371798112
 20
17.4788959832
 30
0.0
 10
39.9026605281
 20
17.5289617561
 30
0.0
 10
39.9813909632
 20
17.6285764602
 30
0.0
 10
40.0402045415
 20
17.7503510309
 30
0.0
 10
40.0782837189
 20
17.8913395236
 30
0.0
 10
40.0952309349
 20
18.0485811855
 30
0.0
 10
40.0909000228
 20
18.2188383229
 30
0.0
 10
40.0654294184
 20
18.3986070565
 30
0.0
 10
40.0030830748
 20
18.6500288356
 30
0.0
 10
39.8767866866
 20
18.9623209517
 30
0.0
 10
39.6650086854
 20
19.3068008348
 30
0.0
 10
39.4455942333
 20
19.5564797069
 30
0.0
 10
39.2528563083
 20
19.7186322805
 30
0.0
 10
39.1529379791
 20
19.78543855
 30
0.0
 10
39.1026643982
 20
19.8144633588
 30
0.0
  0
SPLINE
  5
330
100
AcDbEntity
  8
0
100
AcDbSpline
 62
7
  6
BYLAYER
 70
0
 71
3
 72
11
 73
7
 74
0
 42
0.0000001
 43
0.0000001
 44
0.0000000001
 40
0.0
 40
0.0
 40
0.0
 40
0.0
 40
0.2289750897
 40
0.4787311091
 40
0.7379665303
 40
1.0
 40
1.0
 40
1.0
 40
1.0
 10
24.4125233359
 20
25.7233712356
 30
0.0
 10
24.5754921916
 20
25.6292832515
 30
0.0
 10
24.9108098511
 20
25.4232291049
 30
0.0
 10
25.4190940504
 20
25.0923876668
 30
0.0
 10
25.951191197
 20
24.748295014
 30
0.0
 10
26.3171872076
 20
24.5254130641
 30
0.0
 10
26.5036835111
 20
24.4177389154
 30
0.0
  0
SPLINE
  5
331
100
AcDbEntity
  8
0
100
AcDbSpline
 62
7
  6
BYLAYER
 70
0
 71
3
 72
15
 73
11
 74
0
 42
0.0000001
 43
0.0000001
 44
0.0000000001
 40
0.0
 40
0.0
 40
0.0
 40
0.0
 40
0.1080119943
 40
0.2180592782
 40
0.3319961604
 40
0.4513575451
 40
0.5772711684
 40
0.7104879551
 40
0.851425795
 40
1.0
 40
1.0
 40
1.0
 40
1.0
 10
21.0303802549
 20
19.1204033213
 30
0.0
 10
21.0303802529
 20
18.9897768967
 30
0.0
 10
21.0530827824
 20
18.7255338632
 30
0.0
 10
21.1543222593
 20
18.3352345447
 30
0.0
 10
21.3214466714
 20
17.9533338367
 30
0.0
 10
21.5523666001
 20
17.583738244
 30
0.0
 10
21.8443960175
 20
17.2297348043
 30
0.0
 10
22.1946396813
 20
16.8944900345
 30
0.0
 10
22.5995720247
 20
16.5810986476
 30
0.0
 10
22.8957494147
 20
16.3933577003
 30
0.0
 10
23.051358718
 20
16.3035186596
 30
0.0
  0
SPLINE
  5
332
100
AcDbEntity
  8
0
100
AcDbSpline
 62
7
  6
BYLAYER
 70
0
 71
3
 72
20
 73
16
 74
0
 42
0.0000001
 43
0.0000001
 44
0.0000000001
 40
0.0
 40
0.0
 40
0.0
 40
0.0
 40
0.1475058152
 40
0.2159138852
 40
0.2808299261
 40
0.3425468992
 40
0.4014968945
 40
0.4582676769
 40
0.5136005323
 40
0.5683415318
 40
0.6233818419
 40
0.6795908572
 40
0.7377486428
 40
0.8620916028
 40
1.0
 40
1.0
 40
1.0
 40
1.0
 10
29.7335364945
 20
24.6523275248
 30
0.0
 10
29.7335364937
 20
24.4408271531
 30
0.0
 10
29.7565061019
 20
24.129994131
 30
0.0
 10
29.8442386617
 20
23.7364333566
 30
0.0
 10
29.9337279702
 20
23.4708466458
 30
0.0
 10
30.0479425038
 20
23.2297685156
 30
0.0
 10
30.186041566
 20
23.0151644571
 30
0.0
 10
30.3471018668
 20
22.8290321814
 30
0.0
 10
30.5297693211
 20
22.6730849844
 30
0.0
 10
30.7324916297
 20
22.5489021586
 30
0.0
 10
30.953337536
 20
22.4576137061
 30
0.0
 10
31.1902601014
 20
22.4000301537
 30
0.0
 10
31.5320760558
 20
22.367907429
 30
0.0
 10
31.9936298365
 20
22.4192685571
 30
0.0
 10
32.3519099033
 20
22.5417402851
 30
0.0
 10
32.5330619476
 20
22.6210164837
 30
0.0
  0
SPLINE
  5
333
100
AcDbEntity
  8
0
100
AcDbSpline
 62
7
  6
BYLAYER
 70
0
 71
3
 72
9
 73
5
 74
0
 42
0.0000001
 43
0.0000001
 44
0.0000000001
 40
0.0
 40
0.0
 40
0.0
 40
0.0
 40
0.2442162992
 40
1.0
 40
1.0
 40
1.0
 40
1.0
 10
32.5330619476
 20
22.6210164837
 30
0.0
 10
32.5650573478
 20
22.6350183887
 30
0.0
 10
32.6952108986
 20
22.6943044622
 30
0.0
 10
32.82190047
 20
22.7611237792
 30
0.0
 10
32.9155037716
 20
22.815165348
 30
0.0
  0
SPLINE
  5
334
100
AcDbEntity
  8
0
100
AcDbSpline
 62
7
  6
BYLAYER
 70
0
 71
3
 72
15
 73
11
 74
0
 42
0.0000001
 43
0.0000001
 44
0.0000000001
 40
0.0
 40
0.0
 40
0.0
 40
0.0
 40
0.1485545796
 40
0.2895086651
 40
0.4227317818
 40
0.5486391202
 40
0.6679999175
 40
0.7819388911
 40
0.8919879003
 40
1.0
 40
1.0
 40
1.0
 40
1.0
 10
29.0264297132
 20
24.6523258445
 30
0.0
 10
29.0264297128
 20
24.5221361674
 30
0.0
 10
29.0369527225
 20
24.2682446229
 30
0.0
 10
29.0868903614
 20
23.900565724
 30
0.0
 10
29.1703924897
 20
23.559283454
 30
0.0
 10
29.2867424568
 20
23.2477496955
 30
0.0
 10
29.4350289636
 20
22.9689245714
 30
0.0
 10
29.6141501861
 20
22.7256727417
 30
0.0
 10
29.8223928044
 20
22.5206974301
 30
0.0
 10
29.9800202909
 20
22.4107355436
 30
0.0
 10
30.061998041
 20
22.363406735
 30
0.0
  0
SPLINE
  5
335
100
AcDbEntity
  8
0
100
AcDbSpline
 62
7
  6
BYLAYER
 70
0
 71
3
 72
15
 73
11
 74
0
 42
0.0000001
 43
0.0000001
 44
0.0000000001
 40
0.0
 40
0.0
 40
0.0
 40
0.0
 40
0.10801166
 40
0.2180602282
 40
0.3319988302
 40
0.4513592716
 40
0.5772663831
 40
0.710489749
 40
0.8514447311
 40
1.0
 40
1.0
 40
1.0
 40
1.0
 10
45.7259028102
 20
26.4790041948
 30
0.0
 10
45.7259028123
 20
26.383402447
 30
0.0
 10
45.7093214907
 20
26.1900056038
 30
0.0
 10
45.635196643
 20
25.9043587128
 30
0.0
 10
45.5128874184
 20
25.6248542241
 30
0.0
 10
45.3438941997
 20
25.3543549223
 30
0.0
 10
45.1301644122
 20
25.0952715733
 30
0.0
 10
44.8738271593
 20
24.8498951791
 30
0.0
 10
44.5774515264
 20
24.6205464215
 30
0.0
 10
44.3606973388
 20
24.483131656
 30
0.0
 10
44.2468259726
 20
24.4173883845
 30
0.0
  0
SPLINE
  5
336
100
AcDbEntity
  8
0
100
AcDbSpline
 62
7
  6
BYLAYER
 70
0
 71
3
 72
14
 73
10
 74
0
 42
0.0000001
 43
0.0000001
 44
0.0000000001
 40
0.0
 40
0.0
 40
0.0
 40
0.0
 40
0.0759414448
 40
0.1636984511
 40
0.2644283038
 40
0.3793353964
 40
0.5096415294
 40
0.6563765019
 40
1.0
 40
1.0
 40
1.0
 40
1.0
 10
23.1550750476
 20
26.3510151867
 30
0.0
 10
23.1858990967
 20
26.3332208509
 30
0.0
 10
23.2538594958
 20
26.2975015965
 30
0.0
 10
23.3658878708
 20
26.2444900746
 30
0.0
 10
23.4955246341
 20
26.1860622632
 30
0.0
 10
23.643402301
 20
26.119584809
 30
0.0
 10
23.8100138428
 20
26.0422011312
 30
0.0
 10
24.0711618876
 20
25.9140204441
 30
0.0
 10
24.2730522039
 20
25.8038931096
 30
0.0
 10
24.4125233359
 20
25.7233712356
 30
0.0
  0
SPLINE
  5
337
100
AcDbEntity
  8
0
100
AcDbSpline
 62
7
  6
BYLAYER
 70
0
 71
3
 72
19
 73
15
 74
0
 42
0.0000001
 43
0.0000001
 44
0.0000000001
 40
0.0
 40
0.0
 40
0.0
 40
0.0
 40
0.0558401685
 40
0.1142093161
 40
0.1748241808
 40
0.2374068928
 40
0.3670176763
 40
0.5000005205
 40
0.6329832921
 40
0.7625938639
 40
0.8251764229
 40
0.8857911076
 40
0.9441600521
 40
1.0
 40
1.0
 40
1.0
 40
1.0
 10
23.051358718
 20
16.3035186596
 30
0.0
 10
23.2147940876
 20
16.2091613396
 30
0.0
 10
23.5575813286
 20
16.0306405243
 30
0.0
 10
24.1015187554
 20
15.7986727503
 30
0.0
 10
24.6821262613
 20
15.5985446156
 30
0.0
 10
25.5070582494
 20
15.3741634718
 30
0.0
 10
26.5928491457
 20
15.1865824134
 30
0.0
 10
27.9304037367
 20
15.1115067015
 30
0.0
 10
29.2679572573
 20
15.1865887618
 30
0.0
 10
30.3537457722
 20
15.3741750233
 30
0.0
 10
31.1786747647
 20
15.5985601827
 30
0.0
 10
31.7592793989
 20
15.7986911022
 30
0.0
 10
32.3032134994
 20
16.0306614874
 30
0.0
 10
32.6459982547
 20
16.2091839893
 30
0.0
 10
32.8094322983
 20
16.3035421151
 30
0.0
  0
SPLINE
  5
338
100
AcDbEntity
  8
0
100
AcDbSpline
 62
7
  6
BYLAYER
 70
0
 71
3
 72
15
 73
11
 74
0
 42
0.0000001
 43
0.0000001
 44
0.0000000001
 40
0.0
 40
0.0
 40
0.0
 40
0.0
 40
0.1485739416
 40
0.2895115751
 40
0.4227282311
 40
0.5486418119
 40
0.6680032485
 40
0.7819402697
 40
0.8919877609
 40
1.0
 40
1.0
 40
1.0
 40
1.0
 10
45.6080117519
 20
23.6927613002
 30
0.0
 10
45.7636181224
 20
23.7826001438
 30
0.0
 10
46.059789868
 20
23.9703404717
 30
0.0
 10
46.4647142487
 20
24.2837301495
 30
0.0
 10
46.8149508632
 20
24.6189725553
 30
0.0
 10
47.1069742823
 20
24.9729730555
 30
0.0
 10
47.3378893874
 20
25.3425652181
 30
0.0
 10
47.5050102477
 20
25.7244621028
 30
0.0
 10
47.606247557
 20
26.1147573128
 30
0.0
 10
47.6289495863
 20
26.3789974722
 30
0.0
 10
47.6289495883
 20
26.5096225064
 30
0.0
  0
SPLINE
  5
339
100
AcDbEntity
  8
0
100
AcDbSpline
 62
7
  6
BYLAYER
 70
0
 71
3
 72
15
 73
11
 74
0
 42
0.0000001
 43
0.0000001
 44
0.0000000001
 40
0.0
 40
0.0
 40
0.0
 40
0.0
 40
0.1485555334
 40
0.2895107144
 40
0.4227342068
 40
0.5486413618
 40
0.6680017539
 40
0.7819402176
 40
0.8919885811
 40
1.0
 40
1.0
 40
1.0
 40
1.0
 10
24.4125336047
 20
17.0893886558
 30
0.0
 10
24.2986600913
 20
17.1551320721
 30
0.0
 10
24.0819017745
 20
17.2925472841
 30
0.0
 10
23.7855203245
 20
17.5218972909
 30
0.0
 10
23.5291779135
 20
17.7672754039
 30
0.0
 10
23.3154437417
 20
18.0263609073
 30
0.0
 10
23.1464469716
 20
18.2968627121
 30
0.0
 10
23.0241351622
 20
18.5763700107
 30
0.0
 10
22.9500087066
 20
18.8620199102
 30
0.0
 10
22.933427035
 20
19.055418864
 30
0.0
 10
22.9334270329
 20
19.1510216329
 30
0.0
  0
SPLINE
  5
33A
100
AcDbEntity
  8
0
100
AcDbSpline
 62
7
  6
BYLAYER
 70
0
 71
3
 72
17
 73
13
 74
0
 42
0.0000001
 43
0.0000001
 44
0.0000000001
 40
0.0
 40
0.0
 40
0.0
 40
0.0
 40
0.0558413691
 40
0.1142237189
 40
0.237369636
 40
0.3669986451
 40
0.4999994693
 40
0.6330003675
 40
0.7626295926
 40
0.8857758501
 40
0.9441584083
 40
1.0
 40
1.0
 40
1.0
 40
1.0
 10
31.5543120946
 20
17.0894058225
 30
0.0
 10
31.4347106607
 20
17.0203543147
 30
0.0
 10
31.1838236888
 20
16.8897005791
 30
0.0
 10
30.6434165945
 20
16.6592418574
 30
0.0
 10
29.9046881439
 20
16.4347539226
 30
0.0
 10
28.9624467393
 20
16.2719361516
 30
0.0
 10
27.9834289416
 20
16.2169821081
 30
0.0
 10
27.004410351
 20
16.2719314894
 30
0.0
 10
26.0621665993
 20
16.4347447794
 30
0.0
 10
25.3234351107
 20
16.6592291467
 30
0.0
 10
24.7830248227
 20
16.8896852296
 30
0.0
 10
24.5321360134
 20
17.0203377351
 30
0.0
 10
24.4125336047
 20
17.0893886558
 30
0.0
  0
SPLINE
  5
33B
100
AcDbEntity
  8
0
100
AcDbSpline
 62
7
  6
BYLAYER
 70
0
 71
3
 72
14
 73
10
 74
0
 42
0.0000001
 43
0.0000001
 44
0.0000000001
 40
0.0
 40
0.0
 40
0.0
 40
0.0
 40
0.1080441246
 40
0.2181288308
 40
0.3321083062
 40
0.4514908887
 40
0.5774368672
 40
0.710738105
 40
1.0
 40
1.0
 40
1.0
 40
1.0
 10
44.9847682968
 20
59.804898507
 30
0.0
 10
44.917962142
 20
59.8434770707
 30
0.0
 10
44.7895013322
 20
59.9330970755
 30
0.0
 10
44.6197714745
 20
60.1001426591
 30
0.0
 10
44.4738218344
 20
60.2984060017
 30
0.0
 10
44.3529217701
 20
60.5256025573
 30
0.0
 10
44.2581026866
 20
60.7795474246
 30
0.0
 10
44.164903012
 20
61.1606272788
 30
0.0
 10
44.140777472
 20
61.463825711
 30
0.0
 10
44.140777472
 20
61.6703629996
 30
0.0
  0
SPLINE
  5
33C
100
AcDbEntity
  8
0
100
AcDbSpline
 62
7
  6
BYLAYER
 70
0
 71
3
 72
11
 73
7
 74
0
 42
0.0000001
 43
0.0000001
 44
0.0000000001
 40
0.0
 40
0.0
 40
0.0
 40
0.0
 40
0.2177651606
 40
0.4508956102
 40
0.7103690052
 40
1.0
 40
1.0
 40
1.0
 40
1.0
 10
48.7142665248
 20
37.5237750285
 30
0.0
 10
48.6812901871
 20
37.5428309658
 30
0.0
 10
48.6195401717
 20
37.5946647439
 30
0.0
 10
48.5538443389
 20
37.7021289013
 30
0.0
 10
48.5148435867
 20
37.8345267291
 30
0.0
 10
48.5071436668
 20
37.9308876748
 30
0.0
 10
48.5071436668
 20
37.9815430599
 30
0.0
  0
SPLINE
  5
33D
100
AcDbEntity
  8
0
100
AcDbSpline
 62
7
  6
BYLAYER
 70
0
 71
3
 72
24
 73
20
 74
0
 42
0.0000001
 43
0.0000001
 44
0.0000000001
 40
0.0
 40
0.0
 40
0.0
 40
0.0
 40
0.062373885
 40
0.1287404689
 40
0.1983309078
 40
0.2703142294
 40
0.3436968583
 40
0.4174323413
 40
0.4904633552
 40
0.5617555753
 40
0.6303579214
 40
0.6954510546
 40
0.7564024588
 40
0.8128429867
 40
0.8647479558
 40
0.9125267547
 40
0.9571044393
 40
0.9786668298
 40
1.0
 40
1.0
 40
1.0
 40
1.0
 10
44.140777472
 20
61.6703629996
 30
0.0
 10
44.140777472
 20
61.8393800318
 30
0.0
 10
44.1637222973
 20
62.1884620933
 30
0.0
 10
44.2579028309
 20
62.7184798835
 30
0.0
 10
44.411161517
 20
63.2616019949
 30
0.0
 10
44.6200725777
 20
63.8061357257
 30
0.0
 10
44.8802498671
 20
64.3406049212
 30
0.0
 10
45.1861234429
 20
64.8535944945
 30
0.0
 10
45.5311691266
 20
65.33416953
 30
0.0
 10
45.9080696217
 20
65.7720645077
 30
0.0
 10
46.3087881462
 20
66.1579941505
 30
0.0
 10
46.7248917126
 20
66.4837838592
 30
0.0
 10
47.1477760132
 20
66.742484986
 30
0.0
 10
47.5688079609
 20
66.9285673331
 30
0.0
 10
47.9796761395
 20
67.0377149022
 30
0.0
 10
48.3720943786
 20
67.066718608
 30
0.0
 10
48.6805863117
 20
67.0212634805
 30
0.0
 10
48.9051028846
 20
66.9436517235
 30
0.0
 10
49.0096228851
 20
66.8919255249
 30
0.0
 10
49.0596829205
 20
66.8630173462
 30
0.0
  0
SPLINE
  5
33E
100
AcDbEntity
  8
0
100
AcDbSpline
 62
7
  6
BYLAYER
 70
0
 71
3
 72
11
 73
7
 74
0
 42
0.0000001
 43
0.0000001
 44
0.0000000001
 40
0.0
 40
0.0
 40
0.0
 40
0.0
 40
0.2631552035
 40
0.5191445562
 40
0.7653541592
 40
1.0
 40
1.0
 40
1.0
 40
1.0
 10
31.1173556335
 20
57.3804613713
 30
0.0
 10
31.2310044421
 20
57.528799735
 30
0.0
 10
31.4659651448
 20
57.8133937386
 30
0.0
 10
31.8433961415
 20
58.2052206818
 30
0.0
 10
32.2365423738
 20
58.5514101225
 30
0.0
 10
32.5124349574
 20
58.7536319153
 30
0.0
 10
32.6516713867
 20
58.8451583532
 30
0.0
  0
SPLINE
  5
33F
100
AcDbEntity
  8
0
100
AcDbSpline
 62
7
  6
BYLAYER
 70
0
 71
3
 72
12
 73
8
 74
0
 42
0.0000001
 43
0.0000001
 44
0.0000000001
 40
0.0
 40
0.0
 40
0.0
 40
0.0
 40
0.1109968737
 40
0.2278962952
 40
0.4758126999
 40
0.7362574571
 40
1.0
 40
1.0
 40
1.0
 40
1.0
 10
29.9987007277
 20
53.5054799222
 30
0.0
 10
29.9987007277
 20
53.6395981454
 30
0.0
 10
30.0131028101
 20
53.9151091677
 30
0.0
 10
30.0950295442
 20
54.4847694039
 30
0.0
 10
30.2962830592
 20
55.2164801033
 30
0.0
 10
30.6698480736
 20
56.0742147128
 30
0.0
 10
30.9995105365
 20
56.6177652113
 30
0.0
 10
31.1830996551
 20
56.8782515109
 30
0.0
  0
SPLINE
  5
340
100
AcDbEntity
  8
0
100
AcDbSpline
 62
7
  6
BYLAYER
 70
0
 71
3
 72
17
 73
13
 74
0
 42
0.0000001
 43
0.0000001
 44
0.0000000001
 40
0.0
 40
0.0
 40
0.0
 40
0.0
 40
0.1286891333
 40
0.2702803493
 40
0.4174326844
 40
0.5617743804
 40
0.6954465661
 40
0.8127104963
 40
0.8646756522
 40
0.91250911
 40
0.9571392634
 40
1.0
 40
1.0
 40
1.0
 40
1.0
 10
29.9810231318
 20
27.2855462285
 30
0.0
 10
29.9810231318
 20
27.3710210179
 30
0.0
 10
30.0049358543
 20
27.5507447509
 30
0.0
 10
30.0941817329
 20
27.8146294607
 30
0.0
 10
30.2317095587
 20
28.0688322616
 30
0.0
 10
30.4064578749
 20
28.2925114729
 30
0.0
 10
30.6041504234
 20
28.467600031
 30
0.0
 10
30.7830898349
 20
28.5654464959
 30
0.0
 10
30.9230652459
 20
28.6026804432
 30
0.0
 10
31.019402858
 20
28.609775215
 30
0.0
 10
31.1091092021
 20
28.5966288855
 30
0.0
 10
31.16345952
 20
28.5740460808
 30
0.0
 10
31.1881079483
 20
28.5598025675
 30
0.0
  0
SPLINE
  5
341
100
AcDbEntity
  8
0
100
AcDbSpline
 62
7
  6
BYLAYER
 70
0
 71
3
 72
17
 73
13
 74
0
 42
0.0000001
 43
0.0000001
 44
0.0000000001
 40
0.0
 40
0.0
 40
0.0
 40
0.0
 40
0.1286891333
 40
0.2702803493
 40
0.4174326844
 40
0.5617743804
 40
0.6954465661
 40
0.8127104963
 40
0.8646756522
 40
0.91250911
 40
0.9571392634
 40
1.0
 40
1.0
 40
1.0
 40
1.0
 10
48.5071436668
 20
37.9815430599
 30
0.0
 10
48.5071436668
 20
38.0670178493
 30
0.0
 10
48.5310563893
 20
38.2467415823
 30
0.0
 10
48.6203022679
 20
38.5106262922
 30
0.0
 10
48.7578300937
 20
38.7648290931
 30
0.0
 10
48.9325784099
 20
38.9885083043
 30
0.0
 10
49.1302709584
 20
39.1635968624
 30
0.0
 10
49.3092103699
 20
39.2614433274
 30
0.0
 10
49.4491857809
 20
39.2986772746
 30
0.0
 10
49.545523393
 20
39.3057720464
 30
0.0
 10
49.6352297371
 20
39.2926257169
 30
0.0
 10
49.689580055
 20
39.2700429122
 30
0.0
 10
49.7142284833
 20
39.255799399
 30
0.0
  0
SPLINE
  5
342
100
AcDbEntity
  8
0
100
AcDbSpline
 62
7
  6
BYLAYER
 70
0
 71
3
 72
9
 73
5
 74
0
 42
0.0000001
 43
0.0000001
 44
0.0000000001
 40
0.0
 40
0.0
 40
0.0
 40
0.0
 40
0.4860350628
 40
1.0
 40
1.0
 40
1.0
 40
1.0
 10
40.5826511545
 20
67.781114246
 30
0.0
 10
40.3910067936
 20
67.6424656154
 30
0.0
 10
39.980564787
 20
67.3791203151
 30
0.0
 10
39.546902443
 20
67.1566369694
 30
0.0
 10
39.3197233186
 20
67.0519668724
 30
0.0
  0
SPLINE
  5
343
100
AcDbEntity
  8
0
100
AcDbSpline
 62
7
  6
BYLAYER
 70
0
 71
3
 72
11
 73
7
 74
0
 42
0.0000001
 43
0.0000001
 44
0.0000000001
 40
0.0
 40
0.0
 40
0.0
 40
0.0
 40
0.2574884558
 40
0.5101391209
 40
0.7576876208
 40
1.0
 40
1.0
 40
1.0
 40
1.0
 10
18.1015850485
 20
66.3142018972
 30
0.0
 10
18.7993624388
 20
66.9132626844
 30
0.0
 10
20.2019263363
 20
68.0769561949
 30
0.0
 10
22.345171618
 20
69.7301650683
 30
0.0
 10
24.5037694325
 20
71.271760818
 30
0.0
 10
25.9650290804
 20
72.2349155052
 30
0.0
 10
26.6972420548
 20
72.6962962459
 30
0.0
  0
SPLINE
  5
344
100
AcDbEntity
  8
0
100
AcDbSpline
 62
7
  6
BYLAYER
 70
0
 71
3
 72
11
 73
7
 74
0
 42
0.0000001
 43
0.0000001
 44
0.0000000001
 40
0.0
 40
0.0
 40
0.0
 40
0.0
 40
0.2177651606
 40
0.4508956102
 40
0.7103690052
 40
1.0
 40
1.0
 40
1.0
 40
1.0
 10
30.1881459898
 20
26.8277781971
 30
0.0
 10
30.1551696521
 20
26.8468341344
 30
0.0
 10
30.0934196367
 20
26.8986679124
 30
0.0
 10
30.0277238039
 20
27.0061320699
 30
0.0
 10
29.9887230517
 20
27.1385298976
 30
0.0
 10
29.9810231318
 20
27.2348908434
 30
0.0
 10
29.9810231318
 20
27.2855462285
 30
0.0
  0
SPLINE
  5
345
100
AcDbEntity
  8
0
100
AcDbSpline
 62
7
  6
BYLAYER
 70
0
 71
3
 72
10
 73
6
 74
0
 42
0.0000001
 43
0.0000001
 44
0.0000000001
 40
0.0
 40
0.0
 40
0.0
 40
0.0
 40
0.5258082616
 40
0.7667404136
 40
1.0
 40
1.0
 40
1.0
 40
1.0
 10
37.6805973498
 20
80.5501403867
 30
0.0
 10
37.7482707148
 20
80.6499912693
 30
0.0
 10
37.830585774
 20
80.8089813689
 30
0.0
 10
37.8857019347
 20
81.0324295506
 30
0.0
 10
37.8946649216
 20
81.1414248889
 30
0.0
 10
37.8946649216
 20
81.1949357386
 30
0.0
  0
SPLINE
  5
346
100
AcDbEntity
  8
0
100
AcDbSpline
 62
7
  6
BYLAYER
 70
0
 71
3
 72
9
 73
5
 74
0
 42
0.0000001
 43
0.0000001
 44
0.0000000001
 40
0.0
 40
0.0
 40
0.0
 40
0.0
 40
0.5060742727
 40
1.0
 40
1.0
 40
1.0
 40
1.0
 10
34.0263412929
 20
79.2707155362
 30
0.0
 10
34.3052340524
 20
79.2574398817
 30
0.0
 10
34.8585968029
 20
79.2672795712
 30
0.0
 10
35.4061388002
 20
79.3495083622
 30
0.0
 10
35.6719462112
 20
79.4095579366
 30
0.0
  0
LINE
  5
347
100
AcDbEntity
  8
0
100
AcDbLine
 62
7
  6
BYLAYER
 10
38.9477691323
 20
62.5874207985
 11
38.9071176206
 21
62.9678119285
  0
SPLINE
  5
348
100
AcDbEntity
  8
0
100
AcDbSpline
 62
7
  6
BYLAYER
 70
0
 71
3
 72
9
 73
5
 74
0
 42
0.0000001
 43
0.0000001
 44
0.0000000001
 40
0.0
 40
0.0
 40
0.0
 40
0.0
 40
0.4865660162
 40
1.0
 40
1.0
 40
1.0
 40
1.0
 10
28.3591452225
 20
82.2040633709
 30
0.0
 10
28.4344188698
 20
82.3660409366
 30
0.0
 10
28.6228985123
 20
82.6838864345
 30
0.0
 10
28.8629076083
 20
82.9638959815
 30
0.0
 10
28.9955796236
 20
83.0977675328
 30
0.0
  0
SPLINE
  5
349
100
AcDbEntity
  8
0
100
AcDbSpline
 62
7
  6
BYLAYER
 70
0
 71
3
 72
14
 73
10
 74
0
 42
0.0000001
 43
0.0000001
 44
0.0000000001
 40
0.0
 40
0.0
 40
0.0
 40
0.0
 40
0.2830025369
 40
0.414611939
 40
0.5401102323
 40
0.6602501646
 40
0.7760629992
 40
0.8888218052
 40
1.0
 40
1.0
 40
1.0
 40
1.0
 10
28.1099900636
 20
74.3834307061
 30
0.0
 10
27.8383755294
 20
74.1895703815
 30
0.0
 10
27.4608057931
 20
73.8733228846
 30
0.0
 10
27.0396880216
 20
73.3942870462
 30
0.0
 10
26.7837278465
 20
73.0292295856
 30
0.0
 10
26.5823274113
 20
72.6523566039
 30
0.0
 10
26.4370170591
 20
72.2663369735
 30
0.0
 10
26.3493158859
 20
71.874104557
 30
0.0
 10
26.3296612398
 20
71.6096521293
 30
0.0
 10
26.3296658941
 20
71.4785569724
 30
0.0
  0
SPLINE
  5
34A
100
AcDbEntity
  8
0
100
AcDbSpline
 62
7
  6
BYLAYER
 70
0
 71
3
 72
9
 73
5
 74
0
 42
0.0000001
 43
0.0000001
 44
0.0000000001
 40
0.0
 40
0.0
 40
0.0
 40
0.0
 40
0.4958521305
 40
1.0
 40
1.0
 40
1.0
 40
1.0
 10
32.3101142353
 20
77.0085845874
 30
0.0
 10
32.4257580633
 20
77.3539120434
 30
0.0
 10
32.7058291596
 20
78.0352899871
 30
0.0
 10
33.0672245747
 20
78.6770104767
 30
0.0
 10
33.2683625429
 20
78.987884848
 30
0.0
  0
SPLINE
  5
34B
100
AcDbEntity
  8
0
100
AcDbSpline
 62
7
  6
BYLAYER
 70
0
 71
3
 72
11
 73
7
 74
0
 42
0.0000001
 43
0.0000001
 44
0.0000000001
 40
0.0
 40
0.0
 40
0.0
 40
0.0
 40
0.2611694391
 40
0.5206250071
 40
0.7695069696
 40
1.0
 40
1.0
 40
1.0
 40
1.0
 10
46.1992831384
 20
69.1507897391
 30
0.0
 10
46.2535536475
 20
69.0768192833
 30
0.0
 10
46.3518259669
 20
68.9218318441
 30
0.0
 10
46.4657806629
 20
68.6758484812
 30
0.0
 10
46.5418356038
 20
68.4268399886
 30
0.0
 10
46.5658180178
 20
68.2591652608
 30
0.0
 10
46.5693955153
 20
68.1782766063
 30
0.0
  0
LINE
  5
34C
100
AcDbEntity
  8
0
100
AcDbLine
 62
7
  6
BYLAYER
 10
35.6697022736
 20
63.0666795369
 11
46.4131560223
 21
69.2693793024
  0
SPLINE
  5
34D
100
AcDbEntity
  8
0
100
AcDbSpline
 62
7
  6
BYLAYER
 70
0
 71
3
 72
9
 73
5
 74
0
 42
0.0000001
 43
0.0000001
 44
0.0000000001
 40
0.0
 40
0.0
 40
0.0
 40
0.0
 40
0.4946883445
 40
1.0
 40
1.0
 40
1.0
 40
1.0
 10
37.1285319848
 20
59.4913886231
 30
0.0
 10
37.1152764279
 20
59.7193774418
 30
0.0
 10
37.1056976361
 20
60.1812389815
 30
0.0
 10
37.1139015844
 20
60.6428187768
 30
0.0
 10
37.1189164436
 20
60.8760429808
 30
0.0
  0
SPLINE
  5
34E
100
AcDbEntity
  8
0
100
AcDbSpline
 62
7
  6
BYLAYER
 70
0
 71
3
 72
10
 73
6
 74
0
 42
0.0000001
 43
0.0000001
 44
0.0000000001
 40
0.0
 40
0.0
 40
0.0
 40
0.0
 40
0.2089206548
 40
0.5720725405
 40
1.0
 40
1.0
 40
1.0
 40
1.0
 10
32.1319842456
 20
62.5114854225
 30
0.0
 10
32.1290342089
 20
62.5148165807
 30
0.0
 10
32.1226236965
 20
62.5254635449
 30
0.0
 10
32.1187508631
 20
62.5468731964
 30
0.0
 10
32.1204426675
 20
62.5638043951
 30
0.0
 10
32.1222698504
 20
62.5727334665
 30
0.0
  0
SPLINE
  5
34F
100
AcDbEntity
  8
0
100
AcDbSpline
 62
7
  6
BYLAYER
 70
0
 71
3
 72
11
 73
7
 74
0
 42
0.0000001
 43
0.0000001
 44
0.0000000001
 40
0.0
 40
0.0
 40
0.0
 40
0.0
 40
0.2791225325
 40
0.5365709155
 40
0.7741490409
 40
1.0
 40
1.0
 40
1.0
 40
1.0
 10
34.78785712
 20
59.1604925719
 30
0.0
 10
34.7822519878
 20
59.1331014304
 30
0.0
 10
34.7662930933
 20
59.0812754037
 30
0.0
 10
34.72654651
 20
59.0137279691
 30
0.0
 10
34.6734245051
 20
58.9632655496
 30
0.0
 10
34.6303883047
 20
58.9432802238
 30
0.0
 10
34.6085376903
 20
58.9374203321
 30
0.0
  0
SPLINE
  5
350
100
AcDbEntity
  8
0
100
AcDbSpline
 62
7
  6
BYLAYER
 70
0
 71
3
 72
11
 73
7
 74
0
 42
0.0000001
 43
0.0000001
 44
0.0000000001
 40
0.0
 40
0.0
 40
0.0
 40
0.0
 40
0.2780314514
 40
0.5363514621
 40
0.7742473354
 40
1.0
 40
1.0
 40
1.0
 40
1.0
 10
32.7315975853
 20
58.7888453698
 30
0.0
 10
32.7302019226
 20
58.7820250503
 30
0.0
 10
32.7261615082
 20
58.7690940214
 30
0.0
 10
32.7162788206
 20
58.7521825485
 30
0.0
 10
32.7029995194
 20
58.7395199701
 30
0.0
 10
32.6922307325
 20
58.7345284917
 30
0.0
 10
32.6867694202
 20
58.733070267
 30
0.0
  0
SPLINE
  5
351
100
AcDbEntity
  8
0
100
AcDbSpline
 62
7
  6
BYLAYER
 70
0
 71
3
 72
9
 73
5
 74
0
 42
0.0000001
 43
0.0000001
 44
0.0000000001
 40
0.0
 40
0.0
 40
0.0
 40
0.0
 40
0.519699552
 40
1.0
 40
1.0
 40
1.0
 40
1.0
 10
32.5876818368
 20
58.4719325916
 30
0.0
 10
32.6150788303
 20
58.4561152879
 30
0.0
 10
32.6731854283
 20
58.4334197751
 30
0.0
 10
32.7361720765
 20
58.4357277915
 30
0.0
 10
32.7644110734
 20
58.4433009025
 30
0.0
  0
SPLINE
  5
352
100
AcDbEntity
  8
0
100
AcDbSpline
 62
7
  6
BYLAYER
 70
0
 71
3
 72
15
 73
11
 74
0
 42
0.0000001
 43
0.0000001
 44
0.0000000001
 40
0.0
 40
0.0
 40
0.0
 40
0.0
 40
0.1088460445
 40
0.2252059265
 40
0.347962939
 40
0.4756596048
 40
0.6065892563
 40
0.7388783499
 40
0.8706917358
 40
1.0
 40
1.0
 40
1.0
 40
1.0
 10
30.0962171316
 20
53.3225365483
 30
0.0
 10
30.2404149766
 20
53.3959136182
 30
0.0
 10
30.5283566542
 20
53.5687260192
 30
0.0
 10
30.9385802322
 20
53.8853072232
 30
0.0
 10
31.3342521766
 20
54.2617672924
 30
0.0
 10
31.7068700992
 20
54.6900430877
 30
0.0
 10
32.0484872406
 20
55.1609874422
 30
0.0
 10
32.3518778325
 20
55.6645677533
 30
0.0
 10
32.6103502806
 20
56.1898775708
 30
0.0
 10
32.7511657606
 20
56.552231951
 30
0.0
 10
32.8123835639
 20
56.7344322659
 30
0.0
  0
SPLINE
  5
353
100
AcDbEntity
  8
0
100
AcDbSpline
 62
7
  6
BYLAYER
 70
0
 71
3
 72
9
 73
5
 74
0
 42
0.0000001
 43
0.0000001
 44
0.0000000001
 40
0.0
 40
0.0
 40
0.0
 40
0.0
 40
0.2575461183
 40
1.0
 40
1.0
 40
1.0
 40
1.0
 10
32.8123844094
 20
56.7344322988
 30
0.0
 10
32.8148531242
 20
56.7417798447
 30
0.0
 10
32.8253290301
 20
56.7699947835
 30
0.0
 10
32.8394734321
 20
56.7969036194
 30
0.0
 10
32.8520780381
 20
56.8153543372
 30
0.0
  0
SPLINE
  5
354
100
AcDbEntity
  8
0
100
AcDbSpline
 62
7
  6
BYLAYER
 70
0
 71
3
 72
9
 73
5
 74
0
 42
0.0000001
 43
0.0000001
 44
0.0000000001
 40
0.0
 40
0.0
 40
0.0
 40
0.0
 40
0.2604032675
 40
1.0
 40
1.0
 40
1.0
 40
1.0
 10
35.5886163081
 20
63.0736398852
 30
0.0
 10
35.5905890647
 20
63.0832803457
 30
0.0
 10
35.5973324105
 20
63.1204604868
 30
0.0
 10
35.6006632976
 20
63.1583101494
 30
0.0
 10
35.6006632976
 20
63.1862583643
 30
0.0
  0
SPLINE
  5
355
100
AcDbEntity
  8
0
100
AcDbSpline
 62
7
  6
BYLAYER
 70
0
 71
3
 72
15
 73
11
 74
0
 42
0.0000001
 43
0.0000001
 44
0.0000000001
 40
0.0
 40
0.0
 40
0.0
 40
0.0
 40
0.1113452559
 40
0.2242441822
 40
0.3401481818
 40
0.4603009498
 40
0.5857250484
 40
0.7172105128
 40
0.8552708439
 40
1.0
 40
1.0
 40
1.0
 40
1.0
 10
42.3296639491
 20
71.4785569671
 30
0.0
 10
42.3296593403
 20
71.6083685482
 30
0.0
 10
42.3104115923
 20
71.8701901133
 30
0.0
 10
42.2244218058
 20
72.2586160497
 30
0.0
 10
42.081926398
 20
72.6410021593
 30
0.0
 10
41.8844235872
 20
73.0145215252
 30
0.0
 10
41.6333696429
 20
73.3765471923
 30
0.0
 10
41.3307596255
 20
73.724736483
 30
0.0
 10
40.9788436031
 20
74.0565383898
 30
0.0
 10
40.7193184546
 20
74.260627312
 30
0.0
 10
40.5826096035
 20
74.3595273469
 30
0.0
  0
SPLINE
  5
356
100
AcDbEntity
  8
0
100
AcDbSpline
 62
7
  6
BYLAYER
 70
0
 71
3
 72
14
 73
10
 74
0
 42
0.0000001
 43
0.0000001
 44
0.0000000001
 40
0.0
 40
0.0
 40
0.0
 40
0.0
 40
0.1080840804
 40
0.2181672497
 40
0.3321305427
 40
0.4515261604
 40
0.5774705296
 40
0.7107315991
 40
1.0
 40
1.0
 40
1.0
 40
1.0
 10
30.8426954763
 20
51.6400222606
 30
0.0
 10
30.7758608483
 20
51.6786089748
 30
0.0
 10
30.6473650684
 20
51.7682309481
 30
0.0
 10
30.477640161
 20
51.9353053869
 30
0.0
 10
30.3316894669
 20
52.1335657144
 30
0.0
 10
30.2108437334
 20
52.3607881682
 30
0.0
 10
30.1160117287
 20
52.614704326
 30
0.0
 10
30.0228137495
 20
52.9957616547
 30
0.0
 10
29.9987007277
 20
53.2989374415
 30
0.0
 10
29.9987007277
 20
53.5054799222
 30
0.0
  0
LINE
  5
357
100
AcDbEntity
  8
0
100
AcDbLine
 62
7
  6
BYLAYER
 10
37.0393579336
 20
61.810373173
 11
36.993482169
 21
61.9082509408
  0
SPLINE
  5
358
100
AcDbEntity
  8
0
100
AcDbSpline
 62
7
  6
BYLAYER
 70
0
 71
3
 72
9
 73
5
 74
0
 42
0.0000001
 43
0.0000001
 44
0.0000000001
 40
0.0
 40
0.0
 40
0.0
 40
0.0
 40
0.5053378932
 40
1.0
 40
1.0
 40
1.0
 40
1.0
 10
30.5113382126
 20
27.7518075901
 30
0.0
 10
30.4655349295
 20
27.6760314299
 30
0.0
 10
30.357718692
 20
27.5353466549
 30
0.0
 10
30.2143237885
 20
27.4294801175
 30
0.0
 10
30.1374437197
 20
27.3894592926
 30
0.0
  0
SPLINE
  5
359
100
AcDbEntity
  8
0
100
AcDbSpline
 62
7
  6
BYLAYER
 70
0
 71
3
 72
9
 73
5
 74
0
 42
0.0000001
 43
0.0000001
 44
0.0000000001
 40
0.0
 40
0.0
 40
0.0
 40
0.0
 40
0.2461181601
 40
1.0
 40
1.0
 40
1.0
 40
1.0
 10
48.5337178806
 20
38.1750277121
 30
0.0
 10
48.5355011755
 20
38.1809293276
 30
0.0
 10
48.5424610452
 20
38.2049940101
 30
0.0
 10
48.5483048781
 20
38.2293777667
 30
0.0
 10
48.5521462688
 20
38.2478673759
 30
0.0
  0
SPLINE
  5
35A
100
AcDbEntity
  8
0
100
AcDbSpline
 62
7
  6
BYLAYER
 70
0
 71
3
 72
11
 73
7
 74
0
 42
0.0000001
 43
0.0000001
 44
0.0000000001
 40
0.0
 40
0.0
 40
0.0
 40
0.0
 40
0.3038370359
 40
0.5703176538
 40
0.801145422
 40
1.0
 40
1.0
 40
1.0
 40
1.0
 10
31.3803078004
 20
72.1380808816
 30
0.0
 10
31.3205771637
 20
72.1784388141
 30
0.0
 10
31.2100209754
 20
72.2565702014
 30
0.0
 10
31.061827393
 20
72.3758889156
 30
0.0
 10
30.9426396518
 20
72.4905913028
 30
0.0
 10
30.8783980953
 20
72.5703744607
 30
0.0
 10
30.8524504486
 20
72.6097774968
 30
0.0
  0
SPLINE
  5
35B
100
AcDbEntity
  8
0
100
AcDbSpline
 62
7
  6
BYLAYER
 70
0
 71
3
 72
9
 73
5
 74
0
 42
0.0000001
 43
0.0000001
 44
0.0000000001
 40
0.0
 40
0.0
 40
0.0
 40
0.0
 40
0.2457901011
 40
1.0
 40
1.0
 40
1.0
 40
1.0
 10
34.0822147894
 20
65.2250080713
 30
0.0
 10
33.6760640671
 20
64.9421811917
 30
0.0
 10
32.036022064
 20
63.7737741663
 30
0.0
 10
30.4453230642
 20
62.5363922912
 30
0.0
 10
29.2739086963
 20
61.5698648823
 30
0.0
  0
SPLINE
  5
35C
100
AcDbEntity
  8
0
100
AcDbSpline
 62
7
  6
BYLAYER
 70
0
 71
3
 72
33
 73
29
 74
0
 42
0.0000001
 43
0.0000001
 44
0.0000000001
 40
0.0
 40
0.0
 40
0.0
 40
0.0
 40
0.0681083906
 40
0.1394660901
 40
0.213788145
 40
0.290166377
 40
0.3677794247
 40
0.4067991243
 40
0.4457463429
 40
0.4843477844
 40
0.5221437462
 40
0.558371798
 40
0.5919296559
 40
0.607392702
 40
0.6219416566
 40
0.6486648832
 40
0.6731581548
 40
0.6963822966
 40
0.7190337981
 40
0.741566657
 40
0.7872690251
 40
0.8108544419
 40
0.8350802023
 40
0.8600855118
 40
0.8860186892
 40
0.912996009
 40
0.9410295952
 40
1.0
 40
1.0
 40
1.0
 40
1.0
 10
42.7587598673
 20
62.5206499341
 30
0.0
 10
42.7390268409
 20
62.2635143054
 30
0.0
 10
42.6780378116
 20
61.7382396032
 30
0.0
 10
42.5120259399
 20
60.9447325168
 30
0.0
 10
42.2637181419
 20
60.1402973216
 30
0.0
 10
41.945210939
 20
59.335830135
 30
0.0
 10
41.6264320524
 20
58.6772446333
 30
0.0
 10
41.3361428286
 20
58.1644202914
 30
0.0
 10
41.0997530148
 20
57.7914114319
 30
0.0
 10
40.8441750284
 20
57.4368678756
 30
0.0
 10
40.5690239174
 20
57.110322415
 30
0.0
 10
40.2760503688
 20
56.8261425535
 30
0.0
 10
40.0136948237
 20
56.6349383946
 30
0.0
 10
39.7991301594
 20
56.5247998608
 30
0.0
 10
39.5981115592
 20
56.4480448112
 30
0.0
 10
39.3518696029
 20
56.3978953125
 30
0.0
 10
39.0679615916
 20
56.4041739025
 30
0.0
 10
38.8066280577
 20
56.4636772647
 30
0.0
 10
38.566902004
 20
56.5647906257
 30
0.0
 10
38.2725373941
 20
56.7449537907
 30
0.0
 10
38.0139123879
 20
56.9827859786
 30
0.0
 10
37.7924581574
 20
57.2594544154
 30
0.0
 10
37.641231617
 20
57.490549965
 30
0.0
 10
37.5079538071
 20
57.7424651506
 30
0.0
 10
37.3944279709
 20
58.0152245104
 30
0.0
 10
37.3020485228
 20
58.3078467784
 30
0.0
 10
37.2042512504
 20
58.7285460246
 30
0.0
 10
37.1623501135
 20
59.0562601817
 30
0.0
 10
37.143614612
 20
59.2787635855
 30
0.0
  0
SPLINE
  5
35D
100
AcDbEntity
  8
0
100
AcDbSpline
 62
7
  6
BYLAYER
 70
0
 71
3
 72
10
 73
6
 74
0
 42
0.0000001
 43
0.0000001
 44
0.0000000001
 40
0.0
 40
0.0
 40
0.0
 40
0.0
 40
0.4922896704
 40
0.7427590113
 40
1.0
 40
1.0
 40
1.0
 40
1.0
 10
42.7740917751
 20
64.5764130837
 30
0.0
 10
42.7812131171
 20
64.2389921728
 30
0.0
 10
42.7963070279
 20
63.7299232822
 30
0.0
 10
42.7902051713
 20
63.0442674835
 30
0.0
 10
42.7728171854
 20
62.6964748867
 30
0.0
 10
42.7593632238
 20
62.5206336819
 30
0.0
  0
SPLINE
  5
35E
100
AcDbEntity
  8
0
100
AcDbSpline
 62
7
  6
BYLAYER
 70
0
 71
3
 72
9
 73
5
 74
0
 42
0.0000001
 43
0.0000001
 44
0.0000000001
 40
0.0
 40
0.0
 40
0.0
 40
0.0
 40
0.4468340604
 40
1.0
 40
1.0
 40
1.0
 40
1.0
 10
28.3396978972
 20
82.1484458658
 30
0.0
 10
28.3415944974
 20
82.1562912288
 30
0.0
 10
28.3517836543
 20
82.1724570834
 30
0.0
 10
28.3676429843
 20
82.181921004
 30
0.0
 10
28.3767045706
 20
82.186131615
 30
0.0
  0
SPLINE
  5
35F
100
AcDbEntity
  8
0
100
AcDbSpline
 62
7
  6
BYLAYER
 70
0
 71
3
 72
9
 73
5
 74
0
 42
0.0000001
 43
0.0000001
 44
0.0000000001
 40
0.0
 40
0.0
 40
0.0
 40
0.0
 40
0.4367971157
 40
1.0
 40
1.0
 40
1.0
 40
1.0
 10
28.3767045706
 20
82.186131615
 30
0.0
 10
28.3942411312
 20
82.1942802582
 30
0.0
 10
28.4381304678
 20
82.2043262374
 30
0.0
 10
28.4824568181
 20
82.205789994
 30
0.0
 10
28.5073787148
 20
82.2050335686
 30
0.0
  0
SPLINE
  5
360
100
AcDbEntity
  8
0
100
AcDbSpline
 62
7
  6
BYLAYER
 70
0
 71
3
 72
9
 73
5
 74
0
 42
0.0000001
 43
0.0000001
 44
0.0000000001
 40
0.0
 40
0.0
 40
0.0
 40
0.0
 40
0.5146814847
 40
1.0
 40
1.0
 40
1.0
 40
1.0
 10
32.0521423324
 20
56.7048626616
 30
0.0
 10
32.101905068
 20
56.8514055162
 30
0.0
 10
32.183630062
 20
57.1414939755
 30
0.0
 10
32.2304471047
 20
57.4394813025
 30
0.0
 10
32.2428760185
 20
57.5848833481
 30
0.0
  0
SPLINE
  5
361
100
AcDbEntity
  8
0
100
AcDbSpline
 62
7
  6
BYLAYER
 70
0
 71
3
 72
15
 73
11
 74
0
 42
0.0000001
 43
0.0000001
 44
0.0000000001
 40
0.0
 40
0.0
 40
0.0
 40
0.0
 40
0.1087100672
 40
0.2265302331
 40
0.3517450326
 40
0.4820602835
 40
0.6148256578
 40
0.7472338869
 40
0.8764681041
 40
1.0
 40
1.0
 40
1.0
 40
1.0
 10
31.5486401003
 20
57.816683044
 30
0.0
 10
31.556763031
 20
57.7134381562
 30
0.0
 10
31.554796625
 20
57.496607569
 30
0.0
 10
31.5047464452
 20
57.1644041035
 30
0.0
 10
31.4092462141
 20
56.8209469629
 30
0.0
 10
31.2712669154
 20
56.476979375
 30
0.0
 10
31.0951040763
 20
56.1431816294
 30
0.0
 10
30.8862358683
 20
55.8300253
 30
0.0
 10
30.6513104771
 20
55.5472817285
 30
0.0
 10
30.4770620422
 20
55.3800823325
 30
0.0
 10
30.3870131172
 20
55.3043146289
 30
0.0
  0
SPLINE
  5
362
100
AcDbEntity
  8
0
100
AcDbSpline
 62
7
  6
BYLAYER
 70
0
 71
3
 72
9
 73
5
 74
0
 42
0.0000001
 43
0.0000001
 44
0.0000000001
 40
0.0
 40
0.0
 40
0.0
 40
0.0
 40
0.2532916346
 40
1.0
 40
1.0
 40
1.0
 40
1.0
 10
46.5808591199
 20
67.2054122395
 30
0.0
 10
46.2663888092
 20
66.9735316506
 30
0.0
 10
45.0180363554
 20
66.0673581737
 30
0.0
 10
43.7422525885
 20
65.1988726777
 30
0.0
 10
42.7745394241
 20
64.5741550269
 30
0.0
  0
SPLINE
  5
363
100
AcDbEntity
  8
0
100
AcDbSpline
 62
7
  6
BYLAYER
 70
0
 71
3
 72
15
 73
11
 74
0
 42
0.0000001
 43
0.0000001
 44
0.0000000001
 40
0.0
 40
0.0
 40
0.0
 40
0.0
 40
0.1146907367
 40
0.2386577239
 40
0.3690996173
 40
0.5027544337
 40
0.6360180688
 40
0.7653498825
 40
0.887525912
 40
1.0
 40
1.0
 40
1.0
 40
1.0
 10
31.8548265151
 20
57.5981149871
 30
0.0
 10
31.8548265151
 20
57.4687922175
 30
0.0
 10
31.8304336064
 20
57.1994326125
 30
0.0
 10
31.7336680079
 20
56.7934858008
 30
0.0
 10
31.5788212005
 20
56.3830456087
 30
0.0
 10
31.3721588557
 20
55.9843787448
 30
0.0
 10
31.1217248983
 20
55.6131455111
 30
0.0
 10
30.8373794901
 20
55.2839536548
 30
0.0
 10
30.5303740384
 20
55.009802373
 30
0.0
 10
30.3078514355
 20
54.8640095217
 30
0.0
 10
30.1956989778
 20
54.8047981885
 30
0.0
  0
SPLINE
  5
364
100
AcDbEntity
  8
0
100
AcDbSpline
 62
7
  6
BYLAYER
 70
0
 71
3
 72
11
 73
7
 74
0
 42
0.0000001
 43
0.0000001
 44
0.0000000001
 40
0.0
 40
0.0
 40
0.0
 40
0.0
 40
0.2284099353
 40
0.4680974354
 40
0.725735176
 40
1.0
 40
1.0
 40
1.0
 40
1.0
 10
28.3591550708
 20
82.2040593135
 30
0.0
 10
28.3692937284
 20
82.2259520578
 30
0.0
 10
28.3994168442
 20
82.2669753976
 30
0.0
 10
28.4653868763
 20
82.308852195
 30
0.0
 10
28.5456337588
 20
82.3288319536
 30
0.0
 10
28.6025261913
 20
82.3269147159
 30
0.0
 10
28.6311547449
 20
82.3224801221
 30
0.0
  0
SPLINE
  5
365
100
AcDbEntity
  8
0
100
AcDbSpline
 62
7
  6
BYLAYER
 70
0
 71
3
 72
11
 73
7
 74
0
 42
0.0000001
 43
0.0000001
 44
0.0000000001
 40
0.0
 40
0.0
 40
0.0
 40
0.0
 40
0.2257702307
 40
0.4634574903
 40
0.7212315291
 40
1.0
 40
1.0
 40
1.0
 40
1.0
 10
28.9955945236
 20
83.0977692466
 30
0.0
 10
29.0075966396
 20
83.1098780645
 30
0.0
 10
29.0367694813
 20
83.1305864638
 30
0.0
 10
29.0897134887
 20
83.1464649945
 30
0.0
 10
29.1488020699
 20
83.1471065305
 30
0.0
 10
29.188686119
 20
83.1381429079
 30
0.0
 10
29.208674976
 20
83.1315394564
 30
0.0
  0
SPLINE
  5
366
100
AcDbEntity
  8
0
100
AcDbSpline
 62
7
  6
BYLAYER
 70
0
 71
3
 72
15
 73
11
 74
0
 42
0.0000001
 43
0.0000001
 44
0.0000000001
 40
0.0
 40
0.0
 40
0.0
 40
0.0
 40
0.1201559523
 40
0.2467083044
 40
0.3773023923
 40
0.5093345194
 40
0.6401032254
 40
0.7669556132
 40
0.8876121061
 40
1.0
 40
1.0
 40
1.0
 40
1.0
 10
30.3132680145
 20
55.1409282385
 30
0.0
 10
30.4081676407
 20
55.2139946754
 30
0.0
 10
30.593115982
 20
55.3771802371
 30
0.0
 10
30.8452600647
 20
55.6571602259
 30
0.0
 10
31.0735242768
 20
55.9716811391
 30
0.0
 10
31.2709536104
 20
56.3112479954
 30
0.0
 10
31.4315753252
 20
56.6656202523
 30
0.0
 10
31.5506375476
 20
57.0241966278
 30
0.0
 10
31.6243873506
 20
57.3760786187
 30
0.0
 10
31.6426935975
 20
57.6085611388
 30
0.0
 10
31.6426935975
 20
57.7205872135
 30
0.0
  0
SPLINE
  5
367
100
AcDbEntity
  8
0
100
AcDbSpline
 62
7
  6
BYLAYER
 70
0
 71
3
 72
9
 73
5
 74
0
 42
0.0000001
 43
0.0000001
 44
0.0000000001
 40
0.0
 40
0.0
 40
0.0
 40
0.0
 40
0.2361345661
 40
1.0
 40
1.0
 40
1.0
 40
1.0
 10
31.7947231065
 20
58.0636126409
 30
0.0
 10
31.8048816385
 20
58.0280209562
 30
0.0
 10
31.8416269071
 20
57.8755132234
 30
0.0
 10
31.8548265151
 20
57.7178474282
 30
0.0
 10
31.8548265151
 20
57.5981149871
 30
0.0
  0
SPLINE
  5
368
100
AcDbEntity
  8
0
100
AcDbSpline
 62
7
  6
BYLAYER
 70
0
 71
3
 72
15
 73
11
 74
0
 42
0.0000001
 43
0.0000001
 44
0.0000000001
 40
0.0
 40
0.0
 40
0.0
 40
0.0
 40
0.1136863879
 40
0.2365813119
 40
0.3661434327
 40
0.4992350565
 40
0.632433523
 40
0.7623052171
 40
0.8856967518
 40
1.0
 40
1.0
 40
1.0
 40
1.0
 10
44.1592450972
 20
61.6199945285
 30
0.0
 10
44.3581751524
 20
61.7320969313
 30
0.0
 10
44.7515726099
 20
62.0028137074
 30
0.0
 10
45.293271898
 20
62.503103318
 30
0.0
 10
45.7931762315
 20
63.0970192542
 30
0.0
 10
46.2321912105
 20
63.7619560499
 30
0.0
 10
46.5937109721
 20
64.4727039055
 30
0.0
 10
46.8640351397
 20
65.2023584116
 30
0.0
 10
47.0328379339
 20
65.923070623
 30
0.0
 10
47.0752348447
 20
66.4009347897
 30
0.0
 10
47.0752348447
 20
66.6305158717
 30
0.0
  0
SPLINE
  5
369
100
AcDbEntity
  8
0
100
AcDbSpline
 62
7
  6
BYLAYER
 70
0
 71
3
 72
17
 73
13
 74
0
 42
0.0000001
 43
0.0000001
 44
0.0000000001
 40
0.0
 40
0.0
 40
0.0
 40
0.0
 40
0.1286891333
 40
0.2702803493
 40
0.4174326844
 40
0.5617743804
 40
0.6954465661
 40
0.8127104963
 40
0.8646756522
 40
0.91250911
 40
0.9571392634
 40
1.0
 40
1.0
 40
1.0
 40
1.0
 10
31.3952308062
 20
28.1020345362
 30
0.0
 10
31.3952308062
 20
28.0165597467
 30
0.0
 10
31.3713180837
 20
27.8368360138
 30
0.0
 10
31.2820722051
 20
27.5729513039
 30
0.0
 10
31.1445443793
 20
27.318748503
 30
0.0
 10
30.9697960631
 20
27.0950692917
 30
0.0
 10
30.7721035146
 20
26.9199807337
 30
0.0
 10
30.5931641031
 20
26.8221342687
 30
0.0
 10
30.4531886921
 20
26.7849003214
 30
0.0
 10
30.35685108
 20
26.7778055497
 30
0.0
 10
30.2671447359
 20
26.7909518792
 30
0.0
 10
30.212794418
 20
26.8135346839
 30
0.0
 10
30.1881459898
 20
26.8277781971
 30
0.0
  0
SPLINE
  5
36A
100
AcDbEntity
  8
0
100
AcDbSpline
 62
7
  6
BYLAYER
 70
0
 71
3
 72
14
 73
10
 74
0
 42
0.0000001
 43
0.0000001
 44
0.0000000001
 40
0.0
 40
0.0
 40
0.0
 40
0.0
 40
0.1080441246
 40
0.2181288308
 40
0.3321083062
 40
0.4514908887
 40
0.5774368672
 40
0.710738105
 40
1.0
 40
1.0
 40
1.0
 40
1.0
 10
49.0596829205
 20
66.8630173462
 30
0.0
 10
49.1264890753
 20
66.8244387825
 30
0.0
 10
49.2549498851
 20
66.7348187777
 30
0.0
 10
49.4246797428
 20
66.5677731941
 30
0.0
 10
49.5706293829
 20
66.3695098515
 30
0.0
 10
49.6915294472
 20
66.142313296
 30
0.0
 10
49.7863485307
 20
65.8883684286
 30
0.0
 10
49.8795482053
 20
65.5072885744
 30
0.0
 10
49.9036737453
 20
65.2040901422
 30
0.0
 10
49.9036737453
 20
64.9975528536
 30
0.0
  0
SPLINE
  5
36B
100
AcDbEntity
  8
0
100
AcDbSpline
 62
7
  6
BYLAYER
 70
0
 71
3
 72
17
 73
13
 74
0
 42
0.0000001
 43
0.0000001
 44
0.0000000001
 40
0.0
 40
0.0
 40
0.0
 40
0.0
 40
0.1286891333
 40
0.2702803493
 40
0.4174326844
 40
0.5617743804
 40
0.6954465661
 40
0.8127104963
 40
0.8646756522
 40
0.91250911
 40
0.9571392634
 40
1.0
 40
1.0
 40
1.0
 40
1.0
 10
49.9213513412
 20
38.7980313676
 30
0.0
 10
49.9213513412
 20
38.7125565782
 30
0.0
 10
49.8974386187
 20
38.5328328452
 30
0.0
 10
49.8081927401
 20
38.2689481354
 30
0.0
 10
49.6706649143
 20
38.0147453345
 30
0.0
 10
49.4959165981
 20
37.7910661232
 30
0.0
 10
49.2982240496
 20
37.6159775651
 30
0.0
 10
49.1192846381
 20
37.5181311001
 30
0.0
 10
48.9793092271
 20
37.4808971529
 30
0.0
 10
48.882971615
 20
37.4738023811
 30
0.0
 10
48.7932652709
 20
37.4869487106
 30
0.0
 10
48.738914953
 20
37.5095315153
 30
0.0
 10
48.7142665248
 20
37.5237750285
 30
0.0
  0
SPLINE
  5
36C
100
AcDbEntity
  8
0
100
AcDbSpline
 62
7
  6
BYLAYER
 70
0
 71
3
 72
11
 73
7
 74
0
 42
0.0000001
 43
0.0000001
 44
0.0000000001
 40
0.0
 40
0.0
 40
0.0
 40
0.0
 40
0.2423171907
 40
0.4980248366
 40
0.7547722983
 40
1.0
 40
1.0
 40
1.0
 40
1.0
 10
45.661297815
 20
65.4415339096
 30
0.0
 10
45.6305981468
 20
65.2626467097
 30
0.0
 10
45.530415929
 20
64.9008634422
 30
0.0
 10
45.2918459328
 20
64.3859047198
 30
0.0
 10
44.9756268469
 20
63.9120182315
 30
0.0
 10
44.717914593
 20
63.6351313369
 30
0.0
 10
44.5803407818
 20
63.5134240289
 30
0.0
  0
SPLINE
  5
36D
100
AcDbEntity
  8
0
100
AcDbSpline
 62
7
  6
BYLAYER
 70
0
 71
3
 72
9
 73
5
 74
0
 42
0.0000001
 43
0.0000001
 44
0.0000000001
 40
0.0
 40
0.0
 40
0.0
 40
0.0
 40
0.2422025242
 40
1.0
 40
1.0
 40
1.0
 40
1.0
 10
32.0918445872
 20
56.7857850355
 30
0.0
 10
32.0877488104
 20
56.7797547382
 30
0.0
 10
32.0717763576
 20
56.7542251045
 30
0.0
 10
32.0594760968
 20
56.7264593085
 30
0.0
 10
32.0521423499
 20
56.7048626623
 30
0.0
  0
SPLINE
  5
36E
100
AcDbEntity
  8
0
100
AcDbSpline
 62
7
  6
BYLAYER
 70
0
 71
3
 72
9
 73
5
 74
0
 42
0.0000001
 43
0.0000001
 44
0.0000000001
 40
0.0
 40
0.0
 40
0.0
 40
0.0
 40
0.5249368259
 40
1.0
 40
1.0
 40
1.0
 40
1.0
 10
32.0918514177
 20
56.7857851723
 30
0.0
 10
32.1757281598
 20
56.90927849
 30
0.0
 10
32.3247352266
 20
57.1521158947
 30
0.0
 10
32.445229705
 20
57.4107706546
 30
0.0
 10
32.4926511248
 20
57.5372758588
 30
0.0
  0
SPLINE
  5
36F
100
AcDbEntity
  8
0
100
AcDbSpline
 62
7
  6
BYLAYER
 70
0
 71
3
 72
9
 73
5
 74
0
 42
0.0000001
 43
0.0000001
 44
0.0000000001
 40
0.0
 40
0.0
 40
0.0
 40
0.0
 40
0.2545956218
 40
1.0
 40
1.0
 40
1.0
 40
1.0
 10
31.6426935975
 20
57.7205872135
 30
0.0
 10
31.6426935975
 20
57.7355353141
 30
0.0
 10
31.6420668222
 20
57.7942459496
 30
0.0
 10
31.6388998011
 20
57.8529357572
 30
0.0
 10
31.6349757313
 20
57.8965244906
 30
0.0
  0
SPLINE
  5
370
100
AcDbEntity
  8
0
100
AcDbSpline
 62
7
  6
BYLAYER
 70
0
 71
3
 72
17
 73
13
 74
0
 42
0.0000001
 43
0.0000001
 44
0.0000000001
 40
0.0
 40
0.0
 40
0.0
 40
0.0
 40
0.1124202726
 40
0.2327203624
 40
0.3593947992
 40
0.4902768622
 40
0.6227389919
 40
0.6886747283
 40
0.7538892407
 40
0.8179843978
 40
0.8806050309
 40
1.0
 40
1.0
 40
1.0
 40
1.0
 10
28.6728342239
 20
66.9823329135
 30
0.0
 10
29.0301517452
 20
66.7760402134
 30
0.0
 10
29.8100969709
 20
66.4166979684
 30
0.0
 10
31.081396753
 20
66.0505444977
 30
0.0
 10
32.4562520065
 20
65.8433796195
 30
0.0
 10
33.8896784374
 20
65.7955084994
 30
0.0
 10
35.0973178438
 20
65.8831699242
 30
0.0
 10
36.0544798237
 20
66.0263736602
 30
0.0
 10
36.7571993121
 20
66.1681338437
 30
0.0
 10
37.4401977359
 20
66.3417858209
 30
0.0
 10
38.3031366371
 20
66.6095652121
 30
0.0
 10
38.9239715383
 20
66.8612737396
 30
0.0
 10
39.3197233185
 20
67.0493990767
 30
0.0
  0
SPLINE
  5
371
100
AcDbEntity
  8
0
100
AcDbSpline
 62
7
  6
BYLAYER
 70
0
 71
3
 72
9
 73
5
 74
0
 42
0.0000001
 43
0.0000001
 44
0.0000000001
 40
0.0
 40
0.0
 40
0.0
 40
0.0
 40
0.4817210433
 40
1.0
 40
1.0
 40
1.0
 40
1.0
 10
32.6867694202
 20
58.733070267
 30
0.0
 10
32.6796895843
 20
58.7311798803
 30
0.0
 10
32.6639526948
 20
58.7307098094
 30
0.0
 10
32.6494131849
 20
58.7362933084
 30
0.0
 10
32.6425854187
 20
58.7402352318
 30
0.0
  0
SPLINE
  5
372
100
AcDbEntity
  8
0
100
AcDbSpline
 62
7
  6
BYLAYER
 70
0
 71
3
 72
12
 73
8
 74
0
 42
0.0000001
 43
0.0000001
 44
0.0000000001
 40
0.0
 40
0.0
 40
0.0
 40
0.0
 40
0.2385218722
 40
0.4847273656
 40
0.6107117147
 40
0.7385898902
 40
1.0
 40
1.0
 40
1.0
 40
1.0
 10
50.5577447947
 20
72.0704985164
 30
0.0
 10
49.7379811562
 20
71.8277119369
 30
0.0
 10
48.0872721743
 20
71.2815589186
 30
0.0
 10
46.0520434311
 20
70.472259273
 30
0.0
 10
44.4146268124
 20
69.7425943862
 30
0.0
 10
42.7476491314
 20
68.9470032729
 30
0.0
 10
41.5118551915
 20
68.2973088644
 30
0.0
 10
40.6936571307
 20
67.840664773
 30
0.0
  0
SPLINE
  5
373
100
AcDbEntity
  8
0
100
AcDbSpline
 62
7
  6
BYLAYER
 70
0
 71
3
 72
15
 73
11
 74
0
 42
0.0000001
 43
0.0000001
 44
0.0000000001
 40
0.0
 40
0.0
 40
0.0
 40
0.0
 40
0.1504601551
 40
0.2924034202
 40
0.4262055564
 40
0.552232937
 40
0.6711474256
 40
0.784239609
 40
0.8932015323
 40
1.0
 40
1.0
 40
1.0
 40
1.0
 10
40.5826511545
 20
67.7785464503
 30
0.0
 10
40.7187445395
 20
67.874511804
 30
0.0
 10
40.9771955196
 20
68.0698498307
 30
0.0
 10
41.3297104918
 20
68.3842010164
 30
0.0
 10
41.6321971351
 20
68.7111799916
 30
0.0
 10
41.8831941729
 20
69.0480022105
 30
0.0
 10
42.0810877257
 20
69.3925253989
 30
0.0
 10
42.2239791049
 20
69.7431889939
 30
0.0
 10
42.3103043722
 20
70.0981699404
 30
0.0
 10
42.3296678937
 20
70.3373892756
 30
0.0
 10
42.3296602927
 20
70.4555911573
 30
0.0
  0
SPLINE
  5
374
100
AcDbEntity
  8
0
100
AcDbSpline
 62
7
  6
BYLAYER
 70
0
 71
3
 72
13
 73
9
 74
0
 42
0.0000001
 43
0.0000001
 44
0.0000000001
 40
0.0
 40
0.0
 40
0.0
 40
0.0
 40
0.1163679125
 40
0.2336646238
 40
0.3527757014
 40
0.4745220058
 40
0.7283507088
 40
1.0
 40
1.0
 40
1.0
 40
1.0
 10
26.3296695505
 20
70.4555908435
 30
0.0
 10
26.3296766366
 20
70.3237166326
 30
0.0
 10
26.3463051423
 20
70.0586228613
 30
0.0
 10
26.4207935054
 20
69.6648634816
 30
0.0
 10
26.54446682
 20
69.2772295441
 30
0.0
 10
26.7767687321
 20
68.7657842711
 30
0.0
 10
27.19290498
 20
68.1544786536
 30
0.0
 10
27.6225373143
 20
67.7364700806
 30
0.0
 10
27.860512189
 20
67.5411809173
 30
0.0
  0
SPLINE
  5
375
100
AcDbEntity
  8
0
100
AcDbSpline
 62
7
  6
BYLAYER
 70
0
 71
3
 72
9
 73
5
 74
0
 42
0.0000001
 43
0.0000001
 44
0.0000000001
 40
0.0
 40
0.0
 40
0.0
 40
0.0
 40
0.2435967951
 40
1.0
 40
1.0
 40
1.0
 40
1.0
 10
27.860512189
 20
67.5411809173
 30
0.0
 10
27.9224413804
 20
67.490360006
 30
0.0
 10
28.1812734556
 20
67.2873746871
 30
0.0
 10
28.4574001528
 20
67.1067110186
 30
0.0
 10
28.6728342239
 20
66.9823329135
 30
0.0
  0
SPLINE
  5
376
100
AcDbEntity
  8
0
100
AcDbSpline
 62
7
  6
BYLAYER
 70
0
 71
3
 72
15
 73
11
 74
0
 42
0.0000001
 43
0.0000001
 44
0.0000000001
 40
0.0
 40
0.0
 40
0.0
 40
0.0
 40
0.1113452808
 40
0.2242441857
 40
0.3401481266
 40
0.4603009875
 40
0.5857253136
 40
0.7172105436
 40
0.8552701856
 40
1.0
 40
1.0
 40
1.0
 40
1.0
 10
26.3296658941
 20
71.4785569724
 30
0.0
 10
26.3296705029
 20
71.3487453701
 30
0.0
 10
26.3489182421
 20
71.0869238172
 30
0.0
 10
26.4349080055
 20
70.6984979613
 30
0.0
 10
26.5774035511
 20
70.3161119095
 30
0.0
 10
26.7749064309
 20
69.9425922955
 30
0.0
 10
27.0259596877
 20
69.5805660737
 30
0.0
 10
27.3285694919
 20
69.2323775545
 30
0.0
 10
27.6804881023
 20
68.9005788425
 30
0.0
 10
27.9400125122
 20
68.6964894827
 30
0.0
 10
28.0767202397
 20
68.5975866026
 30
0.0
  0
SPLINE
  5
377
100
AcDbEntity
  8
0
100
AcDbSpline
 62
7
  6
BYLAYER
 70
0
 71
3
 72
12
 73
8
 74
0
 42
0.0000001
 43
0.0000001
 44
0.0000000001
 40
0.0
 40
0.0
 40
0.0
 40
0.0
 40
0.2462102753
 40
0.3703069843
 40
0.4949748233
 40
0.7461845902
 40
1.0
 40
1.0
 40
1.0
 40
1.0
 10
39.3197233186
 20
67.0493990767
 30
0.0
 10
38.9866288085
 20
66.851669746
 30
0.0
 10
38.4891755819
 20
66.5483092845
 30
0.0
 10
37.8295844857
 20
66.1343268022
 30
0.0
 10
37.1665732977
 20
65.7110303411
 30
0.0
 10
36.3385748823
 20
65.1669681383
 30
0.0
 10
35.6827128122
 20
64.718372054
 30
0.0
 10
35.3550122946
 20
64.4901747132
 30
0.0
  0
SPLINE
  5
378
100
AcDbEntity
  8
0
100
AcDbSpline
 62
7
  6
BYLAYER
 70
0
 71
3
 72
14
 73
10
 74
0
 42
0.0000001
 43
0.0000001
 44
0.0000000001
 40
0.0
 40
0.0
 40
0.0
 40
0.0
 40
0.1080840804
 40
0.2181672497
 40
0.3321305427
 40
0.4515261604
 40
0.5774705296
 40
0.7107315991
 40
1.0
 40
1.0
 40
1.0
 40
1.0
 10
34.9176022525
 20
58.6981274378
 30
0.0
 10
34.9844368804
 20
58.6595407235
 30
0.0
 10
35.1129326603
 20
58.5699187503
 30
0.0
 10
35.2826575677
 20
58.4028443115
 30
0.0
 10
35.4286082618
 20
58.204583984
 30
0.0
 10
35.5494539953
 20
57.9773615302
 30
0.0
 10
35.644286
 20
57.7234453724
 30
0.0
 10
35.7374839793
 20
57.3423880437
 30
0.0
 10
35.761597001
 20
57.0392122569
 30
0.0
 10
35.761597001
 20
56.8326697762
 30
0.0
  0
SPLINE
  5
379
100
AcDbEntity
  8
0
100
AcDbSpline
 62
7
  6
BYLAYER
 70
0
 71
3
 72
24
 73
20
 74
0
 42
0.0000001
 43
0.0000001
 44
0.0000000001
 40
0.0
 40
0.0
 40
0.0
 40
0.0
 40
0.062373885
 40
0.1287404689
 40
0.1983309078
 40
0.2703142294
 40
0.3436968583
 40
0.4174323413
 40
0.4904633552
 40
0.5617555753
 40
0.6303579214
 40
0.6954510546
 40
0.7564024588
 40
0.8128429867
 40
0.8647479558
 40
0.9125267547
 40
0.9571044393
 40
0.9786668298
 40
1.0
 40
1.0
 40
1.0
 40
1.0
 10
49.9036737453
 20
64.9975528536
 30
0.0
 10
49.9036737453
 20
64.8285358214
 30
0.0
 10
49.8807289199
 20
64.4794537599
 30
0.0
 10
49.7865483864
 20
63.9494359698
 30
0.0
 10
49.6332897003
 20
63.4063138583
 30
0.0
 10
49.4243786396
 20
62.8617801276
 30
0.0
 10
49.1642013502
 20
62.327310932
 30
0.0
 10
48.8583277743
 20
61.8143213588
 30
0.0
 10
48.5132820907
 20
61.3337463233
 30
0.0
 10
48.1363815956
 20
60.8958513455
 30
0.0
 10
47.7356630711
 20
60.5099217027
 30
0.0
 10
47.3195595047
 20
60.184131994
 30
0.0
 10
46.8966752041
 20
59.9254308672
 30
0.0
 10
46.4756432564
 20
59.7393485201
 30
0.0
 10
46.0647750778
 20
59.630200951
 30
0.0
 10
45.6723568387
 20
59.6011972452
 30
0.0
 10
45.3638649056
 20
59.6466523727
 30
0.0
 10
45.1393483327
 20
59.7242641297
 30
0.0
 10
45.0348283322
 20
59.7759903283
 30
0.0
 10
44.9847682968
 20
59.804898507
 30
0.0
  0
SPLINE
  5
37A
100
AcDbEntity
  8
0
100
AcDbSpline
 62
7
  6
BYLAYER
 70
0
 71
3
 72
9
 73
5
 74
0
 42
0.0000001
 43
0.0000001
 44
0.0000000001
 40
0.0
 40
0.0
 40
0.0
 40
0.0
 40
0.2563728309
 40
1.0
 40
1.0
 40
1.0
 40
1.0
 10
28.5782206899
 20
74.6659018786
 30
0.0
 10
28.5303419977
 20
74.6328738967
 30
0.0
 10
28.3454339108
 20
74.5014042968
 30
0.0
 10
28.1681024438
 20
74.359169079
 30
0.0
 10
28.0419410468
 20
74.2471542246
 30
0.0
  0
SPLINE
  5
37B
100
AcDbEntity
  8
0
100
AcDbSpline
 62
7
  6
BYLAYER
 70
0
 71
3
 72
21
 73
17
 74
0
 42
0.0000001
 43
0.0000001
 44
0.0000000001
 40
0.0
 40
0.0
 40
0.0
 40
0.0
 40
0.134567558
 40
0.1974782613
 40
0.257855239
 40
0.3161735164
 40
0.373009694
 40
0.4290301434
 40
0.4849486838
 40
0.5414885893
 40
0.5993347028
 40
0.6590909521
 40
0.7212532861
 40
0.7862171952
 40
0.8542741352
 40
1.0
 40
1.0
 40
1.0
 40
1.0
 10
28.0419410468
 20
74.2471542246
 30
0.0
 10
27.8320564831
 20
74.0608041255
 30
0.0
 10
27.5454471932
 20
73.7601966787
 30
0.0
 10
27.2411079823
 20
73.3156817698
 30
0.0
 10
27.0640766252
 20
72.979747531
 30
0.0
 10
26.9345074281
 20
72.6362546526
 30
0.0
 10
26.853609444
 20
72.2873844472
 30
0.0
 10
26.8219096302
 20
71.9356405581
 30
0.0
 10
26.8398627539
 20
71.583537135
 30
0.0
 10
26.9071763143
 20
71.2336263228
 30
0.0
 10
27.023354366
 20
70.8883942449
 30
0.0
 10
27.1873585683
 20
70.5501798547
 30
0.0
 10
27.3978954105
 20
70.2211637852
 30
0.0
 10
27.6535622668
 20
69.9033874678
 30
0.0
 10
28.0613730223
 20
69.4880267433
 30
0.0
 10
28.4165132749
 20
69.2139224583
 30
0.0
 10
28.6697177266
 20
69.0457810565
 30
0.0
  0
SPLINE
  5
37C
100
AcDbEntity
  8
0
100
AcDbSpline
 62
7
  6
BYLAYER
 70
0
 71
3
 72
14
 73
10
 74
0
 42
0.0000001
 43
0.0000001
 44
0.0000000001
 40
0.0
 40
0.0
 40
0.0
 40
0.0
 40
0.0256549075
 40
0.078628107
 40
0.1622072534
 40
0.2759877782
 40
0.4190145074
 40
0.5894665026
 40
1.0
 40
1.0
 40
1.0
 40
1.0
 10
33.2683803922
 20
78.9878949237
 30
0.0
 10
33.2689790871
 20
78.9888199699
 30
0.0
 10
33.2730702654
 20
78.9890900408
 30
0.0
 10
33.2793678131
 20
78.9872440856
 30
0.0
 10
33.2896822293
 20
78.9835026994
 30
0.0
 10
33.3029268077
 20
78.9775037637
 30
0.0
 10
33.319430862
 20
78.9694038754
 30
0.0
 10
33.3469496379
 20
78.9549479168
 30
0.0
 10
33.3687106288
 20
78.9427119803
 30
0.0
 10
33.3839804521
 20
78.9338951116
 30
0.0
  0
SPLINE
  5
37D
100
AcDbEntity
  8
0
100
AcDbSpline
 62
7
  6
BYLAYER
 70
0
 71
3
 72
13
 73
9
 74
0
 42
0.0000001
 43
0.0000001
 44
0.0000000001
 40
0.0
 40
0.0
 40
0.0
 40
0.0
 40
0.0670066831
 40
0.1440517334
 40
0.2375980039
 40
0.3506604508
 40
0.6382404131
 40
1.0
 40
1.0
 40
1.0
 40
1.0
 10
32.3101227402
 20
77.008581739
 30
0.0
 10
32.3091039967
 20
77.0055437076
 30
0.0
 10
32.3084178945
 20
76.9984555367
 30
0.0
 10
32.3116449273
 20
76.9873806271
 30
0.0
 10
32.3185444064
 20
76.9756014242
 30
0.0
 10
32.3337757489
 20
76.9574333252
 30
0.0
 10
32.3620887047
 20
76.9340971368
 30
0.0
 10
32.3883172799
 20
76.9174160649
 30
0.0
 10
32.403299177
 20
76.9087664583
 30
0.0
  0
SPLINE
  5
37E
100
AcDbEntity
  8
0
100
AcDbSpline
 62
7
  6
BYLAYER
 70
0
 71
3
 72
11
 73
7
 74
0
 42
0.0000001
 43
0.0000001
 44
0.0000000001
 40
0.0
 40
0.0
 40
0.0
 40
0.0
 40
0.2179537621
 40
0.4511866574
 40
0.7105121188
 40
1.0
 40
1.0
 40
1.0
 40
1.0
 10
31.6159037889
 20
74.8866547753
 30
0.0
 10
31.6159113071
 20
74.8752193128
 30
0.0
 10
31.6201155023
 20
74.8513855368
 30
0.0
 10
31.6381993345
 20
74.8181995998
 30
0.0
 10
31.666734979
 20
74.7882123083
 30
0.0
 10
31.6906088358
 20
74.7717757348
 30
0.0
 10
31.7037626873
 20
74.764181527
 30
0.0
  0
SPLINE
  5
37F
100
AcDbEntity
  8
0
100
AcDbSpline
 62
7
  6
BYLAYER
 70
0
 71
3
 72
15
 73
11
 74
0
 42
0.0000001
 43
0.0000001
 44
0.0000000001
 40
0.0
 40
0.0
 40
0.0
 40
0.0
 40
0.1302000199
 40
0.2376536426
 40
0.3312522449
 40
0.4235236714
 40
0.5279043496
 40
0.6547845921
 40
0.8107666588
 40
1.0
 40
1.0
 40
1.0
 40
1.0
 10
40.5294969561
 20
80.1711190459
 30
0.0
 10
40.5295072696
 20
80.1836710588
 30
0.0
 10
40.5282731858
 20
80.2066485641
 30
0.0
 10
40.5202052451
 20
80.2378849921
 30
0.0
 10
40.5046938094
 20
80.2622848111
 30
0.0
 10
40.4811018933
 20
80.2786038693
 30
0.0
 10
40.4504503909
 20
80.2864809794
 30
0.0
 10
40.4129073415
 20
80.2869399383
 30
0.0
 10
40.3677455756
 20
80.2804360622
 30
0.0
 10
40.3354211247
 20
80.2723351405
 30
0.0
 10
40.3178733564
 20
80.2673462715
 30
0.0
  0
SPLINE
  5
380
100
AcDbEntity
  8
0
100
AcDbSpline
 62
7
  6
BYLAYER
 70
0
 71
3
 72
23
 73
19
 74
0
 42
0.0000001
 43
0.0000001
 44
0.0000000001
 40
0.0
 40
0.0
 40
0.0
 40
0.0
 40
0.0428376817
 40
0.0871406321
 40
0.134142819
 40
0.1847090822
 40
0.2393084551
 40
0.2980601171
 40
0.3607962727
 40
0.4271182179
 40
0.4964541505
 40
0.5681036093
 40
0.6412715793
 40
0.7151116261
 40
0.7887482665
 40
0.8613075945
 40
0.9319990633
 40
1.0
 40
1.0
 40
1.0
 40
1.0
 10
40.5296569147
 20
71.8868081685
 30
0.0
 10
40.5296714516
 20
71.7269497761
 30
0.0
 10
40.4912097979
 20
71.4006038312
 30
0.0
 10
40.3213708346
 20
70.9257847757
 30
0.0
 10
40.04418607
 20
70.4709070099
 30
0.0
 10
39.666153885
 20
70.0438114148
 30
0.0
 10
39.1947469265
 20
69.6508865516
 30
0.0
 10
38.6383815004
 20
69.2982547951
 30
0.0
 10
38.006690554
 20
68.9916529398
 30
0.0
 10
37.310636027
 20
68.7361642305
 30
0.0
 10
36.5623247434
 20
68.5361217101
 30
0.0
 10
35.7748172273
 20
68.3950316303
 30
0.0
 10
34.961913068
 20
68.3153465477
 30
0.0
 10
34.1378906767
 20
68.2984482014
 30
0.0
 10
33.3172649371
 20
68.3446337166
 30
0.0
 10
32.5143233639
 20
68.4531016585
 30
0.0
 10
31.7434179109
 20
68.6220114293
 30
0.0
 10
31.2485079312
 20
68.776328615
 30
0.0
 10
31.0102051727
 20
68.8635426772
 30
0.0
  0
LINE
  5
381
100
AcDbEntity
  8
0
100
AcDbLine
 62
7
  6
BYLAYER
 10
42.658150994
 20
65.1787294897
 11
42.658766992
 21
65.0547211393
  0
SPLINE
  5
382
100
AcDbEntity
  8
0
100
AcDbSpline
 62
7
  6
BYLAYER
 70
0
 71
3
 72
8
 73
4
 74
0
 42
0.0000001
 43
0.0000001
 44
0.0000000001
 40
0.0
 40
0.0
 40
0.0
 40
0.0
 40
1.0
 40
1.0
 40
1.0
 40
1.0
 10
42.6122407146
 20
65.0420816875
 30
0.0
 10
42.6269841803
 20
65.0484771913
 30
0.0
 10
42.6427929336
 20
65.0529599731
 30
0.0
 10
42.658766992
 20
65.0547211393
 30
0.0
  0
SPLINE
  5
383
100
AcDbEntity
  8
0
100
AcDbSpline
 62
7
  6
BYLAYER
 70
0
 71
3
 72
13
 73
9
 74
0
 42
0.0000001
 43
0.0000001
 44
0.0000000001
 40
0.0
 40
0.0
 40
0.0
 40
0.0
 40
0.1069879193
 40
0.2233125769
 40
0.3463376617
 40
0.4736277883
 40
0.73469537
 40
1.0
 40
1.0
 40
1.0
 40
1.0
 10
42.6122407146
 20
65.0420816875
 30
0.0
 10
42.572390778
 20
65.0247953569
 30
0.0
 10
42.4932077239
 20
64.9787810713
 30
0.0
 10
42.3896309578
 20
64.8821349517
 30
0.0
 10
42.3024680864
 20
64.760499191
 30
0.0
 10
42.2083018781
 20
64.5747925699
 30
0.0
 10
42.1305378774
 20
64.3193797434
 30
0.0
 10
42.0937722575
 20
64.1086713636
 30
0.0
 10
42.0789785772
 20
64.0019768819
 30
0.0
  0
SPLINE
  5
384
100
AcDbEntity
  8
0
100
AcDbSpline
 62
7
  6
BYLAYER
 70
0
 71
3
 72
15
 73
11
 74
0
 42
0.0000001
 43
0.0000001
 44
0.0000000001
 40
0.0
 40
0.0
 40
0.0
 40
0.0
 40
0.1135005018
 40
0.2313868054
 40
0.3538427534
 40
0.4803384217
 40
0.6094875649
 40
0.7397444183
 40
0.8700710484
 40
1.0
 40
1.0
 40
1.0
 40
1.0
 10
38.9071176206
 20
62.9678119285
 30
0.0
 10
38.8115534764
 20
62.8942697666
 30
0.0
 10
38.6244512322
 20
62.734002024
 30
0.0
 10
38.3665511009
 20
62.4594146469
 30
0.0
 10
38.1349591855
 20
62.144687591
 30
0.0
 10
37.938549877
 20
61.7931186332
 30
0.0
 10
37.7808795366
 20
61.4138223208
 30
0.0
 10
37.6586737961
 20
61.0177106633
 30
0.0
 10
37.5651477745
 20
60.6132378433
 30
0.0
 10
37.5172401159
 20
60.3408085556
 30
0.0
 10
37.4959933261
 20
60.20441359
 30
0.0
  0
LINE
  5
385
100
AcDbEntity
  8
0
100
AcDbLine
 62
7
  6
BYLAYER
 10
39.6142214578
 20
63.3760560824
 11
39.6548729696
 21
62.9956649523
  0
SPLINE
  5
386
100
AcDbEntity
  8
0
100
AcDbSpline
 62
7
  6
BYLAYER
 70
0
 71
3
 72
15
 73
11
 74
0
 42
0.0000001
 43
0.0000001
 44
0.0000000001
 40
0.0
 40
0.0
 40
0.0
 40
0.0
 40
0.1314289956
 40
0.2598728086
 40
0.3848712311
 40
0.5066213766
 40
0.6266365019
 40
0.7475409572
 40
0.8716364524
 40
1.0
 40
1.0
 40
1.0
 40
1.0
 10
41.7386163494
 20
62.6538785133
 30
0.0
 10
41.6757780328
 20
62.7345741525
 30
0.0
 10
41.5467351214
 20
62.8905278343
 30
0.0
 10
41.3367070319
 20
63.1047155538
 30
0.0
 10
41.1082036346
 20
63.2879869874
 30
0.0
 10
40.8577938933
 20
63.4284344022
 30
0.0
 10
40.586170244
 20
63.5131752277
 30
0.0
 10
40.3008771004
 20
63.5361222746
 30
0.0
 10
40.0108273814
 20
63.5026245569
 30
0.0
 10
39.8207847202
 20
63.4500741126
 30
0.0
 10
39.726313819
 20
63.4176176604
 30
0.0
  0
SPLINE
  5
387
100
AcDbEntity
  8
0
100
AcDbSpline
 62
7
  6
BYLAYER
 70
0
 71
3
 72
30
 73
26
 74
0
 42
0.0000001
 43
0.0000001
 44
0.0000000001
 40
0.0
 40
0.0
 40
0.0
 40
0.0
 40
0.1248197043
 40
0.2497107851
 40
0.3747329498
 40
0.4373170332
 40
0.499967893
 40
0.5627057721
 40
0.625560637
 40
0.6885800974
 40
0.7518466027
 40
0.7836183686
 40
0.8155248562
 40
0.8476226385
 40
0.8800110695
 40
0.8963714906
 40
0.9128864818
 40
0.929574933
 40
0.9379517575
 40
0.9462090212
 40
0.9539844219
 40
0.9610760975
 40
0.9740871889
 40
0.9869758576
 40
1.0
 40
1.0
 40
1.0
 40
1.0
 10
42.0789785772
 20
64.0019768819
 30
0.0
 10
42.0704594154
 20
63.9405352701
 30
0.0
 10
42.0529828378
 20
63.8176768346
 30
0.0
 10
42.0257961679
 20
63.6334471063
 30
0.0
 10
42.0023815007
 20
63.4799253612
 30
0.0
 10
41.9830709706
 20
63.3570677029
 30
0.0
 10
41.9682172591
 20
63.2648424284
 30
0.0
 10
41.9528901847
 20
63.1725580779
 30
0.0
 10
41.9369174079
 20
63.0801967243
 30
0.0
 10
41.9200095408
 20
62.9877344933
 30
0.0
 10
41.9047524662
 20
62.9106773656
 30
0.0
 10
41.8913342663
 20
62.8490333862
 30
0.0
 10
41.8803908707
 20
62.8027083061
 30
0.0
 10
41.8681759186
 20
62.7563836446
 30
0.0
 10
41.856362867
 20
62.7179577598
 30
0.0
 10
41.8450681204
 20
62.6875391284
 30
0.0
 10
41.8351347709
 20
62.6649882923
 30
0.0
 10
41.8249603468
 20
62.6469034967
 30
0.0
 10
41.8147201081
 20
62.6338351961
 30
0.0
 10
41.805699467
 20
62.6255936689
 30
0.0
 10
41.7952485935
 20
62.6203097198
 30
0.0
 10
41.7810924704
 20
62.6190277393
 30
0.0
 10
41.7654482078
 20
62.6260700447
 30
0.0
 10
41.7509665954
 20
62.638931373
 30
0.0
 10
41.7425929612
 20
62.6487718323
 30
0.0
 10
41.7386163494
 20
62.6538785133
 30
0.0
  0
SPLINE
  5
388
100
AcDbEntity
  8
0
100
AcDbSpline
 62
7
  6
BYLAYER
 70
0
 71
3
 72
10
 73
6
 74
0
 42
0.0000001
 43
0.0000001
 44
0.0000000001
 40
0.0
 40
0.0
 40
0.0
 40
0.0
 40
0.5079578795
 40
0.7560525897
 40
1.0
 40
1.0
 40
1.0
 40
1.0
 10
38.9477691323
 20
62.5874207985
 30
0.0
 10
39.0589772954
 20
62.669976928
 30
0.0
 10
39.2323306358
 20
62.7826455931
 30
0.0
 10
39.4720106704
 20
62.9127626247
 30
0.0
 10
39.5936152999
 20
62.9697451461
 30
0.0
 10
39.6548729696
 20
62.9956649523
 30
0.0
  0
SPLINE
  5
389
100
AcDbEntity
  8
0
100
AcDbSpline
 62
7
  6
BYLAYER
 70
0
 71
3
 72
9
 73
5
 74
0
 42
0.0000001
 43
0.0000001
 44
0.0000000001
 40
0.0
 40
0.0
 40
0.0
 40
0.0
 40
0.2546621409
 40
1.0
 40
1.0
 40
1.0
 40
1.0
 10
39.5946000472
 20
63.1869224086
 30
0.0
 10
39.6007599825
 20
63.1710461414
 30
0.0
 10
39.6239611545
 20
63.1083274464
 30
0.0
 10
39.6431686823
 20
63.0441123733
 30
0.0
 10
39.6548729696
 20
62.9956649523
 30
0.0
  0
SPLINE
  5
38A
100
AcDbEntity
  8
0
100
AcDbSpline
 62
7
  6
BYLAYER
 70
0
 71
3
 72
11
 73
7
 74
0
 42
0.0000001
 43
0.0000001
 44
0.0000000001
 40
0.0
 40
0.0
 40
0.0
 40
0.0
 40
0.2177651606
 40
0.4508956102
 40
0.7103690052
 40
1.0
 40
1.0
 40
1.0
 40
1.0
 10
31.1881079483
 20
28.5598025675
 30
0.0
 10
31.221084286
 20
28.5407466303
 30
0.0
 10
31.2828343013
 20
28.4889128522
 30
0.0
 10
31.3485301341
 20
28.3814486948
 30
0.0
 10
31.3875308863
 20
28.249050867
 30
0.0
 10
31.3952308062
 20
28.1526899213
 30
0.0
 10
31.3952308062
 20
28.1020345362
 30
0.0
  0
SPLINE
  5
38B
100
AcDbEntity
  8
0
100
AcDbSpline
 62
7
  6
BYLAYER
 70
0
 71
3
 72
11
 73
7
 74
0
 42
0.0000001
 43
0.0000001
 44
0.0000000001
 40
0.0
 40
0.0
 40
0.0
 40
0.0
 40
0.2177651606
 40
0.4508956102
 40
0.7103690052
 40
1.0
 40
1.0
 40
1.0
 40
1.0
 10
49.7142284833
 20
39.255799399
 30
0.0
 10
49.747204821
 20
39.2367434617
 30
0.0
 10
49.8089548363
 20
39.1849096836
 30
0.0
 10
49.8746506691
 20
39.0774455262
 30
0.0
 10
49.9136514213
 20
38.9450476985
 30
0.0
 10
49.9213513412
 20
38.8486867527
 30
0.0
 10
49.9213513412
 20
38.7980313676
 30
0.0
  0
SPLINE
  5
38C
100
AcDbEntity
  8
0
100
AcDbSpline
 62
7
  6
BYLAYER
 70
0
 71
3
 72
9
 73
5
 74
0
 42
0.0000001
 43
0.0000001
 44
0.0000000001
 40
0.0
 40
0.0
 40
0.0
 40
0.0
 40
0.2616819506
 40
1.0
 40
1.0
 40
1.0
 40
1.0
 10
38.2452216282
 20
81.7405973206
 30
0.0
 10
38.2477688772
 20
81.7380903606
 30
0.0
 10
38.257369511
 20
81.728377189
 30
0.0
 10
38.2664101825
 20
81.7180974991
 30
0.0
 10
38.2726161349
 20
81.710149669
 30
0.0
  0
SPLINE
  5
38D
100
AcDbEntity
  8
0
100
AcDbSpline
 62
7
  6
BYLAYER
 70
0
 71
3
 72
9
 73
5
 74
0
 42
0.0000001
 43
0.0000001
 44
0.0000000001
 40
0.0
 40
0.0
 40
0.0
 40
0.0
 40
0.2605764135
 40
1.0
 40
1.0
 40
1.0
 40
1.0
 10
38.2726161349
 20
81.710149669
 30
0.0
 10
38.2745685069
 20
81.7076493081
 30
0.0
 10
38.2818818993
 20
81.6979173847
 30
0.0
 10
38.2884379789
 20
81.6876003587
 30
0.0
 10
38.2926748012
 20
81.6796578475
 30
0.0
  0
SPLINE
  5
38E
100
AcDbEntity
  8
0
100
AcDbSpline
 62
7
  6
BYLAYER
 70
0
 71
3
 72
9
 73
5
 74
0
 42
0.0000001
 43
0.0000001
 44
0.0000000001
 40
0.0
 40
0.0
 40
0.0
 40
0.0
 40
0.2568630475
 40
1.0
 40
1.0
 40
1.0
 40
1.0
 10
38.2926748012
 20
81.6796578475
 30
0.0
 10
38.2940230891
 20
81.6771302946
 30
0.0
 10
38.2990335127
 20
81.6671654276
 30
0.0
 10
38.3030385535
 20
81.6566899645
 30
0.0
 10
38.3053557624
 20
81.6487326052
 30
0.0
  0
SPLINE
  5
38F
100
AcDbEntity
  8
0
100
AcDbSpline
 62
7
  6
BYLAYER
 70
0
 71
3
 72
11
 73
7
 74
0
 42
0.0000001
 43
0.0000001
 44
0.0000000001
 40
0.0
 40
0.0
 40
0.0
 40
0.0
 40
0.2416593659
 40
0.4850826407
 40
0.7361957127
 40
1.0
 40
1.0
 40
1.0
 40
1.0
 10
38.181560363
 20
81.6232800908
 30
0.0
 10
38.1935297535
 20
81.539474015
 30
0.0
 10
38.2011702965
 20
81.368409686
 30
0.0
 10
38.1612959327
 20
81.1119969827
 30
0.0
 10
38.0708885086
 20
80.8606446203
 30
0.0
 10
37.9807852776
 20
80.7032798288
 30
0.0
 10
37.9289379237
 20
80.6267799525
 30
0.0
  0
SPLINE
  5
390
100
AcDbEntity
  8
0
100
AcDbSpline
 62
7
  6
BYLAYER
 70
0
 71
3
 72
23
 73
19
 74
0
 42
0.0000001
 43
0.0000001
 44
0.0000000001
 40
0.0
 40
0.0
 40
0.0
 40
0.0
 40
0.0614886059
 40
0.1267878269
 40
0.1952011797
 40
0.2659874531
 40
0.3382555185
 40
0.4110570736
 40
0.4834273221
 40
0.5544147216
 40
0.6231279897
 40
0.6887737707
 40
0.7507040319
 40
0.8084774474
 40
0.8619141634
 40
0.9111740822
 40
0.9568694613
 40
1.0
 40
1.0
 40
1.0
 40
1.0
 10
35.761597001
 20
56.8326697762
 30
0.0
 10
35.761597001
 20
56.6705640271
 30
0.0
 10
35.7404993274
 20
56.3360989018
 30
0.0
 10
35.6535947067
 20
55.8280558223
 30
0.0
 10
35.511954908
 20
55.3070560562
 30
0.0
 10
35.3185040575
 20
54.7834675719
 30
0.0
 10
35.0770118473
 20
54.2674627156
 30
0.0
 10
34.7922448092
 20
53.7692209029
 30
0.0
 10
34.4697943737
 20
53.2985690842
 30
0.0
 10
34.1160087259
 20
52.8647697866
 30
0.0
 10
33.737857356
 20
52.4763260464
 30
0.0
 10
33.3426956873
 20
52.1408728158
 30
0.0
 10
32.9381545415
 20
51.8649803462
 30
0.0
 10
32.5319337952
 20
51.6540580986
 30
0.0
 10
32.1316269001
 20
51.5124034224
 30
0.0
 10
31.7444346827
 20
51.4433032292
 30
0.0
 10
31.3779716031
 20
51.4492648252
 30
0.0
 10
31.1479895964
 20
51.5052990172
 30
0.0
 10
31.0416788876
 20
51.5456400815
 30
0.0
  0
SPLINE
  5
391
100
AcDbEntity
  8
0
100
AcDbSpline
 62
7
  6
BYLAYER
 70
0
 71
3
 72
9
 73
5
 74
0
 42
0.0000001
 43
0.0000001
 44
0.0000000001
 40
0.0
 40
0.0
 40
0.0
 40
0.0
 40
0.5174747797
 40
1.0
 40
1.0
 40
1.0
 40
1.0
 10
39.4506660656
 20
79.7482296756
 30
0.0
 10
39.5717993586
 20
79.8704581788
 30
0.0
 10
39.78943964
 20
80.1239187437
 30
0.0
 10
39.9605015529
 20
80.4116726373
 30
0.0
 10
40.0281255481
 20
80.5571893023
 30
0.0
  0
SPLINE
  5
392
100
AcDbEntity
  8
0
100
AcDbSpline
 62
7
  6
BYLAYER
 70
0
 71
3
 72
9
 73
5
 74
0
 42
0.0000001
 43
0.0000001
 44
0.0000000001
 40
0.0
 40
0.0
 40
0.0
 40
0.0
 40
0.4745366116
 40
1.0
 40
1.0
 40
1.0
 40
1.0
 10
37.9289354824
 20
80.6267813619
 30
0.0
 10
37.9007074952
 20
80.6104840229
 30
0.0
 10
37.846932976
 20
80.5661737282
 30
0.0
 10
37.8049291167
 20
80.5111505603
 30
0.0
 10
37.7860519318
 20
80.4803878088
 30
0.0
  0
SPLINE
  5
393
100
AcDbEntity
  8
0
100
AcDbSpline
 62
7
  6
BYLAYER
 70
0
 71
3
 72
15
 73
11
 74
0
 42
0.0000001
 43
0.0000001
 44
0.0000000001
 40
0.0
 40
0.0
 40
0.0
 40
0.0
 40
0.1398727782
 40
0.2737696527
 40
0.4013103396
 40
0.5232041305
 40
0.6418152086
 40
0.7598878712
 40
0.8791306989
 40
1.0
 40
1.0
 40
1.0
 40
1.0
 10
37.7702888224
 20
80.4218056579
 30
0.0
 10
37.7385796296
 20
80.3083835678
 30
0.0
 10
37.6637340276
 20
80.0895492023
 30
0.0
 10
37.5062722291
 20
79.7886813134
 30
0.0
 10
37.3009486992
 20
79.5361291849
 30
0.0
 10
37.0496809504
 20
79.3485585754
 30
0.0
 10
36.7638221187
 20
79.2396976087
 30
0.0
 10
36.4618792031
 20
79.2125374688
 30
0.0
 10
36.1614649931
 20
79.2600885203
 30
0.0
 10
35.9716222545
 20
79.3342981267
 30
0.0
 10
35.8809328823
 20
79.3804788963
 30
0.0
  0
SPLINE
  5
394
100
AcDbEntity
  8
0
100
AcDbSpline
 62
7
  6
BYLAYER
 70
0
 71
3
 72
15
 73
11
 74
0
 42
0.0000001
 43
0.0000001
 44
0.0000000001
 40
0.0
 40
0.0
 40
0.0
 40
0.0
 40
0.1121099749
 40
0.2245587281
 40
0.338952125
 40
0.4573923231
 40
0.5820337621
 40
0.7142407578
 40
0.8539205318
 40
1.0
 40
1.0
 40
1.0
 40
1.0
 10
37.4026726162
 20
78.5019221068
 30
0.0
 10
37.4862647213
 20
78.4601819076
 30
0.0
 10
37.6644885035
 20
78.3964178666
 30
0.0
 10
37.9484904442
 20
78.3684422615
 30
0.0
 10
38.2357277649
 20
78.4143547637
 30
0.0
 10
38.5121431836
 20
78.5333329726
 30
0.0
 10
38.763885096
 20
78.7232512837
 30
0.0
 10
38.9842064536
 20
78.9720719728
 30
0.0
 10
39.1678000137
 20
79.269689636
 30
0.0
 10
39.2645878512
 20
79.4880200162
 30
0.0
 10
39.3077858239
 20
79.601842887
 30
0.0
  0
SPLINE
  5
395
100
AcDbEntity
  8
0
100
AcDbSpline
 62
7
  6
BYLAYER
 70
0
 71
3
 72
31
 73
27
 74
0
 42
0.0000001
 43
0.0000001
 44
0.0000000001
 40
0.0
 40
0.0
 40
0.0
 40
0.0
 40
0.1276022939
 40
0.2547907269
 40
0.3814515093
 40
0.4445108315
 40
0.507321268
 40
0.5697998026
 40
0.6318168428
 40
0.6931568629
 40
0.7234622077
 40
0.753426411
 40
0.7829293624
 40
0.811776748
 40
0.839624987
 40
0.8657809695
 40
0.8778371903
 40
0.8889521257
 40
0.8943647708
 40
0.9002128209
 40
0.9072529752
 40
0.9158433552
 40
0.9359001224
 40
0.9571842778
 40
0.9786250957
 40
1.0
 40
1.0
 40
1.0
 40
1.0
 10
37.1497196768
 20
60.8758188477
 30
0.0
 10
37.1621677724
 20
60.8385737386
 30
0.0
 10
37.1871337471
 20
60.7642410189
 30
0.0
 10
37.2249751614
 20
60.6531132251
 30
0.0
 10
37.2569636787
 20
60.5609769999
 30
0.0
 10
37.2829588074
 20
60.4877354385
 30
0.0
 10
37.3026709288
 20
60.4332245342
 30
0.0
 10
37.3226955704
 20
60.3791691225
 30
0.0
 10
37.3431364329
 20
60.3257536465
 30
0.0
 10
37.3607165981
 20
60.2818484721
 30
0.0
 10
37.3752679915
 20
60.2473661166
 30
0.0
 10
37.3864248457
 20
60.2220886192
 30
0.0
 10
37.3979540178
 20
60.1974748725
 30
0.0
 10
37.4099818416
 20
60.173813777
 30
0.0
 10
37.422701931
 20
60.1517260813
 30
0.0
 10
37.4344397551
 20
60.13497649
 30
0.0
 10
37.4451904792
 20
60.124241996
 30
0.0
 10
37.4528486633
 20
60.1194476375
 30
0.0
 10
37.459783703
 20
60.1183725963
 30
0.0
 10
37.4654134544
 20
60.1197630623
 30
0.0
 10
37.4707721381
 20
60.1238693411
 30
0.0
 10
37.477418884
 20
60.1327043913
 30
0.0
 10
37.4833886173
 20
60.1470347063
 30
0.0
 10
37.4886747402
 20
60.1656078115
 30
0.0
 10
37.4927706096
 20
60.1849232469
 30
0.0
 10
37.4949808188
 20
60.1979137424
 30
0.0
 10
37.4959933261
 20
60.20441359
 30
0.0
  0
SPLINE
  5
396
100
AcDbEntity
  8
0
100
AcDbSpline
 62
7
  6
BYLAYER
 70
0
 71
3
 72
9
 73
5
 74
0
 42
0.0000001
 43
0.0000001
 44
0.0000000001
 40
0.0
 40
0.0
 40
0.0
 40
0.0
 40
0.4949311378
 40
1.0
 40
1.0
 40
1.0
 40
1.0
 10
35.6835191038
 20
79.3498354142
 30
0.0
 10
35.4148044631
 20
79.2918253194
 30
0.0
 10
34.8632744924
 20
79.2122044939
 30
0.0
 10
34.3063009942
 20
79.2026244988
 30
0.0
 10
34.0260548682
 20
79.2153709841
 30
0.0
  0
SPLINE
  5
397
100
AcDbEntity
  8
0
100
AcDbSpline
 62
7
  6
BYLAYER
 70
0
 71
3
 72
9
 73
5
 74
0
 42
0.0000001
 43
0.0000001
 44
0.0000000001
 40
0.0
 40
0.0
 40
0.0
 40
0.0
 40
0.2560650649
 40
1.0
 40
1.0
 40
1.0
 40
1.0
 10
35.8586037944
 20
78.1499369766
 30
0.0
 10
35.980167707
 20
78.1687679833
 30
0.0
 10
36.4534070102
 20
78.2514747144
 30
0.0
 10
36.9204349876
 20
78.3712293829
 30
0.0
 10
37.2597849498
 20
78.4833314325
 30
0.0
  0
SPLINE
  5
398
100
AcDbEntity
  8
0
100
AcDbSpline
 62
7
  6
BYLAYER
 70
0
 71
3
 72
9
 73
5
 74
0
 42
0.0000001
 43
0.0000001
 44
0.0000000001
 40
0.0
 40
0.0
 40
0.0
 40
0.0
 40
0.2533060027
 40
1.0
 40
1.0
 40
1.0
 40
1.0
 10
33.8881511387
 20
79.098470831
 30
0.0
 10
33.8460394259
 20
79.083231981
 30
0.0
 10
33.6794238023
 20
79.0241034465
 30
0.0
 10
33.5108867317
 20
78.9702983581
 30
0.0
 10
33.3839694394
 20
78.9339691809
 30
0.0
  0
SPLINE
  5
399
100
AcDbEntity
  8
0
100
AcDbSpline
 62
7
  6
BYLAYER
 70
0
 71
3
 72
11
 73
7
 74
0
 42
0.0000001
 43
0.0000001
 44
0.0000000001
 40
0.0
 40
0.0
 40
0.0
 40
0.0
 40
0.2360570425
 40
0.4824211973
 40
0.7377840125
 40
1.0
 40
1.0
 40
1.0
 40
1.0
 10
33.571012211
 20
76.2346022752
 30
0.0
 10
33.7214011879
 20
76.3974945412
 30
0.0
 10
34.0462865075
 20
76.7142519942
 30
0.0
 10
34.5737736212
 20
77.1639624564
 30
0.0
 10
35.1404540768
 20
77.6043203639
 30
0.0
 10
35.5337946283
 20
77.8900487018
 30
0.0
 10
35.7348003875
 20
78.0323315094
 30
0.0
  0
SPLINE
  5
39A
100
AcDbEntity
  8
0
100
AcDbSpline
 62
7
  6
BYLAYER
 70
0
 71
3
 72
11
 73
7
 74
0
 42
0.0000001
 43
0.0000001
 44
0.0000000001
 40
0.0
 40
0.0
 40
0.0
 40
0.0
 40
0.2409373782
 40
0.4885636983
 40
0.7417897219
 40
1.0
 40
1.0
 40
1.0
 40
1.0
 10
31.7246072252
 20
74.8820971907
 30
0.0
 10
31.896053569
 20
74.9516214781
 30
0.0
 10
32.2318814089
 20
75.122606226
 30
0.0
 10
32.7028260223
 20
75.4447574898
 30
0.0
 10
33.1512350148
 20
75.8182016442
 30
0.0
 10
33.4330599546
 20
76.0921939493
 30
0.0
 10
33.5710122366
 20
76.2346022337
 30
0.0
  0
SPLINE
  5
39B
100
AcDbEntity
  8
0
100
AcDbSpline
 62
7
  6
BYLAYER
 70
0
 71
3
 72
9
 73
5
 74
0
 42
0.0000001
 43
0.0000001
 44
0.0000000001
 40
0.0
 40
0.0
 40
0.0
 40
0.0
 40
0.56532105
 40
1.0
 40
1.0
 40
1.0
 40
1.0
 10
31.7246062029
 20
74.8821012898
 30
0.0
 10
31.7083239048
 20
74.8915016663
 30
0.0
 10
31.6802966743
 20
74.9094412892
 30
0.0
 10
31.6548000901
 20
74.9312996961
 30
0.0
 10
31.6454867127
 20
74.9423561225
 30
0.0
  0
SPLINE
  5
39C
100
AcDbEntity
  8
0
100
AcDbSpline
 62
7
  6
BYLAYER
 70
0
 71
3
 72
9
 73
5
 74
0
 42
0.0000001
 43
0.0000001
 44
0.0000000001
 40
0.0
 40
0.0
 40
0.0
 40
0.0
 40
0.2959816647
 40
1.0
 40
1.0
 40
1.0
 40
1.0
 10
31.6454867127
 20
74.9423561225
 30
0.0
 10
31.6434787154
 20
74.9447399274
 30
0.0
 10
31.6370523724
 20
74.9530141969
 30
0.0
 10
31.6318329705
 20
74.9627201336
 30
0.0
 10
31.6306324297
 20
74.970035916
 30
0.0
  0
SPLINE
  5
39D
100
AcDbEntity
  8
0
100
AcDbSpline
 62
7
  6
BYLAYER
 70
0
 71
3
 72
9
 73
5
 74
0
 42
0.0000001
 43
0.0000001
 44
0.0000000001
 40
0.0
 40
0.0
 40
0.0
 40
0.0
 40
0.2636166497
 40
1.0
 40
1.0
 40
1.0
 40
1.0
 10
31.6306324297
 20
74.970035916
 30
0.0
 10
31.6304620535
 20
74.9710741435
 30
0.0
 10
31.6300132958
 20
74.9750398327
 30
0.0
 10
31.6304953784
 20
74.9791300996
 30
0.0
 10
31.6314297661
 20
74.9819165706
 30
0.0
  0
SPLINE
  5
39E
100
AcDbEntity
  8
0
100
AcDbSpline
 62
7
  6
BYLAYER
 70
0
 71
3
 72
9
 73
5
 74
0
 42
0.0000001
 43
0.0000001
 44
0.0000000001
 40
0.0
 40
0.0
 40
0.0
 40
0.0
 40
0.2363114772
 40
1.0
 40
1.0
 40
1.0
 40
1.0
 10
31.7037626873
 20
74.764181527
 30
0.0
 10
31.7103376718
 20
74.7603855438
 30
0.0
 10
31.738806371
 20
74.7454450667
 30
0.0
 10
31.7694071831
 20
74.734758681
 30
0.0
 10
31.7931597155
 20
74.7286102725
 30
0.0
  0
SPLINE
  5
39F
100
AcDbEntity
  8
0
100
AcDbSpline
 62
7
  6
BYLAYER
 70
0
 71
3
 72
9
 73
5
 74
0
 42
0.0000001
 43
0.0000001
 44
0.0000000001
 40
0.0
 40
0.0
 40
0.0
 40
0.0
 40
0.5014987228
 40
1.0
 40
1.0
 40
1.0
 40
1.0
 10
31.7931576748
 20
74.7286081818
 30
0.0
 10
31.7772493093
 20
74.7518992025
 30
0.0
 10
31.7501654675
 20
74.8015667585
 30
0.0
 10
31.7313909089
 20
74.8548980113
 30
0.0
 10
31.7246063047
 20
74.8821016023
 30
0.0
  0
SPLINE
  5
3A0
100
AcDbEntity
  8
0
100
AcDbSpline
 62
7
  6
BYLAYER
 70
0
 71
3
 72
11
 73
7
 74
0
 42
0.0000001
 43
0.0000001
 44
0.0000000001
 40
0.0
 40
0.0
 40
0.0
 40
0.0
 40
0.2428709688
 40
0.4907972454
 40
0.7432741056
 40
1.0
 40
1.0
 40
1.0
 40
1.0
 10
31.7931597155
 20
74.7286102725
 30
0.0
 10
31.9418605165
 20
74.7841270469
 30
0.0
 10
32.2345516739
 20
74.9178257077
 30
0.0
 10
32.6519739194
 20
75.1676340995
 30
0.0
 10
33.0528424512
 20
75.4586079388
 30
0.0
 10
33.3076388583
 20
75.6730924563
 30
0.0
 10
33.4327117427
 20
75.7849283354
 30
0.0
  0
SPLINE
  5
3A1
100
AcDbEntity
  8
0
100
AcDbSpline
 62
7
  6
BYLAYER
 70
0
 71
3
 72
9
 73
5
 74
0
 42
0.0000001
 43
0.0000001
 44
0.0000000001
 40
0.0
 40
0.0
 40
0.0
 40
0.0
 40
0.5077260786
 40
1.0
 40
1.0
 40
1.0
 40
1.0
 10
33.5710110881
 20
76.2346023541
 30
0.0
 10
33.5918609164
 20
76.2007686278
 30
0.0
 10
33.6412655534
 20
76.1391436998
 30
0.0
 10
33.7015017132
 20
76.088297646
 30
0.0
 10
33.7334508094
 20
76.0667565856
 30
0.0
  0
SPLINE
  5
3A2
100
AcDbEntity
  8
0
100
AcDbSpline
 62
7
  6
BYLAYER
 70
0
 71
3
 72
12
 73
8
 74
0
 42
0.0000001
 43
0.0000001
 44
0.0000000001
 40
0.0
 40
0.0
 40
0.0
 40
0.0
 40
0.2528282045
 40
0.5300944417
 40
0.7915748673
 40
0.9045901136
 40
1.0
 40
1.0
 40
1.0
 40
1.0
 10
35.9362844969
 20
77.7376845279
 30
0.0
 10
35.9362845183
 20
77.7732322784
 30
0.0
 10
35.9316226081
 20
77.8477736272
 30
0.0
 10
35.9154560978
 20
77.957968617
 30
0.0
 10
35.8950687345
 20
78.0474761726
 30
0.0
 10
35.8750632917
 20
78.1104731855
 30
0.0
 10
35.8642654839
 20
78.1377667342
 30
0.0
 10
35.8586119596
 20
78.1499318903
 30
0.0
  0
SPLINE
  5
3A3
100
AcDbEntity
  8
0
100
AcDbSpline
 62
7
  6
BYLAYER
 70
0
 71
3
 72
9
 73
5
 74
0
 42
0.0000001
 43
0.0000001
 44
0.0000000001
 40
0.0
 40
0.0
 40
0.0
 40
0.0
 40
0.4755844718
 40
1.0
 40
1.0
 40
1.0
 40
1.0
 10
35.8586117232
 20
78.149932399
 30
0.0
 10
35.8350362073
 20
78.1363211291
 30
0.0
 10
35.7894549287
 20
78.100690774
 30
0.0
 10
35.7521487589
 20
78.056821528
 30
0.0
 10
35.7347647433
 20
78.0323498993
 30
0.0
  0
SPLINE
  5
3A4
100
AcDbEntity
  8
0
100
AcDbSpline
 62
7
  6
BYLAYER
 70
0
 71
3
 72
9
 73
5
 74
0
 42
0.0000001
 43
0.0000001
 44
0.0000000001
 40
0.0
 40
0.0
 40
0.0
 40
0.0
 40
0.4894497344
 40
1.0
 40
1.0
 40
1.0
 40
1.0
 10
35.7347634823
 20
78.0323480268
 30
0.0
 10
35.7594574721
 20
77.9880182936
 30
0.0
 10
35.8145144946
 20
77.9000307941
 30
0.0
 10
35.8747760429
 20
77.8155665717
 30
0.0
 10
35.9072718541
 20
77.7737845254
 30
0.0
  0
SPLINE
  5
3A5
100
AcDbEntity
  8
0
100
AcDbSpline
 62
7
  6
BYLAYER
 70
0
 71
3
 72
9
 73
5
 74
0
 42
0.0000001
 43
0.0000001
 44
0.0000000001
 40
0.0
 40
0.0
 40
0.0
 40
0.0
 40
0.2650212107
 40
1.0
 40
1.0
 40
1.0
 40
1.0
 10
35.9072717127
 20
77.7737859133
 30
0.0
 10
35.9097863617
 20
77.7705584869
 30
0.0
 10
35.919319152
 20
77.7584151649
 30
0.0
 10
35.9290273348
 20
77.7464089029
 30
0.0
 10
35.9362828821
 20
77.7376851412
 30
0.0
  0
SPLINE
  5
3A6
100
AcDbEntity
  8
0
100
AcDbSpline
 62
7
  6
BYLAYER
 70
0
 71
3
 72
9
 73
5
 74
0
 42
0.0000001
 43
0.0000001
 44
0.0000000001
 40
0.0
 40
0.0
 40
0.0
 40
0.0
 40
0.2560641626
 40
1.0
 40
1.0
 40
1.0
 40
1.0
 10
35.9362853139
 20
77.7376851133
 30
0.0
 10
36.064028383
 20
77.7574728513
 30
0.0
 10
36.5613229967
 20
77.844390337
 30
0.0
 10
37.0520938281
 20
77.9702227517
 30
0.0
 10
37.4086952136
 20
78.0880217036
 30
0.0
  0
SPLINE
  5
3A7
100
AcDbEntity
  8
0
100
AcDbSpline
 62
7
  6
BYLAYER
 70
0
 71
3
 72
11
 73
7
 74
0
 42
0.0000001
 43
0.0000001
 44
0.0000000001
 40
0.0
 40
0.0
 40
0.0
 40
0.0
 40
0.217815806
 40
0.4522810999
 40
0.7119285627
 40
1.0
 40
1.0
 40
1.0
 40
1.0
 10
37.4026681194
 20
78.5019248272
 30
0.0
 10
37.392866446
 20
78.5065799626
 30
0.0
 10
37.3707902968
 20
78.5128897601
 30
0.0
 10
37.3349277045
 20
78.5123423747
 30
0.0
 10
37.2969442668
 20
78.5024008533
 30
0.0
 10
37.2722128135
 20
78.49050706
 30
0.0
 10
37.2597845688
 20
78.4833316524
 30
0.0
  0
SPLINE
  5
3A8
100
AcDbEntity
  8
0
100
AcDbSpline
 62
7
  6
BYLAYER
 70
0
 71
3
 72
12
 73
8
 74
0
 42
0.0000001
 43
0.0000001
 44
0.0000000001
 40
0.0
 40
0.0
 40
0.0
 40
0.0
 40
0.1037979835
 40
0.2214301384
 40
0.4833574598
 40
0.7542533804
 40
1.0
 40
1.0
 40
1.0
 40
1.0
 10
37.259774189
 20
78.4833282233
 30
0.0
 10
37.2702590352
 20
78.4727491895
 30
0.0
 10
37.2907190529
 20
78.4482792357
 30
0.0
 10
37.3288313079
 20
78.3902130996
 30
0.0
 10
37.3683169015
 20
78.3050400769
 30
0.0
 10
37.399610444
 20
78.1974658684
 30
0.0
 10
37.4087780029
 20
78.1233126284
 30
0.0
 10
37.4087780029
 20
78.0880490523
 30
0.0
  0
SPLINE
  5
3A9
100
AcDbEntity
  8
0
100
AcDbSpline
 62
7
  6
BYLAYER
 70
0
 71
3
 72
16
 73
12
 74
0
 42
0.0000001
 43
0.0000001
 44
0.0000000001
 40
0.0
 40
0.0
 40
0.0
 40
0.0
 40
0.1099984051
 40
0.2215465769
 40
0.3361632541
 40
0.4556381693
 40
0.5814626751
 40
0.7143970771
 40
0.7835613337
 40
0.8543814791
 40
1.0
 40
1.0
 40
1.0
 40
1.0
 10
37.4086952136
 20
78.0880217036
 30
0.0
 10
37.5079741953
 20
78.0426650547
 30
0.0
 10
37.7201933121
 20
77.9759472569
 30
0.0
 10
38.0563510636
 20
77.9559936821
 30
0.0
 10
38.3968176989
 20
78.0193874509
 30
0.0
 10
38.7259214255
 20
78.1657719254
 30
0.0
 10
39.0303048941
 20
78.3896923065
 30
0.0
 10
39.2526370747
 20
78.6296827763
 30
0.0
 10
39.4118283855
 20
78.8490092834
 30
0.0
 10
39.5610363071
 20
79.0901943673
 30
0.0
 10
39.6551982402
 20
79.284025853
 30
0.0
 10
39.7110726028
 20
79.41727995
 30
0.0
  0
SPLINE
  5
3AA
100
AcDbEntity
  8
0
100
AcDbSpline
 62
7
  6
BYLAYER
 70
0
 71
3
 72
13
 73
9
 74
0
 42
0.0000001
 43
0.0000001
 44
0.0000000001
 40
0.0
 40
0.0
 40
0.0
 40
0.0
 40
0.0695886394
 40
0.1672945058
 40
0.2922397968
 40
0.4367861862
 40
0.7429942584
 40
1.0
 40
1.0
 40
1.0
 40
1.0
 10
39.7110530501
 20
79.4172519579
 30
0.0
 10
39.7032223076
 20
79.4239922172
 30
0.0
 10
39.6830289131
 20
79.438571675
 30
0.0
 10
39.6459599395
 20
79.4611500332
 30
0.0
 10
39.5978100104
 20
79.4867828579
 30
0.0
 10
39.5207439446
 20
79.5237944295
 30
0.0
 10
39.4235579969
 20
79.5639801639
 30
0.0
 10
39.3443847944
 20
79.5911508351
 30
0.0
 10
39.3077527299
 20
79.6018356767
 30
0.0
  0
SPLINE
  5
3AB
100
AcDbEntity
  8
0
100
AcDbSpline
 62
7
  6
BYLAYER
 70
0
 71
3
 72
13
 73
9
 74
0
 42
0.0000001
 43
0.0000001
 44
0.0000000001
 40
0.0
 40
0.0
 40
0.0
 40
0.0
 40
0.0995475082
 40
0.2051899052
 40
0.3195746848
 40
0.4437831166
 40
0.7152617626
 40
1.0
 40
1.0
 40
1.0
 40
1.0
 10
37.4026681728
 20
78.5019248019
 30
0.0
 10
37.415697307
 20
78.494168466
 30
0.0
 10
37.4400393606
 20
78.4736248584
 30
0.0
 10
37.4667422441
 20
78.4322215891
 30
0.0
 10
37.4832145331
 20
78.3819235501
 30
0.0
 10
37.4912428421
 20
78.3041739083
 30
0.0
 10
37.4729311107
 20
78.2001186726
 30
0.0
 10
37.4339882272
 20
78.1233409539
 30
0.0
 10
37.4087780029
 20
78.0880490523
 30
0.0
  0
SPLINE
  5
3AC
100
AcDbEntity
  8
0
100
AcDbSpline
 62
7
  6
BYLAYER
 70
0
 71
3
 72
11
 73
7
 74
0
 42
0.0000001
 43
0.0000001
 44
0.0000000001
 40
0.0
 40
0.0
 40
0.0
 40
0.0
 40
0.229942357
 40
0.4845075993
 40
0.7477086646
 40
1.0
 40
1.0
 40
1.0
 40
1.0
 10
39.7110555905
 20
79.4172581887
 30
0.0
 10
39.7110559195
 20
79.4513396869
 30
0.0
 10
39.6951987308
 20
79.5233392668
 30
0.0
 10
39.6380844248
 20
79.6199531731
 30
0.0
 10
39.5548437498
 20
79.6999555818
 30
0.0
 10
39.4861725373
 20
79.7365006664
 30
0.0
 10
39.4506656782
 20
79.7482298996
 30
0.0
  0
SPLINE
  5
3AD
100
AcDbEntity
  8
0
100
AcDbSpline
 62
7
  6
BYLAYER
 70
0
 71
3
 72
9
 73
5
 74
0
 42
0.0000001
 43
0.0000001
 44
0.0000000001
 40
0.0
 40
0.0
 40
0.0
 40
0.0
 40
0.4745373184
 40
1.0
 40
1.0
 40
1.0
 40
1.0
 10
39.4506656773
 20
79.7482298997
 30
0.0
 10
39.4224376479
 20
79.7319325366
 30
0.0
 10
39.3686631326
 20
79.6876222317
 30
0.0
 10
39.3266592863
 20
79.6325990568
 30
0.0
 10
39.3077821267
 20
79.6018363466
 30
0.0
  0
SPLINE
  5
3AE
100
AcDbEntity
  8
0
100
AcDbSpline
 62
7
  6
BYLAYER
 70
0
 71
3
 72
9
 73
5
 74
0
 42
0.0000001
 43
0.0000001
 44
0.0000000001
 40
0.0
 40
0.0
 40
0.0
 40
0.0
 40
0.5174741762
 40
1.0
 40
1.0
 40
1.0
 40
1.0
 10
39.7110726028
 20
79.41727995
 30
0.0
 10
39.8383615148
 20
79.5457205527
 30
0.0
 10
40.0670604988
 20
79.8120640117
 30
0.0
 10
40.2468173434
 20
80.1144411024
 30
0.0
 10
40.3178782385
 20
80.2673533132
 30
0.0
  0
SPLINE
  5
3AF
100
AcDbEntity
  8
0
100
AcDbSpline
 62
7
  6
BYLAYER
 70
0
 71
3
 72
11
 73
7
 74
0
 42
0.0000001
 43
0.0000001
 44
0.0000000001
 40
0.0
 40
0.0
 40
0.0
 40
0.0
 40
0.2509586643
 40
0.5020046643
 40
0.7519518008
 40
1.0
 40
1.0
 40
1.0
 40
1.0
 10
40.3178780506
 20
80.2673529089
 30
0.0
 10
40.3222373771
 20
80.2987578133
 30
0.0
 10
40.3210914885
 20
80.3633816361
 30
0.0
 10
40.2899318396
 20
80.4546997602
 30
0.0
 10
40.2325720309
 20
80.5318534443
 30
0.0
 10
40.1801415704
 20
80.5688671189
 30
0.0
 10
40.1519775627
 20
80.5826104289
 30
0.0
  0
SPLINE
  5
3B0
100
AcDbEntity
  8
0
100
AcDbSpline
 62
7
  6
BYLAYER
 70
0
 71
3
 72
9
 73
5
 74
0
 42
0.0000001
 43
0.0000001
 44
0.0000000001
 40
0.0
 40
0.0
 40
0.0
 40
0.0
 40
0.4565721174
 40
1.0
 40
1.0
 40
1.0
 40
1.0
 10
40.1519734268
 20
80.5826115185
 30
0.0
 10
40.1329758552
 20
80.5874183776
 30
0.0
 10
40.0883505439
 20
80.5862074135
 30
0.0
 10
40.0483260491
 20
80.5688506539
 30
0.0
 10
40.0281267116
 20
80.5571886306
 30
0.0
  0
SPLINE
  5
3B1
100
AcDbEntity
  8
0
100
AcDbSpline
 62
7
  6
BYLAYER
 70
0
 71
3
 72
9
 73
5
 74
0
 42
0.0000001
 43
0.0000001
 44
0.0000000001
 40
0.0
 40
0.0
 40
0.0
 40
0.0
 40
0.222810225
 40
1.0
 40
1.0
 40
1.0
 40
1.0
 10
37.8826157815
 20
81.3640835197
 30
0.0
 10
37.8799105425
 20
81.3694749463
 30
0.0
 10
37.8660363779
 20
81.3928169501
 30
0.0
 10
37.846518206
 20
81.4123074693
 30
0.0
 10
37.8304747286
 20
81.4259204512
 30
0.0
  0
SPLINE
  5
3B2
100
AcDbEntity
  8
0
100
AcDbSpline
 62
7
  6
BYLAYER
 70
0
 71
3
 72
11
 73
7
 74
0
 42
0.0000001
 43
0.0000001
 44
0.0000000001
 40
0.0
 40
0.0
 40
0.0
 40
0.0
 40
0.2641906473
 40
0.5267806555
 40
0.774118857
 40
1.0
 40
1.0
 40
1.0
 40
1.0
 10
40.0281267116
 20
80.5571886306
 30
0.0
 10
40.0665109619
 20
80.5512428691
 30
0.0
 10
40.1415483662
 20
80.5267660004
 30
0.0
 10
40.2356559337
 20
80.4596866213
 30
0.0
 10
40.3006330331
 20
80.3705813499
 30
0.0
 10
40.3178780506
 20
80.300562565
 30
0.0
 10
40.3178780506
 20
80.2673529089
 30
0.0
  0
SPLINE
  5
3B3
100
AcDbEntity
  8
0
100
AcDbSpline
 62
7
  6
BYLAYER
 70
0
 71
3
 72
13
 73
9
 74
0
 42
0.0000001
 43
0.0000001
 44
0.0000000001
 40
0.0
 40
0.0
 40
0.0
 40
0.0
 40
0.1233304053
 40
0.2475293336
 40
0.4969604537
 40
0.7483318236
 40
0.8744576816
 40
1.0
 40
1.0
 40
1.0
 40
1.0
 10
38.2204831882
 20
81.7512352862
 30
0.0
 10
38.1992082286
 20
81.7592039567
 30
0.0
 10
38.1544016818
 20
81.7701417907
 30
0.0
 10
38.0621639464
 20
81.7703744196
 30
0.0
 10
37.9497143706
 20
81.7299164794
 30
0.0
 10
37.8664172019
 20
81.6439388084
 30
0.0
 10
37.8272299743
 20
81.5592644826
 30
0.0
 10
37.8177141047
 20
81.5133778717
 30
0.0
 10
37.8156557278
 20
81.490343855
 30
0.0
  0
SPLINE
  5
3B4
100
AcDbEntity
  8
0
100
AcDbSpline
 62
7
  6
BYLAYER
 70
0
 71
3
 72
11
 73
7
 74
0
 42
0.0000001
 43
0.0000001
 44
0.0000000001
 40
0.0
 40
0.0
 40
0.0
 40
0.0
 40
0.2705372239
 40
0.5316982858
 40
0.7745370841
 40
1.0
 40
1.0
 40
1.0
 40
1.0
 10
38.18152883
 20
81.6232264097
 30
0.0
 10
38.1426042297
 20
81.6213695802
 30
0.0
 10
38.0661246715
 20
81.6054870053
 30
0.0
 10
37.967949876
 20
81.5482748776
 30
0.0
 10
37.8998728495
 20
81.464791049
 30
0.0
 10
37.8825953182
 20
81.396629107
 30
0.0
 10
37.8825956973
 20
81.3641528604
 30
0.0
  0
SPLINE
  5
3B5
100
AcDbEntity
  8
0
100
AcDbSpline
 62
7
  6
BYLAYER
 70
0
 71
3
 72
9
 73
5
 74
0
 42
0.0000001
 43
0.0000001
 44
0.0000000001
 40
0.0
 40
0.0
 40
0.0
 40
0.0
 40
0.54342641
 40
1.0
 40
1.0
 40
1.0
 40
1.0
 10
38.1815920464
 20
81.6232617988
 30
0.0
 10
38.2017898035
 20
81.6349263313
 30
0.0
 10
38.2418157766
 20
81.6522745021
 30
0.0
 10
38.2864426767
 20
81.6534975017
 30
0.0
 10
38.3054387616
 20
81.6486846867
 30
0.0
  0
SPLINE
  5
3B6
100
AcDbEntity
  8
0
100
AcDbSpline
 62
7
  6
BYLAYER
 70
0
 71
3
 72
13
 73
9
 74
0
 42
0.0000001
 43
0.0000001
 44
0.0000000001
 40
0.0
 40
0.0
 40
0.0
 40
0.0
 40
0.1251345779
 40
0.2509860817
 40
0.501274588
 40
0.7506663308
 40
0.8757008292
 40
1.0
 40
1.0
 40
1.0
 40
1.0
 10
38.3055095062
 20
81.6486654722
 30
0.0
 10
38.2824726107
 20
81.658696117
 30
0.0
 10
38.2334550937
 20
81.6729750469
 30
0.0
 10
38.1320083929
 20
81.6762641349
 30
0.0
 10
38.0082572327
 20
81.6325476577
 30
0.0
 10
37.921034143
 20
81.5345464296
 30
0.0
 10
37.8865444565
 20
81.4396017155
 30
0.0
 10
37.8817229136
 20
81.3890957834
 30
0.0
 10
37.8825956973
 20
81.3641528604
 30
0.0
  0
SPLINE
  5
3B7
100
AcDbEntity
  8
0
100
AcDbSpline
 62
7
  6
BYLAYER
 70
0
 71
3
 72
11
 73
7
 74
0
 42
0.0000001
 43
0.0000001
 44
0.0000000001
 40
0.0
 40
0.0
 40
0.0
 40
0.0
 40
0.2632721029
 40
0.5190918537
 40
0.765188176
 40
1.0
 40
1.0
 40
1.0
 40
1.0
 10
35.9363054497
 20
77.7376600454
 30
0.0
 10
35.7331542094
 20
77.6043940479
 30
0.0
 10
35.3350505219
 20
77.337852586
 30
0.0
 10
34.7595440758
 20
76.9284232322
 30
0.0
 10
34.2212179005
 20
76.5127821409
 30
0.0
 10
33.8882595335
 20
76.2183870527
 30
0.0
 10
33.733450759
 20
76.0667567986
 30
0.0
  0
SPLINE
  5
3B8
100
AcDbEntity
  8
0
100
AcDbSpline
 62
7
  6
BYLAYER
 70
0
 71
3
 72
11
 73
7
 74
0
 42
0.0000001
 43
0.0000001
 44
0.0000000001
 40
0.0
 40
0.0
 40
0.0
 40
0.0
 40
0.2759348479
 40
0.5330711718
 40
0.7722173616
 40
1.0
 40
1.0
 40
1.0
 40
1.0
 10
37.9289354885
 20
80.6267813598
 30
0.0
 10
37.9042545284
 20
80.632356994
 30
0.0
 10
37.855143978
 20
80.6379365484
 30
0.0
 10
37.7841779776
 20
80.6276557421
 30
0.0
 10
37.7232069492
 20
80.5986569254
 30
0.0
 10
37.6923307316
 20
80.5674530808
 30
0.0
 10
37.6806076943
 20
80.5501656765
 30
0.0
  0
SPLINE
  5
3B9
100
AcDbEntity
  8
0
100
AcDbSpline
 62
7
  6
BYLAYER
 70
0
 71
3
 72
10
 73
6
 74
0
 42
0.0000001
 43
0.0000001
 44
0.0000000001
 40
0.0
 40
0.0
 40
0.0
 40
0.0
 40
0.5698845495
 40
0.8083996627
 40
1.0
 40
1.0
 40
1.0
 40
1.0
 10
37.7860357154
 20
80.4803807242
 30
0.0
 10
37.7631831427
 20
80.4838447615
 30
0.0
 10
37.7304731638
 20
80.4874592157
 30
0.0
 10
37.6899018803
 20
80.4873551375
 30
0.0
 10
37.672463617
 20
80.4853531733
 30
0.0
 10
37.6649163061
 20
80.4835020421
 30
0.0
  0
SPLINE
  5
3BA
100
AcDbEntity
  8
0
100
AcDbSpline
 62
7
  6
BYLAYER
 70
0
 71
3
 72
9
 73
5
 74
0
 42
0.0000001
 43
0.0000001
 44
0.0000000001
 40
0.0
 40
0.0
 40
0.0
 40
0.0
 40
0.3267627861
 40
1.0
 40
1.0
 40
1.0
 40
1.0
 10
37.6649163061
 20
80.4835020421
 30
0.0
 10
37.6618689611
 20
80.4827546188
 30
0.0
 10
37.6529003605
 20
80.480125549
 30
0.0
 10
37.6433389803
 20
80.473915928
 30
0.0
 10
37.6414931687
 20
80.4677204324
 30
0.0
  0
SPLINE
  5
3BB
100
AcDbEntity
  8
0
100
AcDbSpline
 62
7
  6
BYLAYER
 70
0
 71
3
 72
9
 73
5
 74
0
 42
0.0000001
 43
0.0000001
 44
0.0000000001
 40
0.0
 40
0.0
 40
0.0
 40
0.0
 40
0.2624980806
 40
1.0
 40
1.0
 40
1.0
 40
1.0
 10
35.7380543739
 20
79.3618831146
 30
0.0
 10
35.7423311966
 20
79.3643523246
 30
0.0
 10
35.7588654542
 20
79.3733227516
 30
0.0
 10
35.7764155297
 20
79.3805109253
 30
0.0
 10
35.7897501963
 20
79.3843445881
 30
0.0
  0
SPLINE
  5
3BC
100
AcDbEntity
  8
0
100
AcDbSpline
 62
7
  6
BYLAYER
 70
0
 71
3
 72
9
 73
5
 74
0
 42
0.0000001
 43
0.0000001
 44
0.0000000001
 40
0.0
 40
0.0
 40
0.0
 40
0.0
 40
0.5270300656
 40
1.0
 40
1.0
 40
1.0
 40
1.0
 10
35.7897501963
 20
79.3843445881
 30
0.0
 10
35.8041637749
 20
79.3884884337
 30
0.0
 10
35.8326646013
 20
79.3932031805
 30
0.0
 10
35.8614290109
 20
79.3883080387
 30
0.0
 10
35.873985492
 20
79.3834623057
 30
0.0
  0
SPLINE
  5
3BD
100
AcDbEntity
  8
0
100
AcDbSpline
 62
7
  6
BYLAYER
 70
0
 71
3
 72
9
 73
5
 74
0
 42
0.0000001
 43
0.0000001
 44
0.0000000001
 40
0.0
 40
0.0
 40
0.0
 40
0.0
 40
0.5244144388
 40
1.0
 40
1.0
 40
1.0
 40
1.0
 10
33.8882300782
 20
79.0984230675
 30
0.0
 10
33.9056106838
 20
79.122897026
 30
0.0
 10
33.9429222022
 20
79.1667623274
 30
0.0
 10
33.988501523
 20
79.202394229
 30
0.0
 10
34.012077058
 20
79.2160055672
 30
0.0
  0
SPLINE
  5
3BE
100
AcDbEntity
  8
0
100
AcDbSpline
 62
7
  6
BYLAYER
 70
0
 71
3
 72
9
 73
5
 74
0
 42
0.0000001
 43
0.0000001
 44
0.0000000001
 40
0.0
 40
0.0
 40
0.0
 40
0.0
 40
0.4955312115
 40
1.0
 40
1.0
 40
1.0
 40
1.0
 10
32.403299177
 20
76.9087664581
 30
0.0
 10
32.5209098167
 20
77.2599670687
 30
0.0
 10
32.8057595937
 20
77.9534275064
 30
0.0
 10
33.1729064337
 20
78.6068117363
 30
0.0
 10
33.37730457
 20
78.9236530219
 30
0.0
  0
SPLINE
  5
3BF
100
AcDbEntity
  8
0
100
AcDbSpline
 62
7
  6
BYLAYER
 70
0
 71
3
 72
13
 73
9
 74
0
 42
0.0000001
 43
0.0000001
 44
0.0000000001
 40
0.0
 40
0.0
 40
0.0
 40
0.0
 40
0.3561963663
 40
0.6426247683
 40
0.7567734352
 40
0.8518058954
 40
0.9307051632
 40
1.0
 40
1.0
 40
1.0
 40
1.0
 10
33.8881692129
 20
79.0983297562
 30
0.0
 10
33.8855331751
 20
79.1181557968
 30
0.0
 10
33.8823680498
 20
79.1541543996
 30
0.0
 10
33.8845128632
 20
79.1968964213
 30
0.0
 10
33.8911263088
 20
79.2240214411
 30
0.0
 10
33.8976007733
 20
79.2389623557
 30
0.0
 10
33.9060545119
 20
79.2499434288
 30
0.0
 10
33.9134035159
 20
79.2543917926
 30
0.0
 10
33.9170949718
 20
79.2556216017
 30
0.0
  0
SPLINE
  5
3C0
100
AcDbEntity
  8
0
100
AcDbSpline
 62
7
  6
BYLAYER
 70
0
 71
3
 72
13
 73
9
 74
0
 42
0.0000001
 43
0.0000001
 44
0.0000000001
 40
0.0
 40
0.0
 40
0.0
 40
0.0
 40
0.3375271031
 40
0.6171468464
 40
0.7326233087
 40
0.8325971013
 40
0.9199769471
 40
1.0
 40
1.0
 40
1.0
 40
1.0
 10
33.3839804521
 20
78.9338951116
 30
0.0
 10
33.382910358
 20
78.9567804536
 30
0.0
 10
33.3834581456
 20
78.998784919
 30
0.0
 10
33.3923765169
 20
79.0481767272
 30
0.0
 10
33.4052317482
 20
79.0793714091
 30
0.0
 10
33.4164939196
 20
79.0967511204
 30
0.0
 10
33.4299175298
 20
79.1092979184
 30
0.0
 10
33.4404700471
 20
79.114168444
 30
0.0
 10
33.445731329
 20
79.1155184799
 30
0.0
  0
SPLINE
  5
3C1
100
AcDbEntity
  8
0
100
AcDbSpline
 62
7
  6
BYLAYER
 70
0
 71
3
 72
13
 73
9
 74
0
 42
0.0000001
 43
0.0000001
 44
0.0000000001
 40
0.0
 40
0.0
 40
0.0
 40
0.0
 40
0.3618309934
 40
0.6407338641
 40
0.7494645053
 40
0.8405892412
 40
0.9204907324
 40
1.0
 40
1.0
 40
1.0
 40
1.0
 10
30.762511588
 20
72.5771078678
 30
0.0
 10
30.7745907727
 20
72.5760462868
 30
0.0
 10
30.7960644245
 20
72.5751735305
 30
0.0
 10
30.8212977411
 20
72.5780140065
 30
0.0
 10
30.8364113473
 20
72.5836655823
 30
0.0
 10
30.8442968258
 20
72.5889733109
 30
0.0
 10
30.8493557698
 20
72.5959553056
 30
0.0
 10
30.8503564572
 20
72.6013946095
 30
0.0
 10
30.8503533472
 20
72.6040591361
 30
0.0
  0
SPLINE
  5
3C2
100
AcDbEntity
  8
0
100
AcDbSpline
 62
7
  6
BYLAYER
 70
0
 71
3
 72
9
 73
5
 74
0
 42
0.0000001
 43
0.0000001
 44
0.0000000001
 40
0.0
 40
0.0
 40
0.0
 40
0.0
 40
0.2424503142
 40
1.0
 40
1.0
 40
1.0
 40
1.0
 10
28.6722889964
 20
73.4434089014
 30
0.0
 10
28.7029264939
 20
73.4039579331
 30
0.0
 10
28.8331101923
 20
73.2442191925
 30
0.0
 10
28.9777793987
 20
73.096469171
 30
0.0
 10
29.0931682401
 20
72.991378371
 30
0.0
  0
SPLINE
  5
3C3
100
AcDbEntity
  8
0
100
AcDbSpline
 62
7
  6
BYLAYER
 70
0
 71
3
 72
14
 73
10
 74
0
 42
0.0000001
 43
0.0000001
 44
0.0000000001
 40
0.0
 40
0.0
 40
0.0
 40
0.0
 40
0.1199445004
 40
0.2510580524
 40
0.5265673704
 40
0.6613366921
 40
0.7872266318
 40
0.9007590011
 40
1.0
 40
1.0
 40
1.0
 40
1.0
 10
29.1581659103
 20
73.391797557
 30
0.0
 10
29.1401331648
 20
73.3813864086
 30
0.0
 10
29.0999462214
 20
73.3637186523
 30
0.0
 10
29.0111204487
 20
73.3410991614
 30
0.0
 10
28.9156571321
 20
73.3381271466
 30
0.0
 10
28.8237646512
 20
73.3542916531
 30
0.0
 10
28.7619710772
 20
73.375394926
 30
0.0
 10
28.7104398827
 20
73.4044103113
 30
0.0
 10
28.6828561086
 20
73.4298019544
 30
0.0
 10
28.6722889964
 20
73.4434089014
 30
0.0
  0
SPLINE
  5
3C4
100
AcDbEntity
  8
0
100
AcDbSpline
 62
7
  6
BYLAYER
 70
0
 71
3
 72
11
 73
7
 74
0
 42
0.0000001
 43
0.0000001
 44
0.0000000001
 40
0.0
 40
0.0
 40
0.0
 40
0.0
 40
0.3048829223
 40
0.572770241
 40
0.8001442608
 40
1.0
 40
1.0
 40
1.0
 40
1.0
 10
31.7931597155
 20
71.6416141137
 30
0.0
 10
31.7682490414
 20
71.6480623025
 30
0.0
 10
31.7223335593
 20
71.6643401082
 30
0.0
 10
31.6646377858
 20
71.7007696114
 30
0.0
 10
31.6257863418
 20
71.7464119832
 30
0.0
 10
31.6159175491
 20
71.7827910691
 30
0.0
 10
31.6159016452
 20
71.7996586172
 30
0.0
  0
SPLINE
  5
3C5
100
AcDbEntity
  8
0
100
AcDbSpline
 62
7
  6
BYLAYER
 70
0
 71
3
 72
9
 73
5
 74
0
 42
0.0000001
 43
0.0000001
 44
0.0000000001
 40
0.0
 40
0.0
 40
0.0
 40
0.0
 40
0.2455525119
 40
1.0
 40
1.0
 40
1.0
 40
1.0
 10
31.0102051727
 20
71.8846016206
 30
0.0
 10
31.0732326425
 20
71.8615348223
 30
0.0
 10
31.3311127228
 20
71.7709072432
 30
0.0
 10
31.5935293167
 20
71.6932889295
 30
0.0
 10
31.7931597155
 20
71.6416141137
 30
0.0
  0
SPLINE
  5
3C6
100
AcDbEntity
  8
0
100
AcDbSpline
 62
7
  6
BYLAYER
 70
0
 71
3
 72
9
 73
5
 74
0
 42
0.0000001
 43
0.0000001
 44
0.0000000001
 40
0.0
 40
0.0
 40
0.0
 40
0.0
 40
0.2434842119
 40
1.0
 40
1.0
 40
1.0
 40
1.0
 10
28.6697177266
 20
69.0457810565
 30
0.0
 10
28.7274416639
 20
69.0074492513
 30
0.0
 10
28.9670873199
 20
68.8539074302
 30
0.0
 10
29.2164242059
 20
68.7156404384
 30
0.0
 10
29.4088383734
 20
68.6190592058
 30
0.0
  0
SPLINE
  5
3C7
100
AcDbEntity
  8
0
100
AcDbSpline
 62
7
  6
BYLAYER
 70
0
 71
3
 72
9
 73
5
 74
0
 42
0.0000001
 43
0.0000001
 44
0.0000000001
 40
0.0
 40
0.0
 40
0.0
 40
0.0
 40
0.4877070934
 40
1.0
 40
1.0
 40
1.0
 40
1.0
 10
29.4088383734
 20
68.6190592058
 30
0.0
 10
29.652138678
 20
68.4969359567
 30
0.0
 10
30.1642579314
 20
68.272417333
 30
0.0
 10
30.6943776417
 20
68.0952407516
 30
0.0
 10
30.9690626382
 20
68.0157584025
 30
0.0
  0
SPLINE
  5
3C8
100
AcDbEntity
  8
0
100
AcDbSpline
 62
7
  6
BYLAYER
 70
0
 71
3
 72
15
 73
11
 74
0
 42
0.0000001
 43
0.0000001
 44
0.0000000001
 40
0.0
 40
0.0
 40
0.0
 40
0.0
 40
0.1258119582
 40
0.2557067389
 40
0.3875239028
 40
0.5190233967
 40
0.6479707207
 40
0.772270204
 40
0.8900890975
 40
1.0
 40
1.0
 40
1.0
 40
1.0
 10
31.0102724226
 20
68.0039251852
 30
0.0
 10
31.3776332878
 20
67.899249273
 30
0.0
 10
32.1362477702
 20
67.7268367236
 30
0.0
 10
33.3051378084
 20
67.5787609236
 30
0.0
 10
34.5000617803
 20
67.5394563877
 30
0.0
 10
35.6906491716
 20
67.6099245884
 30
0.0
 10
36.8468962921
 20
67.7883860383
 30
0.0
 10
37.9397665407
 20
68.0704156937
 30
0.0
 10
38.9416401234
 20
68.4488689586
 30
0.0
 10
39.555805566
 20
68.7717887331
 30
0.0
 10
39.8387890823
 20
68.9486487786
 30
0.0
  0
SPLINE
  5
3C9
100
AcDbEntity
  8
0
100
AcDbSpline
 62
7
  6
BYLAYER
 70
0
 71
3
 72
11
 73
7
 74
0
 42
0.0000001
 43
0.0000001
 44
0.0000000001
 40
0.0
 40
0.0
 40
0.0
 40
0.0
 40
0.2757911983
 40
0.5308546035
 40
0.7698001248
 40
1.0
 40
1.0
 40
1.0
 40
1.0
 10
29.0931682401
 20
69.9703194276
 30
0.0
 10
28.9432720505
 20
70.1068379184
 30
0.0
 10
28.6735513055
 20
70.3917984708
 30
0.0
 10
28.3634927042
 20
70.8695372684
 30
0.0
 10
28.1729219871
 20
71.3713338661
 30
0.0
 10
28.1296883177
 20
71.7175778819
 30
0.0
 10
28.1296729285
 20
71.8868081982
 30
0.0
  0
SPLINE
  5
3CA
100
AcDbEntity
  8
0
100
AcDbSpline
 62
7
  6
BYLAYER
 70
0
 71
3
 72
25
 73
21
 74
0
 42
0.0000001
 43
0.0000001
 44
0.0000000001
 40
0.0
 40
0.0
 40
0.0
 40
0.0
 40
0.065318436
 40
0.1339613391
 40
0.2051536795
 40
0.2780533061
 40
0.3517220726
 40
0.4251998497
 40
0.4975316015
 40
0.5678091899
 40
0.6352117149
 40
0.6990496683
 40
0.7588161098
 40
0.814247713
 40
0.8653975649
 40
0.9127118646
 40
0.9352264157
 40
0.9571565555
 40
0.9786820146
 40
1.0
 40
1.0
 40
1.0
 40
1.0
 10
29.3396585918
 20
67.8684453004
 30
0.0
 10
29.6404531087
 20
67.7298597756
 30
0.0
 10
30.2736178394
 20
67.4800492597
 30
0.0
 10
31.2750038119
 20
67.1934987658
 30
0.0
 10
32.33567634
 20
66.9900887977
 30
0.0
 10
33.4348825292
 20
66.8736689998
 30
0.0
 10
34.5514695293
 20
66.8465533728
 30
0.0
 10
35.6637468461
 20
66.9092430568
 30
0.0
 10
36.7501700297
 20
67.0605359743
 30
0.0
 10
37.7897200356
 20
67.2975020808
 30
0.0
 10
38.7623563456
 20
67.6156001198
 30
0.0
 10
39.6494188629
 20
68.0088334205
 30
0.0
 10
40.4339644835
 20
68.4699206584
 30
0.0
 10
41.1010328492
 20
68.9907410946
 30
0.0
 10
41.6375347971
 20
69.5621012241
 30
0.0
 10
41.9718944308
 20
70.0816423979
 30
0.0
 10
42.1581172478
 20
70.5089015166
 30
0.0
 10
42.2568775287
 20
70.8292753957
 30
0.0
 10
42.3163663501
 20
71.1530120258
 30
0.0
 10
42.3296677866
 20
71.3704681871
 30
0.0
 10
42.3296639491
 20
71.4785569671
 30
0.0
  0
SPLINE
  5
3CB
100
AcDbEntity
  8
0
100
AcDbSpline
 62
7
  6
BYLAYER
 70
0
 71
3
 72
11
 73
7
 74
0
 42
0.0000001
 43
0.0000001
 44
0.0000000001
 40
0.0
 40
0.0
 40
0.0
 40
0.0
 40
0.2258510742
 40
0.4634292801
 40
0.720877504
 40
1.0
 40
1.0
 40
1.0
 40
1.0
 10
32.7644110734
 20
58.4433009025
 30
0.0
 10
32.7862617021
 20
58.4491607862
 30
0.0
 10
32.8292979099
 20
58.4691461538
 30
0.0
 10
32.8824199145
 20
58.5196085691
 30
0.0
 10
32.922166506
 20
58.5871559899
 30
0.0
 10
32.9381253713
 20
58.6389820054
 30
0.0
 10
32.9437305028
 20
58.6663731434
 30
0.0
  0
SPLINE
  5
3CC
100
AcDbEntity
  8
0
100
AcDbSpline
 62
7
  6
BYLAYER
 70
0
 71
3
 72
9
 73
5
 74
0
 42
0.0000001
 43
0.0000001
 44
0.0000000001
 40
0.0
 40
0.0
 40
0.0
 40
0.0
 40
0.2445089132
 40
1.0
 40
1.0
 40
1.0
 40
1.0
 10
28.0767202397
 20
67.7810841854
 30
0.0
 10
28.1235912253
 20
67.7471750897
 30
0.0
 10
28.3171841322
 20
67.6111273796
 30
0.0
 10
28.5180320084
 20
67.4854744055
 30
0.0
 10
28.6728342239
 20
67.3961013267
 30
0.0
  0
SPLINE
  5
3CD
100
AcDbEntity
  8
0
100
AcDbSpline
 62
7
  6
BYLAYER
 70
0
 71
3
 72
9
 73
5
 74
0
 42
0.0000001
 43
0.0000001
 44
0.0000000001
 40
0.0
 40
0.0
 40
0.0
 40
0.0
 40
0.2450665084
 40
1.0
 40
1.0
 40
1.0
 40
1.0
 10
28.6728342239
 20
67.3961013267
 30
0.0
 10
28.7259318791
 20
67.3654460746
 30
0.0
 10
28.9441188686
 20
67.2430015847
 30
0.0
 10
29.1681180126
 20
67.1309768282
 30
0.0
 10
29.3396585918
 20
67.0519428833
 30
0.0
  0
SPLINE
  5
3CE
100
AcDbEntity
  8
0
100
AcDbSpline
 62
7
  6
BYLAYER
 70
0
 71
3
 72
9
 73
5
 74
0
 42
0.0000001
 43
0.0000001
 44
0.0000000001
 40
0.0
 40
0.0
 40
0.0
 40
0.0
 40
0.5323782815
 40
1.0
 40
1.0
 40
1.0
 40
1.0
 10
29.5714937636
 20
83.1265763302
 30
0.0
 10
29.53218542
 20
83.1217928779
 30
0.0
 10
29.4572018586
 20
83.119047569
 30
0.0
 10
29.3835216939
 20
83.1364424923
 30
0.0
 10
29.351548725
 20
83.1501354775
 30
0.0
  0
SPLINE
  5
3CF
100
AcDbEntity
  8
0
100
AcDbSpline
 62
7
  6
BYLAYER
 70
0
 71
3
 72
9
 73
5
 74
0
 42
0.0000001
 43
0.0000001
 44
0.0000000001
 40
0.0
 40
0.0
 40
0.0
 40
0.0
 40
0.5144067823
 40
1.0
 40
1.0
 40
1.0
 40
1.0
 10
29.0923350237
 20
83.0083406419
 30
0.0
 10
28.9973734319
 20
82.9026439929
 30
0.0
 10
28.8255626117
 20
82.6851168553
 30
0.0
 10
28.6877366251
 20
82.444218436
 30
0.0
 10
28.6312095198
 20
82.3225806087
 30
0.0
  0
SPLINE
  5
3D0
100
AcDbEntity
  8
0
100
AcDbSpline
 62
7
  6
BYLAYER
 70
0
 71
3
 72
10
 73
6
 74
0
 42
0.0000001
 43
0.0000001
 44
0.0000000001
 40
0.0
 40
0.0
 40
0.0
 40
0.0
 40
0.2433048102
 40
0.4919418365
 40
1.0
 40
1.0
 40
1.0
 40
1.0
 10
28.4859472165
 20
82.1219002721
 30
0.0
 10
28.4300806963
 20
81.8983321691
 30
0.0
 10
28.3415865157
 20
81.4399625032
 30
0.0
 10
28.2439113146
 20
80.4970364686
 30
0.0
 10
28.2464816628
 20
79.7783566223
 30
0.0
 10
28.2657252973
 20
79.29754181
 30
0.0
  0
SPLINE
  5
3D1
100
AcDbEntity
  8
0
100
AcDbSpline
 62
7
  6
BYLAYER
 70
0
 71
3
 72
10
 73
6
 74
0
 42
0.0000001
 43
0.0000001
 44
0.0000000001
 40
0.0
 40
0.0
 40
0.0
 40
0.0
 40
0.5041724635
 40
0.7539984161
 40
1.0
 40
1.0
 40
1.0
 40
1.0
 10
28.2657248507
 20
79.2975417736
 30
0.0
 10
28.2925107634
 20
78.8356909925
 30
0.0
 10
28.3636305777
 20
78.1455364586
 30
0.0
 10
28.5479051013
 20
77.245954299
 30
0.0
 10
28.6780800699
 20
76.8090163512
 30
0.0
 10
28.7547444807
 20
76.5967036433
 30
0.0
  0
SPLINE
  5
3D2
100
AcDbEntity
  8
0
100
AcDbSpline
 62
7
  6
BYLAYER
 70
0
 71
3
 72
12
 73
8
 74
0
 42
0.0000001
 43
0.0000001
 44
0.0000000001
 40
0.0
 40
0.0
 40
0.0
 40
0.0
 40
0.2510395031
 40
0.5267242153
 40
0.7883026061
 40
0.9024665964
 40
1.0
 40
1.0
 40
1.0
 40
1.0
 10
29.4334383314
 20
78.6233776271
 30
0.0
 10
29.4641665073
 20
78.6056371077
 30
0.0
 10
29.5317005462
 20
78.5737027133
 30
0.0
 10
29.636978611
 20
78.5368412944
 30
0.0
 10
29.7267550553
 20
78.5152618326
 30
0.0
 10
29.7931169923
 20
78.506498354
 30
0.0
 10
29.8230775271
 20
78.5051308274
 30
0.0
 10
29.8368588845
 20
78.505458884
 30
0.0
  0
SPLINE
  5
3D3
100
AcDbEntity
  8
0
100
AcDbSpline
 62
7
  6
BYLAYER
 70
0
 71
3
 72
11
 73
7
 74
0
 42
0.0000001
 43
0.0000001
 44
0.0000000001
 40
0.0
 40
0.0
 40
0.0
 40
0.0
 40
0.2372180573
 40
0.5000002054
 40
0.7627822745
 40
1.0
 40
1.0
 40
1.0
 40
1.0
 10
28.7339018416
 20
76.478792696
 30
0.0
 10
28.76401597
 20
76.4614066892
 30
0.0
 10
28.8340514226
 20
76.4360322344
 30
0.0
 10
28.9460340967
 20
76.4238750455
 30
0.0
 10
29.058016668
 20
76.4360327098
 30
0.0
 10
29.1280519495
 20
76.4614075161
 30
0.0
 10
29.1581659103
 20
76.4787937158
 30
0.0
  0
SPLINE
  5
3D4
100
AcDbEntity
  8
0
100
AcDbSpline
 62
7
  6
BYLAYER
 70
0
 71
3
 72
12
 73
8
 74
0
 42
0.0000001
 43
0.0000001
 44
0.0000000001
 40
0.0
 40
0.0
 40
0.0
 40
0.0
 40
0.09753327
 40
0.2116972418
 40
0.4732768683
 40
0.7489626927
 40
1.0
 40
1.0
 40
1.0
 40
1.0
 10
29.1581659103
 20
76.4787937158
 30
0.0
 10
29.1443846122
 20
76.4784656605
 30
0.0
 10
29.1144241821
 20
76.4798337006
 30
0.0
 10
29.0480624975
 20
76.4885981935
 30
0.0
 10
28.9582854013
 20
76.5101761163
 30
0.0
 10
28.8530098157
 20
76.5470420624
 30
0.0
 10
28.785471098
 20
76.5789659462
 30
0.0
 10
28.7547432808
 20
76.5967062584
 30
0.0
  0
SPLINE
  5
3D5
100
AcDbEntity
  8
0
100
AcDbSpline
 62
7
  6
BYLAYER
 70
0
 71
3
 72
10
 73
6
 74
0
 42
0.0000001
 43
0.0000001
 44
0.0000000001
 40
0.0
 40
0.0
 40
0.0
 40
0.0
 40
0.5741800751
 40
0.8086641479
 40
1.0
 40
1.0
 40
1.0
 40
1.0
 10
28.75474433
 20
76.5967118494
 30
0.0
 10
28.7372562087
 20
76.5862974819
 30
0.0
 10
28.7132250231
 20
76.5704175172
 30
0.0
 10
28.6864185048
 20
76.547176716
 30
0.0
 10
28.676227611
 20
76.5359231699
 30
0.0
 10
28.6722854853
 20
76.5304036961
 30
0.0
  0
SPLINE
  5
3D6
100
AcDbEntity
  8
0
100
AcDbSpline
 62
7
  6
BYLAYER
 70
0
 71
3
 72
9
 73
5
 74
0
 42
0.0000001
 43
0.0000001
 44
0.0000000001
 40
0.0
 40
0.0
 40
0.0
 40
0.0
 40
0.2314795078
 40
1.0
 40
1.0
 40
1.0
 40
1.0
 10
28.6722889964
 20
76.5304050602
 30
0.0
 10
28.6761067199
 20
76.5254891077
 30
0.0
 10
28.6938891137
 20
76.505251976
 30
0.0
 10
28.7160054787
 20
76.4891249322
 30
0.0
 10
28.7339018416
 20
76.478792696
 30
0.0
  0
SPLINE
  5
3D7
100
AcDbEntity
  8
0
100
AcDbSpline
 62
7
  6
BYLAYER
 70
0
 71
3
 72
13
 73
9
 74
0
 42
0.0000001
 43
0.0000001
 44
0.0000000001
 40
0.0
 40
0.0
 40
0.0
 40
0.0
 40
0.3864390103
 40
0.6942124353
 40
0.8108749794
 40
0.9009302937
 40
0.9640370637
 40
1.0
 40
1.0
 40
1.0
 40
1.0
 10
28.2657248641
 20
79.2975415437
 30
0.0
 10
28.2518477783
 20
79.2964104176
 30
0.0
 10
28.2269291736
 20
79.2942643776
 30
0.0
 10
28.197847096
 20
79.2914174635
 30
0.0
 10
28.1794451259
 20
79.2892236076
 30
0.0
 10
28.1698025922
 20
79.2879070886
 30
0.0
 10
28.1631117544
 20
79.2867126585
 30
0.0
 10
28.1595951158
 20
79.2859452928
 30
0.0
 10
28.1584028633
 20
79.2854379288
 30
0.0
  0
SPLINE
  5
3D8
100
AcDbEntity
  8
0
100
AcDbSpline
 62
7
  6
BYLAYER
 70
0
 71
3
 72
11
 73
7
 74
0
 42
0.0000001
 43
0.0000001
 44
0.0000000001
 40
0.0
 40
0.0
 40
0.0
 40
0.0
 40
0.2527009178
 40
0.5043059203
 40
0.7539268552
 40
1.0
 40
1.0
 40
1.0
 40
1.0
 10
28.1584035097
 20
79.2854380767
 30
0.0
 10
28.1725644946
 20
79.0490210827
 30
0.0
 10
28.2119855302
 20
78.5777780205
 30
0.0
 10
28.310524489
 20
77.8776079288
 30
0.0
 10
28.4560371235
 20
77.1918713339
 30
0.0
 10
28.5921267972
 20
76.7466542782
 30
0.0
 10
28.6722889964
 20
76.5304050603
 30
0.0
  0
SPLINE
  5
3D9
100
AcDbEntity
  8
0
100
AcDbSpline
 62
7
  6
BYLAYER
 70
0
 71
3
 72
9
 73
5
 74
0
 42
0.0000001
 43
0.0000001
 44
0.0000000001
 40
0.0
 40
0.0
 40
0.0
 40
0.0
 40
0.524416632
 40
1.0
 40
1.0
 40
1.0
 40
1.0
 10
28.5073561517
 20
82.2050017972
 30
0.0
 10
28.5247412195
 20
82.2294727601
 30
0.0
 10
28.5620458029
 20
82.2733431723
 30
0.0
 10
28.6076276588
 20
82.3089730726
 30
0.0
 10
28.6312031316
 20
82.3225842969
 30
0.0
  0
SPLINE
  5
3DA
100
AcDbEntity
  8
0
100
AcDbSpline
 62
7
  6
BYLAYER
 70
0
 71
3
 72
9
 73
5
 74
0
 42
0.0000001
 43
0.0000001
 44
0.0000000001
 40
0.0
 40
0.0
 40
0.0
 40
0.0
 40
0.5419430656
 40
1.0
 40
1.0
 40
1.0
 40
1.0
 10
29.2086641659
 20
83.1315430278
 30
0.0
 10
29.2281383352
 20
83.142786255
 30
0.0
 10
29.2667192454
 20
83.159665204
 30
0.0
 10
29.3096381208
 20
83.161867815
 30
0.0
 10
29.3282357496
 20
83.1579487819
 30
0.0
  0
SPLINE
  5
3DB
100
AcDbEntity
  8
0
100
AcDbSpline
 62
7
  6
BYLAYER
 70
0
 71
3
 72
9
 73
5
 74
0
 42
0.0000001
 43
0.0000001
 44
0.0000000001
 40
0.0
 40
0.0
 40
0.0
 40
0.0
 40
0.2537107698
 40
1.0
 40
1.0
 40
1.0
 40
1.0
 10
29.3282357496
 20
83.1579487819
 30
0.0
 10
29.3302729658
 20
83.1575194843
 30
0.0
 10
29.3382532307
 20
83.1556031436
 30
0.0
 10
29.3460158281
 20
83.1527634507
 30
0.0
 10
29.3515477164
 20
83.1501362025
 30
0.0
  0
ELLIPSE
  5
3DC
100
AcDbEntity
  8
0
100
AcDbEllipse
 62
7
  6
BYLAYER
 10
30.080723812
 20
56.7852870931
 30
0.0
 11
9.2390577656
 21
-8.3164447919
 31
0.0
 40
0.2511895858
 41
1.4305856592
 42
1.4531549285
  0
ELLIPSE
  5
3DD
100
AcDbEntity
  8
0
100
AcDbEllipse
 62
7
  6
BYLAYER
 10
30.0517099638
 20
56.8020378673
 30
0.0
 11
2.1654584063
 21
1.9656267142
 31
0.0
 40
0.4501243835
 41
-0.7455984421
 42
-0.6750861823
  0
ELLIPSE
  5
3DE
100
AcDbEntity
  8
0
100
AcDbEllipse
 62
7
  6
BYLAYER
 10
30.2638428813
 20
56.6795656409
 30
0.0
 11
3.1067233168
 21
2.7762957227
 31
0.0
 40
0.4455181926
 41
-1.0645293205
 42
-0.6965908239
  0
ELLIPSE
  5
3DF
100
AcDbEntity
  8
0
100
AcDbEllipse
 62
7
  6
BYLAYER
 10
35.3178194075
 20
63.6980057699
 30
0.0
 11
-0.1984972216
 21
0.3490121337
 31
0.0
 40
0.5773244085
 41
-2.3487044462
 42
-0.7779081194
  0
ELLIPSE
  5
3E0
100
AcDbEntity
  8
0
100
AcDbEllipse
 62
7
  6
BYLAYER
 10
34.4339322511
 20
64.208306713
 30
0.0
 11
-0.1984972216
 21
0.3490121337
 31
0.0
 40
0.5773244085
 41
-0.7779081194
 42
0.0615579426
  0
ELLIPSE
  5
3E1
100
AcDbEntity
  8
0
100
AcDbEllipse
 62
7
  6
BYLAYER
 10
33.3705548111
 20
62.2976736156
 30
0.0
 11
-0.0177836186
 21
0.1040311344
 31
0.0
 40
0.6846772074
 41
-2.087680688
 42
-0.5168843612
  0
ELLIPSE
  5
3E2
100
AcDbEntity
  8
0
100
AcDbEllipse
 62
7
  6
BYLAYER
 10
30.028961002
 20
28.0743514214
 30
0.0
 11
0.4973635129
 21
0.8675457625
 31
0.0
 40
0.5793637621
 41
-1.6107113908
 42
-0.7290353603
  0
ELLIPSE
  5
3E3
100
AcDbEntity
  8
0
100
AcDbEllipse
 62
7
  6
BYLAYER
 10
30.080723812
 20
56.7852870931
 30
0.0
 11
6.4992907186
 21
-5.8502710795
 31
0.0
 40
0.2511895858
 41
7.7059737849
 42
7.7375786791
  0
ELLIPSE
  5
3E4
100
AcDbEntity
  8
0
100
AcDbEllipse
 62
7
  6
BYLAYER
 10
33.3705548111
 20
62.2976736156
 30
0.0
 11
-0.0711344743
 21
0.4161245376
 31
0.0
 40
0.6846772074
 41
-2.087680688
 42
-0.5168843612
  0
ELLIPSE
  5
3E5
100
AcDbEntity
  8
0
100
AcDbEllipse
 62
7
  6
BYLAYER
 10
32.4866676546
 20
62.8079745587
 30
0.0
 11
-0.0711344743
 21
0.4161245376
 31
0.0
 40
0.6846772074
 41
-0.5168843612
 42
1.0539119656
  0
ENDSEC
  0
SECTION
  2
OBJECTS
  0
DICTIONARY
  5
C
100
AcDbDictionary
280
0
281
1
  3
ACAD_GROUP
350
D
  3
ACAD_MLINESTYLE
350
17
  3
ACAD_LAYOUT
350
1A
  3
ACAD_PLOTSETTINGS
350
19
  3
ACAD_PLOTSTYLENAME
350
E
  0
DICTIONARY
  5
D
102
{ACAD_REACTORS
330
C
102
}
100
AcDbDictionary
280
0
281
1
  0
ACDBDICTIONARYWDFLT
  5
E
102
{ACAD_REACTORS
330
C
102
}
100
AcDbDictionary
281
1
  3
Normal
350
F
100
AcDbDictionaryWithDefault
340
F
  0
DICTIONARY
  5
17
102
{ACAD_REACTORS
330
C
102
}
100
AcDbDictionary
280
0
281
1
  3
Standard
350
18
  0
DICTIONARY
  5
19
102
{ACAD_REACTORS
330
C
102
}
100
AcDbDictionary
281
1
  0
DICTIONARY
  5
1A
102
{ACAD_REACTORS
330
C
102
}
100
AcDbDictionary
281
1
  3
Model
350
3E6
  3
Layout1
350
3E7
  0
ACDBPLACEHOLDER
  5
F
102
{ACAD_REACTORS
330
E
102
}
  0
MLINESTYLE
  5
18
102
{ACAD_REACTORS
330
17
102
}
100
AcDbMlineStyle
  2
STANDARD
 70
0
  3

 62
256
 51
90.0
 52
90.0
 71
2
 49
0.5
 62
256
  6
BYLAYER
 49
-0.5
 62
256
  6
BYLAYER
  0
LAYOUT
  5
3E6
102
{ACAD_REACTORS
330
1A
102
}
100
AcDbPlotSettings
  1

  2
none_device
  4

  6

 40
0.0
 41
0.0
 42
0.0
 43
0.0
 44
210.0
 45
297.0
 46
0.0
 47
0.0
 48
0.0
 49
0.0
140
0.0
141
0.0
142
1.0
143
1.0
 70
1024
 72
1
 73
0
 74
0
  7

 75
0
147
1.0
148
0.0
149
0.0
100
AcDbLayout
  1
Model
 70
0
 71
0
 10
0.0
 20
0.0
 11
210.0
 21
297.0
 12
0.0
 22
0.0
 32
0.0
 14
0.0
 24
0.0
 34
0.0
 15
0.0
 25
0.0
 35
0.0
146
0.0
 13
0.0
 23
0.0
 33
0.0
 16
1.0
 26
0.0
 36
0.0
 17
0.0
 27
1.0
 37
0.0
 76
0
330
210
345
0
346
0
  0
LAYOUT
  5
3E7
102
{ACAD_REACTORS
330
1A
102
}
100
AcDbPlotSettings
  1

  2
none_device
  4

  6

 40
0.0
 41
0.0
 42
0.0
 43
0.0
 44
210.0
 45
297.0
 46
0.0
 47
0.0
 48
0.0
 49
0.0
140
0.0
141
0.0
142
1.0
143
1.0
 70
0
 72
1
 73
0
 74
0
  7

 75
0
147
1.0
148
0.0
149
0.0
100
AcDbLayout
  1
Layout1
 70
0
 71
1
 10
0.0
 20
0.0
 11
210.0
 21
297.0
 12
0.0
 22
0.0
 32
0.0
 14
0.0
 24
0.0
 34
0.0
 15
0.0
 25
0.0
 35
0.0
146
0.0
 13
0.0
 23
0.0
 33
0.0
 16
1.0
 26
0.0
 36
0.0
 17
0.0
 27
1.0
 37
0.0
 76
0
330
211
345
0
346
0
  0
ENDSEC
  0
EOF
