999
DXF file: C:\Users\sesa63760\Dev\_Creo\CAD\MCADPD0003785_3D-CAD\drw0001_4.dxf
999
Pro/ENGINEER 2019471 by Parametric Technology Corporation
  0
SECTION
  2
HEADER
  9
$ACADVER
  1
AC1024
  9
$DWGCODEPAGE
  3
ANSI_1252
  9
$EXTMAX
 10
55.4021900035
 20
78.3545258621
 30
0.0
  9
$EXTMIN
 10
0.0
 20
0.0
 30
0.0
  9
$LIMMIN
 10
0.0
 20
0.0
  9
$LIMMAX
 10
55.4021900035
 20
78.3545258621
  9
$VIEWCTR
 10
27.7010950017
 20
39.177262931
  9
$VIEWSIZE
 40
78.3545258621
  9
$CLAYER
  8
0
  9
$LTSCALE
 40
5.1075542784
  9
$CELTYPE
  6
BYLAYER
  9
$DIMSCALE
 40
1.0
  9
$DIMASZ
 40
0.659549881
  9
$DIMEXO
 40
1.0
  9
$DIMDLI
 40
3.5288556833
  9
$DIMEXE
 40
1.0
  9
$DIMCEN
 40
0.8357816092
  9
$DIMLFAC
 40
1.0
  9
$DIMBLK
  1
_FILLED
  9
$DIMALT
 70
0
  9
$DIMALTF
 40
0.0393700787
  9
$DIMTXT
 40
0.9233698334
  9
$DIMTOL
 70
1
  9
$DIMLIM
 70
0
  9
$DIMTFAC
 40
1.0
  9
$DIMTP
 40
0.01
  9
$DIMTM
 40
0.01
  9
$DIMGAP
 40
0.625
  9
$DIMDSEP
 70
46
  9
$AUNITS
 70
0
  9
$PDMODE
 70
3
  9
$PDSIZE
 40
0.3125
  9
$HANDSEED
  5
471
  9
$TILEMODE
 70
1
  9
$MEASUREMENT
 70
1
  9
$INSUNITS
 70
4
  0
ENDSEC
  0
SECTION
  2
CLASSES
  0
CLASS
  1
ACDBDICTIONARYWDFLT
  2
AcDbDictionaryWithDefault
  3
AutoCAD 2000
 90
0
 91
1
280
0
281
0
  0
CLASS
  1
ACDBPLACEHOLDER
  2
AcDbPlaceHolder
  3
AutoCAD 2000
 90
0
 91
1
280
0
281
0
  0
CLASS
  1
LAYOUT
  2
AcDbLayout
  3
AutoCAD 2000
 90
0
 91
0
280
0
281
0
  0
ENDSEC
  0
SECTION
  2
TABLES
  0
TABLE
  2
VPORT
  5
8
100
AcDbSymbolTable
 70
2
  0
VPORT
  5
1F4
100
AcDbSymbolTableRecord
100
AcDbViewportTableRecord
  2
*ACTIVE
 70
0
 10
0.0
 20
0.0
 11
1.0
 21
1.0
 12
27.7010950017
 22
39.177262931
 13
0.0
 23
0.0
 14
1.0
 24
1.0
 15
0.0
 25
0.0
 16
0.0
 26
0.0
 36
1.0
 17
0.0
 27
0.0
 37
0.0
 40
78.3545258621
 41
0.7070707071
 42
50.0
 43
0.0
 44
0.0
 50
0.0
 51
0.0
 71
0
 72
100
 73
1
 74
1
 75
0
 76
0
 77
0
 78
0
  0
ENDTAB
  0
TABLE
  2
LTYPE
  5
5
100
AcDbSymbolTable
 70
6
  0
LTYPE
  5
14
100
AcDbSymbolTableRecord
100
AcDbLinetypeTableRecord
  2
BYBLOCK
 70
0
  3

 72
65
 73
0
 40
0.0
  0
LTYPE
  5
15
100
AcDbSymbolTableRecord
100
AcDbLinetypeTableRecord
  2
BYLAYER
 70
0
  3

 72
65
 73
0
 40
0.0
  0
LTYPE
  5
16
100
AcDbSymbolTableRecord
100
AcDbLinetypeTableRecord
  2
CONTINUOUS
 70
64
  3
Solid line
 72
65
 73
0
 40
0.0
  0
LTYPE
  5
1F5
100
AcDbSymbolTableRecord
100
AcDbLinetypeTableRecord
  2
CENTER
 70
64
  3
____ _ ____ _ ____ _ ____ _ ____ _ ____ _ ____
 72
65
 73
4
 40
0.6
 49
0.375
 74
0
 49
-0.075
 74
0
 49
0.075
 74
0
 49
-0.075
 74
0
  0
LTYPE
  5
1F6
100
AcDbSymbolTableRecord
100
AcDbLinetypeTableRecord
  2
HIDDEN
 70
64
  3
- - - - - - - - - - - - - - - - - - - -
 72
65
 73
2
 40
0.2
 49
0.1
 74
0
 49
-0.1
 74
0
  0
LTYPE
  5
1F7
100
AcDbSymbolTableRecord
100
AcDbLinetypeTableRecord
  2
PHANTOM
 70
64
  3
_____ _ _ _____ _ _ _____ _ _ _____
 72
65
 73
6
 40
0.8
 49
0.45
 74
0
 49
-0.05
 74
0
 49
0.1
 74
0
 49
-0.05
 74
0
 49
0.1
 74
0
 49
-0.05
 74
0
  0
LTYPE
  5
1F8
100
AcDbSymbolTableRecord
100
AcDbLinetypeTableRecord
  2
DOT
 70
64
  3
. . . . . . . . . . . . . . . . . . . .
 72
65
 73
2
 40
0.2
 49
0.1
 74
0
 49
-0.1
 74
0
  0
LTYPE
  5
1F9
100
AcDbSymbolTableRecord
100
AcDbLinetypeTableRecord
  2
DASHED
 70
64
  3
- - - - - - - - - - - - - - - - - - - -
 72
65
 73
2
 40
0.2
 49
0.1
 74
0
 49
-0.1
 74
0
  0
ENDTAB
  0
TABLE
  2
LAYER
  5
2
100
AcDbSymbolTable
 70
36
  0
LAYER
  5
10
100
AcDbSymbolTableRecord
100
AcDbLayerTableRecord
  2
0
 70
0
 62
7
  6
CONTINUOUS
370
-3
390
F
  0
LAYER
  5
1FA
100
AcDbSymbolTableRecord
100
AcDbLayerTableRecord
  2
DEFAULT_1
 70
0
 62
7
  6
CENTER
370
-3
390
F
  0
LAYER
  5
1FB
100
AcDbSymbolTableRecord
100
AcDbLayerTableRecord
  2
DEFAULT_2
 70
0
 62
7
  6
HIDDEN
370
-3
390
F
  0
LAYER
  5
1FC
100
AcDbSymbolTableRecord
100
AcDbLayerTableRecord
  2
DEFAULT_3
 70
0
 62
7
  6
PHANTOM
370
-3
390
F
  0
LAYER
  5
1FD
100
AcDbSymbolTableRecord
100
AcDbLayerTableRecord
  2
00_COMPONENTS
 70
0
 62
7
  6
CONTINUOUS
370
-3
390
F
  0
LAYER
  5
1FE
100
AcDbSymbolTableRecord
100
AcDbLayerTableRecord
  2
01_1_DEFAULT_DATUMS
 70
0
 62
7
  6
CONTINUOUS
370
-3
390
F
  0
LAYER
  5
1FF
100
AcDbSymbolTableRecord
100
AcDbLayerTableRecord
  2
01_PLANES
 70
0
 62
7
  6
CONTINUOUS
370
-3
390
F
  0
LAYER
  5
200
100
AcDbSymbolTableRecord
100
AcDbLayerTableRecord
  2
02_COORD_SYS
 70
0
 62
7
  6
CONTINUOUS
370
-3
390
F
  0
LAYER
  5
201
100
AcDbSymbolTableRecord
100
AcDbLayerTableRecord
  2
03_AXES
 70
0
 62
7
  6
CONTINUOUS
370
-3
390
F
  0
LAYER
  5
202
100
AcDbSymbolTableRecord
100
AcDbLayerTableRecord
  2
04_POINTS
 70
0
 62
7
  6
CONTINUOUS
370
-3
390
F
  0
LAYER
  5
203
100
AcDbSymbolTableRecord
100
AcDbLayerTableRecord
  2
05_CURVES
 70
0
 62
7
  6
CONTINUOUS
370
-3
390
F
  0
LAYER
  5
204
100
AcDbSymbolTableRecord
100
AcDbLayerTableRecord
  2
06_SURFS
 70
0
 62
7
  6
CONTINUOUS
370
-3
390
F
  0
LAYER
  5
205
100
AcDbSymbolTableRecord
100
AcDbLayerTableRecord
  2
07_COSMETICS
 70
0
 62
7
  6
CONTINUOUS
370
-3
390
F
  0
LAYER
  5
206
100
AcDbSymbolTableRecord
100
AcDbLayerTableRecord
  2
10_NOTES
 70
0
 62
7
  6
CONTINUOUS
370
-3
390
F
  0
LAYER
  5
207
100
AcDbSymbolTableRecord
100
AcDbLayerTableRecord
  2
11_NOTES_PUB
 70
0
 62
7
  6
CONTINUOUS
370
-3
390
F
  0
LAYER
  5
208
100
AcDbSymbolTableRecord
100
AcDbLayerTableRecord
  2
13_REF_GTOL
 70
0
 62
7
  6
CONTINUOUS
370
-3
390
F
  0
LAYER
  5
209
100
AcDbSymbolTableRecord
100
AcDbLayerTableRecord
  2
16_MISC
 70
0
 62
7
  6
CONTINUOUS
370
-3
390
F
  0
LAYER
  5
20A
100
AcDbSymbolTableRecord
100
AcDbLayerTableRecord
  2
17_NO_PRINT
 70
0
 62
7
  6
CONTINUOUS
370
-3
390
F
  0
LAYER
  5
20B
100
AcDbSymbolTableRecord
100
AcDbLayerTableRecord
  2
18_DATUM_CAMS_JOINTS
 70
0
 62
7
  6
CONTINUOUS
370
-3
390
F
  0
LAYER
  5
20C
100
AcDbSymbolTableRecord
100
AcDbLayerTableRecord
  2
19_DATUM_FUNCTIONAL
 70
0
 62
7
  6
CONTINUOUS
370
-3
390
F
  0
LAYER
  5
20D
100
AcDbSymbolTableRecord
100
AcDbLayerTableRecord
  2
20_DATUM_KINEMATIC_SCHEME
 70
0
 62
7
  6
CONTINUOUS
370
-3
390
F
  0
ENDTAB
  0
TABLE
  2
STYLE
  5
3
100
AcDbSymbolTable
 70
1
  0
STYLE
  5
11
100
AcDbSymbolTableRecord
100
AcDbTextStyleTableRecord
  2
STANDARD
 70
0
 40
0.0
 41
1.0
 50
0.0
 71
0
 42
0.2
  3
ARIAL.TTF
  4

  0
STYLE
  5
20E
100
AcDbSymbolTableRecord
100
AcDbTextStyleTableRecord
  2
TEXTSTYLE_1
 70
0
 40
0.0
 41
0.8
 50
0.0
 71
0
 42
0.2
  3
gdt
  4

  0
ENDTAB
  0
TABLE
  2
VIEW
  5
6
100
AcDbSymbolTable
 70
0
  0
ENDTAB
  0
TABLE
  2
UCS
  5
7
100
AcDbSymbolTable
 70
0
  0
ENDTAB
  0
TABLE
  2
APPID
  5
9
100
AcDbSymbolTable
 70
1
  0
APPID
  5
20F
100
AcDbSymbolTableRecord
100
AcDbRegAppTableRecord
  2
ACAD
 70
0
  0
ENDTAB
  0
TABLE
  2
BLOCK_RECORD
  5
1
100
AcDbSymbolTable
 70
0
  0
BLOCK_RECORD
  5
210
100
AcDbSymbolTableRecord
100
AcDbBlockTableRecord
  2
*Model_Space
  0
BLOCK_RECORD
  5
211
100
AcDbSymbolTableRecord
100
AcDbBlockTableRecord
  2
*Paper_Space
  0
BLOCK_RECORD
  5
212
100
AcDbSymbolTableRecord
100
AcDbBlockTableRecord
  2
_FILLED
  0
ENDTAB
  0
TABLE
  2
DIMSTYLE
  5
A
100
AcDbSymbolTable
 70
1
100
AcDbDimStyleTable
 71
0
  0
DIMSTYLE
105
213
100
AcDbSymbolTableRecord
100
AcDbDimStyleTableRecord
  2
STANDARD
 70
0
  3

  4

 40
1.0
 41
0.659549881
 42
1.0
 43
0.38
 44
1.0
 45
0.0
 46
0.0
 47
0.01
 48
0.01
140
0.9233698334
141
0.09
142
0.0
143
25.4
144
1.0
145
0.0
146
1.0
147
0.625
 71
1
 72
0
 73
0
 74
0
 75
0
 76
0
 77
1
 78
8
 79
2
170
0
171
1
172
0
173
0
174
0
175
0
176
0
177
0
178
0
270
2
179
2
271
2
272
2
273
2
274
2
275
0
280
0
281
0
282
0
283
1
284
8
285
0
286
0
287
3
288
0
340
11
278
46
341
212
342
212
343
212
344
212
  0
ENDTAB
  0
ENDSEC
  0
SECTION
  2
BLOCKS
  0
BLOCK
  5
20
100
AcDbEntity
  8
0
100
AcDbBlockBegin
  2
*Model_Space
 70
0
 10
0.0
 20
0.0
 30
0.0
  3
*Model_Space
  1

  0
ENDBLK
  5
21
100
AcDbEntity
  8
0
100
AcDbBlockEnd
  0
BLOCK
  5
1C
100
AcDbEntity
  8
0
100
AcDbBlockBegin
  2
*Paper_Space
 70
0
 10
0.0
 20
0.0
 30
0.0
  3
*Paper_Space
  1

  0
ENDBLK
  5
1D
100
AcDbEntity
  8
0
100
AcDbBlockEnd
  0
BLOCK
  5
214
100
AcDbEntity
  8
0
100
AcDbBlockBegin
  2
_FILLED
 70
64
 10
0.0
 20
0.0
  3
_FILLED
  1

  0
SOLID
  5
215
100
AcDbEntity
  8
0
  6
BYBLOCK
 62
0
100
AcDbTrace
 10
0.0
 20
0.0
 11
-1.0
 21
0.25
 12
-1.0
 22
-0.25
 13
-1.0
 23
-0.25
  0
ENDBLK
  5
216
100
AcDbEntity
  8
0
  6
BYBLOCK
 62
0
100
AcDbBlockEnd
  0
ENDSEC
  0
SECTION
  2
ENTITIES
  0
LINE
  5
217
100
AcDbEntity
  8
0
100
AcDbLine
 62
7
  6
BYLAYER
 10
6.1703837948
 20
38.5875000003
 11
6.1703837948
 21
41.2375000004
  0
LINE
  5
218
100
AcDbEntity
  8
0
100
AcDbLine
 62
7
  6
BYLAYER
 10
6.1703837948
 20
51.6375000047
 11
6.1703837948
 21
52.7874999997
  0
LINE
  5
219
100
AcDbEntity
  8
0
100
AcDbLine
 62
7
  6
BYLAYER
 10
6.3203837948
 20
41.7038689527
 11
6.3203837948
 21
42.0711310473
  0
LINE
  5
21A
100
AcDbEntity
  8
0
100
AcDbLine
 62
7
  6
BYLAYER
 10
6.3203837948
 20
43.0038689527
 11
6.3203837948
 21
43.3711310473
  0
LINE
  5
21B
100
AcDbEntity
  8
0
100
AcDbLine
 62
7
  6
BYLAYER
 10
6.3203837948
 20
44.3038689527
 11
6.3203837948
 21
44.6711310473
  0
LINE
  5
21C
100
AcDbEntity
  8
0
100
AcDbLine
 62
7
  6
BYLAYER
 10
6.3203837948
 20
45.6038689527
 11
6.3203837948
 21
45.9711310473
  0
LINE
  5
21D
100
AcDbEntity
  8
0
100
AcDbLine
 62
7
  6
BYLAYER
 10
6.3203837948
 20
46.9038689527
 11
6.3203837948
 21
47.2711310473
  0
LINE
  5
21E
100
AcDbEntity
  8
0
100
AcDbLine
 62
7
  6
BYLAYER
 10
6.3203837948
 20
48.2038689527
 11
6.3203837948
 21
48.5711310473
  0
LINE
  5
21F
100
AcDbEntity
  8
0
100
AcDbLine
 62
7
  6
BYLAYER
 10
6.3203837948
 20
49.5038689527
 11
6.3203837948
 21
49.8711310473
  0
LINE
  5
220
100
AcDbEntity
  8
0
100
AcDbLine
 62
7
  6
BYLAYER
 10
6.3203837948
 20
50.8038689527
 11
6.3203837948
 21
51.1711310474
  0
LINE
  5
221
100
AcDbEntity
  8
0
100
AcDbLine
 62
7
  6
BYLAYER
 10
6.4703837948
 20
52.7874797001
 11
6.4703837948
 21
51.6375
  0
LINE
  5
222
100
AcDbEntity
  8
0
100
AcDbLine
 62
7
  6
BYLAYER
 10
6.4703837948
 20
41.2375
 11
6.4703837948
 21
38.5875195446
  0
LINE
  5
223
100
AcDbEntity
  8
0
100
AcDbLine
 62
7
  6
BYLAYER
 10
6.6203837948
 20
51.2804285786
 11
6.6203837948
 21
50.6945714214
  0
LINE
  5
224
100
AcDbEntity
  8
0
100
AcDbLine
 62
7
  6
BYLAYER
 10
6.6203837948
 20
49.9804285786
 11
6.6203837948
 21
49.3945714214
  0
LINE
  5
225
100
AcDbEntity
  8
0
100
AcDbLine
 62
7
  6
BYLAYER
 10
6.6203837948
 20
48.6804285786
 11
6.6203837948
 21
48.0945714214
  0
LINE
  5
226
100
AcDbEntity
  8
0
100
AcDbLine
 62
7
  6
BYLAYER
 10
6.6203837948
 20
47.3804285786
 11
6.6203837948
 21
46.7945714214
  0
LINE
  5
227
100
AcDbEntity
  8
0
100
AcDbLine
 62
7
  6
BYLAYER
 10
6.6203837948
 20
46.0804285786
 11
6.6203837948
 21
45.4945714214
  0
LINE
  5
228
100
AcDbEntity
  8
0
100
AcDbLine
 62
7
  6
BYLAYER
 10
6.6203837948
 20
44.7804285786
 11
6.6203837948
 21
44.1945714214
  0
LINE
  5
229
100
AcDbEntity
  8
0
100
AcDbLine
 62
7
  6
BYLAYER
 10
6.6203837948
 20
43.4804285786
 11
6.6203837948
 21
42.8945714214
  0
LINE
  5
22A
100
AcDbEntity
  8
0
100
AcDbLine
 62
7
  6
BYLAYER
 10
6.6203837948
 20
42.1804285786
 11
6.6203837948
 21
41.5945714214
  0
LINE
  5
22B
100
AcDbEntity
  8
0
100
AcDbLine
 62
7
  6
BYLAYER
 10
6.6703838831
 20
53.2875
 11
6.6703838831
 21
52.9875
  0
LINE
  5
22C
100
AcDbEntity
  8
0
100
AcDbLine
 62
7
  6
BYLAYER
 10
6.6703838627
 20
38.3875
 11
6.6703838627
 21
38.0875
  0
LINE
  5
22D
100
AcDbEntity
  8
0
100
AcDbLine
 62
7
  6
BYLAYER
 10
6.9703837948
 20
38.9575
 11
6.9703837948
 21
42.3075
  0
LINE
  5
22E
100
AcDbEntity
  8
0
100
AcDbLine
 62
7
  6
BYLAYER
 10
7.1203837948
 20
38.9575
 11
7.1203837948
 21
42.3075
  0
LINE
  5
22F
100
AcDbEntity
  8
0
100
AcDbLine
 62
7
  6
BYLAYER
 10
7.4203837948
 20
42.1375
 11
7.4203837948
 21
42.3075
  0
LINE
  5
230
100
AcDbEntity
  8
0
100
AcDbLine
 62
7
  6
BYLAYER
 10
7.6703837948
 20
32.8642949192
 11
7.5703837948
 21
33.0375
  0
LINE
  5
231
100
AcDbEntity
  8
0
100
AcDbLine
 62
7
  6
BYLAYER
 10
7.5703837948
 20
35.0515770227
 11
7.5703837948
 21
33.0375
  0
LINE
  5
232
100
AcDbEntity
  8
0
100
AcDbLine
 62
7
  6
BYLAYER
 10
7.6703837948
 20
25.5875
 11
7.6703837948
 21
38.0875
  0
LINE
  5
233
100
AcDbEntity
  8
0
100
AcDbLine
 62
7
  6
BYLAYER
 10
7.8203837948
 20
39.3375
 11
7.8203837948
 21
42.1375
  0
LINE
  5
234
100
AcDbEntity
  8
0
100
AcDbLine
 62
7
  6
BYLAYER
 10
7.9703837948
 20
38.3875
 11
7.9703837948
 21
25.5875
  0
LINE
  5
235
100
AcDbEntity
  8
0
100
AcDbLine
 62
7
  6
BYLAYER
 10
7.9789996059
 20
38.9575
 11
7.9789996059
 21
39.1275
  0
LINE
  5
236
100
AcDbEntity
  8
0
100
AcDbLine
 62
7
  6
BYLAYER
 10
8.1131435661
 20
39.1275
 11
8.1131435661
 21
40.1987812921
  0
LINE
  5
237
100
AcDbEntity
  8
0
100
AcDbLine
 62
7
  6
BYLAYER
 10
8.1558959762
 20
38.9575
 11
8.1558959762
 21
39.5875
  0
LINE
  5
238
100
AcDbEntity
  8
0
100
AcDbLine
 62
7
  6
BYLAYER
 10
8.1976313848
 20
42.3075
 11
8.1976313848
 21
40.6275
  0
LINE
  5
239
100
AcDbEntity
  8
0
100
AcDbLine
 62
7
  6
BYLAYER
 10
8.2403837948
 20
42.3075
 11
8.2403837948
 21
40.2464168043
  0
LINE
  5
23A
100
AcDbEntity
  8
0
100
AcDbLine
 62
7
  6
BYLAYER
 10
8.4703837948
 20
26.3375
 11
8.4703837948
 21
27.3375
  0
LINE
  5
23B
100
AcDbEntity
  8
0
100
AcDbLine
 62
7
  6
BYLAYER
 10
8.1131435661
 20
40.1987812921
 11
8.1976313848
 21
40.6275
  0
LINE
  5
23C
100
AcDbEntity
  8
0
100
AcDbLine
 62
7
  6
BYLAYER
 10
8.228642402
 20
39.9566390564
 11
8.1558959762
 21
39.5875
  0
LINE
  5
23D
100
AcDbEntity
  8
0
100
AcDbLine
 62
7
  6
BYLAYER
 10
7.5703837948
 20
35.0515770227
 11
7.1203837949
 21
35.8309998861
  0
LINE
  5
23E
100
AcDbEntity
  8
0
100
AcDbLine
 62
7
  6
BYLAYER
 10
9.3703837948
 20
42.1375
 11
9.3703837948
 21
45.9375
  0
LINE
  5
23F
100
AcDbEntity
  8
0
100
AcDbLine
 62
7
  6
BYLAYER
 10
9.4953837948
 20
26.3375
 11
9.4953837948
 21
27.3375
  0
LINE
  5
240
100
AcDbEntity
  8
0
100
AcDbLine
 62
7
  6
BYLAYER
 10
9.5603837948
 20
26.6875
 11
9.5603837948
 21
26.3375
  0
LINE
  5
241
100
AcDbEntity
  8
0
100
AcDbLine
 62
7
  6
BYLAYER
 10
9.5603837948
 20
27.2875
 11
9.5603837948
 21
27.3375
  0
LINE
  5
242
100
AcDbEntity
  8
0
100
AcDbLine
 62
7
  6
BYLAYER
 10
9.6203837948
 20
52.4875
 11
9.6203837948
 21
49.3568545576
  0
LINE
  5
243
100
AcDbEntity
  8
0
100
AcDbLine
 62
7
  6
BYLAYER
 10
9.6453837948
 20
27.3375
 11
9.6453837948
 21
27.2875
  0
LINE
  5
244
100
AcDbEntity
  8
0
100
AcDbLine
 62
7
  6
BYLAYER
 10
9.6453837948
 20
26.6875
 11
9.6453837948
 21
26.5375
  0
LINE
  5
245
100
AcDbEntity
  8
0
100
AcDbLine
 62
7
  6
BYLAYER
 10
9.7703837948
 20
42.5375
 11
9.7703837948
 21
45.5375
  0
LINE
  5
246
100
AcDbEntity
  8
0
100
AcDbLine
 62
7
  6
BYLAYER
 10
9.7953837948
 20
26.3375
 11
9.7953837948
 21
26.5375
  0
LINE
  5
247
100
AcDbEntity
  8
0
100
AcDbLine
 62
7
  6
BYLAYER
 10
10.0014182776
 20
44.7242830085
 11
10.0014182776
 21
43.0666914988
  0
LINE
  5
248
100
AcDbEntity
  8
0
100
AcDbLine
 62
7
  6
BYLAYER
 10
10.1703837948
 20
45.5375
 11
10.1703837948
 21
44.8037434921
  0
LINE
  5
249
100
AcDbEntity
  8
0
100
AcDbLine
 62
7
  6
BYLAYER
 10
10.2703837948
 20
42.5375
 11
10.2703837948
 21
42.8875
  0
LINE
  5
24A
100
AcDbEntity
  8
0
100
AcDbLine
 62
7
  6
BYLAYER
 10
11.1953837948
 20
26.3375
 11
11.1953837948
 21
26.5375
  0
LINE
  5
24B
100
AcDbEntity
  8
0
100
AcDbLine
 62
7
  6
BYLAYER
 10
11.3453837948
 20
26.5375
 11
11.3453837948
 21
26.6875
  0
LINE
  5
24C
100
AcDbEntity
  8
0
100
AcDbLine
 62
7
  6
BYLAYER
 10
11.3453837948
 20
27.2875
 11
11.3453837948
 21
27.3375
  0
LINE
  5
24D
100
AcDbEntity
  8
0
100
AcDbLine
 62
7
  6
BYLAYER
 10
11.4303837948
 20
26.6875
 11
11.4303837948
 21
26.3375
  0
LINE
  5
24E
100
AcDbEntity
  8
0
100
AcDbLine
 62
7
  6
BYLAYER
 10
11.4303837948
 20
27.2875
 11
11.4303837948
 21
27.3375
  0
LINE
  5
24F
100
AcDbEntity
  8
0
100
AcDbLine
 62
7
  6
BYLAYER
 10
11.4953837948
 20
26.3375
 11
11.4953837948
 21
27.3375
  0
LINE
  5
250
100
AcDbEntity
  8
0
100
AcDbLine
 62
7
  6
BYLAYER
 10
11.8203837948
 20
42.2875
 11
11.8203837948
 21
40.4875
  0
LINE
  5
251
100
AcDbEntity
  8
0
100
AcDbLine
 62
7
  6
BYLAYER
 10
11.8203837948
 20
42.8875
 11
11.8203837948
 21
43.5939827683
  0
LINE
  5
252
100
AcDbEntity
  8
0
100
AcDbLine
 62
7
  6
BYLAYER
 10
11.9203837948
 20
44.0875
 11
11.9203837948
 21
38.0875
  0
LINE
  5
253
100
AcDbEntity
  8
0
100
AcDbLine
 62
7
  6
BYLAYER
 10
12.5203837948
 20
27.3375
 11
12.5203837948
 21
26.3375
  0
LINE
  5
254
100
AcDbEntity
  8
0
100
AcDbLine
 62
7
  6
BYLAYER
 10
9.7703837948
 20
42.5375
 11
9.3703837948
 21
42.1375
  0
LINE
  5
255
100
AcDbEntity
  8
0
100
AcDbLine
 62
7
  6
BYLAYER
 10
13.3203837948
 20
24.8875
 11
13.3203837948
 21
28.1375
  0
LINE
  5
256
100
AcDbEntity
  8
0
100
AcDbLine
 62
7
  6
BYLAYER
 10
15.0770797744
 20
44.0365280517
 11
14.9846717091
 21
43.8400306754
  0
LINE
  5
257
100
AcDbEntity
  8
0
100
AcDbLine
 62
7
  6
BYLAYER
 10
7.6703837948
 20
38.0875
 11
7.9703837948
 21
38.3875
  0
LINE
  5
258
100
AcDbEntity
  8
0
100
AcDbLine
 62
7
  6
BYLAYER
 10
48.1703837948
 20
24.5875
 11
44.6203837948
 21
24.5875
  0
LINE
  5
259
100
AcDbEntity
  8
0
100
AcDbLine
 62
7
  6
BYLAYER
 10
39.2703837948
 20
24.5875
 11
37.7703837948
 21
24.5875
  0
LINE
  5
25A
100
AcDbEntity
  8
0
100
AcDbLine
 62
7
  6
BYLAYER
 10
19.0703837948
 20
24.5875
 11
17.5703837948
 21
24.5875
  0
LINE
  5
25B
100
AcDbEntity
  8
0
100
AcDbLine
 62
7
  6
BYLAYER
 10
13.0203837948
 20
24.5875
 11
8.6703837948
 21
24.5875
  0
LINE
  5
25C
100
AcDbEntity
  8
0
100
AcDbLine
 62
7
  6
BYLAYER
 10
15.2203837948
 20
44.0875
 11
15.2203837948
 21
38.0875
  0
LINE
  5
25D
100
AcDbEntity
  8
0
100
AcDbLine
 62
7
  6
BYLAYER
 10
15.3203837948
 20
42.2875
 11
15.3203837948
 21
40.4875
  0
LINE
  5
25E
100
AcDbEntity
  8
0
100
AcDbLine
 62
7
  6
BYLAYER
 10
15.3203837948
 20
42.8875
 11
15.3203837948
 21
43.5939827683
  0
LINE
  5
25F
100
AcDbEntity
  8
0
100
AcDbLine
 62
7
  6
BYLAYER
 10
9.7703837948
 20
44.6156329595
 11
11.7306505118
 21
45.5375
  0
LINE
  5
260
100
AcDbEntity
  8
0
100
AcDbLine
 62
7
  6
BYLAYER
 10
18.3703837948
 20
49.0800806077
 11
18.2703837948
 21
49.0375
  0
LINE
  5
261
100
AcDbEntity
  8
0
100
AcDbLine
 62
7
  6
BYLAYER
 10
48.6602817434
 20
25.0875
 11
44.3203837948
 21
25.0875
  0
LINE
  5
262
100
AcDbEntity
  8
0
100
AcDbLine
 62
7
  6
BYLAYER
 10
39.2703837948
 20
25.0875
 11
37.7703837948
 21
25.0875
  0
LINE
  5
263
100
AcDbEntity
  8
0
100
AcDbLine
 62
7
  6
BYLAYER
 10
19.0703837948
 20
25.0875
 11
17.5703837948
 21
25.0875
  0
LINE
  5
264
100
AcDbEntity
  8
0
100
AcDbLine
 62
7
  6
BYLAYER
 10
13.3203837948
 20
25.0875
 11
8.1804858463
 21
25.0875
  0
LINE
  5
265
100
AcDbEntity
  8
0
100
AcDbLine
 62
7
  6
BYLAYER
 10
34.3822317711
 20
25.1375
 11
35.3758977858
 21
25.1375
  0
LINE
  5
266
100
AcDbEntity
  8
0
100
AcDbLine
 62
7
  6
BYLAYER
 10
21.4569059303
 20
25.1875
 11
22.4544882248
 21
25.1875
  0
LINE
  5
267
100
AcDbEntity
  8
0
100
AcDbLine
 62
7
  6
BYLAYER
 10
7.6703837948
 20
25.5875
 11
7.9703837948
 21
25.5875
  0
LINE
  5
268
100
AcDbEntity
  8
0
100
AcDbLine
 62
7
  6
BYLAYER
 10
48.8703837948
 20
25.5875
 11
49.1703837948
 21
25.5875
  0
LINE
  5
269
100
AcDbEntity
  8
0
100
AcDbLine
 62
7
  6
BYLAYER
 10
48.3703837948
 20
26.3375
 11
45.1203837948
 21
26.3375
  0
LINE
  5
26A
100
AcDbEntity
  8
0
100
AcDbLine
 62
7
  6
BYLAYER
 10
12.5203837948
 20
26.3375
 11
8.4703837948
 21
26.3375
  0
LINE
  5
26B
100
AcDbEntity
  8
0
100
AcDbLine
 62
7
  6
BYLAYER
 10
11.3453837948
 20
26.5375
 11
9.6453837948
 21
26.5375
  0
LINE
  5
26C
100
AcDbEntity
  8
0
100
AcDbLine
 62
7
  6
BYLAYER
 10
45.8953837948
 20
26.5375
 11
47.5953837948
 21
26.5375
  0
LINE
  5
26D
100
AcDbEntity
  8
0
100
AcDbLine
 62
7
  6
BYLAYER
 10
47.7453837948
 20
26.6875
 11
45.7453837948
 21
26.6875
  0
LINE
  5
26E
100
AcDbEntity
  8
0
100
AcDbLine
 62
7
  6
BYLAYER
 10
11.4953837948
 20
26.6875
 11
9.4953837948
 21
26.6875
  0
LINE
  5
26F
100
AcDbEntity
  8
0
100
AcDbLine
 62
7
  6
BYLAYER
 10
12.1560958806
 20
43.8400306754
 11
12.0636878153
 21
44.0365280517
  0
LINE
  5
270
100
AcDbEntity
  8
0
100
AcDbLine
 62
7
  6
BYLAYER
 10
16.7053044298
 20
51.6875
 11
16.7053044298
 21
52.4875
  0
LINE
  5
271
100
AcDbEntity
  8
0
100
AcDbLine
 62
7
  6
BYLAYER
 10
17.0703837948
 20
42.5375
 11
17.0703837948
 21
42.8875
  0
LINE
  5
272
100
AcDbEntity
  8
0
100
AcDbLine
 62
7
  6
BYLAYER
 10
17.1393493121
 20
43.0666914988
 11
17.1393493121
 21
44.7242830085
  0
LINE
  5
273
100
AcDbEntity
  8
0
100
AcDbLine
 62
7
  6
BYLAYER
 10
17.3703837948
 20
39.5875
 11
17.3703837948
 21
42.8875
  0
LINE
  5
274
100
AcDbEntity
  8
0
100
AcDbLine
 62
7
  6
BYLAYER
 10
17.3703837948
 20
45.5375
 11
17.3703837948
 21
49.2985806177
  0
LINE
  5
275
100
AcDbEntity
  8
0
100
AcDbLine
 62
7
  6
BYLAYER
 10
17.4703837948
 20
39.7984079114
 11
17.4703837948
 21
49.5185659087
  0
LINE
  5
276
100
AcDbEntity
  8
0
100
AcDbLine
 62
7
  6
BYLAYER
 10
17.5203837948
 20
49.3568545576
 11
17.5203837948
 21
51.6875
  0
LINE
  5
277
100
AcDbEntity
  8
0
100
AcDbLine
 62
7
  6
BYLAYER
 10
17.5703837948
 20
24.5875
 11
17.5703837948
 21
28.1375
  0
LINE
  5
278
100
AcDbEntity
  8
0
100
AcDbLine
 62
7
  6
BYLAYER
 10
17.8653837948
 20
49.7928017184
 11
17.8653837948
 21
39.6110869072
  0
LINE
  5
279
100
AcDbEntity
  8
0
100
AcDbLine
 62
7
  6
BYLAYER
 10
17.8753837948
 20
39.6109169895
 11
17.8753837948
 21
49.7926318007
  0
LINE
  5
27A
100
AcDbEntity
  8
0
100
AcDbLine
 62
7
  6
BYLAYER
 10
9.7703837948
 20
42.9580414497
 11
12.9320348773
 21
44.4448911225
  0
LINE
  5
27B
100
AcDbEntity
  8
0
100
AcDbLine
 62
7
  6
BYLAYER
 10
9.4953837948
 20
27.2875
 11
11.4953837948
 21
27.2875
  0
LINE
  5
27C
100
AcDbEntity
  8
0
100
AcDbLine
 62
7
  6
BYLAYER
 10
45.7453837948
 20
27.2875
 11
47.7453837948
 21
27.2875
  0
LINE
  5
27D
100
AcDbEntity
  8
0
100
AcDbLine
 62
7
  6
BYLAYER
 10
8.4703837948
 20
27.3375
 11
12.5203837948
 21
27.3375
  0
LINE
  5
27E
100
AcDbEntity
  8
0
100
AcDbLine
 62
7
  6
BYLAYER
 10
45.1203837948
 20
27.3375
 11
48.3703837948
 21
27.3375
  0
LINE
  5
27F
100
AcDbEntity
  8
0
100
AcDbLine
 62
7
  6
BYLAYER
 10
13.3203837948
 20
28.1375
 11
17.5703837948
 21
28.1375
  0
LINE
  5
280
100
AcDbEntity
  8
0
100
AcDbLine
 62
7
  6
BYLAYER
 10
19.0703837948
 20
28.1375
 11
37.7703837948
 21
28.1375
  0
LINE
  5
281
100
AcDbEntity
  8
0
100
AcDbLine
 62
7
  6
BYLAYER
 10
39.2703837948
 20
28.1375
 11
44.3203837948
 21
28.1375
  0
LINE
  5
282
100
AcDbEntity
  8
0
100
AcDbLine
 62
7
  6
BYLAYER
 10
18.2203837948
 20
51.6875
 11
18.2203837948
 21
49.3568545576
  0
LINE
  5
283
100
AcDbEntity
  8
0
100
AcDbLine
 62
7
  6
BYLAYER
 10
18.2703837948
 20
39.7952185506
 11
18.2703837948
 21
49.5185659087
  0
LINE
  5
284
100
AcDbEntity
  8
0
100
AcDbLine
 62
7
  6
BYLAYER
 10
18.3703837948
 20
49.2985806177
 11
18.3703837948
 21
45.5375
  0
LINE
  5
285
100
AcDbEntity
  8
0
100
AcDbLine
 62
7
  6
BYLAYER
 10
18.3703837948
 20
42.5375
 11
18.3703837948
 21
39.5875
  0
LINE
  5
286
100
AcDbEntity
  8
0
100
AcDbLine
 62
7
  6
BYLAYER
 10
18.6014182776
 20
44.7242830085
 11
18.6014182776
 21
43.0666914988
  0
LINE
  5
287
100
AcDbEntity
  8
0
100
AcDbLine
 62
7
  6
BYLAYER
 10
18.8703837948
 20
40.8375
 11
18.8703837948
 21
41.4375
  0
LINE
  5
288
100
AcDbEntity
  8
0
100
AcDbLine
 62
7
  6
BYLAYER
 10
19.0354631599
 20
52.4875
 11
19.0354631599
 21
51.6875
  0
LINE
  5
289
100
AcDbEntity
  8
0
100
AcDbLine
 62
7
  6
BYLAYER
 10
19.0703837948
 20
41.6375
 11
19.0703837948
 21
40.6375
  0
LINE
  5
28A
100
AcDbEntity
  8
0
100
AcDbLine
 62
7
  6
BYLAYER
 10
19.0703837948
 20
24.5875
 11
19.0703837948
 21
28.1375
  0
LINE
  5
28B
100
AcDbEntity
  8
0
100
AcDbLine
 62
7
  6
BYLAYER
 10
18.2703837948
 20
44.5686053263
 11
20.3306505118
 21
45.5375
  0
LINE
  5
28C
100
AcDbEntity
  8
0
100
AcDbLine
 62
7
  6
BYLAYER
 10
48.8703837948
 20
29.8875
 11
7.9703837948
 21
29.8875
  0
LINE
  5
28D
100
AcDbEntity
  8
0
100
AcDbLine
 62
7
  6
BYLAYER
 10
7.6703837948
 20
30.1875
 11
49.1703837948
 21
30.1875
  0
LINE
  5
28E
100
AcDbEntity
  8
0
100
AcDbLine
 62
7
  6
BYLAYER
 10
20.4203837948
 20
42.5375
 11
20.4203837948
 21
43.5939827683
  0
LINE
  5
28F
100
AcDbEntity
  8
0
100
AcDbLine
 62
7
  6
BYLAYER
 10
20.5203837948
 20
44.0875
 11
20.5203837948
 21
38.0875
  0
LINE
  5
290
100
AcDbEntity
  8
0
100
AcDbLine
 62
7
  6
BYLAYER
 10
21.455390794
 20
28.1375
 11
21.455390794
 21
25.1875
  0
LINE
  5
291
100
AcDbEntity
  8
0
100
AcDbLine
 62
7
  6
BYLAYER
 10
21.458471031
 20
25.2040898136
 11
21.458471031
 21
28.1375
  0
LINE
  5
292
100
AcDbEntity
  8
0
100
AcDbLine
 62
7
  6
BYLAYER
 10
21.5124539453
 20
25.9207958008
 11
21.5124539453
 21
28.1375
  0
LINE
  5
293
100
AcDbEntity
  8
0
100
AcDbLine
 62
7
  6
BYLAYER
 10
18.2703837948
 20
42.9110138166
 11
21.5320348773
 21
44.4448911225
  0
LINE
  5
294
100
AcDbEntity
  8
0
100
AcDbLine
 62
7
  6
BYLAYER
 10
28.2203837948
 20
31.4975
 11
27.4203837948
 21
31.4975
  0
LINE
  5
295
100
AcDbEntity
  8
0
100
AcDbLine
 62
7
  6
BYLAYER
 10
28.6203837948
 20
31.4975
 11
29.4203837948
 21
31.4975
  0
LINE
  5
296
100
AcDbEntity
  8
0
100
AcDbLine
 62
7
  6
BYLAYER
 10
28.1203837948
 20
31.5117105263
 11
27.4203837948
 21
31.5117105263
  0
LINE
  5
297
100
AcDbEntity
  8
0
100
AcDbLine
 62
7
  6
BYLAYER
 10
28.7203837948
 20
31.5117105263
 11
29.4203837948
 21
31.5117105263
  0
LINE
  5
298
100
AcDbEntity
  8
0
100
AcDbLine
 62
7
  6
BYLAYER
 10
27.9203837948
 20
31.5875
 11
28.2203837948
 21
31.5875
  0
LINE
  5
299
100
AcDbEntity
  8
0
100
AcDbLine
 62
7
  6
BYLAYER
 10
28.6203837948
 20
31.5875
 11
28.9203837948
 21
31.5875
  0
LINE
  5
29A
100
AcDbEntity
  8
0
100
AcDbLine
 62
7
  6
BYLAYER
 10
27.4703837948
 20
31.7875
 11
27.9203837948
 21
31.7875
  0
LINE
  5
29B
100
AcDbEntity
  8
0
100
AcDbLine
 62
7
  6
BYLAYER
 10
28.9203837948
 20
31.7875
 11
29.3703837948
 21
31.7875
  0
LINE
  5
29C
100
AcDbEntity
  8
0
100
AcDbLine
 62
7
  6
BYLAYER
 10
27.6203837948
 20
32.0875
 11
27.9203837948
 21
32.0875
  0
LINE
  5
29D
100
AcDbEntity
  8
0
100
AcDbLine
 62
7
  6
BYLAYER
 10
28.9203837948
 20
32.0875
 11
29.2203837948
 21
32.0875
  0
LINE
  5
29E
100
AcDbEntity
  8
0
100
AcDbLine
 62
7
  6
BYLAYER
 10
9.7703837948
 20
45.5375
 11
9.3703837948
 21
45.9375
  0
LINE
  5
29F
100
AcDbEntity
  8
0
100
AcDbLine
 62
7
  6
BYLAYER
 10
22.5120594255
 20
28.1375
 11
22.5120594255
 21
25.975557033
  0
LINE
  5
2A0
100
AcDbEntity
  8
0
100
AcDbLine
 62
7
  6
BYLAYER
 10
22.5120222225
 20
25.9755556276
 11
22.5116649056
 21
25.9557243245
  0
LINE
  5
2A1
100
AcDbEntity
  8
0
100
AcDbLine
 62
7
  6
BYLAYER
 10
23.6770797744
 20
44.0365280517
 11
23.5846717091
 21
43.8400306754
  0
LINE
  5
2A2
100
AcDbEntity
  8
0
100
AcDbLine
 62
7
  6
BYLAYER
 10
25.9703837948
 20
45.5375
 11
26.3703837948
 21
45.9375
  0
LINE
  5
2A3
100
AcDbEntity
  8
0
100
AcDbLine
 62
7
  6
BYLAYER
 10
29.2203837948
 20
33.0875
 11
28.9203837948
 21
33.0875
  0
LINE
  5
2A4
100
AcDbEntity
  8
0
100
AcDbLine
 62
7
  6
BYLAYER
 10
27.9203837948
 20
33.0875
 11
27.6203837948
 21
33.0875
  0
LINE
  5
2A5
100
AcDbEntity
  8
0
100
AcDbLine
 62
7
  6
BYLAYER
 10
28.6703837948
 20
33.2875
 11
28.6203837948
 21
33.2875
  0
LINE
  5
2A6
100
AcDbEntity
  8
0
100
AcDbLine
 62
7
  6
BYLAYER
 10
28.1703837948
 20
33.2875
 11
28.2203837948
 21
33.2875
  0
LINE
  5
2A7
100
AcDbEntity
  8
0
100
AcDbLine
 62
7
  6
BYLAYER
 10
28.1203837948
 20
33.3548684211
 11
27.9203837948
 21
33.3548684211
  0
LINE
  5
2A8
100
AcDbEntity
  8
0
100
AcDbLine
 62
7
  6
BYLAYER
 10
27.4703837948
 20
33.3548684211
 11
27.4203837948
 21
33.3548684211
  0
LINE
  5
2A9
100
AcDbEntity
  8
0
100
AcDbLine
 62
7
  6
BYLAYER
 10
28.7203837948
 20
33.3548684211
 11
28.9203837948
 21
33.3548684211
  0
LINE
  5
2AA
100
AcDbEntity
  8
0
100
AcDbLine
 62
7
  6
BYLAYER
 10
29.3703837948
 20
33.3548684211
 11
29.4203837948
 21
33.3548684211
  0
LINE
  5
2AB
100
AcDbEntity
  8
0
100
AcDbLine
 62
7
  6
BYLAYER
 10
28.2203837948
 20
33.3675
 11
27.4203837948
 21
33.3675
  0
LINE
  5
2AC
100
AcDbEntity
  8
0
100
AcDbLine
 62
7
  6
BYLAYER
 10
28.6203837948
 20
33.3675
 11
29.4203837948
 21
33.3675
  0
LINE
  5
2AD
100
AcDbEntity
  8
0
100
AcDbLine
 62
7
  6
BYLAYER
 10
23.8203837948
 20
44.0875
 11
23.8203837948
 21
38.0875
  0
LINE
  5
2AE
100
AcDbEntity
  8
0
100
AcDbLine
 62
7
  6
BYLAYER
 10
23.9203837948
 20
42.5375
 11
23.9203837948
 21
43.5939827683
  0
LINE
  5
2AF
100
AcDbEntity
  8
0
100
AcDbLine
 62
7
  6
BYLAYER
 10
30.8703837948
 20
44.6156329595
 11
32.8306505118
 21
45.5375
  0
LINE
  5
2B0
100
AcDbEntity
  8
0
100
AcDbLine
 62
7
  6
BYLAYER
 10
39.4703837948
 20
49.0800806077
 11
39.3703837948
 21
49.0375
  0
LINE
  5
2B1
100
AcDbEntity
  8
0
100
AcDbLine
 62
7
  6
BYLAYER
 10
20.7560958806
 20
43.8400306754
 11
20.6636878153
 21
44.0365280517
  0
LINE
  5
2B2
100
AcDbEntity
  8
0
100
AcDbLine
 62
7
  6
BYLAYER
 10
25.2703837948
 20
40.6375
 11
25.2703837948
 21
41.6375
  0
LINE
  5
2B3
100
AcDbEntity
  8
0
100
AcDbLine
 62
7
  6
BYLAYER
 10
25.4703837948
 20
41.4375
 11
25.4703837948
 21
40.8375
  0
LINE
  5
2B4
100
AcDbEntity
  8
0
100
AcDbLine
 62
7
  6
BYLAYER
 10
25.5703837948
 20
44.8037434921
 11
25.5703837948
 21
45.5375
  0
LINE
  5
2B5
100
AcDbEntity
  8
0
100
AcDbLine
 62
7
  6
BYLAYER
 10
25.7393493121
 20
43.0666914988
 11
25.7393493121
 21
44.7242830085
  0
LINE
  5
2B6
100
AcDbEntity
  8
0
100
AcDbLine
 62
7
  6
BYLAYER
 10
25.9703837948
 20
45.5375
 11
25.9703837948
 21
42.5375
  0
LINE
  5
2B7
100
AcDbEntity
  8
0
100
AcDbLine
 62
7
  6
BYLAYER
 10
26.1203837948
 20
49.3568545576
 11
26.1203837948
 21
52.4875
  0
LINE
  5
2B8
100
AcDbEntity
  8
0
100
AcDbLine
 62
7
  6
BYLAYER
 10
26.3703837948
 20
45.9375
 11
26.3703837948
 21
42.1375
  0
LINE
  5
2B9
100
AcDbEntity
  8
0
100
AcDbLine
 62
7
  6
BYLAYER
 10
30.8703837948
 20
42.9580414497
 11
34.0320348773
 21
44.4448911225
  0
LINE
  5
2BA
100
AcDbEntity
  8
0
100
AcDbLine
 62
7
  6
BYLAYER
 10
27.4203837948
 20
33.3675
 11
27.4203837948
 21
31.4975
  0
LINE
  5
2BB
100
AcDbEntity
  8
0
100
AcDbLine
 62
7
  6
BYLAYER
 10
27.4703837948
 20
31.7875
 11
27.4703837948
 21
33.3548684211
  0
LINE
  5
2BC
100
AcDbEntity
  8
0
100
AcDbLine
 62
7
  6
BYLAYER
 10
27.6203837948
 20
32.0875
 11
27.6203837948
 21
33.0875
  0
LINE
  5
2BD
100
AcDbEntity
  8
0
100
AcDbLine
 62
7
  6
BYLAYER
 10
27.9203837948
 20
31.5117105263
 11
27.9203837948
 21
33.3675
  0
LINE
  5
2BE
100
AcDbEntity
  8
0
100
AcDbLine
 62
7
  6
BYLAYER
 10
28.1203837948
 20
33.3548684211
 11
28.1203837948
 21
33.2875
  0
LINE
  5
2BF
100
AcDbEntity
  8
0
100
AcDbLine
 62
7
  6
BYLAYER
 10
28.1203837948
 20
31.5875
 11
28.1203837948
 21
31.5117105263
  0
LINE
  5
2C0
100
AcDbEntity
  8
0
100
AcDbLine
 62
7
  6
BYLAYER
 10
28.1703837948
 20
31.5875
 11
28.1703837948
 21
33.2875
  0
LINE
  5
2C1
100
AcDbEntity
  8
0
100
AcDbLine
 62
7
  6
BYLAYER
 10
28.2203837948
 20
33.3675
 11
28.2203837948
 21
31.4975
  0
LINE
  5
2C2
100
AcDbEntity
  8
0
100
AcDbLine
 62
7
  6
BYLAYER
 10
28.6203837948
 20
31.4975
 11
28.6203837948
 21
33.3675
  0
LINE
  5
2C3
100
AcDbEntity
  8
0
100
AcDbLine
 62
7
  6
BYLAYER
 10
30.8703837948
 20
42.5375
 11
30.4703837948
 21
42.1375
  0
LINE
  5
2C4
100
AcDbEntity
  8
0
100
AcDbLine
 62
7
  6
BYLAYER
 10
39.3703837948
 20
44.5686053263
 11
41.4306505118
 21
45.5375
  0
LINE
  5
2C5
100
AcDbEntity
  8
0
100
AcDbLine
 62
7
  6
BYLAYER
 10
50.1703837953
 20
38.0875
 11
49.1703837948
 21
38.0875
  0
LINE
  5
2C6
100
AcDbEntity
  8
0
100
AcDbLine
 62
7
  6
BYLAYER
 10
44.9203837948
 20
38.0875
 11
41.6203837948
 21
38.0875
  0
LINE
  5
2C7
100
AcDbEntity
  8
0
100
AcDbLine
 62
7
  6
BYLAYER
 10
36.3203837948
 20
38.0875
 11
33.0203837948
 21
38.0875
  0
LINE
  5
2C8
100
AcDbEntity
  8
0
100
AcDbLine
 62
7
  6
BYLAYER
 10
23.8203837948
 20
38.0875
 11
20.5203837948
 21
38.0875
  0
LINE
  5
2C9
100
AcDbEntity
  8
0
100
AcDbLine
 62
7
  6
BYLAYER
 10
15.2203837948
 20
38.0875
 11
11.9203837948
 21
38.0875
  0
LINE
  5
2CA
100
AcDbEntity
  8
0
100
AcDbLine
 62
7
  6
BYLAYER
 10
7.6703837948
 20
38.0875
 11
6.6703837944
 21
38.0875
  0
LINE
  5
2CB
100
AcDbEntity
  8
0
100
AcDbLine
 62
7
  6
BYLAYER
 10
6.6704033395
 20
38.3875
 11
7.9703837948
 21
38.3875
  0
LINE
  5
2CC
100
AcDbEntity
  8
0
100
AcDbLine
 62
7
  6
BYLAYER
 10
48.8703837948
 20
38.3875
 11
50.1703642502
 21
38.3875
  0
LINE
  5
2CD
100
AcDbEntity
  8
0
100
AcDbLine
 62
7
  6
BYLAYER
 10
6.1703837948
 20
38.5875
 11
6.4703837948
 21
38.5875
  0
LINE
  5
2CE
100
AcDbEntity
  8
0
100
AcDbLine
 62
7
  6
BYLAYER
 10
50.3703837948
 20
38.5875000588
 11
50.6703837948
 21
38.5875000588
  0
LINE
  5
2CF
100
AcDbEntity
  8
0
100
AcDbLine
 62
7
  6
BYLAYER
 10
6.9703837948
 20
38.9575
 11
8.1558959762
 21
38.9575
  0
LINE
  5
2D0
100
AcDbEntity
  8
0
100
AcDbLine
 62
7
  6
BYLAYER
 10
48.6848716135
 20
38.9575
 11
49.8703837948
 21
38.9575
  0
LINE
  5
2D1
100
AcDbEntity
  8
0
100
AcDbLine
 62
7
  6
BYLAYER
 10
48.8617679838
 20
39.1275
 11
48.7276240236
 21
39.1275
  0
LINE
  5
2D2
100
AcDbEntity
  8
0
100
AcDbLine
 62
7
  6
BYLAYER
 10
8.1131435661
 20
39.1275
 11
7.9789996059
 21
39.1275
  0
LINE
  5
2D3
100
AcDbEntity
  8
0
100
AcDbLine
 62
7
  6
BYLAYER
 10
14.2087327124
 20
44.4448911225
 11
17.4703837948
 21
42.9110138166
  0
LINE
  5
2D4
100
AcDbEntity
  8
0
100
AcDbLine
 62
7
  6
BYLAYER
 10
28.6703837948
 20
31.5875
 11
28.6703837948
 21
33.2875
  0
LINE
  5
2D5
100
AcDbEntity
  8
0
100
AcDbLine
 62
7
  6
BYLAYER
 10
28.7203837948
 20
31.5117105263
 11
28.7203837948
 21
31.5875
  0
LINE
  5
2D6
100
AcDbEntity
  8
0
100
AcDbLine
 62
7
  6
BYLAYER
 10
28.7203837948
 20
33.2875
 11
28.7203837948
 21
33.3548684211
  0
LINE
  5
2D7
100
AcDbEntity
  8
0
100
AcDbLine
 62
7
  6
BYLAYER
 10
28.9203837948
 20
31.5117105263
 11
28.9203837948
 21
33.3675
  0
LINE
  5
2D8
100
AcDbEntity
  8
0
100
AcDbLine
 62
7
  6
BYLAYER
 10
29.2203837948
 20
32.0875
 11
29.2203837948
 21
33.0875
  0
LINE
  5
2D9
100
AcDbEntity
  8
0
100
AcDbLine
 62
7
  6
BYLAYER
 10
29.3703837948
 20
31.7875
 11
29.3703837948
 21
33.3548684211
  0
LINE
  5
2DA
100
AcDbEntity
  8
0
100
AcDbLine
 62
7
  6
BYLAYER
 10
29.4203837948
 20
31.4975
 11
29.4203837948
 21
33.3675
  0
LINE
  5
2DB
100
AcDbEntity
  8
0
100
AcDbLine
 62
7
  6
BYLAYER
 10
39.3703837948
 20
42.9110138166
 11
42.6320348773
 21
44.4448911225
  0
LINE
  5
2DC
100
AcDbEntity
  8
0
100
AcDbLine
 62
7
  6
BYLAYER
 10
6.9703837948
 20
39.3375
 11
7.8203837948
 21
39.3375
  0
LINE
  5
2DD
100
AcDbEntity
  8
0
100
AcDbLine
 62
7
  6
BYLAYER
 10
49.0203837948
 20
39.3375
 11
49.8703837948
 21
39.3375
  0
LINE
  5
2DE
100
AcDbEntity
  8
0
100
AcDbLine
 62
7
  6
BYLAYER
 10
49.0203837948
 20
39.4375
 11
48.7276240236
 21
39.4375
  0
LINE
  5
2DF
100
AcDbEntity
  8
0
100
AcDbLine
 62
7
  6
BYLAYER
 10
8.1131435661
 20
39.4375
 11
7.8203837948
 21
39.4375
  0
LINE
  5
2E0
100
AcDbEntity
  8
0
100
AcDbLine
 62
7
  6
BYLAYER
 10
6.4703837948
 20
39.5875
 11
6.9703837948
 21
39.5875
  0
LINE
  5
2E1
100
AcDbEntity
  8
0
100
AcDbLine
 62
7
  6
BYLAYER
 10
8.1558959762
 20
39.5875
 11
17.3703837948
 21
39.5875
  0
LINE
  5
2E2
100
AcDbEntity
  8
0
100
AcDbLine
 62
7
  6
BYLAYER
 10
18.3703837948
 20
39.5875
 11
38.4703837948
 21
39.5875
  0
LINE
  5
2E3
100
AcDbEntity
  8
0
100
AcDbLine
 62
7
  6
BYLAYER
 10
39.4703837948
 20
39.5875
 11
48.6848716135
 21
39.5875
  0
LINE
  5
2E4
100
AcDbEntity
  8
0
100
AcDbLine
 62
7
  6
BYLAYER
 10
49.8703837948
 20
39.5875
 11
50.3703837948
 21
39.5875
  0
LINE
  5
2E5
100
AcDbEntity
  8
0
100
AcDbLine
 62
7
  6
BYLAYER
 10
7.8203837948
 20
39.7375
 11
8.1131435661
 21
39.7375
  0
LINE
  5
2E6
100
AcDbEntity
  8
0
100
AcDbLine
 62
7
  6
BYLAYER
 10
48.7276240236
 20
39.7375
 11
49.0203837948
 21
39.7375
  0
LINE
  5
2E7
100
AcDbEntity
  8
0
100
AcDbLine
 62
7
  6
BYLAYER
 10
50.3703837948
 20
39.9566390564
 11
49.8703837948
 21
39.9566390564
  0
LINE
  5
2E8
100
AcDbEntity
  8
0
100
AcDbLine
 62
7
  6
BYLAYER
 10
48.6121251877
 20
39.9566390564
 11
39.4703837948
 21
39.9566390564
  0
LINE
  5
2E9
100
AcDbEntity
  8
0
100
AcDbLine
 62
7
  6
BYLAYER
 10
38.4703837948
 20
39.9566390564
 11
18.3703837948
 21
39.9566390564
  0
LINE
  5
2EA
100
AcDbEntity
  8
0
100
AcDbLine
 62
7
  6
BYLAYER
 10
17.3703837948
 20
39.9566390564
 11
8.228642402
 21
39.9566390564
  0
LINE
  5
2EB
100
AcDbEntity
  8
0
100
AcDbLine
 62
7
  6
BYLAYER
 10
6.9703837948
 20
39.9566390564
 11
6.4703837948
 21
39.9566390564
  0
LINE
  5
2EC
100
AcDbEntity
  8
0
100
AcDbLine
 62
7
  6
BYLAYER
 10
6.1703837948
 20
40.2464168043
 11
6.9703837948
 21
40.2464168043
  0
LINE
  5
2ED
100
AcDbEntity
  8
0
100
AcDbLine
 62
7
  6
BYLAYER
 10
8.2403837948
 20
40.2464168043
 11
17.3703837948
 21
40.2464168043
  0
LINE
  5
2EE
100
AcDbEntity
  8
0
100
AcDbLine
 62
7
  6
BYLAYER
 10
18.3703837948
 20
40.2464168043
 11
38.4703837948
 21
40.2464168043
  0
LINE
  5
2EF
100
AcDbEntity
  8
0
100
AcDbLine
 62
7
  6
BYLAYER
 10
39.4703837948
 20
40.2464168043
 11
48.6003837948
 21
40.2464168043
  0
LINE
  5
2F0
100
AcDbEntity
  8
0
100
AcDbLine
 62
7
  6
BYLAYER
 10
49.8703837948
 20
40.2464168043
 11
50.6703837948
 21
40.2464168043
  0
LINE
  5
2F1
100
AcDbEntity
  8
0
100
AcDbLine
 62
7
  6
BYLAYER
 10
38.9753837948
 20
40.3940553094
 11
38.9653837948
 21
40.3940553094
  0
LINE
  5
2F2
100
AcDbEntity
  8
0
100
AcDbLine
 62
7
  6
BYLAYER
 10
17.8753837948
 20
40.3940553094
 11
17.8653837948
 21
40.3940553094
  0
LINE
  5
2F3
100
AcDbEntity
  8
0
100
AcDbLine
 62
7
  6
BYLAYER
 10
45.0203837948
 20
40.4875
 11
41.5203837948
 21
40.4875
  0
LINE
  5
2F4
100
AcDbEntity
  8
0
100
AcDbLine
 62
7
  6
BYLAYER
 10
36.4203837948
 20
40.4875
 11
32.9203837948
 21
40.4875
  0
LINE
  5
2F5
100
AcDbEntity
  8
0
100
AcDbLine
 62
7
  6
BYLAYER
 10
15.3203837948
 20
40.4875
 11
11.8203837948
 21
40.4875
  0
LINE
  5
2F6
100
AcDbEntity
  8
0
100
AcDbLine
 62
7
  6
BYLAYER
 10
49.0203837948
 20
40.4987812921
 11
48.6685028676
 21
40.4987812921
  0
LINE
  5
2F7
100
AcDbEntity
  8
0
100
AcDbLine
 62
7
  6
BYLAYER
 10
39.4703837948
 20
40.4987812921
 11
39.3703837948
 21
40.4987812921
  0
LINE
  5
2F8
100
AcDbEntity
  8
0
100
AcDbLine
 62
7
  6
BYLAYER
 10
38.5703837948
 20
40.4987812921
 11
38.4703837948
 21
40.4987812921
  0
LINE
  5
2F9
100
AcDbEntity
  8
0
100
AcDbLine
 62
7
  6
BYLAYER
 10
18.3703837948
 20
40.4987812921
 11
18.2703837948
 21
40.4987812921
  0
LINE
  5
2FA
100
AcDbEntity
  8
0
100
AcDbLine
 62
7
  6
BYLAYER
 10
17.4703837948
 20
40.4987812921
 11
17.3703837948
 21
40.4987812921
  0
LINE
  5
2FB
100
AcDbEntity
  8
0
100
AcDbLine
 62
7
  6
BYLAYER
 10
8.1722647221
 20
40.4987812921
 11
7.8203837948
 21
40.4987812921
  0
LINE
  5
2FC
100
AcDbEntity
  8
0
100
AcDbLine
 62
7
  6
BYLAYER
 10
37.7703837948
 20
40.6375
 11
31.5703837948
 21
40.6375
  0
LINE
  5
2FD
100
AcDbEntity
  8
0
100
AcDbLine
 62
7
  6
BYLAYER
 10
25.2703837948
 20
40.6375
 11
19.0703837948
 21
40.6375
  0
LINE
  5
2FE
100
AcDbEntity
  8
0
100
AcDbLine
 62
7
  6
BYLAYER
 10
17.4703837948
 20
40.7755960107
 11
18.2703837948
 21
40.7755960107
  0
LINE
  5
2FF
100
AcDbEntity
  8
0
100
AcDbLine
 62
7
  6
BYLAYER
 10
38.5703837948
 20
40.7755960107
 11
39.3703837948
 21
40.7755960107
  0
LINE
  5
300
100
AcDbEntity
  8
0
100
AcDbLine
 62
7
  6
BYLAYER
 10
18.8703837948
 20
40.8375
 11
25.4703837948
 21
40.8375
  0
LINE
  5
301
100
AcDbEntity
  8
0
100
AcDbLine
 62
7
  6
BYLAYER
 10
31.3703837948
 20
40.8375
 11
37.9703837948
 21
40.8375
  0
LINE
  5
302
100
AcDbEntity
  8
0
100
AcDbLine
 62
7
  6
BYLAYER
 10
49.0203837948
 20
40.9275
 11
48.6431362049
 21
40.9275
  0
LINE
  5
303
100
AcDbEntity
  8
0
100
AcDbLine
 62
7
  6
BYLAYER
 10
39.4703837948
 20
40.9275
 11
39.3703837948
 21
40.9275
  0
LINE
  5
304
100
AcDbEntity
  8
0
100
AcDbLine
 62
7
  6
BYLAYER
 10
38.5703837948
 20
40.9275
 11
38.4703837948
 21
40.9275
  0
LINE
  5
305
100
AcDbEntity
  8
0
100
AcDbLine
 62
7
  6
BYLAYER
 10
18.3703837948
 20
40.9275
 11
18.2703837948
 21
40.9275
  0
LINE
  5
306
100
AcDbEntity
  8
0
100
AcDbLine
 62
7
  6
BYLAYER
 10
17.4703837948
 20
40.9275
 11
17.3703837948
 21
40.9275
  0
LINE
  5
307
100
AcDbEntity
  8
0
100
AcDbLine
 62
7
  6
BYLAYER
 10
8.1976313848
 20
40.9275
 11
7.8203837948
 21
40.9275
  0
LINE
  5
308
100
AcDbEntity
  8
0
100
AcDbLine
 62
7
  6
BYLAYER
 10
15.4101170779
 20
45.5375
 11
17.4703837948
 21
44.5686053263
  0
LINE
  5
309
100
AcDbEntity
  8
0
100
AcDbLine
 62
7
  6
BYLAYER
 10
25.9703837948
 20
42.5375
 11
26.3703837948
 21
42.1375
  0
LINE
  5
30A
100
AcDbEntity
  8
0
100
AcDbLine
 62
7
  6
BYLAYER
 10
30.4703837948
 20
42.1375
 11
30.4703837948
 21
45.9375
  0
LINE
  5
30B
100
AcDbEntity
  8
0
100
AcDbLine
 62
7
  6
BYLAYER
 10
30.7203837948
 20
52.4875
 11
30.7203837948
 21
49.3568545576
  0
LINE
  5
30C
100
AcDbEntity
  8
0
100
AcDbLine
 62
7
  6
BYLAYER
 10
30.8703837948
 20
42.5375
 11
30.8703837948
 21
45.5375
  0
LINE
  5
30D
100
AcDbEntity
  8
0
100
AcDbLine
 62
7
  6
BYLAYER
 10
31.1014182776
 20
44.7242830085
 11
31.1014182776
 21
43.0666914988
  0
LINE
  5
30E
100
AcDbEntity
  8
0
100
AcDbLine
 62
7
  6
BYLAYER
 10
31.2703837948
 20
45.5375
 11
31.2703837948
 21
44.8037434921
  0
LINE
  5
30F
100
AcDbEntity
  8
0
100
AcDbLine
 62
7
  6
BYLAYER
 10
31.3703837948
 20
40.8375
 11
31.3703837948
 21
41.4375
  0
LINE
  5
310
100
AcDbEntity
  8
0
100
AcDbLine
 62
7
  6
BYLAYER
 10
31.3703837948
 20
42.5375
 11
31.3703837948
 21
42.8875
  0
LINE
  5
311
100
AcDbEntity
  8
0
100
AcDbLine
 62
7
  6
BYLAYER
 10
31.5703837948
 20
41.6375
 11
31.5703837948
 21
40.6375
  0
LINE
  5
312
100
AcDbEntity
  8
0
100
AcDbLine
 62
7
  6
BYLAYER
 10
6.4703837948
 20
41.2375
 11
6.1703837948
 21
41.2375
  0
LINE
  5
313
100
AcDbEntity
  8
0
100
AcDbLine
 62
7
  6
BYLAYER
 10
50.6703837948
 20
41.2375000537
 11
50.3703837948
 21
41.2375000537
  0
LINE
  5
314
100
AcDbEntity
  8
0
100
AcDbLine
 62
7
  6
BYLAYER
 10
37.9703837948
 20
41.4375
 11
31.3703837948
 21
41.4375
  0
LINE
  5
315
100
AcDbEntity
  8
0
100
AcDbLine
 62
7
  6
BYLAYER
 10
25.4703837948
 20
41.4375
 11
18.8703837948
 21
41.4375
  0
LINE
  5
316
100
AcDbEntity
  8
0
100
AcDbLine
 62
7
  6
BYLAYER
 10
17.3703837948
 20
41.4375
 11
17.4703837948
 21
41.4375
  0
LINE
  5
317
100
AcDbEntity
  8
0
100
AcDbLine
 62
7
  6
BYLAYER
 10
18.2703837948
 20
41.4375
 11
18.3703837948
 21
41.4375
  0
LINE
  5
318
100
AcDbEntity
  8
0
100
AcDbLine
 62
7
  6
BYLAYER
 10
38.4703837948
 20
41.4375
 11
38.5703837948
 21
41.4375
  0
LINE
  5
319
100
AcDbEntity
  8
0
100
AcDbLine
 62
7
  6
BYLAYER
 10
39.3703837948
 20
41.4375
 11
39.4703837948
 21
41.4375
  0
LINE
  5
31A
100
AcDbEntity
  8
0
100
AcDbLine
 62
7
  6
BYLAYER
 10
19.0703837948
 20
41.6375
 11
25.2703837948
 21
41.6375
  0
LINE
  5
31B
100
AcDbEntity
  8
0
100
AcDbLine
 62
7
  6
BYLAYER
 10
31.5703837948
 20
41.6375
 11
37.7703837948
 21
41.6375
  0
LINE
  5
31C
100
AcDbEntity
  8
0
100
AcDbLine
 62
7
  6
BYLAYER
 10
49.8703837948
 20
41.8375
 11
49.7203837948
 21
41.8375
  0
LINE
  5
31D
100
AcDbEntity
  8
0
100
AcDbLine
 62
7
  6
BYLAYER
 10
7.1203837948
 20
41.8375
 11
6.9703837948
 21
41.8375
  0
LINE
  5
31E
100
AcDbEntity
  8
0
100
AcDbLine
 62
7
  6
BYLAYER
 10
47.4703837948
 20
42.1375
 11
39.4703837948
 21
42.1375
  0
LINE
  5
31F
100
AcDbEntity
  8
0
100
AcDbLine
 62
7
  6
BYLAYER
 10
38.4703837948
 20
42.1375
 11
30.4703837948
 21
42.1375
  0
LINE
  5
320
100
AcDbEntity
  8
0
100
AcDbLine
 62
7
  6
BYLAYER
 10
26.3703837948
 20
42.1375
 11
18.3703837948
 21
42.1375
  0
LINE
  5
321
100
AcDbEntity
  8
0
100
AcDbLine
 62
7
  6
BYLAYER
 10
17.3703837948
 20
42.1375
 11
9.3703837948
 21
42.1375
  0
LINE
  5
322
100
AcDbEntity
  8
0
100
AcDbLine
 62
7
  6
BYLAYER
 10
7.1203837948
 20
42.1375
 11
7.8203837948
 21
42.1375
  0
LINE
  5
323
100
AcDbEntity
  8
0
100
AcDbLine
 62
7
  6
BYLAYER
 10
49.0203837948
 20
42.1375
 11
49.7203837948
 21
42.1375
  0
LINE
  5
324
100
AcDbEntity
  8
0
100
AcDbLine
 62
7
  6
BYLAYER
 10
45.0203837948
 20
42.2875
 11
41.5203837948
 21
42.2875
  0
LINE
  5
325
100
AcDbEntity
  8
0
100
AcDbLine
 62
7
  6
BYLAYER
 10
36.4203837948
 20
42.2875
 11
32.9203837948
 21
42.2875
  0
LINE
  5
326
100
AcDbEntity
  8
0
100
AcDbLine
 62
7
  6
BYLAYER
 10
15.3203837948
 20
42.2875
 11
11.8203837948
 21
42.2875
  0
LINE
  5
327
100
AcDbEntity
  8
0
100
AcDbLine
 62
7
  6
BYLAYER
 10
6.9703837948
 20
42.3075
 11
8.2403837948
 21
42.3075
  0
LINE
  5
328
100
AcDbEntity
  8
0
100
AcDbLine
 62
7
  6
BYLAYER
 10
48.6003837948
 20
42.3075
 11
49.8703837948
 21
42.3075
  0
LINE
  5
329
100
AcDbEntity
  8
0
100
AcDbLine
 62
7
  6
BYLAYER
 10
47.0703837948
 20
42.5375
 11
39.4703837948
 21
42.5375
  0
LINE
  5
32A
100
AcDbEntity
  8
0
100
AcDbLine
 62
7
  6
BYLAYER
 10
38.4703837948
 20
42.5375
 11
30.8703837948
 21
42.5375
  0
LINE
  5
32B
100
AcDbEntity
  8
0
100
AcDbLine
 62
7
  6
BYLAYER
 10
25.9703837948
 20
42.5375
 11
18.3703837948
 21
42.5375
  0
LINE
  5
32C
100
AcDbEntity
  8
0
100
AcDbLine
 62
7
  6
BYLAYER
 10
17.3703837948
 20
42.5375
 11
9.7703837948
 21
42.5375
  0
LINE
  5
32D
100
AcDbEntity
  8
0
100
AcDbLine
 62
7
  6
BYLAYER
 10
22.8087327124
 20
44.4448911225
 11
25.9703837948
 21
42.9580414497
  0
LINE
  5
32E
100
AcDbEntity
  8
0
100
AcDbLine
 62
7
  6
BYLAYER
 10
32.9203837948
 20
42.2875
 11
32.9203837948
 21
40.4875
  0
LINE
  5
32F
100
AcDbEntity
  8
0
100
AcDbLine
 62
7
  6
BYLAYER
 10
32.9203837948
 20
42.8875
 11
32.9203837948
 21
43.5939827683
  0
LINE
  5
330
100
AcDbEntity
  8
0
100
AcDbLine
 62
7
  6
BYLAYER
 10
33.0203837948
 20
44.0875
 11
33.0203837948
 21
38.0875
  0
LINE
  5
331
100
AcDbEntity
  8
0
100
AcDbLine
 62
7
  6
BYLAYER
 10
36.1770797744
 20
44.0365280517
 11
36.0846717091
 21
43.8400306754
  0
LINE
  5
332
100
AcDbEntity
  8
0
100
AcDbLine
 62
7
  6
BYLAYER
 10
10.0703837948
 20
42.8875
 11
17.3703837948
 21
42.8875
  0
LINE
  5
333
100
AcDbEntity
  8
0
100
AcDbLine
 62
7
  6
BYLAYER
 10
31.1703837948
 20
42.8875
 11
38.4703837948
 21
42.8875
  0
LINE
  5
334
100
AcDbEntity
  8
0
100
AcDbLine
 62
7
  6
BYLAYER
 10
39.4703837948
 20
42.8875
 11
46.7703837948
 21
42.8875
  0
LINE
  5
335
100
AcDbEntity
  8
0
100
AcDbLine
 62
7
  6
BYLAYER
 10
44.4534541846
 20
44.0875
 11
42.0872380485
 21
44.0875
  0
LINE
  5
336
100
AcDbEntity
  8
0
100
AcDbLine
 62
7
  6
BYLAYER
 10
44.9203837948
 20
44.0875
 11
44.4534541846
 21
44.0875
  0
LINE
  5
337
100
AcDbEntity
  8
0
100
AcDbLine
 62
7
  6
BYLAYER
 10
42.0872380485
 20
44.0875
 11
41.6203837948
 21
44.0875
  0
LINE
  5
338
100
AcDbEntity
  8
0
100
AcDbLine
 62
7
  6
BYLAYER
 10
35.8534541846
 20
44.0875
 11
33.4872380485
 21
44.0875
  0
LINE
  5
339
100
AcDbEntity
  8
0
100
AcDbLine
 62
7
  6
BYLAYER
 10
36.3203837948
 20
44.0875
 11
35.8534541846
 21
44.0875
  0
LINE
  5
33A
100
AcDbEntity
  8
0
100
AcDbLine
 62
7
  6
BYLAYER
 10
33.4872380485
 20
44.0875
 11
33.0203837948
 21
44.0875
  0
LINE
  5
33B
100
AcDbEntity
  8
0
100
AcDbLine
 62
7
  6
BYLAYER
 10
23.3534541846
 20
44.0875
 11
20.9872380485
 21
44.0875
  0
LINE
  5
33C
100
AcDbEntity
  8
0
100
AcDbLine
 62
7
  6
BYLAYER
 10
23.8203837948
 20
44.0875
 11
23.3534541846
 21
44.0875
  0
LINE
  5
33D
100
AcDbEntity
  8
0
100
AcDbLine
 62
7
  6
BYLAYER
 10
20.9872380485
 20
44.0875
 11
20.5203837948
 21
44.0875
  0
LINE
  5
33E
100
AcDbEntity
  8
0
100
AcDbLine
 62
7
  6
BYLAYER
 10
14.7534541846
 20
44.0875
 11
12.3872380485
 21
44.0875
  0
LINE
  5
33F
100
AcDbEntity
  8
0
100
AcDbLine
 62
7
  6
BYLAYER
 10
15.2203837948
 20
44.0875
 11
14.7534541846
 21
44.0875
  0
LINE
  5
340
100
AcDbEntity
  8
0
100
AcDbLine
 62
7
  6
BYLAYER
 10
12.3872380485
 20
44.0875
 11
11.9203837948
 21
44.0875
  0
LINE
  5
341
100
AcDbEntity
  8
0
100
AcDbLine
 62
7
  6
BYLAYER
 10
12.597356919
 20
44.2875
 11
14.5434106707
 21
44.2875
  0
LINE
  5
342
100
AcDbEntity
  8
0
100
AcDbLine
 62
7
  6
BYLAYER
 10
21.197356919
 20
44.2875
 11
23.1434106707
 21
44.2875
  0
LINE
  5
343
100
AcDbEntity
  8
0
100
AcDbLine
 62
7
  6
BYLAYER
 10
33.697356919
 20
44.2875
 11
35.6434106707
 21
44.2875
  0
LINE
  5
344
100
AcDbEntity
  8
0
100
AcDbLine
 62
7
  6
BYLAYER
 10
42.297356919
 20
44.2875
 11
44.2434106707
 21
44.2875
  0
LINE
  5
345
100
AcDbEntity
  8
0
100
AcDbLine
 62
7
  6
BYLAYER
 10
17.4703837948
 20
49.0375
 11
17.3703837948
 21
49.0800806077
  0
LINE
  5
346
100
AcDbEntity
  8
0
100
AcDbLine
 62
7
  6
BYLAYER
 10
24.0101170779
 20
45.5375
 11
25.9703837948
 21
44.6156329595
  0
LINE
  5
347
100
AcDbEntity
  8
0
100
AcDbLine
 62
7
  6
BYLAYER
 10
34.3821592676
 20
28.1375
 11
34.3821592676
 21
25.1375
  0
LINE
  5
348
100
AcDbEntity
  8
0
100
AcDbLine
 62
7
  6
BYLAYER
 10
35.3792315201
 20
25.1625679114
 11
35.3792315201
 21
28.1375
  0
LINE
  5
349
100
AcDbEntity
  8
0
100
AcDbLine
 62
7
  6
BYLAYER
 10
35.5289198093
 20
26.1249743632
 11
35.5289198093
 21
28.1375
  0
LINE
  5
34A
100
AcDbEntity
  8
0
100
AcDbLine
 62
7
  6
BYLAYER
 10
35.5392947354
 20
26.2266809344
 11
35.5392947354
 21
28.1375
  0
LINE
  5
34B
100
AcDbEntity
  8
0
100
AcDbLine
 62
7
  6
BYLAYER
 10
9.7703837948
 20
45.5375
 11
17.3703837948
 21
45.5375
  0
LINE
  5
34C
100
AcDbEntity
  8
0
100
AcDbLine
 62
7
  6
BYLAYER
 10
18.3703837948
 20
45.5375
 11
25.9703837948
 21
45.5375
  0
LINE
  5
34D
100
AcDbEntity
  8
0
100
AcDbLine
 62
7
  6
BYLAYER
 10
30.8703837948
 20
45.5375
 11
38.4703837948
 21
45.5375
  0
LINE
  5
34E
100
AcDbEntity
  8
0
100
AcDbLine
 62
7
  6
BYLAYER
 10
39.4703837948
 20
45.5375
 11
47.0703837948
 21
45.5375
  0
LINE
  5
34F
100
AcDbEntity
  8
0
100
AcDbLine
 62
7
  6
BYLAYER
 10
9.3703837948
 20
45.9375
 11
17.3703837948
 21
45.9375
  0
LINE
  5
350
100
AcDbEntity
  8
0
100
AcDbLine
 62
7
  6
BYLAYER
 10
18.3703837948
 20
45.9375
 11
26.3703837948
 21
45.9375
  0
LINE
  5
351
100
AcDbEntity
  8
0
100
AcDbLine
 62
7
  6
BYLAYER
 10
30.4703837948
 20
45.9375
 11
38.4703837948
 21
45.9375
  0
LINE
  5
352
100
AcDbEntity
  8
0
100
AcDbLine
 62
7
  6
BYLAYER
 10
39.4703837948
 20
45.9375
 11
47.4703837948
 21
45.9375
  0
LINE
  5
353
100
AcDbEntity
  8
0
100
AcDbLine
 62
7
  6
BYLAYER
 10
30.8703837948
 20
45.5375
 11
30.4703837948
 21
45.9375
  0
LINE
  5
354
100
AcDbEntity
  8
0
100
AcDbLine
 62
7
  6
BYLAYER
 10
33.2560958806
 20
43.8400306754
 11
33.1636878153
 21
44.0365280517
  0
LINE
  5
355
100
AcDbEntity
  8
0
100
AcDbLine
 62
7
  6
BYLAYER
 10
36.3203837948
 20
44.0875
 11
36.3203837948
 21
38.0875
  0
LINE
  5
356
100
AcDbEntity
  8
0
100
AcDbLine
 62
7
  6
BYLAYER
 10
36.4203837948
 20
42.2875
 11
36.4203837948
 21
40.4875
  0
LINE
  5
357
100
AcDbEntity
  8
0
100
AcDbLine
 62
7
  6
BYLAYER
 10
36.4203837948
 20
42.8875
 11
36.4203837948
 21
43.5939827683
  0
LINE
  5
358
100
AcDbEntity
  8
0
100
AcDbLine
 62
7
  6
BYLAYER
 10
35.5392856163
 20
26.2266802119
 11
35.5289198093
 21
26.1249743632
  0
LINE
  5
359
100
AcDbEntity
  8
0
100
AcDbLine
 62
7
  6
BYLAYER
 10
47.0703837948
 20
45.5375
 11
47.4703837948
 21
45.9375
  0
LINE
  5
35A
100
AcDbEntity
  8
0
100
AcDbLine
 62
7
  6
BYLAYER
 10
35.3087327124
 20
44.4448911225
 11
38.5703837948
 21
42.9110138166
  0
LINE
  5
35B
100
AcDbEntity
  8
0
100
AcDbLine
 62
7
  6
BYLAYER
 10
37.7703837948
 20
28.1375
 11
37.7703837948
 21
24.5875
  0
LINE
  5
35C
100
AcDbEntity
  8
0
100
AcDbLine
 62
7
  6
BYLAYER
 10
37.7703837948
 20
40.6375
 11
37.7703837948
 21
41.6375
  0
LINE
  5
35D
100
AcDbEntity
  8
0
100
AcDbLine
 62
7
  6
BYLAYER
 10
37.8053044298
 20
51.6875
 11
37.8053044298
 21
52.4875
  0
LINE
  5
35E
100
AcDbEntity
  8
0
100
AcDbLine
 62
7
  6
BYLAYER
 10
37.9703837948
 20
41.4375
 11
37.9703837948
 21
40.8375
  0
LINE
  5
35F
100
AcDbEntity
  8
0
100
AcDbLine
 62
7
  6
BYLAYER
 10
38.1703837948
 20
42.5375
 11
38.1703837948
 21
42.8875
  0
LINE
  5
360
100
AcDbEntity
  8
0
100
AcDbLine
 62
7
  6
BYLAYER
 10
38.2393493121
 20
43.0666914988
 11
38.2393493121
 21
44.7242830085
  0
LINE
  5
361
100
AcDbEntity
  8
0
100
AcDbLine
 62
7
  6
BYLAYER
 10
38.4703837948
 20
39.5875
 11
38.4703837948
 21
42.8875
  0
LINE
  5
362
100
AcDbEntity
  8
0
100
AcDbLine
 62
7
  6
BYLAYER
 10
38.4703837948
 20
45.5375
 11
38.4703837948
 21
49.2985806177
  0
LINE
  5
363
100
AcDbEntity
  8
0
100
AcDbLine
 62
7
  6
BYLAYER
 10
38.5703837948
 20
39.7984079114
 11
38.5703837948
 21
49.5185659087
  0
LINE
  5
364
100
AcDbEntity
  8
0
100
AcDbLine
 62
7
  6
BYLAYER
 10
38.6203837948
 20
49.3568545576
 11
38.6203837948
 21
51.6875
  0
LINE
  5
365
100
AcDbEntity
  8
0
100
AcDbLine
 62
7
  6
BYLAYER
 10
38.9653837948
 20
49.7928017184
 11
38.9653837948
 21
39.6110869072
  0
LINE
  5
366
100
AcDbEntity
  8
0
100
AcDbLine
 62
7
  6
BYLAYER
 10
38.9753837948
 20
39.6109169895
 11
38.9753837948
 21
49.7926318007
  0
LINE
  5
367
100
AcDbEntity
  8
0
100
AcDbLine
 62
7
  6
BYLAYER
 10
39.3703837948
 20
49.0081226972
 11
38.5703837948
 21
49.0081226972
  0
LINE
  5
368
100
AcDbEntity
  8
0
100
AcDbLine
 62
7
  6
BYLAYER
 10
18.2703837948
 20
49.0081226972
 11
17.4703837948
 21
49.0081226972
  0
LINE
  5
369
100
AcDbEntity
  8
0
100
AcDbLine
 62
7
  6
BYLAYER
 10
17.8653837948
 20
49.3896633985
 11
17.8753837948
 21
49.3896633985
  0
LINE
  5
36A
100
AcDbEntity
  8
0
100
AcDbLine
 62
7
  6
BYLAYER
 10
38.9653837948
 20
49.3896633985
 11
38.9753837948
 21
49.3896633985
  0
LINE
  5
36B
100
AcDbEntity
  8
0
100
AcDbLine
 62
7
  6
BYLAYER
 10
36.5101170779
 20
45.5375
 11
38.5703837948
 21
44.5686053263
  0
LINE
  5
36C
100
AcDbEntity
  8
0
100
AcDbLine
 62
7
  6
BYLAYER
 10
39.2703837948
 20
24.5875
 11
39.2703837948
 21
28.1375
  0
LINE
  5
36D
100
AcDbEntity
  8
0
100
AcDbLine
 62
7
  6
BYLAYER
 10
39.3203837948
 20
51.6875
 11
39.3203837948
 21
49.3568545576
  0
LINE
  5
36E
100
AcDbEntity
  8
0
100
AcDbLine
 62
7
  6
BYLAYER
 10
39.3703837948
 20
39.7952185506
 11
39.3703837948
 21
49.5185659087
  0
LINE
  5
36F
100
AcDbEntity
  8
0
100
AcDbLine
 62
7
  6
BYLAYER
 10
39.4703837948
 20
49.2985806177
 11
39.4703837948
 21
45.5375
  0
LINE
  5
370
100
AcDbEntity
  8
0
100
AcDbLine
 62
7
  6
BYLAYER
 10
39.4703837948
 20
39.5875
 11
39.4703837948
 21
42.8875
  0
LINE
  5
371
100
AcDbEntity
  8
0
100
AcDbLine
 62
7
  6
BYLAYER
 10
39.7014182776
 20
44.7242830085
 11
39.7014182776
 21
43.0666914988
  0
LINE
  5
372
100
AcDbEntity
  8
0
100
AcDbLine
 62
7
  6
BYLAYER
 10
39.7703837948
 20
42.8875
 11
39.7703837948
 21
42.5375
  0
LINE
  5
373
100
AcDbEntity
  8
0
100
AcDbLine
 62
7
  6
BYLAYER
 10
40.1354631599
 20
52.4875
 11
40.1354631599
 21
51.6875
  0
LINE
  5
374
100
AcDbEntity
  8
0
100
AcDbLine
 62
7
  6
BYLAYER
 10
43.9087327124
 20
44.4448911225
 11
47.0703837948
 21
42.9580414497
  0
LINE
  5
375
100
AcDbEntity
  8
0
100
AcDbLine
 62
7
  6
BYLAYER
 10
41.5203837948
 20
42.2875
 11
41.5203837948
 21
40.4875
  0
LINE
  5
376
100
AcDbEntity
  8
0
100
AcDbLine
 62
7
  6
BYLAYER
 10
41.5203837948
 20
42.8875
 11
41.5203837948
 21
43.5939827683
  0
LINE
  5
377
100
AcDbEntity
  8
0
100
AcDbLine
 62
7
  6
BYLAYER
 10
41.6203837948
 20
44.0875
 11
41.6203837948
 21
38.0875
  0
LINE
  5
378
100
AcDbEntity
  8
0
100
AcDbLine
 62
7
  6
BYLAYER
 10
44.7770797744
 20
44.0365280517
 11
44.6846717091
 21
43.8400306754
  0
LINE
  5
379
100
AcDbEntity
  8
0
100
AcDbLine
 62
7
  6
BYLAYER
 10
6.1703837948
 20
51.6374999463
 11
6.4703837948
 21
51.6374999463
  0
LINE
  5
37A
100
AcDbEntity
  8
0
100
AcDbLine
 62
7
  6
BYLAYER
 10
50.3703837948
 20
51.6375
 11
50.6703837948
 21
51.6375
  0
LINE
  5
37B
100
AcDbEntity
  8
0
100
AcDbLine
 62
7
  6
BYLAYER
 10
40.1354631599
 20
51.6875
 11
39.3203837948
 21
51.6875
  0
LINE
  5
37C
100
AcDbEntity
  8
0
100
AcDbLine
 62
7
  6
BYLAYER
 10
38.6203837948
 20
51.6875
 11
37.8053044298
 21
51.6875
  0
LINE
  5
37D
100
AcDbEntity
  8
0
100
AcDbLine
 62
7
  6
BYLAYER
 10
19.0354631599
 20
51.6875
 11
18.2203837948
 21
51.6875
  0
LINE
  5
37E
100
AcDbEntity
  8
0
100
AcDbLine
 62
7
  6
BYLAYER
 10
17.5203837948
 20
51.6875
 11
16.7053044298
 21
51.6875
  0
LINE
  5
37F
100
AcDbEntity
  8
0
100
AcDbLine
 62
7
  6
BYLAYER
 10
47.2203837948
 20
52.4875
 11
40.1354631599
 21
52.4875
  0
LINE
  5
380
100
AcDbEntity
  8
0
100
AcDbLine
 62
7
  6
BYLAYER
 10
37.8053044298
 20
52.4875
 11
30.7203837948
 21
52.4875
  0
LINE
  5
381
100
AcDbEntity
  8
0
100
AcDbLine
 62
7
  6
BYLAYER
 10
26.1203837948
 20
52.4875
 11
19.0354631599
 21
52.4875
  0
LINE
  5
382
100
AcDbEntity
  8
0
100
AcDbLine
 62
7
  6
BYLAYER
 10
16.7053044298
 20
52.4875
 11
9.6203837948
 21
52.4875
  0
LINE
  5
383
100
AcDbEntity
  8
0
100
AcDbLine
 62
7
  6
BYLAYER
 10
50.6703837948
 20
52.7874999295
 11
50.3703837948
 21
52.7874999295
  0
LINE
  5
384
100
AcDbEntity
  8
0
100
AcDbLine
 62
7
  6
BYLAYER
 10
6.4703837948
 20
52.7875
 11
6.1703837948
 21
52.7875
  0
LINE
  5
385
100
AcDbEntity
  8
0
100
AcDbLine
 62
7
  6
BYLAYER
 10
50.1703634949
 20
52.9875
 11
6.6704040947
 21
52.9875
  0
LINE
  5
386
100
AcDbEntity
  8
0
100
AcDbLine
 62
7
  6
BYLAYER
 10
6.6703837896
 20
53.2875
 11
50.1703837975
 21
53.2875
  0
LINE
  5
387
100
AcDbEntity
  8
0
100
AcDbLine
 62
7
  6
BYLAYER
 10
38.5703837948
 20
49.0375
 11
38.4703837948
 21
49.0800806077
  0
LINE
  5
388
100
AcDbEntity
  8
0
100
AcDbLine
 62
7
  6
BYLAYER
 10
45.1101170779
 20
45.5375
 11
47.0703837948
 21
44.6156329595
  0
LINE
  5
389
100
AcDbEntity
  8
0
100
AcDbLine
 62
7
  6
BYLAYER
 10
49.1703837948
 20
38.0875
 11
48.8703837948
 21
38.3875
  0
LINE
  5
38A
100
AcDbEntity
  8
0
100
AcDbLine
 62
7
  6
BYLAYER
 10
41.8560958806
 20
43.8400306754
 11
41.7636878153
 21
44.0365280517
  0
LINE
  5
38B
100
AcDbEntity
  8
0
100
AcDbLine
 62
7
  6
BYLAYER
 10
44.3203837948
 20
24.8875
 11
44.3203837948
 21
28.1375
  0
LINE
  5
38C
100
AcDbEntity
  8
0
100
AcDbLine
 62
7
  6
BYLAYER
 10
47.0703837948
 20
42.5375
 11
47.4703837948
 21
42.1375
  0
LINE
  5
38D
100
AcDbEntity
  8
0
100
AcDbLine
 62
7
  6
BYLAYER
 10
44.9203837948
 20
44.0875
 11
44.9203837948
 21
38.0875
  0
LINE
  5
38E
100
AcDbEntity
  8
0
100
AcDbLine
 62
7
  6
BYLAYER
 10
45.0203837948
 20
42.2875
 11
45.0203837948
 21
40.4875
  0
LINE
  5
38F
100
AcDbEntity
  8
0
100
AcDbLine
 62
7
  6
BYLAYER
 10
45.0203837948
 20
42.8875
 11
45.0203837948
 21
43.5939827683
  0
LINE
  5
390
100
AcDbEntity
  8
0
100
AcDbLine
 62
7
  6
BYLAYER
 10
45.1203837948
 20
26.3375
 11
45.1203837948
 21
27.3375
  0
LINE
  5
391
100
AcDbEntity
  8
0
100
AcDbLine
 62
7
  6
BYLAYER
 10
45.7453837948
 20
26.3375
 11
45.7453837948
 21
27.3375
  0
LINE
  5
392
100
AcDbEntity
  8
0
100
AcDbLine
 62
7
  6
BYLAYER
 10
45.8103837948
 20
26.6875
 11
45.8103837948
 21
26.3375
  0
LINE
  5
393
100
AcDbEntity
  8
0
100
AcDbLine
 62
7
  6
BYLAYER
 10
45.8103837948
 20
27.2875
 11
45.8103837948
 21
27.3375
  0
LINE
  5
394
100
AcDbEntity
  8
0
100
AcDbLine
 62
7
  6
BYLAYER
 10
45.8953837948
 20
27.3375
 11
45.8953837948
 21
27.2875
  0
LINE
  5
395
100
AcDbEntity
  8
0
100
AcDbLine
 62
7
  6
BYLAYER
 10
45.8953837948
 20
26.6875
 11
45.8953837948
 21
26.5375
  0
LINE
  5
396
100
AcDbEntity
  8
0
100
AcDbLine
 62
7
  6
BYLAYER
 10
46.0453837948
 20
26.5375
 11
46.0453837948
 21
26.3375
  0
LINE
  5
397
100
AcDbEntity
  8
0
100
AcDbLine
 62
7
  6
BYLAYER
 10
49.7203837948
 20
35.8309998861
 11
49.2703837948
 21
35.3567715146
  0
LINE
  5
398
100
AcDbEntity
  8
0
100
AcDbLine
 62
7
  6
BYLAYER
 10
46.5703837948
 20
42.5375
 11
46.5703837948
 21
42.8875
  0
LINE
  5
399
100
AcDbEntity
  8
0
100
AcDbLine
 62
7
  6
BYLAYER
 10
46.6703837948
 20
44.8037434921
 11
46.6703837948
 21
45.5375
  0
LINE
  5
39A
100
AcDbEntity
  8
0
100
AcDbLine
 62
7
  6
BYLAYER
 10
46.8393493121
 20
43.0666914988
 11
46.8393493121
 21
44.7242830085
  0
LINE
  5
39B
100
AcDbEntity
  8
0
100
AcDbLine
 62
7
  6
BYLAYER
 10
47.0703837948
 20
45.5375
 11
47.0703837948
 21
42.5375
  0
LINE
  5
39C
100
AcDbEntity
  8
0
100
AcDbLine
 62
7
  6
BYLAYER
 10
47.2203837948
 20
49.3568545576
 11
47.2203837948
 21
52.4875
  0
LINE
  5
39D
100
AcDbEntity
  8
0
100
AcDbLine
 62
7
  6
BYLAYER
 10
47.4453837948
 20
26.5375
 11
47.4453837948
 21
26.3375
  0
LINE
  5
39E
100
AcDbEntity
  8
0
100
AcDbLine
 62
7
  6
BYLAYER
 10
47.4703837948
 20
45.9375
 11
47.4703837948
 21
42.1375
  0
LINE
  5
39F
100
AcDbEntity
  8
0
100
AcDbLine
 62
7
  6
BYLAYER
 10
47.5953837948
 20
26.5375
 11
47.5953837948
 21
26.6875
  0
LINE
  5
3A0
100
AcDbEntity
  8
0
100
AcDbLine
 62
7
  6
BYLAYER
 10
47.5953837948
 20
27.2875
 11
47.5953837948
 21
27.3375
  0
LINE
  5
3A1
100
AcDbEntity
  8
0
100
AcDbLine
 62
7
  6
BYLAYER
 10
47.6803837948
 20
26.6875
 11
47.6803837948
 21
26.3375
  0
LINE
  5
3A2
100
AcDbEntity
  8
0
100
AcDbLine
 62
7
  6
BYLAYER
 10
47.6803837948
 20
27.2875
 11
47.6803837948
 21
27.3375
  0
LINE
  5
3A3
100
AcDbEntity
  8
0
100
AcDbLine
 62
7
  6
BYLAYER
 10
47.7453837948
 20
26.3375
 11
47.7453837948
 21
27.3375
  0
LINE
  5
3A4
100
AcDbEntity
  8
0
100
AcDbLine
 62
7
  6
BYLAYER
 10
48.3703837948
 20
27.3375
 11
48.3703837948
 21
26.3375
  0
LINE
  5
3A5
100
AcDbEntity
  8
0
100
AcDbLine
 62
7
  6
BYLAYER
 10
48.6003837948
 20
42.3075
 11
48.6003837948
 21
40.2464168043
  0
LINE
  5
3A6
100
AcDbEntity
  8
0
100
AcDbLine
 62
7
  6
BYLAYER
 10
48.6431362049
 20
42.3075
 11
48.6431362049
 21
40.6275
  0
LINE
  5
3A7
100
AcDbEntity
  8
0
100
AcDbLine
 62
7
  6
BYLAYER
 10
48.6848716135
 20
38.9575
 11
48.6848716135
 21
39.5875
  0
LINE
  5
3A8
100
AcDbEntity
  8
0
100
AcDbLine
 62
7
  6
BYLAYER
 10
48.7276240236
 20
39.1275
 11
48.7276240236
 21
40.1987812921
  0
LINE
  5
3A9
100
AcDbEntity
  8
0
100
AcDbLine
 62
7
  6
BYLAYER
 10
48.8617679838
 20
38.9575
 11
48.8617679838
 21
39.1275
  0
LINE
  5
3AA
100
AcDbEntity
  8
0
100
AcDbLine
 62
7
  6
BYLAYER
 10
48.8703837948
 20
25.5875
 11
48.8703837948
 21
38.3875
  0
LINE
  5
3AB
100
AcDbEntity
  8
0
100
AcDbLine
 62
7
  6
BYLAYER
 10
49.0203837948
 20
39.3375
 11
49.0203837948
 21
42.1375
  0
LINE
  5
3AC
100
AcDbEntity
  8
0
100
AcDbLine
 62
7
  6
BYLAYER
 10
49.1703837948
 20
38.0875
 11
49.1703837948
 21
25.5875
  0
LINE
  5
3AD
100
AcDbEntity
  8
0
100
AcDbLine
 62
7
  6
BYLAYER
 10
49.2703837948
 20
33.0375
 11
49.2703837948
 21
35.3567715146
  0
LINE
  5
3AE
100
AcDbEntity
  8
0
100
AcDbLine
 62
7
  6
BYLAYER
 10
49.4203837948
 20
42.1375
 11
49.4203837948
 21
42.3075
  0
LINE
  5
3AF
100
AcDbEntity
  8
0
100
AcDbLine
 62
7
  6
BYLAYER
 10
49.7203837948
 20
38.9575
 11
49.7203837948
 21
42.3075
  0
LINE
  5
3B0
100
AcDbEntity
  8
0
100
AcDbLine
 62
7
  6
BYLAYER
 10
49.2703837948
 20
33.0375
 11
49.1703837948
 21
32.8642949192
  0
LINE
  5
3B1
100
AcDbEntity
  8
0
100
AcDbLine
 62
7
  6
BYLAYER
 10
48.6121251877
 20
39.9566390564
 11
48.6848716135
 21
39.5875
  0
LINE
  5
3B2
100
AcDbEntity
  8
0
100
AcDbLine
 62
7
  6
BYLAYER
 10
48.7276240236
 20
40.1987812921
 11
48.6431362049
 21
40.6275
  0
LINE
  5
3B3
100
AcDbEntity
  8
0
100
AcDbLine
 62
7
  6
BYLAYER
 10
49.8703837948
 20
38.9575
 11
49.8703837948
 21
42.3075
  0
LINE
  5
3B4
100
AcDbEntity
  8
0
100
AcDbLine
 62
7
  6
BYLAYER
 10
50.1703837956
 20
38.0875
 11
50.1703837956
 21
38.3875
  0
LINE
  5
3B5
100
AcDbEntity
  8
0
100
AcDbLine
 62
7
  6
BYLAYER
 10
50.1703837948
 20
52.9875
 11
50.1703837948
 21
53.2875
  0
LINE
  5
3B6
100
AcDbEntity
  8
0
100
AcDbLine
 62
7
  6
BYLAYER
 10
50.2203837948
 20
41.5945714214
 11
50.2203837948
 21
42.1804285786
  0
LINE
  5
3B7
100
AcDbEntity
  8
0
100
AcDbLine
 62
7
  6
BYLAYER
 10
50.2203837948
 20
42.8945714214
 11
50.2203837948
 21
43.4804285786
  0
LINE
  5
3B8
100
AcDbEntity
  8
0
100
AcDbLine
 62
7
  6
BYLAYER
 10
50.2203837948
 20
44.1945714214
 11
50.2203837948
 21
44.7804285786
  0
LINE
  5
3B9
100
AcDbEntity
  8
0
100
AcDbLine
 62
7
  6
BYLAYER
 10
50.2203837948
 20
45.4945714214
 11
50.2203837948
 21
46.0804285786
  0
LINE
  5
3BA
100
AcDbEntity
  8
0
100
AcDbLine
 62
7
  6
BYLAYER
 10
50.2203837948
 20
46.7945714214
 11
50.2203837948
 21
47.3804285786
  0
LINE
  5
3BB
100
AcDbEntity
  8
0
100
AcDbLine
 62
7
  6
BYLAYER
 10
50.2203837948
 20
48.0945714214
 11
50.2203837948
 21
48.6804285786
  0
LINE
  5
3BC
100
AcDbEntity
  8
0
100
AcDbLine
 62
7
  6
BYLAYER
 10
50.2203837948
 20
49.3945714214
 11
50.2203837948
 21
49.9804285786
  0
LINE
  5
3BD
100
AcDbEntity
  8
0
100
AcDbLine
 62
7
  6
BYLAYER
 10
50.2203837948
 20
50.6945714214
 11
50.2203837948
 21
51.2804285786
  0
LINE
  5
3BE
100
AcDbEntity
  8
0
100
AcDbLine
 62
7
  6
BYLAYER
 10
50.3703837948
 20
38.5875195446
 11
50.3703837948
 21
41.2375
  0
LINE
  5
3BF
100
AcDbEntity
  8
0
100
AcDbLine
 62
7
  6
BYLAYER
 10
50.3703837948
 20
51.6375
 11
50.3703837948
 21
52.7874797001
  0
LINE
  5
3C0
100
AcDbEntity
  8
0
100
AcDbLine
 62
7
  6
BYLAYER
 10
50.5203837948
 20
51.1711310474
 11
50.5203837948
 21
50.8038689527
  0
LINE
  5
3C1
100
AcDbEntity
  8
0
100
AcDbLine
 62
7
  6
BYLAYER
 10
50.5203837948
 20
49.8711310473
 11
50.5203837948
 21
49.5038689527
  0
LINE
  5
3C2
100
AcDbEntity
  8
0
100
AcDbLine
 62
7
  6
BYLAYER
 10
50.5203837948
 20
48.5711310473
 11
50.5203837948
 21
48.2038689527
  0
LINE
  5
3C3
100
AcDbEntity
  8
0
100
AcDbLine
 62
7
  6
BYLAYER
 10
50.5203837948
 20
47.2711310473
 11
50.5203837948
 21
46.9038689527
  0
LINE
  5
3C4
100
AcDbEntity
  8
0
100
AcDbLine
 62
7
  6
BYLAYER
 10
50.5203837948
 20
45.9711310473
 11
50.5203837948
 21
45.6038689527
  0
LINE
  5
3C5
100
AcDbEntity
  8
0
100
AcDbLine
 62
7
  6
BYLAYER
 10
50.5203837948
 20
44.6711310473
 11
50.5203837948
 21
44.3038689527
  0
LINE
  5
3C6
100
AcDbEntity
  8
0
100
AcDbLine
 62
7
  6
BYLAYER
 10
50.5203837948
 20
43.3711310473
 11
50.5203837948
 21
43.0038689527
  0
LINE
  5
3C7
100
AcDbEntity
  8
0
100
AcDbLine
 62
7
  6
BYLAYER
 10
50.5203837948
 20
42.0711310473
 11
50.5203837948
 21
41.7038689527
  0
LINE
  5
3C8
100
AcDbEntity
  8
0
100
AcDbLine
 62
7
  6
BYLAYER
 10
50.6703837948
 20
52.7874999993
 11
50.6703837948
 21
51.6374999996
  0
LINE
  5
3C9
100
AcDbEntity
  8
0
100
AcDbLine
 62
7
  6
BYLAYER
 10
50.6703837948
 20
38.5875000003
 11
50.6703837948
 21
41.2374999953
  0
ARC
  5
3CA
100
AcDbEntity
  8
0
100
AcDbCircle
 62
7
  6
BYLAYER
 10
11.3331660982
 20
26.401466776
 40
11.187382264
100
AcDbArc
 50
353.7704460115
 51
357.7165414891
  0
ARC
  5
3CB
100
AcDbEntity
  8
0
100
AcDbCircle
 62
7
  6
BYLAYER
 10
6.4451204502
 20
37.2658660647
 40
1.2252633446
100
AcDbArc
 50
308.65582015
 51
359.9999999988
  0
ARC
  5
3CC
100
AcDbEntity
  8
0
100
AcDbCircle
 62
7
  6
BYLAYER
 10
8.6703837948
 20
25.5875
 40
1.0
100
AcDbArc
 50
180.0000000004
 51
270.0
  0
ARC
  5
3CD
100
AcDbEntity
  8
0
100
AcDbCircle
 62
7
  6
BYLAYER
 10
8.6703837948
 20
25.5875
 40
0.7
100
AcDbArc
 50
180.0
 51
225.5846914028
  0
ARC
  5
3CE
100
AcDbEntity
  8
0
100
AcDbCircle
 62
7
  6
BYLAYER
 10
21.9632203033
 20
25.1481028801
 40
0.5078448257
100
AcDbArc
 50
173.6705859941
 51
175.5506901437
  0
ARC
  5
3CF
100
AcDbEntity
  8
0
100
AcDbCircle
 62
7
  6
BYLAYER
 10
6.6703837948
 20
38.5875
 40
0.5
100
AcDbArc
 50
180.0000001329
 51
270.0
  0
ARC
  5
3D0
100
AcDbEntity
  8
0
100
AcDbCircle
 62
7
  6
BYLAYER
 10
7.4435888756
 20
36.0176024265
 40
0.3732050808
100
AcDbArc
 50
128.655820157
 51
210.0000000098
  0
ARC
  5
3D1
100
AcDbEntity
  8
0
100
AcDbCircle
 62
7
  6
BYLAYER
 10
7.9703837948
 20
30.1875
 40
0.3
100
AcDbArc
 50
180.0
 51
270.0
  0
ARC
  5
3D2
100
AcDbEntity
  8
0
100
AcDbCircle
 62
7
  6
BYLAYER
 10
13.0203837948
 20
24.8875
 40
0.3
100
AcDbArc
 50
270.0
 51
360.0
  0
ARC
  5
3D3
100
AcDbEntity
  8
0
100
AcDbCircle
 62
7
  6
BYLAYER
 10
6.6703837948
 20
38.5875
 40
0.199996079
100
AcDbArc
 50
179.9944008785
 51
270.0055991209
  0
ARC
  5
3D4
100
AcDbEntity
  8
0
100
AcDbCircle
 62
7
  6
BYLAYER
 10
9.7915698236
 20
46.2831877571
 40
3.4
100
AcDbArc
 50
269.6679202901
 51
323.2589780822
  0
ARC
  5
3D5
100
AcDbEntity
  8
0
100
AcDbCircle
 62
7
  6
BYLAYER
 10
13.5703837948
 20
43.0875
 40
1.5
100
AcDbArc
 50
64.8135088536
 51
115.1864911464
  0
ARC
  5
3D6
100
AcDbEntity
  8
0
100
AcDbCircle
 62
7
  6
BYLAYER
 10
10.0703837948
 20
41.3875
 40
1.5
100
AcDbArc
 50
90.0
 51
101.766189871
  0
ARC
  5
3D7
100
AcDbEntity
  8
0
100
AcDbCircle
 62
7
  6
BYLAYER
 10
6.9703837948
 20
46.4375
 40
0.8
100
AcDbArc
 50
144.3409123039
 51
215.6590876961
  0
ARC
  5
3D8
100
AcDbEntity
  8
0
100
AcDbCircle
 62
7
  6
BYLAYER
 10
6.9703837948
 20
45.1375
 40
0.8
100
AcDbArc
 50
144.3409123039
 51
215.6590876961
  0
ARC
  5
3D9
100
AcDbEntity
  8
0
100
AcDbCircle
 62
7
  6
BYLAYER
 10
6.9703837948
 20
43.8375
 40
0.8
100
AcDbArc
 50
144.3409123039
 51
215.6590876961
  0
ARC
  5
3DA
100
AcDbEntity
  8
0
100
AcDbCircle
 62
7
  6
BYLAYER
 10
6.9703837948
 20
42.5375
 40
0.8
100
AcDbArc
 50
144.3409123039
 51
215.6590876961
  0
ARC
  5
3DB
100
AcDbEntity
  8
0
100
AcDbCircle
 62
7
  6
BYLAYER
 10
6.9703837948
 20
41.2375
 40
0.8
100
AcDbArc
 50
144.3409123039
 51
179.9999999924
  0
ARC
  5
3DC
100
AcDbEntity
  8
0
100
AcDbCircle
 62
7
  6
BYLAYER
 10
6.9703837948
 20
42.5375
 40
0.5
100
AcDbArc
 50
134.4270040008
 51
225.5729959992
  0
ARC
  5
3DD
100
AcDbEntity
  8
0
100
AcDbCircle
 62
7
  6
BYLAYER
 10
6.9703837948
 20
43.8375
 40
0.5
100
AcDbArc
 50
134.4270040008
 51
225.5729959992
  0
ARC
  5
3DE
100
AcDbEntity
  8
0
100
AcDbCircle
 62
7
  6
BYLAYER
 10
6.9703837948
 20
45.1375
 40
0.5
100
AcDbArc
 50
134.4270040008
 51
225.5729959992
  0
ARC
  5
3DF
100
AcDbEntity
  8
0
100
AcDbCircle
 62
7
  6
BYLAYER
 10
6.9703837948
 20
46.4375
 40
0.5
100
AcDbArc
 50
134.4270040008
 51
225.5729959992
  0
ARC
  5
3E0
100
AcDbEntity
  8
0
100
AcDbCircle
 62
7
  6
BYLAYER
 10
6.9703837948
 20
41.2375
 40
0.5
100
AcDbArc
 50
134.4270040008
 51
180.0
  0
ARC
  5
3E1
100
AcDbEntity
  8
0
100
AcDbCircle
 62
7
  6
BYLAYER
 10
6.9703837948
 20
51.6375
 40
0.8
100
AcDbArc
 50
179.9999997382
 51
215.6590876959
  0
ARC
  5
3E2
100
AcDbEntity
  8
0
100
AcDbCircle
 62
7
  6
BYLAYER
 10
6.9703837948
 20
50.3375
 40
0.8
100
AcDbArc
 50
144.3409123041
 51
215.6590876961
  0
ARC
  5
3E3
100
AcDbEntity
  8
0
100
AcDbCircle
 62
7
  6
BYLAYER
 10
6.9703837948
 20
49.0375
 40
0.8
100
AcDbArc
 50
144.3409123039
 51
215.6590876961
  0
ARC
  5
3E4
100
AcDbEntity
  8
0
100
AcDbCircle
 62
7
  6
BYLAYER
 10
6.9703837948
 20
47.7375
 40
0.8
100
AcDbArc
 50
144.3409123039
 51
215.6590876961
  0
ARC
  5
3E5
100
AcDbEntity
  8
0
100
AcDbCircle
 62
7
  6
BYLAYER
 10
6.6703837949
 20
52.7875
 40
0.5
100
AcDbArc
 50
90.0000004497
 51
179.9999999994
  0
ARC
  5
3E6
100
AcDbEntity
  8
0
100
AcDbCircle
 62
7
  6
BYLAYER
 10
6.9703837948
 20
47.7375
 40
0.5
100
AcDbArc
 50
134.4270040008
 51
225.5729959992
  0
ARC
  5
3E7
100
AcDbEntity
  8
0
100
AcDbCircle
 62
7
  6
BYLAYER
 10
6.9703837948
 20
49.0375
 40
0.5
100
AcDbArc
 50
134.4270040008
 51
225.5729959992
  0
ARC
  5
3E8
100
AcDbEntity
  8
0
100
AcDbCircle
 62
7
  6
BYLAYER
 10
6.9703837948
 20
50.3375
 40
0.5
100
AcDbArc
 50
134.4270040008
 51
225.5729959992
  0
ARC
  5
3E9
100
AcDbEntity
  8
0
100
AcDbCircle
 62
7
  6
BYLAYER
 10
6.9703837948
 20
51.6375
 40
0.5
100
AcDbArc
 50
180.0
 51
225.5729959992
  0
ARC
  5
3EA
100
AcDbEntity
  8
0
100
AcDbCircle
 62
7
  6
BYLAYER
 10
6.6703837949
 20
52.7875
 40
0.1999959275
100
AcDbArc
 50
89.9941845121
 51
180.0058154876
  0
ARC
  5
3EB
100
AcDbEntity
  8
0
100
AcDbCircle
 62
7
  6
BYLAYER
 10
17.3491977661
 20
46.2831877571
 40
3.4
100
AcDbArc
 50
270.3509646963
 51
272.0332394832
  0
ARC
  5
3EC
100
AcDbEntity
  8
0
100
AcDbCircle
 62
7
  6
BYLAYER
 10
17.3491977661
 20
46.2831877571
 40
3.4
100
AcDbArc
 50
216.7410219178
 51
265.3067181416
  0
ARC
  5
3ED
100
AcDbEntity
  8
0
100
AcDbCircle
 62
7
  6
BYLAYER
 10
25.9491977661
 20
46.2831877571
 40
3.4
100
AcDbArc
 50
216.7410219178
 51
270.3320797099
  0
ARC
  5
3EE
100
AcDbEntity
  8
0
100
AcDbCircle
 62
7
  6
BYLAYER
 10
18.3915698236
 20
46.2831877571
 40
3.4
100
AcDbArc
 50
267.9667605168
 51
323.2589780822
  0
ARC
  5
3EF
100
AcDbEntity
  8
0
100
AcDbCircle
 62
7
  6
BYLAYER
 10
22.1703837948
 20
43.0875
 40
1.5
100
AcDbArc
 50
64.8135088536
 51
115.1864911464
  0
ARC
  5
3F0
100
AcDbEntity
  8
0
100
AcDbCircle
 62
7
  6
BYLAYER
 10
25.2703837948
 20
41.4375
 40
0.2
100
AcDbArc
 50
0.0
 51
90.0
  0
ARC
  5
3F1
100
AcDbEntity
  8
0
100
AcDbCircle
 62
7
  6
BYLAYER
 10
25.2703837948
 20
40.8375
 40
0.2
100
AcDbArc
 50
270.0
 51
360.0
  0
ARC
  5
3F2
100
AcDbEntity
  8
0
100
AcDbCircle
 62
7
  6
BYLAYER
 10
19.0703837948
 20
40.8375
 40
0.2
100
AcDbArc
 50
180.0
 51
270.0
  0
ARC
  5
3F3
100
AcDbEntity
  8
0
100
AcDbCircle
 62
7
  6
BYLAYER
 10
19.0703837948
 20
41.4375
 40
0.2
100
AcDbArc
 50
90.0
 51
180.0
  0
ARC
  5
3F4
100
AcDbEntity
  8
0
100
AcDbCircle
 62
7
  6
BYLAYER
 10
48.1703837948
 20
25.5875
 40
1.0
100
AcDbArc
 50
270.0
 51
360.0
  0
ARC
  5
3F5
100
AcDbEntity
  8
0
100
AcDbCircle
 62
7
  6
BYLAYER
 10
49.9703837948
 20
37.0331571557
 40
0.8
100
AcDbArc
 50
180.0
 51
244.8425319646
  0
ARC
  5
3F6
100
AcDbEntity
  8
0
100
AcDbCircle
 62
7
  6
BYLAYER
 10
48.1703837948
 20
25.5875
 40
0.7
100
AcDbArc
 50
314.4153085972
 51
360.0
  0
ARC
  5
3F7
100
AcDbEntity
  8
0
100
AcDbCircle
 62
7
  6
BYLAYER
 10
50.1703837948
 20
38.5875
 40
0.5
100
AcDbArc
 50
270.0000000003
 51
360.0
  0
ARC
  5
3F8
100
AcDbEntity
  8
0
100
AcDbCircle
 62
7
  6
BYLAYER
 10
49.5027655443
 20
36.0375
 40
0.3
100
AcDbArc
 50
316.5016478793
 51
64.8425319798
  0
ARC
  5
3F9
100
AcDbEntity
  8
0
100
AcDbCircle
 62
7
  6
BYLAYER
 10
48.8703837948
 20
30.1875
 40
0.3
100
AcDbArc
 50
270.0
 51
360.0
  0
ARC
  5
3FA
100
AcDbEntity
  8
0
100
AcDbCircle
 62
7
  6
BYLAYER
 10
44.6203837948
 20
24.8875
 40
0.3
100
AcDbArc
 50
180.0
 51
270.0
  0
ARC
  5
3FB
100
AcDbEntity
  8
0
100
AcDbCircle
 62
7
  6
BYLAYER
 10
50.1703837948
 20
38.5875
 40
0.199996079
100
AcDbArc
 50
269.9944008788
 51
0.0055991223
  0
ARC
  5
3FC
100
AcDbEntity
  8
0
100
AcDbCircle
 62
7
  6
BYLAYER
 10
38.4491977661
 20
46.2831877571
 40
3.4
100
AcDbArc
 50
270.3509646963
 51
272.0332394832
  0
ARC
  5
3FD
100
AcDbEntity
  8
0
100
AcDbCircle
 62
7
  6
BYLAYER
 10
38.4491977661
 20
46.2831877571
 40
3.4
100
AcDbArc
 50
216.7410219178
 51
265.3067181416
  0
ARC
  5
3FE
100
AcDbEntity
  8
0
100
AcDbCircle
 62
7
  6
BYLAYER
 10
30.8915698236
 20
46.2831877571
 40
3.4
100
AcDbArc
 50
269.6679202901
 51
323.2589780822
  0
ARC
  5
3FF
100
AcDbEntity
  8
0
100
AcDbCircle
 62
7
  6
BYLAYER
 10
39.4915698236
 20
46.2831877571
 40
3.4
100
AcDbArc
 50
267.9667605168
 51
269.6490353037
  0
ARC
  5
400
100
AcDbEntity
  8
0
100
AcDbCircle
 62
7
  6
BYLAYER
 10
39.4915698236
 20
46.2831877571
 40
3.4
100
AcDbArc
 50
274.6932818584
 51
323.2589780822
  0
ARC
  5
401
100
AcDbEntity
  8
0
100
AcDbCircle
 62
7
  6
BYLAYER
 10
34.6703837948
 20
43.0875
 40
1.5
100
AcDbArc
 50
64.8135088536
 51
115.1864911464
  0
ARC
  5
402
100
AcDbEntity
  8
0
100
AcDbCircle
 62
7
  6
BYLAYER
 10
31.1703837948
 20
41.3875
 40
1.5
100
AcDbArc
 50
90.0
 51
101.766189871
  0
ARC
  5
403
100
AcDbEntity
  8
0
100
AcDbCircle
 62
7
  6
BYLAYER
 10
31.5703837948
 20
41.4375
 40
0.2
100
AcDbArc
 50
90.0
 51
180.0
  0
ARC
  5
404
100
AcDbEntity
  8
0
100
AcDbCircle
 62
7
  6
BYLAYER
 10
31.5703837948
 20
40.8375
 40
0.2
100
AcDbArc
 50
180.0
 51
270.0
  0
ARC
  5
405
100
AcDbEntity
  8
0
100
AcDbCircle
 62
7
  6
BYLAYER
 10
37.7703837948
 20
40.8375
 40
0.2
100
AcDbArc
 50
270.0
 51
360.0
  0
ARC
  5
406
100
AcDbEntity
  8
0
100
AcDbCircle
 62
7
  6
BYLAYER
 10
37.7703837948
 20
41.4375
 40
0.2
100
AcDbArc
 50
0.0
 51
90.0
  0
ARC
  5
407
100
AcDbEntity
  8
0
100
AcDbCircle
 62
7
  6
BYLAYER
 10
47.0491977661
 20
46.2831877571
 40
3.4
100
AcDbArc
 50
216.7410219178
 51
270.3320797099
  0
ARC
  5
408
100
AcDbEntity
  8
0
100
AcDbCircle
 62
7
  6
BYLAYER
 10
43.2703837948
 20
43.0875
 40
1.5
100
AcDbArc
 50
64.8135088536
 51
115.1864911464
  0
ARC
  5
409
100
AcDbEntity
  8
0
100
AcDbCircle
 62
7
  6
BYLAYER
 10
46.7703837948
 20
41.3875
 40
1.5
100
AcDbArc
 50
78.2337317554
 51
90.0
  0
ARC
  5
40A
100
AcDbEntity
  8
0
100
AcDbCircle
 62
7
  6
BYLAYER
 10
49.8703837948
 20
46.4375
 40
0.8
100
AcDbArc
 50
324.3409123039
 51
35.6590876961
  0
ARC
  5
40B
100
AcDbEntity
  8
0
100
AcDbCircle
 62
7
  6
BYLAYER
 10
49.8703837948
 20
45.1375
 40
0.8
100
AcDbArc
 50
324.3409123039
 51
35.6590876961
  0
ARC
  5
40C
100
AcDbEntity
  8
0
100
AcDbCircle
 62
7
  6
BYLAYER
 10
49.8703837948
 20
43.8375
 40
0.8
100
AcDbArc
 50
324.3409123039
 51
35.6590876961
  0
ARC
  5
40D
100
AcDbEntity
  8
0
100
AcDbCircle
 62
7
  6
BYLAYER
 10
49.8703837948
 20
42.5375
 40
0.8
100
AcDbArc
 50
324.3409123039
 51
35.6590876961
  0
ARC
  5
40E
100
AcDbEntity
  8
0
100
AcDbCircle
 62
7
  6
BYLAYER
 10
49.8703837948
 20
41.2375
 40
0.8
100
AcDbArc
 50
0.0
 51
35.6590876961
  0
ARC
  5
40F
100
AcDbEntity
  8
0
100
AcDbCircle
 62
7
  6
BYLAYER
 10
49.8703837948
 20
43.8375
 40
0.5
100
AcDbArc
 50
314.4270040008
 51
45.5729959992
  0
ARC
  5
410
100
AcDbEntity
  8
0
100
AcDbCircle
 62
7
  6
BYLAYER
 10
49.8703837948
 20
42.5375
 40
0.5
100
AcDbArc
 50
314.4270040008
 51
45.5729959992
  0
ARC
  5
411
100
AcDbEntity
  8
0
100
AcDbCircle
 62
7
  6
BYLAYER
 10
49.8703837948
 20
41.2375
 40
0.5
100
AcDbArc
 50
0.0000000001
 51
45.5729959992
  0
ARC
  5
412
100
AcDbEntity
  8
0
100
AcDbCircle
 62
7
  6
BYLAYER
 10
49.8703837948
 20
46.4375
 40
0.5
100
AcDbArc
 50
314.4270040008
 51
45.5729959992
  0
ARC
  5
413
100
AcDbEntity
  8
0
100
AcDbCircle
 62
7
  6
BYLAYER
 10
49.8703837948
 20
45.1375
 40
0.5
100
AcDbArc
 50
314.4270040008
 51
45.5729959992
  0
ARC
  5
414
100
AcDbEntity
  8
0
100
AcDbCircle
 62
7
  6
BYLAYER
 10
49.8703837948
 20
51.6375
 40
0.8
100
AcDbArc
 50
324.3409123041
 51
360.0
  0
ARC
  5
415
100
AcDbEntity
  8
0
100
AcDbCircle
 62
7
  6
BYLAYER
 10
49.8703837948
 20
50.3375
 40
0.8
100
AcDbArc
 50
324.3409123039
 51
35.6590876959
  0
ARC
  5
416
100
AcDbEntity
  8
0
100
AcDbCircle
 62
7
  6
BYLAYER
 10
49.8703837948
 20
49.0375
 40
0.8
100
AcDbArc
 50
324.3409123039
 51
35.6590876961
  0
ARC
  5
417
100
AcDbEntity
  8
0
100
AcDbCircle
 62
7
  6
BYLAYER
 10
49.8703837948
 20
47.7375
 40
0.8
100
AcDbArc
 50
324.3409123039
 51
35.6590876961
  0
ARC
  5
418
100
AcDbEntity
  8
0
100
AcDbCircle
 62
7
  6
BYLAYER
 10
50.1703837948
 20
52.7875
 40
0.5
100
AcDbArc
 50
0.0000000006
 51
89.9999995503
  0
ARC
  5
419
100
AcDbEntity
  8
0
100
AcDbCircle
 62
7
  6
BYLAYER
 10
49.8703837948
 20
51.6375
 40
0.5
100
AcDbArc
 50
314.4270040008
 51
360.0
  0
ARC
  5
41A
100
AcDbEntity
  8
0
100
AcDbCircle
 62
7
  6
BYLAYER
 10
49.8703837948
 20
50.3375
 40
0.5
100
AcDbArc
 50
314.4270040008
 51
45.5729959992
  0
ARC
  5
41B
100
AcDbEntity
  8
0
100
AcDbCircle
 62
7
  6
BYLAYER
 10
49.8703837948
 20
49.0375
 40
0.5
100
AcDbArc
 50
314.4270040008
 51
45.5729959992
  0
ARC
  5
41C
100
AcDbEntity
  8
0
100
AcDbCircle
 62
7
  6
BYLAYER
 10
49.8703837948
 20
47.7375
 40
0.5
100
AcDbArc
 50
314.4270040008
 51
45.5729959992
  0
ARC
  5
41D
100
AcDbEntity
  8
0
100
AcDbCircle
 62
7
  6
BYLAYER
 10
50.1703837948
 20
52.7875
 40
0.1999959275
100
AcDbArc
 50
359.9941845036
 51
90.0058154978
  0
SPLINE
  5
41E
100
AcDbEntity
  8
0
100
AcDbSpline
 62
7
  6
BYLAYER
 70
0
 71
3
 72
15
 73
11
 74
0
 42
0.0000001
 43
0.0000001
 44
0.0000000001
 40
0.0
 40
0.0
 40
0.0
 40
0.0
 40
0.1071213283
 40
0.2166664988
 40
0.3300622517
 40
0.4488026607
 40
0.574456118
 40
0.7084170091
 40
0.8510645326
 40
1.0
 40
1.0
 40
1.0
 40
1.0
 10
21.5124539453
 20
25.9207958008
 30
0.0
 10
21.5135611029
 20
25.9486548058
 30
0.0
 10
21.5205210273
 20
26.0049180674
 30
0.0
 10
21.5448533409
 20
26.0876786978
 30
0.0
 10
21.5835509906
 20
26.1681907581
 30
0.0
 10
21.6373702256
 20
26.2447179275
 30
0.0
 10
21.7072640388
 20
26.3148040766
 30
0.0
 10
21.7939055167
 20
26.3747032628
 30
0.0
 10
21.8962419293
 20
26.4189625946
 30
0.0
 10
21.9714700005
 20
26.4336955094
 30
0.0
 10
22.0101153679
 20
26.4367280569
 30
0.0
  0
SPLINE
  5
41F
100
AcDbEntity
  8
0
100
AcDbSpline
 62
7
  6
BYLAYER
 70
0
 71
3
 72
15
 73
11
 74
0
 42
0.0000001
 43
0.0000001
 44
0.0000000001
 40
0.0
 40
0.0
 40
0.0
 40
0.0
 40
0.1517893618
 40
0.2963152246
 40
0.4302542965
 40
0.5543695052
 40
0.6710606605
 40
0.7828362163
 40
0.891869307
 40
1.0
 40
1.0
 40
1.0
 40
1.0
 10
22.0101153679
 20
26.4367280569
 30
0.0
 10
22.0488064817
 20
26.4397641941
 30
0.0
 10
22.1253571978
 20
26.436934623
 30
0.0
 10
22.2322093725
 20
26.4068700069
 30
0.0
 10
22.3229809681
 20
26.3564467066
 30
0.0
 10
22.3950274009
 20
26.2921753859
 30
0.0
 10
22.4488536965
 20
26.2191091007
 30
0.0
 10
22.4858725072
 20
26.1405914175
 30
0.0
 10
22.5074077879
 20
26.0588506747
 30
0.0
 10
22.5120598391
 20
26.0032042735
 30
0.0
 10
22.5120595887
 20
25.975557025
 30
0.0
  0
SPLINE
  5
420
100
AcDbEntity
  8
0
100
AcDbSpline
 62
7
  6
BYLAYER
 70
0
 71
3
 72
11
 73
7
 74
0
 42
0.0000001
 43
0.0000001
 44
0.0000000001
 40
0.0
 40
0.0
 40
0.0
 40
0.0
 40
0.2540212502
 40
0.505659753
 40
0.7539854579
 40
1.0
 40
1.0
 40
1.0
 40
1.0
 10
17.8753837948
 20
49.3896633985
 30
0.0
 10
17.9266980333
 20
49.3896633985
 30
0.0
 10
18.0299175855
 20
49.3700495315
 30
0.0
 10
18.1611226369
 20
49.2856129353
 30
0.0
 10
18.2495804086
 20
49.1588304037
 30
0.0
 10
18.2703837948
 20
49.0578195193
 30
0.0
 10
18.2703837948
 20
49.0081226972
 30
0.0
  0
SPLINE
  5
421
100
AcDbEntity
  8
0
100
AcDbSpline
 62
7
  6
BYLAYER
 70
0
 71
3
 72
11
 73
7
 74
0
 42
0.0000001
 43
0.0000001
 44
0.0000000001
 40
0.0
 40
0.0
 40
0.0
 40
0.0
 40
0.2460148336
 40
0.4943409794
 40
0.7459796279
 40
1.0
 40
1.0
 40
1.0
 40
1.0
 10
17.4703837948
 20
49.0081226972
 30
0.0
 10
17.4703837948
 20
49.0578195772
 30
0.0
 10
17.4911872409
 20
49.1588306096
 30
0.0
 10
17.5796452268
 20
49.2856132323
 30
0.0
 10
17.7108503521
 20
49.3700495993
 30
0.0
 10
17.8140697347
 20
49.3896633985
 30
0.0
 10
17.8653837948
 20
49.3896633985
 30
0.0
  0
SPLINE
  5
422
100
AcDbEntity
  8
0
100
AcDbSpline
 62
7
  6
BYLAYER
 70
0
 71
3
 72
11
 73
7
 74
0
 42
0.0000001
 43
0.0000001
 44
0.0000000001
 40
0.0
 40
0.0
 40
0.0
 40
0.0
 40
0.2540203778
 40
0.5056590283
 40
0.7539851725
 40
1.0
 40
1.0
 40
1.0
 40
1.0
 10
17.8653837948
 20
40.3940553094
 30
0.0
 10
17.8140697336
 20
40.3940553094
 30
0.0
 10
17.7108503493
 20
40.4136691092
 30
0.0
 10
17.5796452238
 20
40.4981054784
 30
0.0
 10
17.4911872401
 20
40.6248881012
 30
0.0
 10
17.4703837948
 20
40.7258991319
 30
0.0
 10
17.4703837948
 20
40.7755960107
 30
0.0
  0
SPLINE
  5
423
100
AcDbEntity
  8
0
100
AcDbSpline
 62
7
  6
BYLAYER
 70
0
 71
3
 72
11
 73
7
 74
0
 42
0.0000001
 43
0.0000001
 44
0.0000000001
 40
0.0
 40
0.0
 40
0.0
 40
0.0
 40
0.2540203778
 40
0.5056590283
 40
0.7539851725
 40
1.0
 40
1.0
 40
1.0
 40
1.0
 10
38.9653837948
 20
40.3940553094
 30
0.0
 10
38.9140697336
 20
40.3940553094
 30
0.0
 10
38.8108503493
 20
40.4136691092
 30
0.0
 10
38.6796452238
 20
40.4981054784
 30
0.0
 10
38.5911872401
 20
40.6248881012
 30
0.0
 10
38.5703837948
 20
40.7258991319
 30
0.0
 10
38.5703837948
 20
40.7755960107
 30
0.0
  0
SPLINE
  5
424
100
AcDbEntity
  8
0
100
AcDbSpline
 62
7
  6
BYLAYER
 70
0
 71
3
 72
11
 73
7
 74
0
 42
0.0000001
 43
0.0000001
 44
0.0000000001
 40
0.0
 40
0.0
 40
0.0
 40
0.0
 40
0.2460148336
 40
0.4943409794
 40
0.7459796279
 40
1.0
 40
1.0
 40
1.0
 40
1.0
 10
38.5703837948
 20
49.0081226972
 30
0.0
 10
38.5703837948
 20
49.0578195772
 30
0.0
 10
38.5911872409
 20
49.1588306096
 30
0.0
 10
38.6796452268
 20
49.2856132323
 30
0.0
 10
38.8108503521
 20
49.3700495993
 30
0.0
 10
38.9140697347
 20
49.3896633985
 30
0.0
 10
38.9653837948
 20
49.3896633985
 30
0.0
  0
SPLINE
  5
425
100
AcDbEntity
  8
0
100
AcDbSpline
 62
7
  6
BYLAYER
 70
0
 71
3
 72
11
 73
7
 74
0
 42
0.0000001
 43
0.0000001
 44
0.0000000001
 40
0.0
 40
0.0
 40
0.0
 40
0.0
 40
0.2540212502
 40
0.505659753
 40
0.7539854579
 40
1.0
 40
1.0
 40
1.0
 40
1.0
 10
38.9753837948
 20
49.3896633985
 30
0.0
 10
39.0266980333
 20
49.3896633985
 30
0.0
 10
39.1299175855
 20
49.3700495315
 30
0.0
 10
39.2611226369
 20
49.2856129353
 30
0.0
 10
39.3495804086
 20
49.1588304037
 30
0.0
 10
39.3703837948
 20
49.0578195193
 30
0.0
 10
39.3703837948
 20
49.0081226972
 30
0.0
  0
SPLINE
  5
426
100
AcDbEntity
  8
0
100
AcDbSpline
 62
7
  6
BYLAYER
 70
0
 71
3
 72
11
 73
7
 74
0
 42
0.0000001
 43
0.0000001
 44
0.0000000001
 40
0.0
 40
0.0
 40
0.0
 40
0.0
 40
0.2460145421
 40
0.494340247
 40
0.7459787498
 40
1.0
 40
1.0
 40
1.0
 40
1.0
 10
39.3703837948
 20
40.7755960107
 30
0.0
 10
39.3703837948
 20
40.7258991886
 30
0.0
 10
39.3495804086
 20
40.6248883042
 30
0.0
 10
39.2611226369
 20
40.4981057726
 30
0.0
 10
39.1299175855
 20
40.4136691764
 30
0.0
 10
39.0266980333
 20
40.3940553094
 30
0.0
 10
38.9753837948
 20
40.3940553094
 30
0.0
  0
SPLINE
  5
427
100
AcDbEntity
  8
0
100
AcDbSpline
 62
7
  6
BYLAYER
 70
0
 71
3
 72
11
 73
7
 74
0
 42
0.0000001
 43
0.0000001
 44
0.0000000001
 40
0.0
 40
0.0
 40
0.0
 40
0.0
 40
0.2460145421
 40
0.494340247
 40
0.7459787498
 40
1.0
 40
1.0
 40
1.0
 40
1.0
 10
18.2703837948
 20
40.7755960107
 30
0.0
 10
18.2703837948
 20
40.7258991886
 30
0.0
 10
18.2495804086
 20
40.6248883042
 30
0.0
 10
18.1611226369
 20
40.4981057726
 30
0.0
 10
18.0299175855
 20
40.4136691764
 30
0.0
 10
17.9266980333
 20
40.3940553094
 30
0.0
 10
17.8753837948
 20
40.3940553094
 30
0.0
  0
SPLINE
  5
428
100
AcDbEntity
  8
0
100
AcDbSpline
 62
7
  6
BYLAYER
 70
0
 71
3
 72
9
 73
5
 74
0
 42
0.0000001
 43
0.0000001
 44
0.0000000001
 40
0.0
 40
0.0
 40
0.0
 40
0.0
 40
0.697182221
 40
1.0
 40
1.0
 40
1.0
 40
1.0
 10
50.2203837948
 20
48.6804285786
 30
0.0
 10
50.2888057053
 20
48.651685627
 30
0.0
 10
50.3886540875
 20
48.6145204471
 30
0.0
 10
50.4897176724
 20
48.581023924
 30
0.0
 10
50.5203837948
 20
48.5711310473
 30
0.0
  0
SPLINE
  5
429
100
AcDbEntity
  8
0
100
AcDbSpline
 62
7
  6
BYLAYER
 70
0
 71
3
 72
9
 73
5
 74
0
 42
0.0000001
 43
0.0000001
 44
0.0000000001
 40
0.0
 40
0.0
 40
0.0
 40
0.0
 40
0.3028160594
 40
1.0
 40
1.0
 40
1.0
 40
1.0
 10
50.5203837948
 20
48.2038689527
 30
0.0
 10
50.4897178453
 20
48.1939761357
 30
0.0
 10
50.3886542576
 20
48.1604796217
 30
0.0
 10
50.2888058741
 20
48.1233144439
 30
0.0
 10
50.2203837948
 20
48.0945714214
 30
0.0
  0
SPLINE
  5
42A
100
AcDbEntity
  8
0
100
AcDbSpline
 62
7
  6
BYLAYER
 70
0
 71
3
 72
9
 73
5
 74
0
 42
0.0000001
 43
0.0000001
 44
0.0000000001
 40
0.0
 40
0.0
 40
0.0
 40
0.0
 40
0.697182221
 40
1.0
 40
1.0
 40
1.0
 40
1.0
 10
50.2203837948
 20
49.9804285786
 30
0.0
 10
50.2888057053
 20
49.951685627
 30
0.0
 10
50.3886540875
 20
49.9145204471
 30
0.0
 10
50.4897176724
 20
49.881023924
 30
0.0
 10
50.5203837948
 20
49.8711310473
 30
0.0
  0
SPLINE
  5
42B
100
AcDbEntity
  8
0
100
AcDbSpline
 62
7
  6
BYLAYER
 70
0
 71
3
 72
9
 73
5
 74
0
 42
0.0000001
 43
0.0000001
 44
0.0000000001
 40
0.0
 40
0.0
 40
0.0
 40
0.0
 40
0.3028160594
 40
1.0
 40
1.0
 40
1.0
 40
1.0
 10
50.5203837948
 20
49.5038689527
 30
0.0
 10
50.4897178453
 20
49.4939761357
 30
0.0
 10
50.3886542576
 20
49.4604796217
 30
0.0
 10
50.2888058741
 20
49.4233144439
 30
0.0
 10
50.2203837948
 20
49.3945714214
 30
0.0
  0
SPLINE
  5
42C
100
AcDbEntity
  8
0
100
AcDbSpline
 62
7
  6
BYLAYER
 70
0
 71
3
 72
9
 73
5
 74
0
 42
0.0000001
 43
0.0000001
 44
0.0000000001
 40
0.0
 40
0.0
 40
0.0
 40
0.0
 40
0.302805645
 40
1.0
 40
1.0
 40
1.0
 40
1.0
 10
6.3203837948
 20
45.6038689527
 30
0.0
 10
6.3510507187
 20
45.5939822863
 30
0.0
 10
6.4521169221
 20
45.5604933828
 30
0.0
 10
6.5519606156
 20
45.523314906
 30
0.0
 10
6.6203837948
 20
45.4945714214
 30
0.0
  0
SPLINE
  5
42D
100
AcDbEntity
  8
0
100
AcDbSpline
 62
7
  6
BYLAYER
 70
0
 71
3
 72
9
 73
5
 74
0
 42
0.0000001
 43
0.0000001
 44
0.0000000001
 40
0.0
 40
0.0
 40
0.0
 40
0.0
 40
0.3028160594
 40
1.0
 40
1.0
 40
1.0
 40
1.0
 10
50.5203837948
 20
50.8038689527
 30
0.0
 10
50.4897178453
 20
50.7939761357
 30
0.0
 10
50.3886542576
 20
50.7604796218
 30
0.0
 10
50.2888058741
 20
50.7233144439
 30
0.0
 10
50.2203837948
 20
50.6945714214
 30
0.0
  0
SPLINE
  5
42E
100
AcDbEntity
  8
0
100
AcDbSpline
 62
7
  6
BYLAYER
 70
0
 71
3
 72
9
 73
5
 74
0
 42
0.0000001
 43
0.0000001
 44
0.0000000001
 40
0.0
 40
0.0
 40
0.0
 40
0.0
 40
0.6971926181
 40
1.0
 40
1.0
 40
1.0
 40
1.0
 10
6.6203837948
 20
44.7804285786
 30
0.0
 10
6.551960786
 20
44.7516851656
 30
0.0
 10
6.452117094
 20
44.7145066866
 30
0.0
 10
6.3510508933
 20
44.6810177738
 30
0.0
 10
6.3203837948
 20
44.6711310473
 30
0.0
  0
SPLINE
  5
42F
100
AcDbEntity
  8
0
100
AcDbSpline
 62
7
  6
BYLAYER
 70
0
 71
3
 72
9
 73
5
 74
0
 42
0.0000001
 43
0.0000001
 44
0.0000000001
 40
0.0
 40
0.0
 40
0.0
 40
0.0
 40
0.302805645
 40
1.0
 40
1.0
 40
1.0
 40
1.0
 10
6.3203837948
 20
44.3038689527
 30
0.0
 10
6.3510507187
 20
44.2939822863
 30
0.0
 10
6.4521169221
 20
44.2604933828
 30
0.0
 10
6.5519606156
 20
44.223314906
 30
0.0
 10
6.6203837948
 20
44.1945714214
 30
0.0
  0
SPLINE
  5
430
100
AcDbEntity
  8
0
100
AcDbSpline
 62
7
  6
BYLAYER
 70
0
 71
3
 72
9
 73
5
 74
0
 42
0.0000001
 43
0.0000001
 44
0.0000000001
 40
0.0
 40
0.0
 40
0.0
 40
0.0
 40
0.6971926181
 40
1.0
 40
1.0
 40
1.0
 40
1.0
 10
6.6203837948
 20
43.4804285786
 30
0.0
 10
6.551960786
 20
43.4516851656
 30
0.0
 10
6.452117094
 20
43.4145066866
 30
0.0
 10
6.3510508933
 20
43.3810177738
 30
0.0
 10
6.3203837948
 20
43.3711310473
 30
0.0
  0
SPLINE
  5
431
100
AcDbEntity
  8
0
100
AcDbSpline
 62
7
  6
BYLAYER
 70
0
 71
3
 72
9
 73
5
 74
0
 42
0.0000001
 43
0.0000001
 44
0.0000000001
 40
0.0
 40
0.0
 40
0.0
 40
0.0
 40
0.302805645
 40
1.0
 40
1.0
 40
1.0
 40
1.0
 10
6.3203837948
 20
43.0038689527
 30
0.0
 10
6.3510507187
 20
42.9939822863
 30
0.0
 10
6.4521169221
 20
42.9604933828
 30
0.0
 10
6.5519606156
 20
42.923314906
 30
0.0
 10
6.6203837948
 20
42.8945714214
 30
0.0
  0
SPLINE
  5
432
100
AcDbEntity
  8
0
100
AcDbSpline
 62
7
  6
BYLAYER
 70
0
 71
3
 72
9
 73
5
 74
0
 42
0.0000001
 43
0.0000001
 44
0.0000000001
 40
0.0
 40
0.0
 40
0.0
 40
0.0
 40
0.6971926181
 40
1.0
 40
1.0
 40
1.0
 40
1.0
 10
6.6203837948
 20
42.1804285786
 30
0.0
 10
6.551960786
 20
42.1516851656
 30
0.0
 10
6.452117094
 20
42.1145066866
 30
0.0
 10
6.3510508933
 20
42.0810177738
 30
0.0
 10
6.3203837948
 20
42.0711310473
 30
0.0
  0
SPLINE
  5
433
100
AcDbEntity
  8
0
100
AcDbSpline
 62
7
  6
BYLAYER
 70
0
 71
3
 72
9
 73
5
 74
0
 42
0.0000001
 43
0.0000001
 44
0.0000000001
 40
0.0
 40
0.0
 40
0.0
 40
0.0
 40
0.302805645
 40
1.0
 40
1.0
 40
1.0
 40
1.0
 10
6.3203837948
 20
41.7038689527
 30
0.0
 10
6.3510507187
 20
41.6939822863
 30
0.0
 10
6.4521169221
 20
41.6604933828
 30
0.0
 10
6.5519606156
 20
41.623314906
 30
0.0
 10
6.6203837948
 20
41.5945714214
 30
0.0
  0
SPLINE
  5
434
100
AcDbEntity
  8
0
100
AcDbSpline
 62
7
  6
BYLAYER
 70
0
 71
3
 72
11
 73
7
 74
0
 42
0.0000001
 43
0.0000001
 44
0.0000000001
 40
0.0
 40
0.0
 40
0.0
 40
0.0
 40
0.2540203778
 40
0.5056590283
 40
0.7539851725
 40
1.0
 40
1.0
 40
1.0
 40
1.0
 10
6.4703837948
 20
39.9566390564
 30
0.0
 10
6.4314110901
 20
39.9566390564
 30
0.0
 10
6.353016621
 20
39.9715356132
 30
0.0
 10
6.2533671586
 20
40.0356645013
 30
0.0
 10
6.1861838799
 20
40.1319551009
 30
0.0
 10
6.1703837948
 20
40.2086723394
 30
0.0
 10
6.1703837948
 20
40.2464168043
 30
0.0
  0
SPLINE
  5
435
100
AcDbEntity
  8
0
100
AcDbSpline
 62
7
  6
BYLAYER
 70
0
 71
3
 72
11
 73
7
 74
0
 42
0.0000001
 43
0.0000001
 44
0.0000000001
 40
0.0
 40
0.0
 40
0.0
 40
0.0
 40
0.2460148336
 40
0.4943409794
 40
0.7459796279
 40
1.0
 40
1.0
 40
1.0
 40
1.0
 10
50.6703837948
 20
40.2464168043
 30
0.0
 10
50.6703837948
 20
40.2086723384
 30
0.0
 10
50.6545837093
 20
40.1319550986
 30
0.0
 10
50.5874004288
 20
40.0356644991
 30
0.0
 10
50.4877509665
 20
39.9715356128
 30
0.0
 10
50.4093564988
 20
39.9566390564
 30
0.0
 10
50.3703837948
 20
39.9566390564
 30
0.0
  0
SPLINE
  5
436
100
AcDbEntity
  8
0
100
AcDbSpline
 62
7
  6
BYLAYER
 70
0
 71
3
 72
14
 73
10
 74
0
 42
0.0000001
 43
0.0000001
 44
0.0000000001
 40
0.0
 40
0.0
 40
0.0
 40
0.0
 40
0.3094969516
 40
0.44981535
 40
0.577596527
 40
0.6939776095
 40
0.8012780999
 40
0.9023447587
 40
1.0
 40
1.0
 40
1.0
 40
1.0
 10
6.4703837948
 20
39.5875
 30
0.0
 10
6.4273541836
 20
39.5875
 30
0.0
 10
6.3640025835
 20
39.5978824344
 30
0.0
 10
6.2906887205
 20
39.6314124832
 30
0.0
 10
6.2466152902
 20
39.6622309919
 30
0.0
 10
6.212401594
 20
39.6975598415
 30
0.0
 10
6.1881239962
 20
39.7360353187
 30
0.0
 10
6.1736202592
 20
39.7763922856
 30
0.0
 10
6.1703837948
 20
39.8041210093
 30
0.0
 10
6.1703837948
 20
39.8176980964
 30
0.0
  0
SPLINE
  5
437
100
AcDbEntity
  8
0
100
AcDbSpline
 62
7
  6
BYLAYER
 70
0
 71
3
 72
9
 73
5
 74
0
 42
0.0000001
 43
0.0000001
 44
0.0000000001
 40
0.0
 40
0.0
 40
0.0
 40
0.0
 40
0.3028160594
 40
1.0
 40
1.0
 40
1.0
 40
1.0
 10
6.3203837948
 20
51.1711310474
 30
0.0
 10
6.3510497444
 20
51.1810238644
 30
0.0
 10
6.4521133321
 20
51.2145203783
 30
0.0
 10
6.5519617156
 20
51.2516855561
 30
0.0
 10
6.6203837948
 20
51.2804285786
 30
0.0
  0
SPLINE
  5
438
100
AcDbEntity
  8
0
100
AcDbSpline
 62
7
  6
BYLAYER
 70
0
 71
3
 72
9
 73
5
 74
0
 42
0.0000001
 43
0.0000001
 44
0.0000000001
 40
0.0
 40
0.0
 40
0.0
 40
0.0
 40
0.302805645
 40
1.0
 40
1.0
 40
1.0
 40
1.0
 10
50.5203837948
 20
51.1711310474
 30
0.0
 10
50.489716871
 20
51.1810177137
 30
0.0
 10
50.3886506676
 20
51.2145066172
 30
0.0
 10
50.2888069741
 20
51.251685094
 30
0.0
 10
50.2203837948
 20
51.2804285786
 30
0.0
  0
SPLINE
  5
439
100
AcDbEntity
  8
0
100
AcDbSpline
 62
7
  6
BYLAYER
 70
0
 71
3
 72
9
 73
5
 74
0
 42
0.0000001
 43
0.0000001
 44
0.0000000001
 40
0.0
 40
0.0
 40
0.0
 40
0.0
 40
0.302805645
 40
1.0
 40
1.0
 40
1.0
 40
1.0
 10
6.3203837948
 20
50.8038689527
 30
0.0
 10
6.3510507187
 20
50.7939822863
 30
0.0
 10
6.4521169221
 20
50.7604933828
 30
0.0
 10
6.5519606156
 20
50.723314906
 30
0.0
 10
6.6203837948
 20
50.6945714214
 30
0.0
  0
SPLINE
  5
43A
100
AcDbEntity
  8
0
100
AcDbSpline
 62
7
  6
BYLAYER
 70
0
 71
3
 72
9
 73
5
 74
0
 42
0.0000001
 43
0.0000001
 44
0.0000000001
 40
0.0
 40
0.0
 40
0.0
 40
0.0
 40
0.6971926181
 40
1.0
 40
1.0
 40
1.0
 40
1.0
 10
6.6203837948
 20
49.9804285786
 30
0.0
 10
6.551960786
 20
49.9516851656
 30
0.0
 10
6.452117094
 20
49.9145066866
 30
0.0
 10
6.3510508933
 20
49.8810177738
 30
0.0
 10
6.3203837948
 20
49.8711310473
 30
0.0
  0
SPLINE
  5
43B
100
AcDbEntity
  8
0
100
AcDbSpline
 62
7
  6
BYLAYER
 70
0
 71
3
 72
18
 73
14
 74
0
 42
0.0000001
 43
0.0000001
 44
0.0000000001
 40
0.0
 40
0.0
 40
0.0
 40
0.0
 40
0.1503946795
 40
0.2241604667
 40
0.2953958344
 40
0.4243287042
 40
0.4822024471
 40
0.5369859267
 40
0.590475942
 40
0.6441643821
 40
0.7552493363
 40
0.8738996213
 40
1.0
 40
1.0
 40
1.0
 40
1.0
 10
48.6602817434
 20
25.0875
 30
0.0
 10
48.6847603481
 20
25.0875
 30
0.0
 10
48.7213936471
 20
25.0853887618
 30
0.0
 10
48.7685033841
 20
25.075088743
 30
0.0
 10
48.8104136422
 20
25.0597836832
 30
0.0
 10
48.8462591952
 20
25.0350265934
 30
0.0
 10
48.8681038733
 20
25.0018154877
 30
0.0
 10
48.876718121
 20
24.9758617918
 30
0.0
 10
48.8785955984
 20
24.949321339
 30
0.0
 10
48.873299571
 20
24.913957372
 30
0.0
 10
48.8538227458
 20
24.8712146022
 30
0.0
 10
48.8171509049
 20
24.8259204912
 30
0.0
 10
48.7868033189
 20
24.799814643
 30
0.0
 10
48.7703837948
 20
24.7875
 30
0.0
  0
SPLINE
  5
43C
100
AcDbEntity
  8
0
100
AcDbSpline
 62
7
  6
BYLAYER
 70
0
 71
3
 72
9
 73
5
 74
0
 42
0.0000001
 43
0.0000001
 44
0.0000000001
 40
0.0
 40
0.0
 40
0.0
 40
0.0
 40
0.697182221
 40
1.0
 40
1.0
 40
1.0
 40
1.0
 10
6.6203837948
 20
49.3945714214
 30
0.0
 10
6.5519618844
 20
49.423314373
 30
0.0
 10
6.4521135022
 20
49.4604795529
 30
0.0
 10
6.3510499173
 20
49.493976076
 30
0.0
 10
6.3203837948
 20
49.5038689527
 30
0.0
  0
SPLINE
  5
43D
100
AcDbEntity
  8
0
100
AcDbSpline
 62
7
  6
BYLAYER
 70
0
 71
3
 72
18
 73
14
 74
0
 42
0.0000001
 43
0.0000001
 44
0.0000000001
 40
0.0
 40
0.0
 40
0.0
 40
0.0
 40
0.1260992063
 40
0.2447481082
 40
0.3558321219
 40
0.4095197967
 40
0.4630083611
 40
0.5177908094
 40
0.5756625989
 40
0.7045940391
 40
0.7758310419
 40
0.8495986759
 40
1.0
 40
1.0
 40
1.0
 40
1.0
 10
8.0703837948
 20
24.7875
 30
0.0
 10
8.0539644169
 20
24.7998145335
 30
0.0
 10
8.0236170946
 20
24.8259200819
 30
0.0
 10
7.9869455618
 20
24.8712136861
 30
0.0
 10
7.9674684464
 20
24.9139557775
 30
0.0
 10
7.9621722148
 20
24.9493191972
 30
0.0
 10
7.9640490452
 20
24.9758591342
 30
0.0
 10
7.9726621299
 20
25.001812433
 30
0.0
 10
7.9945049276
 20
25.0350239171
 30
0.0
 10
8.0303497478
 20
25.0597819408
 30
0.0
 10
8.072260225
 20
25.0750873862
 30
0.0
 10
8.1193714008
 20
25.0853886343
 30
0.0
 10
8.1560061503
 20
25.0875
 30
0.0
 10
8.1804858463
 20
25.0875
 30
0.0
  0
SPLINE
  5
43E
100
AcDbEntity
  8
0
100
AcDbSpline
 62
7
  6
BYLAYER
 70
0
 71
3
 72
13
 73
9
 74
0
 42
0.0000001
 43
0.0000001
 44
0.0000000001
 40
0.0
 40
0.0
 40
0.0
 40
0.0
 40
0.3098412616
 40
0.5771297725
 40
0.6936634056
 40
0.8010813644
 40
0.9022455024
 40
1.0
 40
1.0
 40
1.0
 40
1.0
 10
50.3703837948
 20
39.5875
 30
0.0
 10
50.4134132459
 20
39.5875
 30
0.0
 10
50.4942638394
 20
39.6006288469
 30
0.0
 10
50.5806173457
 20
39.6482445907
 30
0.0
 10
50.6283606758
 20
39.6975691379
 30
0.0
 10
50.6526429126
 20
39.7360447556
 30
0.0
 10
50.6671476485
 20
39.7763969473
 30
0.0
 10
50.6703837948
 20
39.804122363
 30
0.0
 10
50.6703837948
 20
39.8176980964
 30
0.0
  0
SPLINE
  5
43F
100
AcDbEntity
  8
0
100
AcDbSpline
 62
7
  6
BYLAYER
 70
0
 71
3
 72
9
 73
5
 74
0
 42
0.0000001
 43
0.0000001
 44
0.0000000001
 40
0.0
 40
0.0
 40
0.0
 40
0.0
 40
0.6971926181
 40
1.0
 40
1.0
 40
1.0
 40
1.0
 10
6.6203837948
 20
48.6804285786
 30
0.0
 10
6.551960786
 20
48.6516851656
 30
0.0
 10
6.452117094
 20
48.6145066866
 30
0.0
 10
6.3510508933
 20
48.5810177738
 30
0.0
 10
6.3203837948
 20
48.5711310473
 30
0.0
  0
SPLINE
  5
440
100
AcDbEntity
  8
0
100
AcDbSpline
 62
7
  6
BYLAYER
 70
0
 71
3
 72
9
 73
5
 74
0
 42
0.0000001
 43
0.0000001
 44
0.0000000001
 40
0.0
 40
0.0
 40
0.0
 40
0.0
 40
0.697182221
 40
1.0
 40
1.0
 40
1.0
 40
1.0
 10
50.2203837948
 20
42.1804285786
 30
0.0
 10
50.2888057053
 20
42.151685627
 30
0.0
 10
50.3886540875
 20
42.1145204471
 30
0.0
 10
50.4897176724
 20
42.081023924
 30
0.0
 10
50.5203837948
 20
42.0711310473
 30
0.0
  0
SPLINE
  5
441
100
AcDbEntity
  8
0
100
AcDbSpline
 62
7
  6
BYLAYER
 70
0
 71
3
 72
9
 73
5
 74
0
 42
0.0000001
 43
0.0000001
 44
0.0000000001
 40
0.0
 40
0.0
 40
0.0
 40
0.0
 40
0.3028160594
 40
1.0
 40
1.0
 40
1.0
 40
1.0
 10
50.5203837948
 20
41.7038689527
 30
0.0
 10
50.4897178453
 20
41.6939761357
 30
0.0
 10
50.3886542576
 20
41.6604796217
 30
0.0
 10
50.2888058741
 20
41.6233144439
 30
0.0
 10
50.2203837948
 20
41.5945714214
 30
0.0
  0
SPLINE
  5
442
100
AcDbEntity
  8
0
100
AcDbSpline
 62
7
  6
BYLAYER
 70
0
 71
3
 72
9
 73
5
 74
0
 42
0.0000001
 43
0.0000001
 44
0.0000000001
 40
0.0
 40
0.0
 40
0.0
 40
0.0
 40
0.697182221
 40
1.0
 40
1.0
 40
1.0
 40
1.0
 10
6.6203837948
 20
48.0945714214
 30
0.0
 10
6.5519618844
 20
48.123314373
 30
0.0
 10
6.4521135022
 20
48.1604795529
 30
0.0
 10
6.3510499173
 20
48.193976076
 30
0.0
 10
6.3203837948
 20
48.2038689527
 30
0.0
  0
SPLINE
  5
443
100
AcDbEntity
  8
0
100
AcDbSpline
 62
7
  6
BYLAYER
 70
0
 71
3
 72
9
 73
5
 74
0
 42
0.0000001
 43
0.0000001
 44
0.0000000001
 40
0.0
 40
0.0
 40
0.0
 40
0.0
 40
0.697182221
 40
1.0
 40
1.0
 40
1.0
 40
1.0
 10
50.2203837948
 20
43.4804285786
 30
0.0
 10
50.2888057053
 20
43.451685627
 30
0.0
 10
50.3886540875
 20
43.4145204471
 30
0.0
 10
50.4897176724
 20
43.381023924
 30
0.0
 10
50.5203837948
 20
43.3711310473
 30
0.0
  0
SPLINE
  5
444
100
AcDbEntity
  8
0
100
AcDbSpline
 62
7
  6
BYLAYER
 70
0
 71
3
 72
9
 73
5
 74
0
 42
0.0000001
 43
0.0000001
 44
0.0000000001
 40
0.0
 40
0.0
 40
0.0
 40
0.0
 40
0.3028160594
 40
1.0
 40
1.0
 40
1.0
 40
1.0
 10
50.5203837948
 20
43.0038689527
 30
0.0
 10
50.4897178453
 20
42.9939761357
 30
0.0
 10
50.3886542576
 20
42.9604796217
 30
0.0
 10
50.2888058741
 20
42.9233144439
 30
0.0
 10
50.2203837948
 20
42.8945714214
 30
0.0
  0
SPLINE
  5
445
100
AcDbEntity
  8
0
100
AcDbSpline
 62
7
  6
BYLAYER
 70
0
 71
3
 72
9
 73
5
 74
0
 42
0.0000001
 43
0.0000001
 44
0.0000000001
 40
0.0
 40
0.0
 40
0.0
 40
0.0
 40
0.6971926181
 40
1.0
 40
1.0
 40
1.0
 40
1.0
 10
50.2203837948
 20
44.1945714214
 30
0.0
 10
50.2888068037
 20
44.2233148344
 30
0.0
 10
50.3886504957
 20
44.2604933134
 30
0.0
 10
50.4897166964
 20
44.2939822262
 30
0.0
 10
50.5203837948
 20
44.3038689527
 30
0.0
  0
SPLINE
  5
446
100
AcDbEntity
  8
0
100
AcDbSpline
 62
7
  6
BYLAYER
 70
0
 71
3
 72
9
 73
5
 74
0
 42
0.0000001
 43
0.0000001
 44
0.0000000001
 40
0.0
 40
0.0
 40
0.0
 40
0.0
 40
0.697182221
 40
1.0
 40
1.0
 40
1.0
 40
1.0
 10
50.2203837948
 20
44.7804285786
 30
0.0
 10
50.2888057053
 20
44.751685627
 30
0.0
 10
50.3886540875
 20
44.7145204471
 30
0.0
 10
50.4897176724
 20
44.681023924
 30
0.0
 10
50.5203837948
 20
44.6711310473
 30
0.0
  0
SPLINE
  5
447
100
AcDbEntity
  8
0
100
AcDbSpline
 62
7
  6
BYLAYER
 70
0
 71
3
 72
9
 73
5
 74
0
 42
0.0000001
 43
0.0000001
 44
0.0000000001
 40
0.0
 40
0.0
 40
0.0
 40
0.0
 40
0.6971926181
 40
1.0
 40
1.0
 40
1.0
 40
1.0
 10
6.6203837948
 20
47.3804285786
 30
0.0
 10
6.551960786
 20
47.3516851656
 30
0.0
 10
6.452117094
 20
47.3145066866
 30
0.0
 10
6.3510508933
 20
47.2810177738
 30
0.0
 10
6.3203837948
 20
47.2711310473
 30
0.0
  0
SPLINE
  5
448
100
AcDbEntity
  8
0
100
AcDbSpline
 62
7
  6
BYLAYER
 70
0
 71
3
 72
9
 73
5
 74
0
 42
0.0000001
 43
0.0000001
 44
0.0000000001
 40
0.0
 40
0.0
 40
0.0
 40
0.0
 40
0.697182221
 40
1.0
 40
1.0
 40
1.0
 40
1.0
 10
50.2203837948
 20
46.0804285786
 30
0.0
 10
50.2888057053
 20
46.051685627
 30
0.0
 10
50.3886540875
 20
46.0145204471
 30
0.0
 10
50.4897176724
 20
45.981023924
 30
0.0
 10
50.5203837948
 20
45.9711310473
 30
0.0
  0
SPLINE
  5
449
100
AcDbEntity
  8
0
100
AcDbSpline
 62
7
  6
BYLAYER
 70
0
 71
3
 72
9
 73
5
 74
0
 42
0.0000001
 43
0.0000001
 44
0.0000000001
 40
0.0
 40
0.0
 40
0.0
 40
0.0
 40
0.3028160594
 40
1.0
 40
1.0
 40
1.0
 40
1.0
 10
50.5203837948
 20
45.6038689527
 30
0.0
 10
50.4897178453
 20
45.5939761357
 30
0.0
 10
50.3886542576
 20
45.5604796217
 30
0.0
 10
50.2888058741
 20
45.5233144439
 30
0.0
 10
50.2203837948
 20
45.4945714214
 30
0.0
  0
SPLINE
  5
44A
100
AcDbEntity
  8
0
100
AcDbSpline
 62
7
  6
BYLAYER
 70
0
 71
3
 72
9
 73
5
 74
0
 42
0.0000001
 43
0.0000001
 44
0.0000000001
 40
0.0
 40
0.0
 40
0.0
 40
0.0
 40
0.697182221
 40
1.0
 40
1.0
 40
1.0
 40
1.0
 10
50.2203837948
 20
47.3804285786
 30
0.0
 10
50.2888057053
 20
47.351685627
 30
0.0
 10
50.3886540875
 20
47.3145204471
 30
0.0
 10
50.4897176724
 20
47.281023924
 30
0.0
 10
50.5203837948
 20
47.2711310473
 30
0.0
  0
SPLINE
  5
44B
100
AcDbEntity
  8
0
100
AcDbSpline
 62
7
  6
BYLAYER
 70
0
 71
3
 72
9
 73
5
 74
0
 42
0.0000001
 43
0.0000001
 44
0.0000000001
 40
0.0
 40
0.0
 40
0.0
 40
0.0
 40
0.3028160594
 40
1.0
 40
1.0
 40
1.0
 40
1.0
 10
50.5203837948
 20
46.9038689527
 30
0.0
 10
50.4897178453
 20
46.8939761357
 30
0.0
 10
50.3886542576
 20
46.8604796217
 30
0.0
 10
50.2888058741
 20
46.8233144439
 30
0.0
 10
50.2203837948
 20
46.7945714214
 30
0.0
  0
SPLINE
  5
44C
100
AcDbEntity
  8
0
100
AcDbSpline
 62
7
  6
BYLAYER
 70
0
 71
3
 72
9
 73
5
 74
0
 42
0.0000001
 43
0.0000001
 44
0.0000000001
 40
0.0
 40
0.0
 40
0.0
 40
0.0
 40
0.302805645
 40
1.0
 40
1.0
 40
1.0
 40
1.0
 10
6.3203837948
 20
46.9038689527
 30
0.0
 10
6.3510507187
 20
46.8939822863
 30
0.0
 10
6.4521169221
 20
46.8604933828
 30
0.0
 10
6.5519606156
 20
46.823314906
 30
0.0
 10
6.6203837948
 20
46.7945714214
 30
0.0
  0
SPLINE
  5
44D
100
AcDbEntity
  8
0
100
AcDbSpline
 62
7
  6
BYLAYER
 70
0
 71
3
 72
9
 73
5
 74
0
 42
0.0000001
 43
0.0000001
 44
0.0000000001
 40
0.0
 40
0.0
 40
0.0
 40
0.0
 40
0.6971926181
 40
1.0
 40
1.0
 40
1.0
 40
1.0
 10
6.6203837948
 20
46.0804285786
 30
0.0
 10
6.551960786
 20
46.0516851656
 30
0.0
 10
6.452117094
 20
46.0145066866
 30
0.0
 10
6.3510508933
 20
45.9810177738
 30
0.0
 10
6.3203837948
 20
45.9711310473
 30
0.0
  0
SPLINE
  5
44E
100
AcDbEntity
  8
0
100
AcDbSpline
 62
7
  6
BYLAYER
 70
0
 71
3
 72
14
 73
10
 74
0
 42
0.0000001
 43
0.0000001
 44
0.0000000001
 40
0.0
 40
0.0
 40
0.0
 40
0.0
 40
0.0224946528
 40
0.0899333921
 40
0.1990653796
 40
0.3484144446
 40
0.5343787939
 40
0.7507003403
 40
1.0
 40
1.0
 40
1.0
 40
1.0
 10
39.3203837948
 20
49.3568545576
 30
0.0
 10
39.3389501776
 20
49.3631614816
 30
0.0
 10
39.4131801052
 20
49.3883714362
 30
0.0
 10
39.5774952666
 20
49.4441464988
 30
0.0
 10
39.846489548
 20
49.5355546794
 30
0.0
 10
40.2133791139
 20
49.6599942385
 30
0.0
 10
40.668615897
 20
49.8148514707
 30
0.0
 10
41.2065169978
 20
49.9972356777
 30
0.0
 10
41.5909760579
 20
50.1273450391
 30
0.0
 10
41.7965871563
 20
50.1976911859
 30
0.0
  0
SPLINE
  5
44F
100
AcDbEntity
  8
0
100
AcDbSpline
 62
7
  6
BYLAYER
 70
0
 71
3
 72
12
 73
8
 74
0
 42
0.0000001
 43
0.0000001
 44
0.0000000001
 40
0.0
 40
0.0
 40
0.0
 40
0.0
 40
0.1955676836
 40
0.397846403
 40
0.6022182524
 40
0.8044310266
 40
1.0
 40
1.0
 40
1.0
 40
1.0
 10
41.7965871563
 20
50.1976911859
 30
0.0
 10
41.9813707778
 20
50.2612392122
 30
0.0
 10
42.3672381025
 20
50.3625919353
 30
0.0
 10
42.9653492963
 20
50.4409184372
 30
0.0
 10
43.5755464027
 20
50.4409036019
 30
0.0
 10
44.1735922865
 20
50.3625807321
 30
0.0
 10
44.5593930874
 20
50.2612323443
 30
0.0
 10
44.7441804334
 20
50.1976911859
 30
0.0
  0
SPLINE
  5
450
100
AcDbEntity
  8
0
100
AcDbSpline
 62
7
  6
BYLAYER
 70
0
 71
3
 72
13
 73
9
 74
0
 42
0.0000001
 43
0.0000001
 44
0.0000000001
 40
0.0
 40
0.0
 40
0.0
 40
0.0
 40
0.28443098
 40
0.5286314501
 40
0.7328260431
 40
0.8803436259
 40
0.9707593472
 40
1.0
 40
1.0
 40
1.0
 40
1.0
 10
44.7441804334
 20
50.1976911859
 30
0.0
 10
44.978699355
 20
50.1172365932
 30
0.0
 10
45.4153678198
 20
49.9700550228
 30
0.0
 10
46.0201414059
 20
49.7643612432
 30
0.0
 10
46.5120285991
 20
49.5973987157
 30
0.0
 10
46.8769596587
 20
49.4734743605
 30
0.0
 10
47.0974841411
 20
49.3985875997
 30
0.0
 10
47.1962485239
 20
49.3650500846
 30
0.0
 10
47.2203837948
 20
49.3568545576
 30
0.0
  0
SPLINE
  5
451
100
AcDbEntity
  8
0
100
AcDbSpline
 62
7
  6
BYLAYER
 70
0
 71
3
 72
14
 73
10
 74
0
 42
0.0000001
 43
0.0000001
 44
0.0000000001
 40
0.0
 40
0.0
 40
0.0
 40
0.0
 40
0.0224946528
 40
0.0899333921
 40
0.1990653796
 40
0.3484144446
 40
0.5343787939
 40
0.7507003403
 40
1.0
 40
1.0
 40
1.0
 40
1.0
 10
30.7203837948
 20
49.3568545576
 30
0.0
 10
30.7389501776
 20
49.3631614816
 30
0.0
 10
30.8131801052
 20
49.3883714362
 30
0.0
 10
30.9774952666
 20
49.4441464987
 30
0.0
 10
31.246489548
 20
49.5355546794
 30
0.0
 10
31.6133791139
 20
49.6599942385
 30
0.0
 10
32.068615897
 20
49.8148514707
 30
0.0
 10
32.6065169978
 20
49.9972356777
 30
0.0
 10
32.9909760579
 20
50.1273450391
 30
0.0
 10
33.1965871563
 20
50.1976911859
 30
0.0
  0
SPLINE
  5
452
100
AcDbEntity
  8
0
100
AcDbSpline
 62
7
  6
BYLAYER
 70
0
 71
3
 72
12
 73
8
 74
0
 42
0.0000001
 43
0.0000001
 44
0.0000000001
 40
0.0
 40
0.0
 40
0.0
 40
0.0
 40
0.1955676836
 40
0.397846403
 40
0.6022182524
 40
0.8044310266
 40
1.0
 40
1.0
 40
1.0
 40
1.0
 10
33.1965871563
 20
50.1976911859
 30
0.0
 10
33.3813707778
 20
50.2612392122
 30
0.0
 10
33.7672381025
 20
50.3625919353
 30
0.0
 10
34.3653492963
 20
50.4409184372
 30
0.0
 10
34.9755464027
 20
50.4409036019
 30
0.0
 10
35.5735922865
 20
50.3625807321
 30
0.0
 10
35.9593930874
 20
50.2612323443
 30
0.0
 10
36.1441804334
 20
50.1976911859
 30
0.0
  0
SPLINE
  5
453
100
AcDbEntity
  8
0
100
AcDbSpline
 62
7
  6
BYLAYER
 70
0
 71
3
 72
13
 73
9
 74
0
 42
0.0000001
 43
0.0000001
 44
0.0000000001
 40
0.0
 40
0.0
 40
0.0
 40
0.0
 40
0.28443098
 40
0.5286314501
 40
0.7328260431
 40
0.8803436259
 40
0.9707593472
 40
1.0
 40
1.0
 40
1.0
 40
1.0
 10
36.1441804334
 20
50.1976911859
 30
0.0
 10
36.378699355
 20
50.1172365932
 30
0.0
 10
36.8153678198
 20
49.9700550228
 30
0.0
 10
37.4201414059
 20
49.7643612432
 30
0.0
 10
37.9120285991
 20
49.5973987157
 30
0.0
 10
38.2769596587
 20
49.4734743605
 30
0.0
 10
38.4974841411
 20
49.3985875997
 30
0.0
 10
38.5962485239
 20
49.3650500846
 30
0.0
 10
38.6203837948
 20
49.3568545576
 30
0.0
  0
SPLINE
  5
454
100
AcDbEntity
  8
0
100
AcDbSpline
 62
7
  6
BYLAYER
 70
0
 71
3
 72
14
 73
10
 74
0
 42
0.0000001
 43
0.0000001
 44
0.0000000001
 40
0.0
 40
0.0
 40
0.0
 40
0.0
 40
0.0224946528
 40
0.0899333921
 40
0.1990653796
 40
0.3484144446
 40
0.5343787939
 40
0.7507003403
 40
1.0
 40
1.0
 40
1.0
 40
1.0
 10
18.2203837948
 20
49.3568545576
 30
0.0
 10
18.2389501776
 20
49.3631614816
 30
0.0
 10
18.3131801052
 20
49.3883714362
 30
0.0
 10
18.4774952666
 20
49.4441464987
 30
0.0
 10
18.746489548
 20
49.5355546794
 30
0.0
 10
19.1133791139
 20
49.6599942385
 30
0.0
 10
19.568615897
 20
49.8148514707
 30
0.0
 10
20.1065169978
 20
49.9972356777
 30
0.0
 10
20.4909760579
 20
50.1273450391
 30
0.0
 10
20.6965871563
 20
50.1976911859
 30
0.0
  0
SPLINE
  5
455
100
AcDbEntity
  8
0
100
AcDbSpline
 62
7
  6
BYLAYER
 70
0
 71
3
 72
12
 73
8
 74
0
 42
0.0000001
 43
0.0000001
 44
0.0000000001
 40
0.0
 40
0.0
 40
0.0
 40
0.0
 40
0.1955676836
 40
0.397846403
 40
0.6022182524
 40
0.8044310266
 40
1.0
 40
1.0
 40
1.0
 40
1.0
 10
20.6965871563
 20
50.1976911859
 30
0.0
 10
20.8813707778
 20
50.2612392122
 30
0.0
 10
21.2672381025
 20
50.3625919353
 30
0.0
 10
21.8653492963
 20
50.4409184372
 30
0.0
 10
22.4755464027
 20
50.4409036019
 30
0.0
 10
23.0735922865
 20
50.3625807321
 30
0.0
 10
23.4593930874
 20
50.2612323443
 30
0.0
 10
23.6441804334
 20
50.1976911859
 30
0.0
  0
SPLINE
  5
456
100
AcDbEntity
  8
0
100
AcDbSpline
 62
7
  6
BYLAYER
 70
0
 71
3
 72
13
 73
9
 74
0
 42
0.0000001
 43
0.0000001
 44
0.0000000001
 40
0.0
 40
0.0
 40
0.0
 40
0.0
 40
0.28443098
 40
0.5286314501
 40
0.7328260431
 40
0.8803436259
 40
0.9707593472
 40
1.0
 40
1.0
 40
1.0
 40
1.0
 10
23.6441804334
 20
50.1976911859
 30
0.0
 10
23.878699355
 20
50.1172365932
 30
0.0
 10
24.3153678198
 20
49.9700550228
 30
0.0
 10
24.9201414059
 20
49.7643612432
 30
0.0
 10
25.4120285991
 20
49.5973987157
 30
0.0
 10
25.7769596587
 20
49.4734743605
 30
0.0
 10
25.9974841411
 20
49.3985875997
 30
0.0
 10
26.0962485239
 20
49.3650500846
 30
0.0
 10
26.1203837948
 20
49.3568545576
 30
0.0
  0
SPLINE
  5
457
100
AcDbEntity
  8
0
100
AcDbSpline
 62
7
  6
BYLAYER
 70
0
 71
3
 72
14
 73
10
 74
0
 42
0.0000001
 43
0.0000001
 44
0.0000000001
 40
0.0
 40
0.0
 40
0.0
 40
0.0
 40
0.0224946528
 40
0.0899333921
 40
0.1990653796
 40
0.3484144446
 40
0.5343787939
 40
0.7507003403
 40
1.0
 40
1.0
 40
1.0
 40
1.0
 10
9.6203837948
 20
49.3568545576
 30
0.0
 10
9.6389501776
 20
49.3631614816
 30
0.0
 10
9.7131801052
 20
49.3883714362
 30
0.0
 10
9.8774952666
 20
49.4441464988
 30
0.0
 10
10.146489548
 20
49.5355546794
 30
0.0
 10
10.5133791139
 20
49.6599942385
 30
0.0
 10
10.968615897
 20
49.8148514707
 30
0.0
 10
11.5065169978
 20
49.9972356777
 30
0.0
 10
11.8909760579
 20
50.1273450391
 30
0.0
 10
12.0965871563
 20
50.1976911859
 30
0.0
  0
SPLINE
  5
458
100
AcDbEntity
  8
0
100
AcDbSpline
 62
7
  6
BYLAYER
 70
0
 71
3
 72
12
 73
8
 74
0
 42
0.0000001
 43
0.0000001
 44
0.0000000001
 40
0.0
 40
0.0
 40
0.0
 40
0.0
 40
0.1955676836
 40
0.397846403
 40
0.6022182524
 40
0.8044310266
 40
1.0
 40
1.0
 40
1.0
 40
1.0
 10
12.0965871563
 20
50.1976911859
 30
0.0
 10
12.2813707778
 20
50.2612392122
 30
0.0
 10
12.6672381025
 20
50.3625919353
 30
0.0
 10
13.2653492963
 20
50.4409184372
 30
0.0
 10
13.8755464027
 20
50.4409036019
 30
0.0
 10
14.4735922865
 20
50.3625807321
 30
0.0
 10
14.8593930874
 20
50.2612323443
 30
0.0
 10
15.0441804334
 20
50.1976911859
 30
0.0
  0
SPLINE
  5
459
100
AcDbEntity
  8
0
100
AcDbSpline
 62
7
  6
BYLAYER
 70
0
 71
3
 72
13
 73
9
 74
0
 42
0.0000001
 43
0.0000001
 44
0.0000000001
 40
0.0
 40
0.0
 40
0.0
 40
0.0
 40
0.28443098
 40
0.5286314501
 40
0.7328260431
 40
0.8803436259
 40
0.9707593472
 40
1.0
 40
1.0
 40
1.0
 40
1.0
 10
15.0441804334
 20
50.1976911859
 30
0.0
 10
15.278699355
 20
50.1172365932
 30
0.0
 10
15.7153678198
 20
49.9700550228
 30
0.0
 10
16.3201414059
 20
49.7643612432
 30
0.0
 10
16.8120285991
 20
49.5973987157
 30
0.0
 10
17.1769596587
 20
49.4734743605
 30
0.0
 10
17.3974841411
 20
49.3985875997
 30
0.0
 10
17.4962485239
 20
49.3650500846
 30
0.0
 10
17.5203837948
 20
49.3568545576
 30
0.0
  0
ELLIPSE
  5
45A
100
AcDbEntity
  8
0
100
AcDbEllipse
 62
7
  6
BYLAYER
 10
45.3703837948
 20
25.6466674597
 30
0.0
 11
7.6400507694
 21
7.6400507694
 31
0.0
 40
0.8546184057
 41
-4.0528305086
 42
-3.9570320405
  0
ELLIPSE
  5
45B
100
AcDbEntity
  8
0
100
AcDbEllipse
 62
7
  6
BYLAYER
 10
34.8821592676
 20
25.1384833568
 30
0.0
 11
0.3801020283
 21
0.3801020283
 31
0.0
 40
0.8546184057
 41
-0.865593858
 42
-0.8154393869
  0
ELLIPSE
  5
45C
100
AcDbEntity
  8
0
100
AcDbEllipse
 62
7
  6
BYLAYER
 10
11.4703837948
 20
25.5697641377
 30
0.0
 11
7.3667046336
 21
7.3667046467
 31
0.0
 40
0.9279914518
 41
-0.8591233281
 42
-0.7877941801
  0
ELLIPSE
  5
45D
100
AcDbEntity
  8
0
100
AcDbEllipse
 62
7
  6
BYLAYER
 10
17.8753837948
 20
49.5185659087
 30
0.0
 11
0.0
 21
-0.4089340913
 31
0.0
 40
0.9659258263
 41
1.5707963268
 42
1.8728214899
  0
ELLIPSE
  5
45E
100
AcDbEntity
  8
0
100
AcDbEllipse
 62
7
  6
BYLAYER
 10
27.5560980806
 20
32.0875
 30
0.0
 11
-0.0
 21
0.3
 31
0.0
 40
0.2142857143
 41
-3.1415926536
 42
-1.5707963268
  0
ELLIPSE
  5
45F
100
AcDbEntity
  8
0
100
AcDbEllipse
 62
7
  6
BYLAYER
 10
17.8653837948
 20
49.5185659087
 30
0.0
 11
0.0
 21
0.4089340913
 31
0.0
 40
0.9659258263
 41
1.2706742517
 42
1.5707963268
  0
ELLIPSE
  5
460
100
AcDbEntity
  8
0
100
AcDbEllipse
 62
7
  6
BYLAYER
 10
38.9653837948
 20
39.8364340913
 30
0.0
 11
0.0
 21
0.4089340913
 31
0.0
 40
0.9659258263
 41
1.5707963268
 42
1.6991578148
  0
ELLIPSE
  5
461
100
AcDbEntity
  8
0
100
AcDbEllipse
 62
7
  6
BYLAYER
 10
38.9753837948
 20
39.8364340913
 30
0.0
 11
0.0
 21
-0.4089340913
 31
0.0
 40
0.9659258263
 41
1.4368273411
 42
1.5707963268
  0
ELLIPSE
  5
462
100
AcDbEntity
  8
0
100
AcDbEllipse
 62
7
  6
BYLAYER
 10
17.8753837948
 20
39.8364340913
 30
0.0
 11
0.0
 21
-0.4089340913
 31
0.0
 40
0.9659258263
 41
1.4368273411
 42
1.5707963268
  0
ELLIPSE
  5
463
100
AcDbEntity
  8
0
100
AcDbEllipse
 62
7
  6
BYLAYER
 10
17.8653837948
 20
39.8364340913
 30
0.0
 11
0.0
 21
0.4089340913
 31
0.0
 40
0.9659258263
 41
1.5707963268
 42
1.6991578148
  0
ELLIPSE
  5
464
100
AcDbEntity
  8
0
100
AcDbEllipse
 62
7
  6
BYLAYER
 10
29.2846695091
 20
33.0875
 30
0.0
 11
-0.0
 21
0.3
 31
0.0
 40
0.2142857143
 41
0.2160830651
 42
1.5707963268
  0
ELLIPSE
  5
465
100
AcDbEntity
  8
0
100
AcDbEllipse
 62
7
  6
BYLAYER
 10
29.2846695091
 20
32.0875
 30
0.0
 11
-0.0
 21
0.3
 31
0.0
 40
0.2142857143
 41
-4.7123889804
 42
-3.1415926536
  0
ELLIPSE
  5
466
100
AcDbEntity
  8
0
100
AcDbEllipse
 62
7
  6
BYLAYER
 10
38.9653837948
 20
49.5185659087
 30
0.0
 11
0.0
 21
0.4089340913
 31
0.0
 40
0.9659258263
 41
1.2706742517
 42
1.5707963268
  0
ELLIPSE
  5
467
100
AcDbEntity
  8
0
100
AcDbEllipse
 62
7
  6
BYLAYER
 10
38.9753837948
 20
49.5185659087
 30
0.0
 11
0.0
 21
-0.4089340913
 31
0.0
 40
0.9659258263
 41
1.5707963268
 42
1.8728214899
  0
ELLIPSE
  5
468
100
AcDbEntity
  8
0
100
AcDbEllipse
 62
7
  6
BYLAYER
 10
27.5560980806
 20
33.0875
 30
0.0
 11
0.0
 21
0.3
 31
0.0
 40
0.2142857143
 41
-1.5707963268
 42
-0.2187207276
  0
ELLIPSE
  5
469
100
AcDbEntity
  8
0
100
AcDbEllipse
 62
7
  6
BYLAYER
 10
38.9703837948
 20
49.2985806177
 30
0.0
 11
0.0
 21
-0.5176380902
 31
0.0
 40
0.9659258263
 41
7.853981634
 42
10.9955742876
  0
ELLIPSE
  5
46A
100
AcDbEntity
  8
0
100
AcDbEllipse
 62
7
  6
BYLAYER
 10
17.8703837948
 20
49.2985806177
 30
0.0
 11
0.0
 21
-0.5176380902
 31
0.0
 40
0.9659258263
 41
7.853981634
 42
10.9955742876
  0
ELLIPSE
  5
46B
100
AcDbEntity
  8
0
100
AcDbEllipse
 62
7
  6
BYLAYER
 10
17.8703837948
 20
40.1051380902
 30
0.0
 11
0.0
 21
-0.5176380902
 31
0.0
 40
0.9659258263
 41
4.7123889804
 42
7.853981634
  0
ELLIPSE
  5
46C
100
AcDbEntity
  8
0
100
AcDbEllipse
 62
7
  6
BYLAYER
 10
38.9703837948
 20
40.1051380902
 30
0.0
 11
0.0
 21
-0.5176380902
 31
0.0
 40
0.9659258263
 41
4.7123889804
 42
7.853981634
  0
ELLIPSE
  5
46D
100
AcDbEntity
  8
0
100
AcDbEllipse
 62
7
  6
BYLAYER
 10
48.6162252608
 20
40.2464168043
 30
0.0
 11
0.0
 21
0.3
 31
0.0
 40
0.0528048867
 41
-4.7123889804
 42
-3.4033920414
  0
ELLIPSE
  5
46E
100
AcDbEntity
  8
0
100
AcDbEllipse
 62
7
  6
BYLAYER
 10
8.2245423288
 20
40.2464168043
 30
0.0
 11
-0.0
 21
0.3
 31
0.0
 40
0.0528048867
 41
-2.8797932658
 42
-1.5707963268
  0
ENDSEC
  0
SECTION
  2
OBJECTS
  0
DICTIONARY
  5
C
100
AcDbDictionary
280
0
281
1
  3
ACAD_GROUP
350
D
  3
ACAD_MLINESTYLE
350
17
  3
ACAD_LAYOUT
350
1A
  3
ACAD_PLOTSETTINGS
350
19
  3
ACAD_PLOTSTYLENAME
350
E
  0
DICTIONARY
  5
D
102
{ACAD_REACTORS
330
C
102
}
100
AcDbDictionary
280
0
281
1
  0
ACDBDICTIONARYWDFLT
  5
E
102
{ACAD_REACTORS
330
C
102
}
100
AcDbDictionary
281
1
  3
Normal
350
F
100
AcDbDictionaryWithDefault
340
F
  0
DICTIONARY
  5
17
102
{ACAD_REACTORS
330
C
102
}
100
AcDbDictionary
280
0
281
1
  3
Standard
350
18
  0
DICTIONARY
  5
19
102
{ACAD_REACTORS
330
C
102
}
100
AcDbDictionary
281
1
  0
DICTIONARY
  5
1A
102
{ACAD_REACTORS
330
C
102
}
100
AcDbDictionary
281
1
  3
Model
350
46F
  3
Layout1
350
470
  0
ACDBPLACEHOLDER
  5
F
102
{ACAD_REACTORS
330
E
102
}
  0
MLINESTYLE
  5
18
102
{ACAD_REACTORS
330
17
102
}
100
AcDbMlineStyle
  2
STANDARD
 70
0
  3

 62
256
 51
90.0
 52
90.0
 71
2
 49
0.5
 62
256
  6
BYLAYER
 49
-0.5
 62
256
  6
BYLAYER
  0
LAYOUT
  5
46F
102
{ACAD_REACTORS
330
1A
102
}
100
AcDbPlotSettings
  1

  2
none_device
  4

  6

 40
0.0
 41
0.0
 42
0.0
 43
0.0
 44
210.0
 45
297.0
 46
0.0
 47
0.0
 48
0.0
 49
0.0
140
0.0
141
0.0
142
1.0
143
1.0
 70
1024
 72
1
 73
0
 74
0
  7

 75
0
147
1.0
148
0.0
149
0.0
100
AcDbLayout
  1
Model
 70
0
 71
0
 10
0.0
 20
0.0
 11
210.0
 21
297.0
 12
0.0
 22
0.0
 32
0.0
 14
0.0
 24
0.0
 34
0.0
 15
0.0
 25
0.0
 35
0.0
146
0.0
 13
0.0
 23
0.0
 33
0.0
 16
1.0
 26
0.0
 36
0.0
 17
0.0
 27
1.0
 37
0.0
 76
0
330
210
345
0
346
0
  0
LAYOUT
  5
470
102
{ACAD_REACTORS
330
1A
102
}
100
AcDbPlotSettings
  1

  2
none_device
  4

  6

 40
0.0
 41
0.0
 42
0.0
 43
0.0
 44
210.0
 45
297.0
 46
0.0
 47
0.0
 48
0.0
 49
0.0
140
0.0
141
0.0
142
1.0
143
1.0
 70
0
 72
1
 73
0
 74
0
  7

 75
0
147
1.0
148
0.0
149
0.0
100
AcDbLayout
  1
Layout1
 70
0
 71
1
 10
0.0
 20
0.0
 11
210.0
 21
297.0
 12
0.0
 22
0.0
 32
0.0
 14
0.0
 24
0.0
 34
0.0
 15
0.0
 25
0.0
 35
0.0
146
0.0
 13
0.0
 23
0.0
 33
0.0
 16
1.0
 26
0.0
 36
0.0
 17
0.0
 27
1.0
 37
0.0
 76
0
330
211
345
0
346
0
  0
ENDSEC
  0
EOF
