999
DXF file: C:\Users\sesa63760\Dev\_Creo\CAD\MCADID0004558_3D-CAD\drw0001_3.dxf
999
Pro/ENGINEER 2019471 by Parametric Technology Corporation
  0
SECTION
  2
HEADER
  9
$ACADVER
  1
AC1024
  9
$DWGCODEPAGE
  3
ANSI_1252
  9
$EXTMAX
 10
50.5625179586
 20
71.5098468271
 30
0.0
  9
$EXTMIN
 10
0.0
 20
0.0
 30
0.0
  9
$LIMMIN
 10
0.0
 20
0.0
  9
$LIMMAX
 10
50.5625179586
 20
71.5098468271
  9
$VIEWCTR
 10
25.2812589793
 20
35.7549234136
  9
$VIEWSIZE
 40
71.5098468271
  9
$CLAYER
  8
0
  9
$LTSCALE
 40
4.661382608
  9
$CELTYPE
  6
BYLAYER
  9
$DIMSCALE
 40
1.0
  9
$DIMASZ
 40
0.6019347376
  9
$DIMEXO
 40
1.0
  9
$DIMDLI
 40
3.2205916201
  9
$DIMEXE
 40
1.0
  9
$DIMCEN
 40
0.7627716995
  9
$DIMLFAC
 40
1.0
  9
$DIMBLK
  1
_FILLED
  9
$DIMALT
 70
0
  9
$DIMALTF
 40
0.0393700787
  9
$DIMTXT
 40
0.8427086326
  9
$DIMTOL
 70
1
  9
$DIMLIM
 70
0
  9
$DIMTFAC
 40
1.0
  9
$DIMTP
 40
0.01
  9
$DIMTM
 40
0.01
  9
$DIMGAP
 40
0.625
  9
$DIMDSEP
 70
46
  9
$AUNITS
 70
0
  9
$PDMODE
 70
3
  9
$PDSIZE
 40
0.3125
  9
$HANDSEED
  5
289
  9
$TILEMODE
 70
1
  9
$MEASUREMENT
 70
1
  9
$INSUNITS
 70
4
  0
ENDSEC
  0
SECTION
  2
CLASSES
  0
CLASS
  1
ACDBDICTIONARYWDFLT
  2
AcDbDictionaryWithDefault
  3
AutoCAD 2000
 90
0
 91
1
280
0
281
0
  0
CLASS
  1
ACDBPLACEHOLDER
  2
AcDbPlaceHolder
  3
AutoCAD 2000
 90
0
 91
1
280
0
281
0
  0
CLASS
  1
LAYOUT
  2
AcDbLayout
  3
AutoCAD 2000
 90
0
 91
0
280
0
281
0
  0
ENDSEC
  0
SECTION
  2
TABLES
  0
TABLE
  2
VPORT
  5
8
100
AcDbSymbolTable
 70
2
  0
VPORT
  5
1F4
100
AcDbSymbolTableRecord
100
AcDbViewportTableRecord
  2
*ACTIVE
 70
0
 10
0.0
 20
0.0
 11
1.0
 21
1.0
 12
25.2812589793
 22
35.7549234136
 13
0.0
 23
0.0
 14
1.0
 24
1.0
 15
0.0
 25
0.0
 16
0.0
 26
0.0
 36
1.0
 17
0.0
 27
0.0
 37
0.0
 40
71.5098468271
 41
0.7070707071
 42
50.0
 43
0.0
 44
0.0
 50
0.0
 51
0.0
 71
0
 72
100
 73
1
 74
1
 75
0
 76
0
 77
0
 78
0
  0
ENDTAB
  0
TABLE
  2
LTYPE
  5
5
100
AcDbSymbolTable
 70
6
  0
LTYPE
  5
14
100
AcDbSymbolTableRecord
100
AcDbLinetypeTableRecord
  2
BYBLOCK
 70
0
  3

 72
65
 73
0
 40
0.0
  0
LTYPE
  5
15
100
AcDbSymbolTableRecord
100
AcDbLinetypeTableRecord
  2
BYLAYER
 70
0
  3

 72
65
 73
0
 40
0.0
  0
LTYPE
  5
16
100
AcDbSymbolTableRecord
100
AcDbLinetypeTableRecord
  2
CONTINUOUS
 70
64
  3
Solid line
 72
65
 73
0
 40
0.0
  0
LTYPE
  5
1F5
100
AcDbSymbolTableRecord
100
AcDbLinetypeTableRecord
  2
CENTER
 70
64
  3
____ _ ____ _ ____ _ ____ _ ____ _ ____ _ ____
 72
65
 73
4
 40
0.6
 49
0.375
 74
0
 49
-0.075
 74
0
 49
0.075
 74
0
 49
-0.075
 74
0
  0
LTYPE
  5
1F6
100
AcDbSymbolTableRecord
100
AcDbLinetypeTableRecord
  2
HIDDEN
 70
64
  3
- - - - - - - - - - - - - - - - - - - -
 72
65
 73
2
 40
0.2
 49
0.1
 74
0
 49
-0.1
 74
0
  0
LTYPE
  5
1F7
100
AcDbSymbolTableRecord
100
AcDbLinetypeTableRecord
  2
PHANTOM
 70
64
  3
_____ _ _ _____ _ _ _____ _ _ _____
 72
65
 73
6
 40
0.8
 49
0.45
 74
0
 49
-0.05
 74
0
 49
0.1
 74
0
 49
-0.05
 74
0
 49
0.1
 74
0
 49
-0.05
 74
0
  0
LTYPE
  5
1F8
100
AcDbSymbolTableRecord
100
AcDbLinetypeTableRecord
  2
DOT
 70
64
  3
. . . . . . . . . . . . . . . . . . . .
 72
65
 73
2
 40
0.2
 49
0.1
 74
0
 49
-0.1
 74
0
  0
LTYPE
  5
1F9
100
AcDbSymbolTableRecord
100
AcDbLinetypeTableRecord
  2
DASHED
 70
64
  3
- - - - - - - - - - - - - - - - - - - -
 72
65
 73
2
 40
0.2
 49
0.1
 74
0
 49
-0.1
 74
0
  0
ENDTAB
  0
TABLE
  2
LAYER
  5
2
100
AcDbSymbolTable
 70
36
  0
LAYER
  5
10
100
AcDbSymbolTableRecord
100
AcDbLayerTableRecord
  2
0
 70
0
 62
7
  6
CONTINUOUS
370
-3
390
F
  0
LAYER
  5
1FA
100
AcDbSymbolTableRecord
100
AcDbLayerTableRecord
  2
DEFAULT_1
 70
0
 62
7
  6
CENTER
370
-3
390
F
  0
LAYER
  5
1FB
100
AcDbSymbolTableRecord
100
AcDbLayerTableRecord
  2
DEFAULT_2
 70
0
 62
7
  6
HIDDEN
370
-3
390
F
  0
LAYER
  5
1FC
100
AcDbSymbolTableRecord
100
AcDbLayerTableRecord
  2
DEFAULT_3
 70
0
 62
7
  6
PHANTOM
370
-3
390
F
  0
LAYER
  5
1FD
100
AcDbSymbolTableRecord
100
AcDbLayerTableRecord
  2
00_COMPONENTS
 70
0
 62
7
  6
CONTINUOUS
370
-3
390
F
  0
LAYER
  5
1FE
100
AcDbSymbolTableRecord
100
AcDbLayerTableRecord
  2
01_1_DEFAULT_DATUMS
 70
0
 62
7
  6
CONTINUOUS
370
-3
390
F
  0
LAYER
  5
1FF
100
AcDbSymbolTableRecord
100
AcDbLayerTableRecord
  2
01_PLANES
 70
0
 62
7
  6
CONTINUOUS
370
-3
390
F
  0
LAYER
  5
200
100
AcDbSymbolTableRecord
100
AcDbLayerTableRecord
  2
02_COORD_SYS
 70
0
 62
7
  6
CONTINUOUS
370
-3
390
F
  0
LAYER
  5
201
100
AcDbSymbolTableRecord
100
AcDbLayerTableRecord
  2
03_AXES
 70
0
 62
7
  6
CONTINUOUS
370
-3
390
F
  0
LAYER
  5
202
100
AcDbSymbolTableRecord
100
AcDbLayerTableRecord
  2
04_POINTS
 70
0
 62
7
  6
CONTINUOUS
370
-3
390
F
  0
LAYER
  5
203
100
AcDbSymbolTableRecord
100
AcDbLayerTableRecord
  2
05_CURVES
 70
0
 62
7
  6
CONTINUOUS
370
-3
390
F
  0
LAYER
  5
204
100
AcDbSymbolTableRecord
100
AcDbLayerTableRecord
  2
06_SURFS
 70
0
 62
7
  6
CONTINUOUS
370
-3
390
F
  0
LAYER
  5
205
100
AcDbSymbolTableRecord
100
AcDbLayerTableRecord
  2
07_COSMETICS
 70
0
 62
7
  6
CONTINUOUS
370
-3
390
F
  0
LAYER
  5
206
100
AcDbSymbolTableRecord
100
AcDbLayerTableRecord
  2
10_NOTES
 70
0
 62
7
  6
CONTINUOUS
370
-3
390
F
  0
LAYER
  5
207
100
AcDbSymbolTableRecord
100
AcDbLayerTableRecord
  2
11_NOTES_PUB
 70
0
 62
7
  6
CONTINUOUS
370
-3
390
F
  0
LAYER
  5
208
100
AcDbSymbolTableRecord
100
AcDbLayerTableRecord
  2
13_REF_GTOL
 70
0
 62
7
  6
CONTINUOUS
370
-3
390
F
  0
LAYER
  5
209
100
AcDbSymbolTableRecord
100
AcDbLayerTableRecord
  2
16_MISC
 70
0
 62
7
  6
CONTINUOUS
370
-3
390
F
  0
LAYER
  5
20A
100
AcDbSymbolTableRecord
100
AcDbLayerTableRecord
  2
17_NO_PRINT
 70
0
 62
7
  6
CONTINUOUS
370
-3
390
F
  0
LAYER
  5
20B
100
AcDbSymbolTableRecord
100
AcDbLayerTableRecord
  2
18_DATUM_CAMS_JOINTS
 70
0
 62
7
  6
CONTINUOUS
370
-3
390
F
  0
LAYER
  5
20C
100
AcDbSymbolTableRecord
100
AcDbLayerTableRecord
  2
19_DATUM_FUNCTIONAL
 70
0
 62
7
  6
CONTINUOUS
370
-3
390
F
  0
LAYER
  5
20D
100
AcDbSymbolTableRecord
100
AcDbLayerTableRecord
  2
20_DATUM_KINEMATIC_SCHEME
 70
0
 62
7
  6
CONTINUOUS
370
-3
390
F
  0
ENDTAB
  0
TABLE
  2
STYLE
  5
3
100
AcDbSymbolTable
 70
1
  0
STYLE
  5
11
100
AcDbSymbolTableRecord
100
AcDbTextStyleTableRecord
  2
STANDARD
 70
0
 40
0.0
 41
1.0
 50
0.0
 71
0
 42
0.2
  3
ARIAL.TTF
  4

  0
STYLE
  5
20E
100
AcDbSymbolTableRecord
100
AcDbTextStyleTableRecord
  2
TEXTSTYLE_1
 70
0
 40
0.0
 41
0.8
 50
0.0
 71
0
 42
0.2
  3
gdt
  4

  0
ENDTAB
  0
TABLE
  2
VIEW
  5
6
100
AcDbSymbolTable
 70
0
  0
ENDTAB
  0
TABLE
  2
UCS
  5
7
100
AcDbSymbolTable
 70
0
  0
ENDTAB
  0
TABLE
  2
APPID
  5
9
100
AcDbSymbolTable
 70
1
  0
APPID
  5
20F
100
AcDbSymbolTableRecord
100
AcDbRegAppTableRecord
  2
ACAD
 70
0
  0
ENDTAB
  0
TABLE
  2
BLOCK_RECORD
  5
1
100
AcDbSymbolTable
 70
0
  0
BLOCK_RECORD
  5
210
100
AcDbSymbolTableRecord
100
AcDbBlockTableRecord
  2
*Model_Space
  0
BLOCK_RECORD
  5
211
100
AcDbSymbolTableRecord
100
AcDbBlockTableRecord
  2
*Paper_Space
  0
BLOCK_RECORD
  5
212
100
AcDbSymbolTableRecord
100
AcDbBlockTableRecord
  2
_FILLED
  0
ENDTAB
  0
TABLE
  2
DIMSTYLE
  5
A
100
AcDbSymbolTable
 70
1
100
AcDbDimStyleTable
 71
0
  0
DIMSTYLE
105
213
100
AcDbSymbolTableRecord
100
AcDbDimStyleTableRecord
  2
STANDARD
 70
0
  3

  4

 40
1.0
 41
0.6019347376
 42
1.0
 43
0.38
 44
1.0
 45
0.0
 46
0.0
 47
0.01
 48
0.01
140
0.8427086326
141
0.09
142
0.0
143
25.4
144
1.0
145
0.0
146
1.0
147
0.625
 71
1
 72
0
 73
0
 74
0
 75
0
 76
0
 77
1
 78
8
 79
2
170
0
171
1
172
0
173
0
174
0
175
0
176
0
177
0
178
0
270
2
179
2
271
2
272
2
273
2
274
2
275
0
280
0
281
0
282
0
283
1
284
8
285
0
286
0
287
3
288
0
340
11
278
46
341
212
342
212
343
212
344
212
  0
ENDTAB
  0
ENDSEC
  0
SECTION
  2
BLOCKS
  0
BLOCK
  5
20
100
AcDbEntity
  8
0
100
AcDbBlockBegin
  2
*Model_Space
 70
0
 10
0.0
 20
0.0
 30
0.0
  3
*Model_Space
  1

  0
ENDBLK
  5
21
100
AcDbEntity
  8
0
100
AcDbBlockEnd
  0
BLOCK
  5
1C
100
AcDbEntity
  8
0
100
AcDbBlockBegin
  2
*Paper_Space
 70
0
 10
0.0
 20
0.0
 30
0.0
  3
*Paper_Space
  1

  0
ENDBLK
  5
1D
100
AcDbEntity
  8
0
100
AcDbBlockEnd
  0
BLOCK
  5
214
100
AcDbEntity
  8
0
100
AcDbBlockBegin
  2
_FILLED
 70
64
 10
0.0
 20
0.0
  3
_FILLED
  1

  0
SOLID
  5
215
100
AcDbEntity
  8
0
  6
BYBLOCK
 62
0
100
AcDbTrace
 10
0.0
 20
0.0
 11
-1.0
 21
0.25
 12
-1.0
 22
-0.25
 13
-1.0
 23
-0.25
  0
ENDBLK
  5
216
100
AcDbEntity
  8
0
  6
BYBLOCK
 62
0
100
AcDbBlockEnd
  0
ENDSEC
  0
SECTION
  2
ENTITIES
  0
LWPOLYLINE
  5
217
100
AcDbEntity
  8
0
100
AcDbPolyline
 62
7
  6
BYLAYER
 90
82
 70
0
 10
12.2868687321
 20
33.2183720658
 10
12.0991267623
 20
37.4094257938
 10
13.1655549464
 20
41.4659323401
 10
15.3879891773
 20
45.0217722778
 10
18.5649295387
 20
47.7573360702
 10
22.4101515473
 20
49.4263972536
 10
26.5769015265
 20
49.877881729
 10
30.6887505724
 20
49.072477298
 10
34.3759078768
 20
47.084428991
 10
37.3072260632
 20
44.0928780352
 10
39.2184280745
 20
40.3667952797
 10
39.9381151902
 20
36.2426102543
 10
39.4035444537
 20
32.0915151576
 10
37.6634966184
 20
28.2858316084
 10
34.87394125
 20
25.1675764561
 10
31.2863474657
 20
23.0169538102
 10
27.2240391932
 20
22.0253035504
 10
23.0511055286
 20
22.2803551055
 10
19.1415496612
 20
23.7594121218
 10
15.846362595
 20
26.3294566946
 10
13.4597750912
 20
29.7582734312
 10
12.1940370759
 20
33.7384989213
 10
12.1622511261
 20
37.9142456214
 10
13.3673305214
 20
41.9113426373
 10
15.6993694357
 20
45.3724858037
 10
18.9488571259
 20
47.9896398609
 10
22.8257792621
 20
49.5296058527
 10
26.983594401
 20
49.8544884144
 10
31.050566458
 20
48.9371807408
 10
34.6647137319
 20
46.8612222769
 10
37.5046926503
 20
43.8117898001
 10
39.3170085798
 20
40.0606453923
 10
39.9415453469
 20
35.943128192
 10
39.3247826818
 20
31.8257323286
 10
37.5222021716
 20
28.0739114166
 10
34.6938663634
 20
25.021480476
 10
31.0926349621
 20
22.9391864845
 10
27.039231469
 20
22.0099153902
 10
22.892911774
 20
22.3150838446
 10
19.0214563414
 20
23.8278709832
 10
15.7683593062
 20
26.4127377534
 10
13.4198717979
 20
29.8396739944
 10
12.1831305233
 20
33.8066208694
 10
12.1695479858
 20
37.9634630695
 10
13.3815787156
 20
41.9407542553
 10
15.7114664848
 20
45.3857452497
 10
18.9535723802
 20
47.9927187203
 10
22.8214944417
 20
49.5285266025
 10
26.9713692577
 20
49.8550860755
 10
31.034034573
 20
48.9436391177
 10
34.6485725245
 20
46.8744004416
 10
37.492455424
 20
43.8296475242
 10
39.310735079
 20
40.0798561859
 10
39.9414964819
 20
35.9596203336
 10
39.3280863882
 20
31.835547184
 10
37.5233395057
 20
28.0754432958
 10
34.6868392811
 20
25.0162350515
 10
31.0723950922
 20
22.9313141145
 10
27.0022787209
 20
22.0069224375
 10
22.8394851432
 20
22.3271755274
 10
18.956973485
 20
23.8654695683
 10
15.7026583832
 20
26.4838765152
 10
13.3675834604
 20
29.9483143722
 10
12.1617074067
 20
33.9497582597
 10
12.1952643392
 20
38.1298758387
 10
13.4654471413
 20
42.1132530103
 10
15.8582491811
 20
45.5428923747
 10
19.1602570664
 20
48.1109542251
 10
23.0761570195
 20
49.5850728122
 10
27.2537321187
 20
49.8320289037
 10
31.3176474739
 20
48.8300083767
 10
34.9030566736
 20
46.6681185418
 10
37.6864865193
 20
43.5390686335
 10
39.4161745325
 20
39.7243336523
 10
39.9368495072
 20
35.5676105537
 10
39.2011932528
 20
31.4424746886
 10
37.2736851269
 20
27.7206086029
 10
34.3271058072
 20
24.7388179598
 10
30.6277268855
 20
22.7658187226
 10
26.5086614811
 20
21.9794673336
 10
22.3408116821
 20
22.4520707821
 10
18.5010759766
 20
24.1427514114
  0
LWPOLYLINE
  5
218
100
AcDbEntity
  8
0
100
AcDbPolyline
 62
7
  6
BYLAYER
 90
82
 70
0
 10
14.5737389398
 20
43.9772521282
 10
17.4793115878
 20
47.0034421396
 10
21.1523492022
 20
49.0286110501
 10
25.2600225091
 20
49.8713634316
 10
29.4319209952
 20
49.4572108708
 10
33.2923483864
 20
47.8236265029
 10
36.4927729589
 20
45.1175359323
 10
38.7451331958
 20
41.5844279185
 10
39.8481802906
 20
37.5432953836
 10
39.7032775767
 20
33.3574852309
 10
38.3229555507
 20
29.403867023
 10
35.8326471043
 20
26.0385712692
 10
32.4578904138
 20
23.563016048
 10
28.5019504797
 20
22.1986359751
 10
24.3200659412
 20
22.0683437834
 10
20.2885707478
 20
23.1832668445
 10
16.7689983559
 20
25.4412147882
 10
14.0759629055
 20
28.6390244648
 10
12.4509482447
 20
32.4902014394
 10
12.0396768058
 20
36.6488361566
 10
12.876892019
 20
40.7417147052
 10
14.8863816486
 20
44.4031678463
 10
17.888419697
 20
47.3058628708
 10
21.6140511862
 20
49.1896545022
 10
25.7287332877
 20
49.887729512
 10
29.8649128313
 20
49.3393825494
 10
33.6537141447
 20
47.5938152741
 10
36.7562955333
 20
44.8068879093
 10
38.8966705421
 20
41.2291078851
 10
39.885706431
 20
37.1802225976
 10
39.6358982039
 20
33.0206415445
 10
38.16923346
 20
29.1213508493
 10
35.6181361249
 20
25.8295585632
 10
32.2111023106
 20
23.4367640737
 10
28.2510444279
 20
22.1548131317
 10
24.0900841822
 20
22.0979983061
 10
20.0986659105
 20
23.2699181212
 10
16.6304076648
 20
25.5644353658
 10
13.9920189763
 20
28.7775335477
 10
12.4177055253
 20
32.6243802111
 10
12.0461940128
 20
36.7627561892
 10
12.9083219255
 20
40.8267469666
 10
14.9281922747
 20
44.4580442915
 10
17.9290936452
 20
47.3345200044
 10
21.6451760855
 20
49.1996191875
 10
25.7466777668
 20
49.8881131425
 10
29.8703941861
 20
49.3380911365
 10
33.6499776863
 20
47.5961739483
 10
36.7482976449
 20
44.8161531729
 10
38.8899468059
 20
41.245533634
 10
39.884118395
 20
37.2009995257
 10
39.6403912348
 20
33.041818435
 10
38.1788190474
 20
29.1391420808
 10
35.6300455716
 20
25.840967253
 10
32.2204882532
 20
23.4411401386
 10
28.2529380996
 20
22.1550459202
 10
24.0814395801
 20
22.0994697741
 10
20.0790071518
 20
23.2791463252
 10
16.6027569154
 20
25.5891315075
 10
13.9639313839
 20
28.8245622712
 10
12.4004647247
 20
32.6970056005
 10
12.0524020618
 20
36.8593936294
 10
12.9509371707
 20
40.9395332371
 10
15.0170745452
 20
44.5722686515
 10
18.0673395898
 20
47.4306584428
 10
21.8279321355
 20
49.2578425463
 10
25.9617035089
 20
49.8901889728
 10
30.0985508107
 20
49.2699534175
 10
33.866547151
 20
47.4507498467
 10
36.9263232372
 20
44.5957732579
 10
39.0032436201
 20
40.9617871718
 10
39.9102320904
 20
36.8744532361
 10
39.5637698141
 20
32.7009176935
 10
37.9940727403
 20
28.8176105081
 10
35.342958475
 20
25.5739948558
 10
31.8483282264
 20
23.2619621017
 10
27.8238102607
 20
22.0911376573
 10
23.6324626943
 20
22.1686663854
 10
19.6525081599
 20
23.4870336715
 10
16.242466606
 20
25.9276616467
 10
13.7104820483
 20
29.2718177683
 10
12.2868686015
 20
33.2183727258
  0
LWPOLYLINE
  5
219
100
AcDbEntity
  8
0
100
AcDbPolyline
 62
7
  6
BYLAYER
 90
3
 70
0
 10
16.4597260462
 20
46.1399329766
 10
19.9307016943
 20
48.5115735843
 10
23.9420881964
 20
49.740699131
  0
LWPOLYLINE
  5
21A
100
AcDbEntity
  8
0
100
AcDbPolyline
 62
7
  6
BYLAYER
 90
36
 70
0
 10
19.9223037537
 20
48.5072721159
 10
23.9439712108
 20
49.7411668016
 10
28.1533842039
 20
49.720426944
 10
32.1700244031
 20
48.4437114297
 10
35.626360192
 20
46.0231229945
 10
38.2039315468
 20
42.6763987219
 10
39.6632996531
 20
38.707733427
 10
39.8668904038
 20
34.4804620746
 10
38.7930281829
 20
30.3835600577
 10
36.5383627049
 20
26.7951547508
 10
33.3090824269
 20
24.0472987556
 10
29.4021109745
 20
22.3950075692
 10
25.1778381171
 20
21.9923487278
 10
21.026841779
 20
22.8777782299
 10
17.3335681466
 20
24.9700956451
 10
14.4400029944
 20
28.0755179
 10
12.6135248176
 20
31.9062377019
 10
12.0222372353
 20
36.1075839024
 10
12.7196075546
 20
40.2910831015
 10
14.6397605653
 20
44.0705647823
 10
17.6038663378
 20
47.0979699227
 10
21.3369152603
 20
49.0955741958
 10
25.4935750166
 20
49.882019795
 10
29.6910873947
 20
49.3884727081
 10
33.5449293298
 20
47.6639675862
 10
36.7040604107
 20
44.8699946478
 10
38.8828078452
 20
41.264851698
 10
39.8864134889
 20
37.179401758
 10
39.6284202705
 20
32.986566298
 10
38.1365573896
 20
29.0634460705
 10
35.5446129589
 20
25.7595289062
 10
32.0824904963
 20
23.3732429166
 10
28.0610451128
 20
22.1250444857
 10
23.8450117435
 20
22.1334933524
 10
19.8193972321
 20
23.4025802112
 10
16.3539406129
 20
25.8200682942
  0
LWPOLYLINE
  5
21B
100
AcDbEntity
  8
0
100
AcDbPolyline
 62
7
  6
BYLAYER
 90
52
 70
0
 10
29.3588216495
 20
22.3841935239
 10
25.1473758355
 20
21.9939598478
 10
21.0158210929
 20
22.8823579885
 10
17.3425474026
 20
24.9639609268
 10
14.461415442
 20
28.0447795619
 10
12.6327667872
 20
31.8414633385
 10
12.0208538996
 20
36.0067418712
 10
12.6776317731
 20
40.1604126196
 10
14.5383224436
 20
43.9261433311
 10
17.4304448706
 20
46.9652648903
 10
21.0913000935
 20
49.0064624582
 10
25.193786248
 20
49.868198525
 10
29.3715383797
 20
49.472181043
 10
33.2476299703
 20
47.8503247509
 10
36.4689773587
 20
45.1451512247
 10
38.7395440265
 20
41.5985655839
 10
39.8494041011
 20
37.5320805893
 10
39.6946878019
 20
33.3157732899
 10
38.2859797841
 20
29.3344945031
 10
35.7481941468
 20
25.9540865455
 10
32.3116680821
 20
23.4872776689
 10
28.2912829655
 20
22.162316504
 10
24.0557449577
 20
22.1030282753
 10
19.9947115079
 20
23.3178335222
 10
16.4840421166
 20
25.6977113286
 10
13.849285677
 20
29.0237549908
 10
12.3345926022
 20
32.9891230154
 10
12.0812733766
 20
37.2280604145
 10
13.1149334273
 20
41.3484261631
 10
15.3411721601
 20
44.9675098793
 10
18.5533171103
 20
47.7497136465
 10
22.4538610972
 20
49.437292514
 10
26.6818038312
 20
49.87330095
 10
30.8449012772
 20
49.0162059069
 10
34.5565074117
 20
46.9461473103
 10
37.4732077712
 20
43.8562187801
 10
39.32554056
 20
40.0329977286
 10
39.9420775925
 20
35.8306207915
 10
39.2661188734
 20
31.6389141323
 10
37.3626411061
 20
27.8458546064
 10
34.4094757578
 20
24.8007828455
 10
30.6801832757
 20
22.7835770618
 10
26.5196067012
 20
21.9795697456
 10
22.3124346153
 20
22.4605301946
 10
18.4455699323
 20
24.1786007776
 10
15.2727162442
 20
26.973383953
 10
13.0834211653
 20
30.5869056292
 10
12.0765088866
 20
34.6863037549
 10
12.3399224911
 20
38.8950805269
 10
13.8453735602
 20
42.8296747166
 10
16.4526542907
 20
46.1333135025
 10
19.9223037537
 20
48.5072721159
  0
LWPOLYLINE
  5
21C
100
AcDbEntity
  8
0
100
AcDbPolyline
 62
7
  6
BYLAYER
 90
82
 70
0
 10
26.6634446759
 20
21.9861606344
 10
22.4899252613
 20
22.4126745195
 10
18.6327226254
 20
24.0602491788
 10
15.4396884778
 20
26.7782897424
 10
13.1975679725
 20
30.320768389
 10
12.1081335983
 20
34.3685616487
 10
12.2701839542
 20
38.5565663411
 10
13.6676196363
 20
42.506648921
 10
16.1729719288
 20
45.8638315118
 10
19.5606463603
 20
48.3266886691
 10
23.5259511188
 20
49.673070488
 10
27.7110273339
 20
49.7825636011
 10
31.7394991524
 20
48.6473230179
 10
35.250165138
 20
46.3699960578
 10
37.9274619907
 20
43.1548419541
 10
39.5309269076
 20
39.2915652119
 10
39.9185047783
 20
35.1279727567
 10
39.0565945436
 20
31.0370636386
 10
37.022284597
 20
27.3855133132
 10
33.9984397004
 20
24.5011158115
 10
30.2577662376
 20
22.641022757
 10
26.1353364386
 20
21.9703065516
 10
21.9997423709
 20
22.5488673154
 10
18.2215665287
 20
24.3249270578
 10
15.1382246611
 20
27.137562911
 10
13.0238415642
 20
30.7345129702
 10
12.066748342
 20
34.7948076725
 10
12.35273724
 20
38.9554789836
 10
13.8543199374
 20
42.8448188354
 10
16.4359737896
 20
46.1169324411
 10
19.8675656916
 20
48.4809746797
 10
23.8432176708
 20
49.7258701517
 10
28.00779774
 20
49.7422077135
 10
31.9909249934
 20
48.5305798154
 10
35.4391711998
 20
46.1992594273
 10
38.0456848169
 20
42.9553567076
 10
39.5795618622
 20
39.0885703051
 10
39.9067305874
 20
34.9428996392
 10
38.9991289401
 20
30.8856402134
 10
36.9370165437
 20
27.2767089924
 10
33.9046570964
 20
24.4361152652
 10
30.1714097186
 20
22.6134387738
 10
26.0663520179
 20
21.9694684614
 10
21.9521188586
 20
22.5632757307
 10
18.1945518481
 20
24.3433189402
 10
15.1268746316
 20
27.151467167
 10
13.0214845525
 20
30.7396274099
 10
12.0671900749
 20
34.7904111582
 10
12.3503601044
 20
38.9434722957
 10
13.845515816
 20
42.8294077582
 10
16.4205790394
 20
46.1028894974
 10
19.8481118881
 20
48.4714774408
 10
23.8232965122
 20
49.7224703218
 10
27.9914753823
 20
49.7445685947
 10
31.981698044
 20
48.5352818645
 10
35.4378218993
 20
46.200608342
 10
38.0498474328
 20
42.9476387421
 10
39.5843930785
 20
39.0673975421
 10
39.9042932633
 20
34.9059060883
 10
38.9793622488
 20
30.8345531153
 10
36.8904014527
 20
27.2184104017
 10
33.8246836977
 20
24.3815113256
 10
30.0562963598
 20
22.5775818836
 10
25.9216206041
 20
21.9691851084
 10
21.791248033
 20
22.6130262889
 10
18.0361553559
 20
24.451486794
 10
14.9928557894
 20
27.3196317554
 10
12.9347105637
 20
30.9613670522
 10
12.0484523546
 20
35.0506022422
 10
12.4144183484
 20
39.2194378005
 10
13.9993585957
 20
43.0933786316
 10
16.6618238309
 20
46.3245093407
 10
20.1639181952
 20
48.6209783907
 10
24.1904080331
 20
49.7748428475
 10
28.3786009676
 20
49.6827054953
 10
32.352016855
 20
48.3523287759
 10
35.752379776
 20
45.9017968457
 10
38.271737531
 20
42.5512384401
 10
39.6831546127
 20
38.6033235198
 10
39.8593447366
 20
34.4135734852
 10
38.7829590994
 20
30.3594743342
 10
36.5494953081
 20
26.8079097815
  0
LWPOLYLINE
  5
21D
100
AcDbEntity
  8
0
100
AcDbPolyline
 62
7
  6
BYLAYER
 90
82
 70
0
 10
18.5010765447
 20
24.1427510509
 10
15.3365628336
 20
26.8970261588
 10
13.1343846547
 20
30.4667496356
 10
12.0919795083
 20
34.528350685
 10
12.3018413472
 20
38.7154997545
 10
13.7448944503
 20
42.6511185459
 10
16.2914143169
 20
45.9799141524
 10
19.7102770058
 20
48.4021768937
 10
23.6927013868
 20
49.7013154958
 10
27.8805927213
 20
49.7610616381
 10
31.8969192653
 20
48.5755208664
 10
35.3798483125
 20
46.2525794292
 10
38.0173041482
 20
43.0027820373
 10
39.5733020938
 20
39.1182146046
 10
39.9077228316
 20
34.9476874055
 10
38.9910684476
 20
30.8665415288
 10
36.9077464847
 20
27.2408707857
 10
33.8453087155
 20
24.3948381832
 10
30.0781111094
 20
22.5836344581
 10
25.944531746
 20
21.9697056722
 10
21.8156417619
 20
22.6059851906
 10
18.0603967871
 20
24.4342146224
 10
15.0145183142
 20
27.290872666
 10
12.9509794307
 20
30.9200334753
 10
12.0527365532
 20
34.995702408
 10
12.3983774462
 20
39.1537305442
 10
13.956778682
 20
43.0232791087
 10
16.5888184516
 20
46.2582972014
 10
20.0577702714
 20
48.570890627
 10
24.0535075706
 20
49.7565328571
 10
28.2203257295
 20
49.7102174436
 10
32.1866074422
 20
48.4357831488
 10
35.599090298
 20
46.048534769
 10
38.155460937
 20
42.7624559451
 10
39.6293293217
 20
38.869748836
 10
39.8893382682
 20
34.7165315966
 10
38.9137974282
 20
30.6726305169
 10
36.7914431389
 20
27.096426256
 10
33.711065635
 20
24.3042283347
 10
29.9457164279
 20
22.5438768239
 10
25.8304293542
 20
21.9706501311
 10
21.7291756736
 20
22.6332237676
 10
18.0035434174
 20
24.4732946306
 10
14.9839084803
 20
27.3300981606
 10
12.9395061977
 20
30.9506344431
 10
12.051476797
 20
35.0136067236
 10
12.3993995544
 20
39.1592684402
 10
13.9546053488
 20
43.0194318904
 10
16.5799549445
 20
46.2498562554
 10
20.0416925856
 20
48.563372524
 10
24.0328330224
 20
49.7539317688
 10
28.1989546378
 20
49.7136706243
 10
32.1683691973
 20
48.4444881948
 10
35.5871134549
 20
46.0598726855
 10
38.1506315954
 20
42.7716169124
 10
39.6290043057
 20
38.8716288753
 10
39.8882908438
 20
34.707825434
 10
38.9055405672
 20
30.6525444324
 10
36.7681272138
 20
27.067602117
 10
33.6654651298
 20
24.2738769328
 10
29.8740199524
 20
22.5231088728
 10
25.7336040241
 20
21.9721300519
 10
21.6144423095
 20
22.6702785528
 10
17.8851135471
 20
24.5564909542
 10
14.8811315354
 20
27.4634827181
 10
12.8724247586
 20
31.1303281098
 10
12.038899487
 20
35.2282743507
 10
12.4563105278
 20
39.390481189
 10
14.0892764655
 20
43.2428467348
 10
16.7913752469
 20
46.4384348178
 10
20.3195657702
 20
48.6903950267
 10
24.3577138125
 20
49.7959659992
 10
28.5431913294
 20
49.6537936017
 10
32.49854172
 20
48.2756691927
 10
35.8677912623
 20
45.7861698716
 10
38.3477756499
 20
42.4086539994
 10
39.7137990669
 20
38.44613526
 10
39.8411092613
 20
34.2560043264
 10
38.7187357875
 20
30.2163993727
 10
36.4476013318
 20
26.6912048254
 10
33.2311245361
 20
23.9988818528
 10
29.3588244123
 20
22.3841797037
  0
LWPOLYLINE
  5
21E
100
AcDbEntity
  8
0
100
AcDbPolyline
 62
7
  6
BYLAYER
 90
82
 70
0
 10
16.3540552223
 20
25.8201878435
 10
13.7847840219
 20
29.1366654774
 10
12.317908908
 20
33.066142775
 10
12.0842586504
 20
37.2528621507
 10
13.1034118861
 20
41.3195052386
 10
15.2834146296
 20
44.8998802982
 10
18.4280028759
 20
47.6706578754
 10
22.2522404881
 20
49.3827284227
 10
26.411157559
 20
49.883601516
 10
30.5308959068
 20
49.1287774461
 10
34.2404593931
 20
47.1857065336
 10
37.2058615746
 20
44.2305006914
 10
39.1618651857
 20
40.5303106628
 10
39.9337129571
 20
36.417495962
 10
39.451705059
 20
32.2614398104
 10
37.7598094938
 20
28.4360644926
 10
35.0119342696
 20
25.2840967753
 10
31.4550228558
 20
23.0870970348
 10
27.4077729624
 20
22.0421065863
 10
23.2336709164
 20
22.2427530846
 10
19.3070023401
 20
23.6688870257
 10
15.97838038
 20
26.1916956834
 10
13.5453713112
 20
29.5855633474
 10
12.2260399004
 20
33.5464174891
 10
12.1365388299
 20
37.7189355627
 10
13.2832289432
 20
41.7306393643
 10
15.5635499246
 20
45.2237979247
 10
18.7738145461
 20
47.8859730633
 10
22.625885801
 20
49.4807339002
 10
26.7758173533
 20
49.8676863163
 10
30.8542830635
 20
49.0129137509
 10
34.4974886387
 20
46.992362704
 10
37.3812956484
 20
43.9877577052
 10
39.2507112173
 20
40.2677267495
 10
39.9404125677
 20
36.1628797731
 10
39.3887722283
 20
32.0382572417
 10
37.6463459094
 20
28.260855172
 10
34.8697898134
 20
25.1649932742
 10
31.3057368688
 20
23.0242874545
 10
27.2701774187
 20
22.0288217251
 10
23.1219250333
 20
22.2658421605
 10
19.2274736524
 20
23.7124015329
 10
15.9302004539
 20
26.2410742963
 10
13.5229633754
 20
29.6299872798
 10
12.2207289325
 20
33.5786641622
 10
12.1387806987
 20
37.7367435813
 10
13.2853072352
 20
41.7358732635
 10
15.5606707202
 20
45.220446112
 10
18.7634803214
 20
47.8794144713
 10
22.6086540384
 20
49.4764818172
 10
26.7550313281
 20
49.8691504728
 10
30.8339897072
 20
49.0204521664
 10
34.4812885573
 20
47.0044444574
 10
37.3717491153
 20
44.0012060072
 10
39.2477532243
 20
40.2776512716
 10
39.9404589098
 20
36.1647871366
 10
39.386053716
 20
32.0299203325
 10
37.6343448915
 20
28.24275539
 10
34.8413192985
 20
25.14124684
 10
31.2551095332
 20
23.0033712749
 10
27.195812542
 20
22.0223752148
 10
23.027231178
 20
22.2861007016
 10
19.1221226795
 20
23.7710357759
 10
15.8301856461
 20
26.3456893078
 10
13.4480516644
 20
29.7807943623
 10
12.1898277319
 20
33.7679651108
 10
12.1681387489
 20
37.9497658424
 10
13.3860438061
 20
41.9516285354
 10
15.7361718838
 20
45.4134482983
 10
19.0075025917
 20
48.023336499
 10
22.9059073047
 20
49.5471126783
 10
27.0818893055
 20
49.8472811583
 10
31.1600402898
 20
48.894852902
 10
34.7723825463
 20
46.7747097413
 10
37.5939189689
 20
43.6781985491
 10
39.370642835
 20
39.8833087834
 10
39.9409932917
 20
35.7309269256
 10
39.2520115198
 20
31.5958683717
 10
37.366383427
 20
27.8512005504
 10
34.4537884984
 20
24.8342751131
 10
30.7756273977
 20
22.8179772969
 10
26.6634440039
 20
21.9861606017
  0
LWPOLYLINE
  5
21F
100
AcDbEntity
  8
0
100
AcDbPolyline
 62
7
  6
BYLAYER
 90
12
 70
0
 10
23.2897290732
 20
45.4922220153
 10
25.2175381786
 20
46.15872106
 10
27.2642739384
 20
46.0568960797
 10
29.1338488626
 20
45.1944290513
 10
30.5446706431
 20
43.6850318375
 10
31.2842501502
 20
41.7517595301
 10
31.2409846746
 20
39.6789442736
 10
30.4145894846
 20
37.7774035262
 10
28.9348723613
 20
36.3300318478
 10
27.0228369052
 20
35.547694482
 10
24.9637484563
 20
35.5449557567
 10
23.0618527344
 20
36.3075078364
  0
LWPOLYLINE
  5
220
100
AcDbEntity
  8
0
100
AcDbPolyline
 62
7
  6
BYLAYER
 90
51
 70
0
 10
21.3205549691
 20
43.5209667199
 10
22.6996985465
 20
45.0964496708
 10
24.5787439519
 20
46.0274176117
 10
26.6711312035
 20
46.1672121986
 10
28.6592962949
 20
45.5004139691
 10
30.2401055431
 20
44.1216567597
 10
31.1740904588
 20
42.2450845987
 10
31.3228756242
 20
40.1542691232
 10
30.6587789084
 20
38.1680277685
 10
29.2911394897
 20
36.5847925619
 10
27.4237652356
 20
35.6435015138
 10
25.3424402458
 20
35.4864533663
 10
23.358627187
 20
36.1282757134
 10
21.7716774791
 20
37.4764389783
 10
20.8153245986
 20
39.3203141881
 10
20.6264926966
 20
41.3864579247
 10
21.2343003596
 20
43.3649174556
 10
22.5366846327
 20
44.9668502633
 10
24.3440325502
 20
45.9576380562
 10
26.3845170271
 20
46.1967195581
 10
28.3624593566
 20
45.6588736118
 10
29.9896211447
 20
44.4213284957
 10
31.0386515669
 20
42.674431833
 10
31.3620423668
 20
40.6676438081
 10
30.9202463236
 20
38.6917966369
 10
29.7858372004
 20
37.0202223925
 10
28.1128614791
 20
35.8882631567
 10
26.1369424354
 20
35.4492258027
 10
24.1311841366
 20
35.774923599
 10
22.385975739
 20
36.8255663115
 10
21.1503812406
 20
38.4534694736
 10
20.6144023399
 20
40.4313313261
 10
20.8549995571
 20
42.4710915395
 10
21.8467300762
 20
44.2773316061
 10
23.4490343642
 20
45.5784859596
 10
25.4273508634
 20
46.185204109
 10
27.4929944435
 20
45.9955933153
 10
29.3362119708
 20
45.0388224596
 10
30.6837523032
 20
43.4518061594
 10
31.3251028638
 20
41.4681798145
 10
31.1678043525
 20
39.3871555574
 10
30.226471147
 20
37.5200687785
 10
28.6433388091
 20
36.1526262902
 10
26.657247329
 20
35.4885879162
 10
24.5665447018
 20
35.6373185021
 10
22.6900060035
 20
36.5711898081
 10
21.3111905475
 20
38.1519014757
 10
20.6442808935
 20
40.1400375432
 10
20.7839750541
 20
42.2324794835
 10
21.7149182063
 20
44.1116423758
 10
23.290489196
 20
45.4909009467
  0
LINE
  5
221
100
AcDbEntity
  8
0
100
AcDbLine
 62
7
  6
BYLAYER
 10
26.6634444903
 20
21.9861606255
 11
26.7142146935
 21
20.9480129529
  0
LINE
  5
222
100
AcDbEntity
  8
0
100
AcDbLine
 62
7
  6
BYLAYER
 10
18.5010763879
 20
24.1427511505
 11
17.944141133
 21
23.2651684903
  0
LINE
  5
223
100
AcDbEntity
  8
0
100
AcDbLine
 62
7
  6
BYLAYER
 10
34.5764100312
 20
46.9309901053
 11
35.2163173881
 21
47.7500398728
  0
LINE
  5
224
100
AcDbEntity
  8
0
100
AcDbLine
 62
7
  6
BYLAYER
 10
16.3540550879
 20
25.8201879716
 11
15.6375321332
 21
25.0677659811
  0
LINE
  5
225
100
AcDbEntity
  8
0
100
AcDbLine
 62
7
  6
BYLAYER
 10
39.3458861773
 20
39.9649311122
 11
40.3398495134
 21
40.2650730335
  0
LINE
  5
226
100
AcDbEntity
  8
0
100
AcDbLine
 62
7
  6
BYLAYER
 10
12.2868686961
 20
33.218372248
 11
11.2672779971
 21
33.0164842753
  0
LINE
  5
227
100
AcDbEntity
  8
0
100
AcDbLine
 62
7
  6
BYLAYER
 10
39.8753343714
 20
37.2922829109
 11
40.9099962636
 21
37.3937286979
  0
LINE
  5
228
100
AcDbEntity
  8
0
100
AcDbLine
 62
7
  6
BYLAYER
 10
39.023729106
 20
28.5209419262
 11
38.119834226
 21
29.0344317132
  0
LINE
  5
229
100
AcDbEntity
  8
0
100
AcDbLine
 62
7
  6
BYLAYER
 10
14.573739047
 20
43.97725228
 11
13.7244077853
 21
44.5763852827
  0
LINE
  5
22A
100
AcDbEntity
  8
0
100
AcDbLine
 62
7
  6
BYLAYER
 10
36.5494956264
 20
26.8079101502
 11
37.3363050832
 21
26.1287495784
  0
LINE
  5
22B
100
AcDbEntity
  8
0
100
AcDbLine
 62
7
  6
BYLAYER
 10
29.3588214752
 20
22.3841934806
 11
29.610271089
 21
21.3756685122
  0
LINE
  5
22C
100
AcDbEntity
  8
0
100
AcDbLine
 62
7
  6
BYLAYER
 10
23.9420877146
 20
49.7406990598
 11
23.7902475393
 21
50.7689346886
  0
LINE
  5
22D
100
AcDbEntity
  8
0
100
AcDbLine
 62
7
  6
BYLAYER
 10
22.9817777484
 20
46.0256629931
 11
23.2897290732
 21
45.4922220153
  0
LINE
  5
22E
100
AcDbEntity
  8
0
100
AcDbLine
 62
7
  6
BYLAYER
 10
21.7583276839
 20
40.2549781182
 11
22.4189777977
 21
40.2549781182
  0
LINE
  5
22F
100
AcDbEntity
  8
0
100
AcDbLine
 62
7
  6
BYLAYER
 10
22.4189777977
 20
41.4049781182
 11
21.7583276839
 21
41.4049781182
  0
LINE
  5
230
100
AcDbEntity
  8
0
100
AcDbLine
 62
7
  6
BYLAYER
 10
21.3202297882
 20
43.5211490757
 11
20.7857444963
 21
43.8297115929
  0
LWPOLYLINE
  5
231
100
AcDbEntity
  8
0
100
AcDbPolyline
 62
7
  6
BYLAYER
 90
48
 70
0
 10
24.6094477271
 20
46.0352044098
 10
26.6830239814
 20
46.16763655
 10
28.6516597047
 20
45.5029504772
 10
30.2236684193
 20
44.1443001818
 10
31.1629090448
 20
42.2902876459
 10
31.3288440703
 20
40.2199645038
 10
30.7015469491
 20
38.2405676182
 10
29.3706451664
 20
36.6479061886
 10
27.5388098655
 20
35.6780487788
 10
25.4778169608
 20
35.4696745516
 10
23.4936661986
 20
36.0567937645
 10
21.8795262006
 20
37.3451354632
 10
20.8684029511
 20
39.1436165318
 10
20.6110386765
 20
41.1870009656
 10
21.1357298121
 20
43.1736522791
 10
22.3639462726
 20
44.8173077432
 10
24.1146108205
 20
45.8778975642
 10
26.1288934127
 20
46.2112127014
 10
28.118521717
 20
45.7709838395
 10
29.7968082136
 20
44.6259921224
 10
30.9315258617
 20
42.9470593959
 10
31.3623471353
 20
40.9720377522
 10
31.0375216919
 20
38.9843957342
 10
30.0095205817
 20
37.2575650806
 10
28.4182789853
 20
36.0310066368
 10
26.4848073314
 20
35.4705806383
 10
24.4734782095
 20
35.6619192762
 10
22.6714344527
 20
36.5861805685
 10
21.3333099922
 20
38.1138181556
 10
20.6574763053
 20
40.035171511
 10
20.7450453808
 20
42.0739622389
 10
21.5861547636
 20
43.9393094522
 10
23.0688147371
 20
45.3563464608
 10
24.9764557313
 20
46.1177975859
 10
27.0354639685
 20
46.1097688648
 10
28.9425161611
 20
45.3244813395
 10
30.4172556322
 20
43.879402447
 10
31.2406463773
 20
41.9814853897
 10
31.284519794
 20
39.91108479
 10
30.5452325157
 20
37.9749538805
 10
29.1262515553
 20
36.4605373848
 10
27.2384506223
 20
35.5967915651
 10
25.1633492786
 20
35.508970831
 10
23.2089370728
 20
36.215749762
 10
21.6687357207
 20
37.6101389027
 10
20.7688579231
 20
39.4832482224
 10
20.648141925
 20
41.5576337499
 10
21.3202297898
 20
43.521149077
  0
LWPOLYLINE
  5
232
100
AcDbEntity
  8
0
100
AcDbPolyline
 62
7
  6
BYLAYER
 90
82
 70
0
 10
39.8753343534
 20
37.2922830957
 10
39.65320513
 20
33.1029111851
 10
38.1960209094
 20
29.1698298765
 10
35.6372042959
 20
25.8478321173
 10
32.2084819528
 20
23.4353391296
 10
28.2187398207
 20
22.1494716214
 10
24.0278189082
 20
22.1067454464
 10
20.014187773
 20
23.3095521575
 10
16.5386273143
 20
25.6479158067
 10
13.9132233542
 20
28.9112358151
 10
12.3747447057
 20
32.8060361023
 10
12.0609423026
 20
36.9807671979
 10
12.9980376435
 20
41.0598858154
 10
15.1011505628
 20
44.6776074457
 10
18.1816808791
 20
47.5087675116
 10
21.9620165074
 20
49.2990382911
 10
26.1017051152
 20
49.88954398
 10
30.2298343662
 20
49.2285027164
 10
33.9764008146
 20
47.3749988493
 10
37.005068869
 20
44.4956661622
 10
39.0456722654
 20
40.8503236672
 10
39.9169674744
 20
36.7655798154
 10
39.5411202509
 20
32.606660519
 10
37.9517439001
 20
28.7462351902
 10
35.2930864881
 20
25.5291777954
 10
31.8037178209
 20
23.2416087992
 10
27.7950243364
 20
22.0873137534
 10
23.6253498036
 20
22.1697133841
 10
19.6673013203
 20
23.4795100416
 10
16.2729809724
 20
25.8982397573
 10
13.7441286012
 20
29.2102518907
 10
12.3065096795
 20
33.1203446303
 10
12.0867528448
 20
37.2791546766
 10
13.1023593761
 20
41.3167143671
 10
15.2624504546
 20
44.8747283054
 10
18.3751528097
 20
47.6365940043
 10
22.1623932598
 20
49.3575314366
 10
26.2871324474
 20
49.886824625
 10
30.3838841942
 20
49.1785027184
 10
34.0892405628
 20
47.2951476603
 10
37.0745730721
 20
44.4051707834
 10
39.0774418132
 20
40.7654177173
 10
39.9211744372
 20
36.6967186932
 10
39.5290554349
 20
32.5583900148
 10
37.9346936359
 20
28.7183543222
 10
35.2797532783
 20
25.5171620966
 10
31.7987246266
 20
23.2390047622
 10
27.7993940234
 20
22.0879697275
 10
23.6374582797
 20
22.1679256104
 10
19.6831240781
 20
23.4714692587
 10
16.2877591808
 20
25.8835493809
 10
13.7545648156
 20
29.1912852503
 10
12.3108785944
 20
33.1006133357
 10
12.0851921255
 20
37.2627364771
 10
13.098113675
 20
41.3072687394
 10
15.2611690633
 20
44.8733147216
 10
18.3826582183
 20
47.6411286715
 10
22.1833047416
 20
49.3633911698
 10
26.3242008958
 20
49.8861973372
 10
30.4358758996
 20
49.1612552188
 10
34.1497466894
 20
47.2514360941
 10
37.1330185042
 20
44.3279602519
 10
39.1188791563
 20
40.6521933889
 10
39.9285275481
 20
36.5521739106
 10
39.4872227748
 20
32.3952809436
 10
37.8343925519
 20
28.554862959
 10
35.1183362449
 20
25.3750884531
 10
31.5814886004
 20
23.1415024392
 10
27.5404289051
 20
22.056544103
 10
23.3586930093
 20
22.2184265264
 10
19.4119531653
 20
23.6122334549
 10
16.0546191687
 20
26.1136800809
 10
13.5898152838
 20
29.4994114411
 10
12.240635281
 20
33.46472819
 10
12.1280703731
 20
37.6524218858
 10
13.2627583541
 20
41.6860826569
 10
15.5442577398
 20
45.2020939322
 10
18.7677459925
 20
47.8821179268
 10
22.6420002451
 20
49.4847047054
 10
26.8181414466
 20
49.8653528072
 10
30.9199817506
 20
48.9882940369
 10
34.576410415
 20
46.9309898054
  0
LWPOLYLINE
  5
233
100
AcDbEntity
  8
0
100
AcDbPolyline
 62
7
  6
BYLAYER
 90
81
 70
0
 10
38.1198341688
 20
29.0344316126
 10
35.4881127184
 20
25.7069902834
 10
31.9778763329
 20
23.3227586362
 10
27.9126651751
 20
22.103231183
 10
23.6684365987
 20
22.1623774429
 10
19.6379676546
 20
23.4943306945
 10
16.1936908102
 20
25.975685903
 10
13.6539587353
 20
29.3774723986
 10
12.2543866199
 20
33.3856386404
 10
12.1248493225
 20
37.6289325906
 10
13.2762718868
 20
41.7146480112
 10
15.6016793728
 20
45.2655139382
 10
18.8862774566
 20
47.9534856121
 10
22.8265409186
 20
49.5295938893
 10
27.0574140185
 20
49.8487116938
 10
31.1879277891
 20
48.8829041654
 10
34.8373335005
 20
46.7221432522
 10
37.6690633321
 20
43.5659955126
 10
39.4216807571
 20
39.7061478145
 10
39.9350037009
 20
35.499777906
 10
39.1636443654
 20
31.3345090019
 10
37.1797043752
 20
27.5932076664
 10
34.1662271431
 20
24.6199332866
 10
30.4015853008
 20
22.6877741405
 10
26.2331488194
 20
21.9721366052
 10
22.0435330503
 20
22.5365193998
 10
18.2163658089
 20
24.3278408909
 10
15.1021732932
 20
27.1810506409
 10
12.9850232816
 20
30.8328607402
 10
12.0559216427
 20
34.9478441542
 10
12.3973500212
 20
39.1501704345
 10
13.9766451211
 20
43.0568575057
 10
16.6482779617
 20
46.3120777849
 10
20.1662771985
 20
48.6212588543
 10
24.2094444177
 20
49.7773493551
 10
28.4106728802
 20
49.6778432339
 10
32.3891724969
 20
48.3334563433
 10
35.785196224
 20
45.8686334793
 10
38.2940449586
 20
42.509180966
 10
39.6920763175
 20
38.5599134266
 10
39.8557376127
 20
34.3764751393
 10
38.7708305618
 20
30.3327059645
 10
36.5337370724
 20
26.790228362
 10
33.3436475374
 20
24.0687694345
 10
29.4861907519
 20
22.4162126488
 10
25.3085411031
 20
21.9853771376
 10
21.1891501566
 20
22.8180237022
 10
17.5018148241
 20
24.8403210832
 10
14.5819198012
 20
27.8710245111
 10
12.6969238925
 20
31.6370713024
 10
12.0215221347
 20
35.7966824206
 10
12.6188703179
 20
39.9705734108
 10
14.4360241312
 20
43.7779686582
 10
17.3093100304
 20
46.8705689815
 10
20.978148492
 20
48.9635207559
 10
25.1071685573
 20
49.862950168
 10
29.3179406921
 20
49.485519207
 10
33.2245544125
 20
47.8644312749
 10
36.4679141012
 20
45.1463709242
 10
38.7480939028
 20
41.5793606573
 10
39.8541052592
 20
37.4914048702
 10
39.6836572322
 20
33.2586041274
 10
38.2512586514
 20
29.2703237672
 10
35.6870567201
 20
25.8945332008
 10
32.2264058264
 20
23.4440708464
 10
28.188894583
 20
22.1454677676
 10
23.9469688759
 20
22.1187668669
 10
19.891872384
 20
23.3673398423
 10
16.3986848267
 20
25.7773094731
 10
13.7912431095
 20
29.1262566862
 10
12.3103672031
 20
33.1041334482
 10
12.0928237333
 20
37.3434432775
 10
13.159327505
 20
41.4525821238
 10
15.4122022839
 20
45.0510239046
 10
18.6425342154
 20
47.8055251604
 10
22.550975016
 20
49.4620547223
 10
26.776352751
 20
49.8678817782
 10
30.9281574095
 20
48.9851983778
 10
34.622087803
 20
46.8953161962
 10
37.5167991501
 20
43.7926716484
 10
39.3458861773
 20
39.9649311123
  0
LWPOLYLINE
  5
234
100
AcDbEntity
  8
0
100
AcDbPolyline
 62
7
  6
BYLAYER
 90
82
 70
0
 10
36.5494957478
 20
26.8079102907
 10
33.3624858393
 20
24.0796972783
 10
29.5093563096
 20
22.4226193504
 10
25.3390490631
 20
21.9847277614
 10
21.2274755876
 20
22.8040096895
 10
17.5448823719
 20
24.8065093117
 10
14.6238003107
 20
27.8119915047
 10
12.7269606135
 20
31.5480292503
 10
12.0235233523
 20
35.6775136101
 10
12.5761979961
 20
39.8292065382
 10
14.3357378264
 20
43.6292598819
 10
17.1425563448
 20
46.7354829055
 10
20.7427785286
 20
48.8699047481
 10
24.8129785075
 20
49.8417410906
 10
28.9876188737
 20
49.56333103
 10
32.8910759277
 20
48.0603240594
 10
36.1735137006
 20
45.4697023182
 10
38.5416448288
 20
42.0243602997
 10
39.7830949279
 20
38.0329898096
 10
39.7865918979
 20
33.854069533
 10
38.5539774209
 20
29.8624225449
 10
36.1967830668
 20
26.4145358801
 10
32.9258191476
 20
23.8186418359
 10
29.0341427574
 20
22.3073987126
 10
24.8709782041
 20
22.0141779467
 10
20.8080482777
 20
22.9635282623
 10
17.2076669139
 20
25.0704868621
 10
14.3918493591
 20
28.1468722258
 10
12.6108196535
 20
31.916440937
 10
12.0216060045
 20
36.0425155046
 10
12.6761259777
 20
40.1578675298
 10
14.5162950105
 20
43.8954270714
 10
17.3764396151
 20
46.9225654741
 10
21.0007088446
 20
48.9714718734
 10
25.0669634452
 20
49.860870645
 10
29.2136092474
 20
49.5113757495
 10
33.0716187424
 20
47.9555548699
 10
36.2994187324
 20
45.3335457416
 10
38.6116720092
 20
41.8783207732
 10
39.8030854394
 20
37.8962074986
 10
39.7689891479
 20
33.741329163
 10
38.5143998222
 20
29.7808631298
 10
36.1498169835
 20
26.3640013404
 10
32.8825428738
 20
23.7940905532
 10
29.0021940219
 20
22.3005188427
 10
24.853081931
 20
22.0155472214
 10
20.802719103
 20
22.9653483983
 10
17.2111553735
 20
25.0677748303
 10
14.3989049455
 20
28.1368707245
 10
12.6159084278
 20
31.89943746
 10
12.0211589885
 20
36.0216827712
 10
12.6695878879
 20
40.1372301511
 10
14.5050190513
 20
43.8786561398
 10
17.3634737144
 20
46.9123733918
 10
20.9909406683
 20
48.9680326012
 10
25.0650560951
 20
49.8608237575
 10
29.2220690021
 20
49.5090677389
 10
33.0902831627
 20
47.9444523497
 10
36.3245275947
 20
45.3062692244
 10
38.6350363515
 20
41.8287756302
 10
39.8131569605
 20
37.8222463138
 10
39.7533805658
 20
33.6457587341
 10
38.4609819512
 20
29.6727736623
 10
36.0502125682
 20
26.2589955173
 10
32.7355752541
 20
23.7119013852
 10
28.8146285893
 20
22.2604072261
 10
24.6388798552
 20
22.0344641337
 10
20.5823004549
 20
23.0554251083
 10
17.0098104138
 20
25.2336383572
 10
14.2432343092
 20
28.3735711078
 10
12.5308411366
 20
32.1928855454
 10
12.0270352571
 20
36.3492188361
 10
12.7791097081
 20
40.4690269693
 10
14.7202596214
 20
44.1806250906
 10
17.6752425998
 20
47.1500568452
 10
21.3788092365
 20
49.1100390384
 10
25.4983722321
 20
49.8825514728
 10
29.6621506949
 20
49.396388909
 10
33.4944603955
 20
47.6959381582
 10
36.6500636299
 20
44.934196581
 10
38.8436315865
 20
41.3589223837
 10
39.8753344189
 20
37.2922824261
  0
LWPOLYLINE
  5
235
100
AcDbEntity
  8
0
100
AcDbPolyline
 62
7
  6
BYLAYER
 90
4
 70
0
 10
23.9365086072
 20
49.739560076
 10
28.1303191987
 20
49.7237645115
 10
32.1278849272
 20
48.4648516481
 10
35.5729253206
 20
46.0744798536
  0
LWPOLYLINE
  5
236
100
AcDbEntity
  8
0
100
AcDbPolyline
 62
7
  6
BYLAYER
 90
4
 70
0
 10
23.9420875308
 20
49.7406990328
 10
28.1373088682
 20
49.7234848546
 10
32.1368777316
 20
48.4601704283
 10
35.5799070842
 20
46.0666875163
  0
LWPOLYLINE
  5
237
100
AcDbEntity
  8
0
100
AcDbPolyline
 62
7
  6
BYLAYER
 90
80
 70
0
 10
34.5764098849
 20
46.9309902197
 10
37.457050486
 20
43.881057741
 10
39.300374581
 20
40.113476194
 10
39.9414619366
 20
35.969538625
 10
39.3240075363
 20
31.8228520699
 10
37.5037924545
 20
28.0468337192
 10
34.6445925807
 20
24.9824219155
 10
31.0056753336
 20
22.9053422005
 10
26.9154837593
 20
22.0010203865
 10
22.7417493532
 20
22.3502259689
 10
18.8602796357
 20
23.9220334192
 10
15.6206525772
 20
26.5737627022
 10
13.3129089163
 20
30.0654206994
 10
12.1434044809
 20
34.0832874371
 10
12.2175519372
 20
38.2665441233
 10
13.5280815455
 20
42.2387625302
 10
15.9552641106
 20
45.6438327989
 10
19.2808102034
 20
48.1774408683
 10
23.2067709937
 20
49.6123863761
 10
27.3805313873
 20
49.8200184647
 10
31.4276258306
 20
48.7838665966
 10
34.9865445937
 20
46.5979148786
 10
37.7391253315
 20
43.4576648675
 10
39.4386717338
 20
39.6444584832
 10
39.9349120644
 20
35.5005879434
 10
39.1851683343
 20
31.396133053
 10
37.2566029546
 20
27.6971256076
 10
34.3214424117
 20
24.7343890353
 10
30.643376939
 20
22.7713430708
 10
26.5510112889
 20
21.9812750692
 10
22.4085992787
 20
22.4339796365
 10
18.5856100363
 20
24.0893728369
 10
15.4223682156
 20
26.7982278076
 10
13.1988632116
 20
30.3180815514
 10
12.1118906588
 20
34.3360346773
 10
12.2584056126
 20
38.494802699
 10
13.62390618
 20
42.4242077524
 10
16.0851077031
 20
45.7762387348
 10
19.4232545671
 20
48.2545184431
 10
23.3424134736
 20
49.6390348061
 10
27.493997051
 20
49.8079440711
 10
31.5110212315
 20
48.7483204067
 10
35.0393130845
 20
46.553473467
 10
37.7657613393
 20
43.4156395842
 10
39.4471040785
 20
39.6128839702
 10
39.9344186533
 20
35.4826461473
 10
39.1836107003
 20
31.3907213274
 10
37.259141338
 20
27.7007423845
 10
34.3310873089
 20
24.7419247693
 10
30.6601115308
 20
22.7772563858
 10
26.5718409875
 20
21.9818462612
 10
22.4295314034
 20
22.4284574833
 10
18.6029117737
 20
24.0789295958
 10
15.4331815112
 20
26.7857752673
 10
13.2027755509
 20
30.3084930446
 10
12.112030664
 20
34.3341318947
 10
12.2602976106
 20
38.5033650998
 10
13.6340836927
 20
42.4433922455
 10
16.1111250937
 20
45.8026500722
 10
19.4715992172
 20
48.2802751604
 10
23.4157943673
 20
49.65270729
 10
27.5902158576
 20
49.7970227169
 10
31.6215911057
 20
48.7002464549
 10
35.1490591979
 20
46.459117476
 10
37.8550317191
 20
43.2728623456
 10
39.4963303356
 20
39.4275019081
 10
39.9259880473
 20
35.2677757126
 10
39.1044089297
 20
31.1661656024
 10
37.1033114844
 20
27.4915354079
 10
34.1022739881
 20
24.5748772232
 10
30.3711692997
 20
22.6779557818
 10
26.2444089013
 20
21.9717154529
 10
22.0927805894
 20
22.5216403514
 10
18.2907888801
 20
24.2791620845
 10
15.180551981
 20
27.0855611614
 10
13.0419913597
 20
30.6889615693
 10
12.069161495
 20
34.7658693178
 10
12.3513440281
 20
38.9484257304
 10
13.8625572276
 20
42.8592268072
 10
16.4668511731
 20
46.145973125
  0
LWPOLYLINE
  5
238
100
AcDbEntity
  8
0
100
AcDbPolyline
 62
7
  6
BYLAYER
 90
79
 70
0
 10
35.5729253206
 20
46.0744798536
 10
38.1570121838
 20
42.7599083239
 10
39.6362425275
 20
38.8377437276
 10
39.8836432151
 20
34.6539133629
 10
38.8783374471
 20
30.5863171211
 10
36.7125458112
 20
27.0006774784
 10
33.5813721378
 20
24.2189954588
 10
29.766376035
 20
22.492093445
 10
25.6119581702
 20
21.974731026
 10
21.4919325683
 20
22.7114435983
 10
17.7757934188
 20
24.6353208207
 10
14.7975301725
 20
27.5738718895
 10
12.8247282052
 20
31.2622400008
 10
12.0327046635
 20
35.368140322
 10
12.491298571
 20
39.5236328672
 10
14.1595707005
 20
43.356269667
 10
16.8875161226
 20
46.5219766467
 10
20.4288235731
 20
48.7382179845
 10
24.4661282313
 20
49.8080117836
 10
28.6384423997
 20
49.6357755203
 10
32.5718995797
 20
48.2368775552
 10
35.9149910524
 20
45.7385467282
 10
38.3702838615
 20
42.3650911067
 10
39.7190245915
 20
38.417570499
 10
39.8404109756
 20
34.2488487819
 10
38.7255277927
 20
30.2315423997
 10
36.4754974757
 20
26.7231200143
 10
33.2909732861
 20
24.0354957152
 10
29.4557760136
 20
22.4085859829
 10
25.312666086
 20
21.9859345943
 10
21.230314542
 20
22.8030947695
 10
17.5710284318
 20
24.786798834
 10
14.6604052277
 20
27.7608685464
 10
12.7565165342
 20
31.4595201542
 10
12.0263626894
 20
35.5534791192
 10
12.5337135772
 20
39.6799412692
 10
14.2338143624
 20
43.4728754123
 10
16.974508198
 20
46.5958185497
 10
20.5120762219
 20
48.77409724
 10
24.5347016337
 20
49.8155775738
 10
28.687244639
 20
49.626083111
 10
32.6005800632
 20
48.2212096206
 10
35.9276437303
 20
45.7258164004
 10
38.373128706
 20
42.3602310803
 10
39.7181559422
 20
38.4219029249
 10
39.8416051187
 20
34.2610301345
 10
38.7327860379
 20
30.2477390577
 10
36.4894484017
 20
26.7385982011
 10
33.3094074763
 20
24.0468459862
 10
29.4752703312
 20
22.4139135511
 10
25.3291409253
 20
21.9851777635
 10
21.2399562945
 20
22.7993155538
 10
17.5725029237
 20
24.7855880258
 10
14.6555093369
 20
27.7681434771
 10
12.7496422757
 20
31.4801204239
 10
12.0251784431
 20
35.5905339559
 10
12.5484007029
 20
39.7327134401
 10
14.2745180327
 20
43.5354446028
 10
17.0487715048
 20
46.6579659227
 10
20.6231411713
 20
48.8210160949
 10
24.6787146519
 20
49.8299828855
 10
28.8522024962
 20
49.5922682339
 10
32.7687759251
 20
48.1290147978
 10
36.0774329423
 20
45.5715323417
 10
38.4811265545
 20
42.14801737
 10
39.7621944353
 20
38.16478211
 10
39.8047821132
 20
33.9801307135
 10
38.6054365315
 20
29.9700155871
 10
36.2709812821
 20
26.4944946944
 10
33.0096971225
 20
23.8672412493
 10
29.1150215497
 20
22.3259671717
 10
24.9378261549
 20
22.0089687779
 10
20.8535517742
 20
22.9452586971
 10
17.2302874136
 20
25.0522779446
 10
14.3959963405
 20
28.1409992398
 10
12.606066402
 20
31.9323421697
 10
12.0218692054
 20
36.08490306
 10
12.6975069335
 20
40.2246904491
 10
14.5737393277
 20
43.9772526779
  0
LWPOLYLINE
  5
239
100
AcDbEntity
  8
0
100
AcDbPolyline
 62
7
  6
BYLAYER
 90
25
 70
0
 10
38.1547171155
 20
42.7639611082
 10
39.636820247
 20
38.8309203944
 10
39.8813315678
 20
34.6303833237
 10
38.8614003986
 20
30.543336681
 10
36.6653671827
 20
26.9437429595
 10
33.4914949816
 20
24.162043281
 10
29.6280227142
 20
22.4544098163
 10
25.4269189341
 20
21.9801964646
 10
21.2732692041
 20
22.7869951189
 10
17.5500781982
 20
24.8033862459
 10
14.6008706061
 20
27.8450617014
 10
12.6985361578
 20
31.6335580232
 10
12.0209441416
 20
35.8209400429
 10
12.6335827333
 20
40.0203960329
 10
14.4806383135
 20
43.8429696186
 10
17.3919041579
 20
46.9348424656
 10
21.0991713557
 20
49.0092090391
 10
25.2599332816
 20
49.8721946958
 10
29.4880254434
 20
49.4427420431
 10
33.3912945869
 20
47.7612269304
 10
36.6082213428
 20
44.9835076074
 10
38.8403703548
 20
41.3665997478
 10
39.8799827079
 20
37.2458060328
 10
39.6315382812
 20
33.004067422
 10
38.1198005785
 20
29.0344513047
  0
LWPOLYLINE
  5
23A
100
AcDbEntity
  8
0
100
AcDbPolyline
 62
7
  6
BYLAYER
 90
36
 70
0
 10
38.9099262667
 20
41.1982190586
 10
39.8936831182
 20
37.0947974533
 10
39.6073495666
 20
32.8896693826
 10
38.0815197731
 20
28.966463528
 10
35.460092495
 20
25.6805753585
 10
31.9842117869
 20
23.3260602427
 10
27.9662649307
 20
22.111316644
 10
23.7643360615
 20
22.1464234373
 10
19.7575594149
 20
23.4331414688
 10
16.3124537407
 20
25.8594365292
 10
13.7459278418
 20
29.2076429499
 10
12.2957990539
 20
33.1740955608
 10
12.0983849096
 20
37.3968439903
 10
13.1753169953
 20
41.4886514093
 10
15.4307879864
 20
45.0725635702
 10
18.6596143215
 20
47.8168933677
 10
22.5655095405
 20
49.466443482
 10
26.7883001833
 20
49.8672127873
 10
30.9378018415
 20
48.9809237235
 10
34.6301998011
 20
46.8886178113
 10
37.5237258637
 20
43.7832314359
 10
39.3504453529
 20
39.9517966565
 10
39.941265138
 20
35.7488873756
 10
39.2419312058
 20
31.5636498996
 10
37.3184185524
 20
27.7831411204
 10
34.3500721572
 20
24.7559535231
 10
30.6123438075
 20
22.7600345465
 10
26.4508855788
 20
21.9773000803
 10
22.2493095562
 20
22.4772518852
 10
18.3936485032
 20
24.2110513065
 10
15.2366503043
 20
27.0163852294
 10
13.064888941
 20
30.6330201948
 10
12.0729540558
 20
34.728010977
 10
12.3465904023
 20
38.9271563956
 10
13.8558643784
 20
42.8487370497
 10
16.4597260462
 20
46.1399329766
  0
LWPOLYLINE
  5
23B
100
AcDbEntity
  8
0
100
AcDbPolyline
 62
7
  6
BYLAYER
 90
72
 70
0
 10
39.3405197263
 20
39.9633267701
 10
39.9372964762
 20
35.7967845306
 10
39.2646745523
 20
31.6453721102
 10
37.376804579
 20
27.8786889479
 10
34.463249055
 20
24.8416223985
 10
30.7676863324
 20
22.8246926258
 10
26.6417196878
 20
21.9849271378
 10
22.4561074126
 20
22.4300899816
 10
18.585637142
 20
24.0923114356
 10
15.3960867656
 20
26.8360706877
 10
13.1652133249
 20
30.4091588533
 10
12.0985622575
 20
34.4782775844
 10
12.3036454857
 20
38.6841745815
 10
13.7381864222
 20
42.6387073833
 10
16.3005433064
 20
45.9765488084
 10
19.7306204902
 20
48.41226
 10
23.7322918388
 20
49.7009430795
 10
27.9383166793
 20
49.7489841219
 10
31.9611947236
 20
48.5405954568
 10
35.4437962627
 20
46.1852111756
 10
38.0704786511
 20
42.9106860918
 10
39.5924919081
 20
38.995263469
 10
39.897421302
 20
34.8104098824
 10
38.9277612004
 20
30.728094703
 10
36.8026112498
 20
27.1123609117
 10
33.6954282489
 20
24.3012288631
 10
29.8945737706
 20
22.5344917384
 10
25.747545319
 20
21.9738228296
 10
21.6194350276
 20
22.6767700749
 10
17.8853805343
 20
24.5565427176
 10
14.8863816896
 20
27.4711483389
 10
12.872398743
 20
31.1303351253
 10
12.0460622678
 20
35.2228478953
 10
12.45658404
 20
39.3755627006
 10
14.0772037666
 20
43.2152375719
 10
16.7624946469
 20
46.4043198419
 10
20.2580344638
 20
48.6627011005
 10
24.2714660784
 20
49.7766217035
 10
28.4407365664
 20
49.6724501135
 10
32.386688842
 20
48.3253899019
 10
35.7718755349
 20
45.8788410613
 10
38.2737565488
 20
42.5367399367
 10
39.6786432838
 20
38.5986092267
 10
39.8584714251
 20
34.4213610961
 10
38.7814112261
 20
30.3777336606
 10
36.5646675939
 20
26.8248590171
 10
33.3824893114
 20
24.102844634
 10
29.5370406112
 20
22.4307024962
 10
25.3697232913
 20
21.9896301166
 10
21.2512176181
 20
22.7996377839
 10
17.5632428277
 20
24.7975271362
 10
14.635166548
 20
27.8086305127
 10
12.7266447091
 20
31.5489587576
 10
12.0316771506
 20
35.6925542763
 10
12.5852344505
 20
39.859886502
 10
14.3691832121
 20
43.6647161304
 10
17.1986352737
 20
46.7788729979
 10
20.8284112691
 20
48.8987121555
 10
24.930236914
 20
49.8453671713
 10
29.1238945401
 20
49.5300108498
 10
33.0340038853
 20
47.9688407683
 10
36.3080946786
 20
45.3248607012
 10
38.6315655298
 20
41.8145598445
 10
39.8192539461
 20
37.7744400897
 10
39.7331466478
 20
33.5670601346
 10
38.4049098506
 20
29.5690979375
 10
35.9439863575
 20
26.1562674686
 10
32.5727797424
 20
23.6306914287
 10
28.6092253076
 20
22.22023169
 10
24.3996187112
 20
22.0684045286
 10
20.3343094679
 20
23.1621395895
 10
16.7929107302
 20
25.4299704897
  0
ARC
  5
23C
100
AcDbEntity
  8
0
100
AcDbCircle
 62
7
  6
BYLAYER
 10
19.6889170589
 20
30.3014542595
 40
5.5788519547
100
AcDbArc
 50
214.7328528868
 51
217.2991090075
  0
ARC
  5
23D
100
AcDbEntity
  8
0
100
AcDbCircle
 62
7
  6
BYLAYER
 10
25.981460145
 20
40.8299849025
 40
5.4537358732
100
AcDbArc
 50
218.7899186914
 51
119.9998105277
  0
CIRCLE
  5
23E
100
AcDbEntity
  8
0
100
AcDbCircle
 62
7
  6
BYLAYER
 10
16.9814777977
 20
38.3299781182
 40
1.0331646234
  0
CIRCLE
  5
23F
100
AcDbEntity
  8
0
100
AcDbCircle
 62
7
  6
BYLAYER
 10
16.9814777977
 20
38.3299781182
 40
1.0
  0
ARC
  5
240
100
AcDbEntity
  8
0
100
AcDbCircle
 62
7
  6
BYLAYER
 10
22.4189777977
 20
40.8299781182
 40
0.575
100
AcDbArc
 50
270.0
 51
90.0
  0
CIRCLE
  5
241
100
AcDbEntity
  8
0
100
AcDbCircle
 62
7
  6
BYLAYER
 10
23.9308681322
 20
38.7793684527
 40
0.5
  0
CIRCLE
  5
242
100
AcDbEntity
  8
0
100
AcDbCircle
 62
7
  6
BYLAYER
 10
23.9308681322
 20
42.8805877836
 40
0.5
  0
CIRCLE
  5
243
100
AcDbEntity
  8
0
100
AcDbCircle
 62
7
  6
BYLAYER
 10
25.9814777977
 20
35.9299781182
 40
20.0
  0
CIRCLE
  5
244
100
AcDbEntity
  8
0
100
AcDbCircle
 62
7
  6
BYLAYER
 10
25.9814777977
 20
35.9299781182
 40
18.5
  0
ARC
  5
245
100
AcDbEntity
  8
0
100
AcDbCircle
 62
7
  6
BYLAYER
 10
25.9814777977
 20
35.9299781182
 40
15.0
100
AcDbArc
 50
0.0
 51
180.0
  0
ARC
  5
246
100
AcDbEntity
  8
0
100
AcDbCircle
 62
7
  6
BYLAYER
 10
25.9814777977
 20
35.9299781182
 40
15.0
100
AcDbArc
 50
180.0
 51
360.0
  0
ARC
  5
247
100
AcDbEntity
  8
0
100
AcDbCircle
 62
7
  6
BYLAYER
 10
25.9814777977
 20
35.9299781182
 40
14.4
100
AcDbArc
 50
96.8615612368
 51
307.4789394371
  0
CIRCLE
  5
248
100
AcDbEntity
  8
0
100
AcDbCircle
 62
7
  6
BYLAYER
 10
25.9814777977
 20
35.9299781182
 40
13.5
  0
CIRCLE
  5
249
100
AcDbEntity
  8
0
100
AcDbCircle
 62
7
  6
BYLAYER
 10
25.9814777977
 20
35.9299781182
 40
12.5
  0
CIRCLE
  5
24A
100
AcDbEntity
  8
0
100
AcDbCircle
 62
7
  6
BYLAYER
 10
25.9814777977
 20
35.9299781182
 40
11.5
  0
CIRCLE
  5
24B
100
AcDbEntity
  8
0
100
AcDbCircle
 62
7
  6
BYLAYER
 10
28.0320874631
 20
38.7793684527
 40
0.5
  0
CIRCLE
  5
24C
100
AcDbEntity
  8
0
100
AcDbCircle
 62
7
  6
BYLAYER
 10
25.9814777977
 20
40.8299781182
 40
6.0
  0
ARC
  5
24D
100
AcDbEntity
  8
0
100
AcDbCircle
 62
7
  6
BYLAYER
 10
26.3532412258
 20
40.9103684045
 40
5.8828432611
100
AcDbArc
 50
266.3767495959
 51
298.3731634253
  0
CIRCLE
  5
24E
100
AcDbEntity
  8
0
100
AcDbCircle
 62
7
  6
BYLAYER
 10
25.9814777977
 20
40.8299781182
 40
5.675
  0
ARC
  5
24F
100
AcDbEntity
  8
0
100
AcDbCircle
 62
7
  6
BYLAYER
 10
26.0096796601
 20
40.7317574271
 40
5.4897701918
100
AcDbArc
 50
1.0251469749
 51
36.918380916
  0
CIRCLE
  5
250
100
AcDbEntity
  8
0
100
AcDbCircle
 62
7
  6
BYLAYER
 10
25.9814777977
 20
40.8299781182
 40
5.175
  0
CIRCLE
  5
251
100
AcDbEntity
  8
0
100
AcDbCircle
 62
7
  6
BYLAYER
 10
25.9814777977
 20
40.8299781182
 40
4.975
  0
CIRCLE
  5
252
100
AcDbEntity
  8
0
100
AcDbCircle
 62
7
  6
BYLAYER
 10
25.9814777977
 20
40.8299781182
 40
4.2642964366
  0
ARC
  5
253
100
AcDbEntity
  8
0
100
AcDbCircle
 62
7
  6
BYLAYER
 10
25.9814777977
 20
40.8299781182
 40
4.2621147196
100
AcDbArc
 50
172.2466100756
 51
187.7533899244
  0
ARC
  5
254
100
AcDbEntity
  8
0
100
AcDbCircle
 62
7
  6
BYLAYER
 10
25.9814777977
 20
40.8299781182
 40
4.1875
100
AcDbArc
 50
187.8924158583
 51
172.1075841417
  0
CIRCLE
  5
255
100
AcDbEntity
  8
0
100
AcDbCircle
 62
7
  6
BYLAYER
 10
25.9814777977
 20
40.8299781182
 40
0.5
  0
CIRCLE
  5
256
100
AcDbEntity
  8
0
100
AcDbCircle
 62
7
  6
BYLAYER
 10
28.0320874631
 20
42.8805877836
 40
0.5
  0
CIRCLE
  5
257
100
AcDbEntity
  8
0
100
AcDbCircle
 62
7
  6
BYLAYER
 10
34.9814777977
 20
38.3299781182
 40
1.0331646234
  0
CIRCLE
  5
258
100
AcDbEntity
  8
0
100
AcDbCircle
 62
7
  6
BYLAYER
 10
34.9814777977
 20
38.3299781182
 40
1.0
  0
SPLINE
  5
259
100
AcDbEntity
  8
0
100
AcDbSpline
 62
7
  6
BYLAYER
 70
0
 71
3
 72
20
 73
16
 74
0
 42
0.0000001
 43
0.0000001
 44
0.0000000001
 40
0.0
 40
0.0
 40
0.0
 40
0.0
 40
0.0774512554
 40
0.1547849185
 40
0.2321604188
 40
0.3093558075
 40
0.3866422661
 40
0.4637337219
 40
0.5407037802
 40
0.6175666923
 40
0.6942462783
 40
0.7708349795
 40
0.8472621033
 40
0.9237176021
 40
1.0
 40
1.0
 40
1.0
 40
1.0
 10
11.2447387948
 20
35.9299781182
 30
0.0
 10
11.2523535263
 20
35.094165316
 30
0.0
 10
11.4137653496
 20
33.4218011386
 30
0.0
 10
12.0749995108
 20
30.9933027451
 30
0.0
 10
13.1389639543
 20
28.7142986547
 30
0.0
 10
14.574501373
 20
26.6500686625
 30
0.0
 10
16.3385217785
 20
24.862503469
 30
0.0
 10
18.3794097579
 20
23.4032534013
 30
0.0
 10
20.634997105
 20
22.31513366
 30
0.0
 10
23.0387700387
 20
21.6286637112
 30
0.0
 10
25.5202557152
 20
21.3624038395
 30
0.0
 10
28.0060694246
 20
21.5226725528
 30
0.0
 10
30.425977163
 20
22.1038799724
 30
0.0
 10
32.7075658743
 20
23.0878085316
 30
0.0
 10
34.0955705373
 20
23.994556198
 30
0.0
 10
34.7434424873
 20
24.5024685567
 30
0.0
  0
SPLINE
  5
25A
100
AcDbEntity
  8
0
100
AcDbSpline
 62
7
  6
BYLAYER
 70
0
 71
3
 72
18
 73
14
 74
0
 42
0.0000001
 43
0.0000001
 44
0.0000000001
 40
0.0
 40
0.0
 40
0.0
 40
0.0
 40
0.0904945085
 40
0.1809433218
 40
0.2715239994
 40
0.3621296549
 40
0.4526451822
 40
0.5433725023
 40
0.6343542461
 40
0.7253658069
 40
0.8165562872
 40
0.9080859371
 40
1.0
 40
1.0
 40
1.0
 40
1.0
 10
11.2447342007
 20
35.9299781182
 30
0.0
 10
11.237635062
 20
36.7091981062
 30
0.0
 10
11.3491164733
 20
38.271007325
 30
0.0
 10
11.8776179916
 20
40.5578488679
 30
0.0
 10
12.7592568796
 20
42.7351953762
 30
0.0
 10
13.976090821
 20
44.7451479316
 30
0.0
 10
15.4966205641
 20
46.5377562241
 30
0.0
 10
17.2805163525
 20
48.0731892656
 30
0.0
 10
19.2859051113
 20
49.3138394727
 30
0.0
 10
21.4656076586
 20
50.2245985525
 30
0.0
 10
23.7672611677
 20
50.7780854261
 30
0.0
 10
26.1339708744
 20
50.963205574
 30
0.0
 10
27.7166835866
 20
50.8414359657
 30
0.0
 10
28.4983663957
 20
50.717312962
 30
0.0
  0
SPLINE
  5
25B
100
AcDbEntity
  8
0
100
AcDbSpline
 62
7
  6
BYLAYER
 70
0
 71
3
 72
13
 73
9
 74
0
 42
0.0000001
 43
0.0000001
 44
0.0000000001
 40
0.0
 40
0.0
 40
0.0
 40
0.0
 40
0.1574574831
 40
0.3195723267
 40
0.4843191766
 40
0.6635948746
 40
0.8388994127
 40
1.0
 40
1.0
 40
1.0
 40
1.0
 10
39.988342628
 20
36.2687860734
 30
0.0
 10
40.0270863854
 20
35.5688513449
 30
0.0
 10
39.9936516048
 20
34.1401488729
 30
0.0
 10
39.6226675925
 20
32.0079391856
 30
0.0
 10
38.8913784326
 20
29.8667533387
 30
0.0
 10
37.7972690075
 20
27.8175302184
 30
0.0
 10
36.3920136125
 20
25.98944653
 30
0.0
 10
35.2995474278
 20
24.9554140486
 30
0.0
 10
34.7434424873
 20
24.5024685567
 30
0.0
  0
SPLINE
  5
25C
100
AcDbEntity
  8
0
100
AcDbSpline
 62
7
  6
BYLAYER
 70
0
 71
3
 72
17
 73
13
 74
0
 42
0.0000001
 43
0.0000001
 44
0.0000000001
 40
0.0
 40
0.0
 40
0.0
 40
0.0
 40
0.0994183986
 40
0.1999346814
 40
0.3003638799
 40
0.3998271097
 40
0.4993399629
 40
0.599037967
 40
0.6988898656
 40
0.7984260335
 40
0.8990315941
 40
1.0
 40
1.0
 40
1.0
 40
1.0
 10
11.2350676362
 20
35.9299781182
 30
0.0
 10
11.2261320211
 20
35.1051752741
 30
0.0
 10
11.3505765202
 20
33.4418065362
 30
0.0
 10
11.950224886
 20
31.011211014
 30
0.0
 10
12.9553676849
 20
28.7171555675
 30
0.0
 10
14.3220641724
 20
26.6293823493
 30
0.0
 10
16.0107888378
 20
24.8000876713
 30
0.0
 10
17.9846707305
 20
23.2772282148
 30
0.0
 10
20.1852841991
 20
22.1058726507
 30
0.0
 10
22.5556280914
 20
21.3101098923
 30
0.0
 10
25.0336863734
 20
20.915049119
 30
0.0
 10
26.7155096235
 20
20.932280203
 30
0.0
 10
27.5494047473
 20
21.0121496877
 30
0.0
  0
SPLINE
  5
25D
100
AcDbEntity
  8
0
100
AcDbSpline
 62
7
  6
BYLAYER
 70
0
 71
3
 72
25
 73
21
 74
0
 42
0.0000001
 43
0.0000001
 44
0.0000000001
 40
0.0
 40
0.0
 40
0.0
 40
0.0
 40
0.0552552156
 40
0.11105958
 40
0.1666879954
 40
0.2217124943
 40
0.2774130281
 40
0.3336630916
 40
0.389452156
 40
0.4447436383
 40
0.5000012229
 40
0.555473197
 40
0.6106878472
 40
0.6661501647
 40
0.7218958553
 40
0.7772386903
 40
0.8323225583
 40
0.8881431086
 40
0.9442756286
 40
1.0
 40
1.0
 40
1.0
 40
1.0
 10
40.252407012
 20
35.9299781182
 30
0.0
 10
40.2619036402
 20
36.7683395164
 30
0.0
 10
40.1291989039
 20
38.4588250251
 30
0.0
 10
39.4861821043
 20
40.9180101776
 30
0.0
 10
38.4239768764
 20
43.2239933096
 30
0.0
 10
36.9778622549
 20
45.3085804215
 30
0.0
 10
35.1791411754
 20
47.1119149046
 30
0.0
 10
33.0813857913
 20
48.5766146512
 30
0.0
 10
30.7661341589
 20
49.6498889544
 30
0.0
 10
28.3140205723
 20
50.3004032762
 30
0.0
 10
25.7907680279
 20
50.5106125633
 30
0.0
 10
23.2705481805
 20
50.2829006937
 30
0.0
 10
20.8236506658
 20
49.6260893029
 30
0.0
 10
18.5226012968
 20
48.5549226484
 30
0.0
 10
16.4426580216
 20
47.0969080642
 30
0.0
 10
14.64786119
 20
45.3085153773
 30
0.0
 10
13.182058246
 20
43.2405804105
 30
0.0
 10
12.08837672
 20
40.9394392015
 30
0.0
 10
11.4119734877
 20
38.4742112186
 30
0.0
 10
11.2442273067
 20
36.775462423
 30
0.0
 10
11.2350676362
 20
35.9299781182
 30
0.0
  0
SPLINE
  5
25E
100
AcDbEntity
  8
0
100
AcDbSpline
 62
7
  6
BYLAYER
 70
0
 71
3
 72
17
 73
13
 74
0
 42
0.0000001
 43
0.0000001
 44
0.0000000001
 40
0.0
 40
0.0
 40
0.0
 40
0.0
 40
0.100283853
 40
0.200972366
 40
0.3007669146
 40
0.4006870712
 40
0.5009541406
 40
0.6016244602
 40
0.7016652063
 40
0.8019002311
 40
0.9014312014
 40
1.0
 40
1.0
 40
1.0
 40
1.0
 10
23.9312582916
 20
22.0698319003
 30
0.0
 10
24.7322035489
 20
21.9431239209
 30
0.0
 10
26.3629312899
 20
21.8306886551
 30
0.0
 10
28.7938360618
 20
22.0788923597
 30
0.0
 10
31.1429435226
 20
22.7445513699
 30
0.0
 10
33.3381819246
 20
23.8043421774
 30
0.0
 10
35.3265631485
 20
25.226424039
 30
0.0
 10
37.044496429
 20
26.9674353484
 30
0.0
 10
38.4362970306
 20
28.9783960746
 30
0.0
 10
39.4581873189
 20
31.1900485916
 30
0.0
 10
40.0892414632
 20
33.5296369089
 30
0.0
 10
40.2433790617
 20
35.1329915586
 30
0.0
 10
40.252407012
 20
35.9299781182
 30
0.0
  0
SPLINE
  5
25F
100
AcDbEntity
  8
0
100
AcDbSpline
 62
7
  6
BYLAYER
 70
0
 71
3
 72
83
 73
79
 74
0
 42
0.0000001
 43
0.0000001
 44
0.0000000001
 40
0.0
 40
0.0
 40
0.0
 40
0.0
 40
0.0136243668
 40
0.027241027
 40
0.0408505703
 40
0.0544537708
 40
0.0680516629
 40
0.0873551345
 40
0.1003930826
 40
0.1134306085
 40
0.1264678106
 40
0.1395048281
 40
0.1525417112
 40
0.1655785155
 40
0.1786154051
 40
0.1916525501
 40
0.2046899965
 40
0.2177277573
 40
0.2307659125
 40
0.2438045012
 40
0.2568433784
 40
0.2698822986
 40
0.2829210822
 40
0.2959596348
 40
0.3089978264
 40
0.322035582
 40
0.335072979
 40
0.3481101388
 40
0.3611470989
 40
0.3741839075
 40
0.3872207267
 40
0.4002577304
 40
0.4132949751
 40
0.4263324919
 40
0.4393703875
 40
0.4524087376
 40
0.4654474465
 40
0.4784863313
 40
0.4915252231
 40
0.5045639733
 40
0.5176024053
 40
0.530640407
 40
0.5436780275
 40
0.5567153667
 40
0.5697524466
 40
0.5827893059
 40
0.5958261018
 40
0.6088630088
 40
0.6219000892
 40
0.6349373872
 40
0.64797503
 40
0.6610131232
 40
0.6740516123
 40
0.6870903682
 40
0.700129281
 40
0.7131681771
 40
0.7262068267
 40
0.7392450746
 40
0.752282936
 40
0.7653204851
 40
0.7783577247
 40
0.7913946802
 40
0.8044315012
 40
0.8174683588
 40
0.8305053174
 40
0.8435424293
 40
0.8565798373
 40
0.8696176712
 40
0.8826559114
 40
0.895694475
 40
0.9087333116
 40
0.921772284
 40
0.9348111103
 40
0.9478495816
 40
0.9608876728
 40
0.9739254385
 40
0.9869628731
 40
1.0
 40
1.0
 40
1.0
 40
1.0
 10
41.6308611739
 20
35.947865556
 30
0.0
 10
41.6311370148
 20
35.7319176457
 30
0.0
 10
41.623264948
 20
35.299573081
 30
0.0
 10
41.5803533963
 20
34.6554072922
 30
0.0
 10
41.5254987254
 20
34.0031477853
 30
0.0
 10
41.389116247
 20
33.3939116952
 30
0.0
 10
41.4373364816
 20
32.5371320831
 30
0.0
 10
40.4070600412
 20
32.4454854946
 30
0.0
 10
40.3926006546
 20
31.6262639388
 30
0.0
 10
40.1621892242
 20
31.0648508799
 30
0.0
 10
39.9594398836
 20
30.4749580409
 30
0.0
 10
39.7190607388
 20
29.9042135146
 30
0.0
 10
39.4590893114
 20
29.3410629954
 30
0.0
 10
39.1752302583
 20
28.7898084602
 30
0.0
 10
38.8691698796
 20
28.2505087868
 30
0.0
 10
38.5411054699
 20
27.7243024458
 30
0.0
 10
38.1916617785
 20
27.2120253118
 30
0.0
 10
37.8213503883
 20
26.7146021022
 30
0.0
 10
37.4307197558
 20
26.2329470287
 30
0.0
 10
37.0204234163
 20
25.767905801
 30
0.0
 10
36.5911169302
 20
25.320335579
 30
0.0
 10
36.1434997165
 20
24.8910732546
 30
0.0
 10
35.6783941065
 20
24.4808344887
 30
0.0
 10
35.1966900443
 20
24.0902400559
 30
0.0
 10
34.6992711322
 20
23.7198944187
 30
0.0
 10
34.1870118113
 20
23.3703960607
 30
0.0
 10
33.6607824034
 20
23.0423406694
 30
0.0
 10
33.1215183971
 20
22.7362114412
 30
0.0
 10
32.570146608
 20
22.4524895749
 30
0.0
 10
32.0075898954
 20
22.1916582159
 30
0.0
 10
31.4347722765
 20
21.9542049113
 30
0.0
 10
30.8526703989
 20
21.740500344
 30
0.0
 10
30.2622593767
 20
21.5509181337
 30
0.0
 10
29.6645186959
 20
21.385836724
 30
0.0
 10
29.060438232
 20
21.2456389379
 30
0.0
 10
28.451049361
 20
21.1305845743
 30
0.0
 10
27.837392209
 20
21.0409274732
 30
0.0
 10
27.2205191081
 20
20.976945776
 30
0.0
 10
26.6015122451
 20
20.9387875003
 30
0.0
 10
25.9814638199
 20
20.9263708412
 30
0.0
 10
25.3614478267
 20
20.9396299841
 30
0.0
 10
24.7425270142
 20
20.9784917901
 30
0.0
 10
24.1257576054
 20
21.0428844379
 30
0.0
 10
23.5121768517
 20
21.1326061778
 30
0.0
 10
22.9028125552
 20
21.2474587859
 30
0.0
 10
22.2986892533
 20
21.3872478498
 30
0.0
 10
21.7008337943
 20
21.5517818475
 30
0.0
 10
21.1102414906
 20
21.7407450539
 30
0.0
 10
20.5279070582
 20
21.9538256214
 30
0.0
 10
19.9548303999
 20
22.1907135336
 30
0.0
 10
19.3920215375
 20
22.4510973613
 30
0.0
 10
18.8404456522
 20
22.7345428177
 30
0.0
 10
18.3010744873
 20
23.0406131846
 30
0.0
 10
17.7748886645
 20
23.3688626052
 30
0.0
 10
17.2628888161
 20
23.7188391316
 30
0.0
 10
16.7659035929
 20
24.089822072
 30
0.0
 10
16.2847378796
 20
24.4810865766
 30
0.0
 10
15.820187047
 20
24.8919152958
 30
0.0
 10
15.3730390692
 20
25.3215940258
 30
0.0
 10
14.9439859645
 20
25.7693184299
 30
0.0
 10
14.5337129707
 20
26.2342930836
 30
0.0
 10
14.1429038969
 20
26.7157282603
 30
0.0
 10
13.7722450986
 20
27.2128358974
 30
0.0
 10
13.4223208725
 20
27.7247502731
 30
0.0
 10
13.093716742
 20
28.2506102178
 30
0.0
 10
12.7870229444
 20
28.7895540944
 30
0.0
 10
12.5028365632
 20
29.3407143884
 30
0.0
 10
12.2416437211
 20
29.9031556907
 30
0.0
 10
12.0039347554
 20
30.4759385564
 30
0.0
 10
11.7902007748
 20
31.0581116969
 30
0.0
 10
11.6009502866
 20
31.6487114328
 30
0.0
 10
11.4365126982
 20
32.2466978024
 30
0.0
 10
11.2970600314
 20
32.8509918705
 30
0.0
 10
11.1827796574
 20
33.4605335166
 30
0.0
 10
11.0938473913
 20
34.0742673845
 30
0.0
 10
11.0303121272
 20
34.6911325512
 30
0.0
 10
10.9922068233
 20
35.3100631608
 30
0.0
 10
10.9838162997
 20
35.723401045
 30
0.0
 10
10.9838556184
 20
35.9300412936
 30
0.0
  0
SPLINE
  5
260
100
AcDbEntity
  8
0
100
AcDbSpline
 62
7
  6
BYLAYER
 70
0
 71
3
 72
44
 73
40
 74
0
 42
0.0000001
 43
0.0000001
 44
0.0000000001
 40
0.0
 40
0.0
 40
0.0
 40
0.0
 40
0.0261638092
 40
0.0530041225
 40
0.0800105467
 40
0.1066549017
 40
0.1333782325
 40
0.1601865314
 40
0.1868723413
 40
0.2135113851
 40
0.2401580019
 40
0.2669170841
 40
0.2938700071
 40
0.3209338451
 40
0.3480440581
 40
0.3750586486
 40
0.4019929239
 40
0.4290394595
 40
0.45608396
 40
0.4830349829
 40
0.5099855796
 40
0.5370274467
 40
0.5641757159
 40
0.5914051344
 40
0.6186170535
 40
0.6461181992
 40
0.6737689034
 40
0.7013685498
 40
0.7286267494
 40
0.7555298779
 40
0.7824283745
 40
0.8094823554
 40
0.8366913965
 40
0.8638688744
 40
0.8908122021
 40
0.9177997659
 40
0.94543994
 40
0.9730208545
 40
1.0
 40
1.0
 40
1.0
 40
1.0
 10
40.9809847368
 20
35.9299632806
 30
0.0
 10
40.9888544859
 20
35.0916376408
 30
0.0
 10
40.8572497683
 20
33.3883053606
 30
0.0
 10
40.2177597039
 20
30.8930675943
 30
0.0
 10
39.1622068912
 20
28.5264077895
 30
0.0
 10
37.7286727934
 20
26.3720054216
 30
0.0
 10
35.947755155
 20
24.5018953936
 30
0.0
 10
33.8676786105
 20
22.9704525978
 30
0.0
 10
31.5656144435
 20
21.8072272355
 30
0.0
 10
29.1075472038
 20
21.04110323
 30
0.0
 10
26.5512519432
 20
20.7074001514
 30
0.0
 10
23.9663566336
 20
20.8227362601
 30
0.0
 10
21.4241740437
 20
21.3684367459
 30
0.0
 10
18.996899762
 20
22.3335851763
 30
0.0
 10
16.7707821494
 20
23.7059957554
 30
0.0
 10
14.8234032456
 20
25.4440378151
 30
0.0
 10
13.193756148
 20
27.4789335545
 30
0.0
 10
11.9221855562
 20
29.7567230452
 30
0.0
 10
11.0601199219
 20
32.2205053438
 30
0.0
 10
10.6415184932
 20
34.7930902422
 30
0.0
 10
10.6541487162
 20
37.3983434129
 30
0.0
 10
11.096553309
 20
39.9728078108
 30
0.0
 10
11.9752471956
 20
42.4435685772
 30
0.0
 10
13.2757579425
 20
44.7265030353
 30
0.0
 10
14.9446552676
 20
46.7689132865
 30
0.0
 10
16.9400809127
 20
48.5155088394
 30
0.0
 10
19.2187755254
 20
49.8986752321
 30
0.0
 10
21.6988009008
 20
50.8527956164
 30
0.0
 10
24.2783054058
 20
51.3742128359
 30
0.0
 10
26.8858427157
 20
51.465837456
 30
0.0
 10
29.4665966709
 20
51.1211106803
 30
0.0
 10
31.9580960933
 20
50.3326113402
 30
0.0
 10
34.2924620969
 20
49.1402063308
 30
0.0
 10
36.397741158
 20
47.5841983524
 30
0.0
 10
38.2104279237
 20
45.7040240763
 30
0.0
 10
39.6800548907
 20
43.5273510443
 30
0.0
 10
40.7761888158
 20
41.118508108
 30
0.0
 10
41.4591720214
 20
38.5626471349
 30
0.0
 10
41.6242163625
 20
36.8123282808
 30
0.0
 10
41.6308611739
 20
35.947865556
 30
0.0
  0
SPLINE
  5
261
100
AcDbEntity
  8
0
100
AcDbSpline
 62
7
  6
BYLAYER
 70
0
 71
3
 72
17
 73
13
 74
0
 42
0.0000001
 43
0.0000001
 44
0.0000000001
 40
0.0
 40
0.0
 40
0.0
 40
0.0
 40
0.1006507272
 40
0.2010146487
 40
0.3007627684
 40
0.4011321811
 40
0.5024715031
 40
0.6030527915
 40
0.7020177727
 40
0.8019341981
 40
0.9018834972
 40
1.0
 40
1.0
 40
1.0
 40
1.0
 10
37.5292411282
 20
26.3566212324
 30
0.0
 10
36.9616607071
 20
25.7215815517
 30
0.0
 10
35.7168696315
 20
24.5478653733
 30
0.0
 10
33.5835832179
 20
23.1379218123
 30
0.0
 10
31.2419680437
 20
22.1147189424
 30
0.0
 10
28.7511734178
 20
21.5074914678
 30
0.0
 10
26.1849872566
 20
21.3426950394
 30
0.0
 10
23.6419662507
 20
21.6328478834
 30
0.0
 10
21.2009074962
 20
22.359827742
 30
0.0
 10
18.9302535499
 20
23.5032014169
 30
0.0
 10
16.9040980745
 20
25.0258843663
 30
0.0
 10
15.7585040871
 20
26.2636668114
 30
0.0
 10
15.2510515624
 20
26.9208157812
 30
0.0
  0
SPLINE
  5
262
100
AcDbEntity
  8
0
100
AcDbSpline
 62
7
  6
BYLAYER
 70
0
 71
3
 72
259
 73
255
 74
0
 42
0.0000001
 43
0.0000001
 44
0.0000000001
 40
0.0
 40
0.0
 40
0.0
 40
0.0
 40
0.002969428
 40
0.0059385883
 40
0.0099226415
 40
0.0139072429
 40
0.0178918794
 40
0.0218760428
 40
0.025860187
 40
0.0298447913
 40
0.0338293895
 40
0.037813513
 40
0.0417976399
 40
0.0457822437
 40
0.049766848
 40
0.0537509772
 40
0.0577351061
 40
0.06171971
 40
0.065704314
 40
0.0696884432
 40
0.0736725724
 40
0.0776571763
 40
0.08164178
 40
0.0856259088
 40
0.0896100377
 40
0.0935946415
 40
0.0975792454
 40
0.1015633745
 40
0.1055475035
 40
0.1095321073
 40
0.1135167112
 40
0.1175008401
 40
0.1214849691
 40
0.1254695729
 40
0.1294541768
 40
0.1334383058
 40
0.1374224347
 40
0.1414070386
 40
0.1453916424
 40
0.1493757714
 40
0.1533599004
 40
0.1573445042
 40
0.1613291081
 40
0.1653132371
 40
0.169297366
 40
0.1732819699
 40
0.1772665737
 40
0.1812507027
 40
0.1852348317
 40
0.1892194355
 40
0.1932040394
 40
0.1971881684
 40
0.2011722973
 40
0.2051569012
 40
0.209141505
 40
0.213125634
 40
0.217109763
 40
0.2210943668
 40
0.2250789707
 40
0.2290630997
 40
0.2330472286
 40
0.2370318325
 40
0.2410164363
 40
0.2450005653
 40
0.2489846943
 40
0.2529692981
 40
0.256953902
 40
0.260938031
 40
0.2649221599
 40
0.2689067638
 40
0.2728913676
 40
0.2768754966
 40
0.2808596256
 40
0.2848442294
 40
0.2888288333
 40
0.2928129623
 40
0.2967970912
 40
0.3007816951
 40
0.3047662989
 40
0.3087504279
 40
0.3127345569
 40
0.3167191607
 40
0.3207037646
 40
0.3246878935
 40
0.3286720225
 40
0.3326566264
 40
0.3366412302
 40
0.3406253592
 40
0.3446094882
 40
0.348594092
 40
0.3525786959
 40
0.3565628248
 40
0.3605469538
 40
0.3645315577
 40
0.3685161615
 40
0.3725002905
 40
0.3764844195
 40
0.3804690233
 40
0.3844536272
 40
0.3884377561
 40
0.3924218851
 40
0.396406489
 40
0.4003910928
 40
0.4043752218
 40
0.4083593508
 40
0.4123439546
 40
0.4163285585
 40
0.4203126874
 40
0.4242968164
 40
0.4282814203
 40
0.4322660241
 40
0.4362501531
 40
0.4402342821
 40
0.4442188859
 40
0.4482034898
 40
0.4521876187
 40
0.4561717477
 40
0.4601563516
 40
0.4641409554
 40
0.4681250844
 40
0.4721092134
 40
0.4760938172
 40
0.4800784211
 40
0.48406255
 40
0.488046679
 40
0.4920312829
 40
0.4960158867
 40
0.5000000157
 40
0.5039841447
 40
0.5079687485
 40
0.5119533524
 40
0.5159374813
 40
0.5199216103
 40
0.5239062142
 40
0.527890818
 40
0.531874947
 40
0.5358590759
 40
0.5398436798
 40
0.5438282837
 40
0.5478124126
 40
0.5517965416
 40
0.5557811454
 40
0.5597657493
 40
0.5637498783
 40
0.5677340072
 40
0.5717186111
 40
0.575703215
 40
0.5796873439
 40
0.5836714729
 40
0.5876560767
 40
0.5916406806
 40
0.5956248096
 40
0.5996089385
 40
0.6035935424
 40
0.6075781462
 40
0.6115622752
 40
0.6155464042
 40
0.619531008
 40
0.6235156119
 40
0.6274997409
 40
0.6314838698
 40
0.6354684737
 40
0.6394530775
 40
0.6434372065
 40
0.6474213355
 40
0.6514059393
 40
0.6553905432
 40
0.6593746722
 40
0.6633588011
 40
0.667343405
 40
0.6713280088
 40
0.6753121378
 40
0.6792962668
 40
0.6832808706
 40
0.6872654745
 40
0.6912496035
 40
0.6952337324
 40
0.6992183363
 40
0.7032029401
 40
0.7071870691
 40
0.7111711981
 40
0.7151558019
 40
0.7191404058
 40
0.7231245348
 40
0.7271086637
 40
0.7310932676
 40
0.7350778714
 40
0.7390620004
 40
0.7430461294
 40
0.7470307332
 40
0.7510153371
 40
0.7549994661
 40
0.758983595
 40
0.7629681989
 40
0.7669528027
 40
0.7709369317
 40
0.7749210607
 40
0.7789056645
 40
0.7828902684
 40
0.7868743974
 40
0.7908585263
 40
0.7948431302
 40
0.798827734
 40
0.802811863
 40
0.806795992
 40
0.8107805958
 40
0.8147651997
 40
0.8187493286
 40
0.8227334576
 40
0.8267180615
 40
0.8307026653
 40
0.8346867943
 40
0.8386709233
 40
0.8426555271
 40
0.846640131
 40
0.8506242599
 40
0.8546083889
 40
0.8585929928
 40
0.8625775966
 40
0.8665617256
 40
0.8705458546
 40
0.8745304584
 40
0.8785150623
 40
0.8824991912
 40
0.8864833202
 40
0.890467924
 40
0.8944525279
 40
0.8984366569
 40
0.9024207859
 40
0.9064053898
 40
0.9103899937
 40
0.9143741226
 40
0.9183582514
 40
0.9223428551
 40
0.926327459
 40
0.9303115881
 40
0.9342957174
 40
0.9382803214
 40
0.9422649252
 40
0.9462490542
 40
0.9502331834
 40
0.9542177877
 40
0.9582023915
 40
0.9621865183
 40
0.9661706419
 40
0.97015524
 40
0.9741398444
 40
0.9781239885
 40
0.982108152
 40
0.9860927885
 40
0.9900773898
 40
0.994061443
 40
0.9970305877
 40
1.0
 40
1.0
 40
1.0
 40
1.0
 10
39.3940640837
 20
39.9794711748
 30
0.0
 10
39.2966759151
 20
40.3023720861
 30
0.0
 10
39.0787330125
 20
40.9411154771
 30
0.0
 10
38.6384649428
 20
41.9792857862
 30
0.0
 10
38.0566360299
 20
43.0788963791
 30
0.0
 10
37.3078526175
 20
44.2134535682
 30
0.0
 10
36.4535372459
 20
45.270884521
 30
0.0
 10
35.5011339369
 20
46.2409091342
 30
0.0
 10
34.4583207794
 20
47.1130081351
 30
0.0
 10
33.336198696
 20
47.8803564382
 30
0.0
 10
32.145558238
 20
48.5363674842
 30
0.0
 10
30.8971448815
 20
49.074380959
 30
0.0
 10
29.6020491989
 20
49.4875676261
 30
0.0
 10
28.2731228264
 20
49.7738057509
 30
0.0
 10
26.922846664
 20
49.9310718857
 30
0.0
 10
25.5636876701
 20
49.9572578402
 30
0.0
 10
24.2084963132
 20
49.8502291455
 30
0.0
 10
22.8699732692
 20
49.6128805862
 30
0.0
 10
21.5604379436
 20
49.2480579017
 30
0.0
 10
20.2922287812
 20
48.7585230879
 30
0.0
 10
19.0780490738
 20
48.1471587163
 30
0.0
 10
17.9285629016
 20
47.4214454388
 30
0.0
 10
16.8540999914
 20
46.5886744147
 30
0.0
 10
15.8650393506
 20
45.6560664727
 30
0.0
 10
14.9720522297
 20
44.6310920519
 30
0.0
 10
14.182183626
 20
43.5247079472
 30
0.0
 10
13.5022406413
 20
42.3475691371
 30
0.0
 10
12.9391025916
 20
41.1102841217
 30
0.0
 10
12.4998249916
 20
39.8238029333
 30
0.0
 10
12.1867883459
 20
38.5009324664
 30
0.0
 10
12.0022669946
 20
37.1541102544
 30
0.0
 10
11.9486197023
 20
35.7957580955
 30
0.0
 10
12.0282392537
 20
34.4386805917
 30
0.0
 10
12.2384883793
 20
33.0956342363
 30
0.0
 10
12.5767711469
 20
31.7789934422
 30
0.0
 10
13.0405757323
 20
30.501149969
 30
0.0
 10
13.6272771044
 20
29.2748628354
 30
0.0
 10
14.3296115882
 20
28.1109451053
 30
0.0
 10
15.1404982087
 20
27.0198717359
 30
0.0
 10
16.0529273015
 20
26.0121655377
 30
0.0
 10
17.0596455671
 20
25.0986465366
 30
0.0
 10
18.1498408344
 20
24.2865797363
 30
0.0
 10
19.3129978841
 20
23.5829861839
 30
0.0
 10
20.5386494271
 20
22.9949581852
 30
0.0
 10
21.8159902661
 20
22.5297711119
 30
0.0
 10
23.1322642313
 20
22.1900638003
 30
0.0
 10
24.4750822896
 20
21.9783614821
 30
0.0
 10
25.8320728451
 20
21.8972734788
 30
0.0
 10
27.1904822653
 20
21.9494508613
 30
0.0
 10
28.5375033636
 20
22.1325147022
 30
0.0
 10
29.8607117926
 20
22.4441196806
 30
0.0
 10
31.1476675617
 20
22.882004917
 30
0.0
 10
32.3855612085
 20
23.4438037701
 30
0.0
 10
33.5634350821
 20
24.1224725753
 30
0.0
 10
34.6706732609
 20
24.911143498
 30
0.0
 10
35.6966134214
 20
25.8030209666
 30
0.0
 10
36.6302911613
 20
26.7910718307
 30
0.0
 10
37.4642244518
 20
27.8646329497
 30
0.0
 10
38.1911811719
 20
29.013333144
 30
0.0
 10
38.8038589254
 20
30.2268505944
 30
0.0
 10
39.2947654585
 20
31.4945293422
 30
0.0
 10
39.6610046777
 20
32.8036691527
 30
0.0
 10
39.8998014901
 20
34.1419345567
 30
0.0
 10
40.0082970832
 20
35.4970092182
 30
0.0
 10
39.9835831822
 20
36.8561956863
 30
0.0
 10
39.8277794015
 20
38.2066413132
 30
0.0
 10
39.5429794927
 20
39.5358768909
 30
0.0
 10
39.1311924672
 20
40.8314192783
 30
0.0
 10
38.5945256095
 20
42.0804138003
 30
0.0
 10
37.9397996967
 20
43.2717626947
 30
0.0
 10
37.1736666177
 20
44.3947134124
 30
0.0
 10
36.3027050758
 20
45.438468472
 30
0.0
 10
35.3337251995
 20
46.3919235739
 30
0.0
 10
34.2772367432
 20
47.2473827202
 30
0.0
 10
33.1434626107
 20
47.9974056701
 30
0.0
 10
31.9425749349
 20
48.6344829199
 30
0.0
 10
30.6850760832
 20
49.1509083938
 30
0.0
 10
29.383605168
 20
49.5435299238
 30
0.0
 10
28.0504390557
 20
49.8093236898
 30
0.0
 10
26.6978337915
 20
49.9451825557
 30
0.0
 10
25.3384254584
 20
49.9479422312
 30
0.0
 10
23.9851069156
 20
49.8194621514
 30
0.0
 10
22.6503871382
 20
49.5615836436
 30
0.0
 10
21.3467873189
 20
49.1760630304
 30
0.0
 10
20.0872020949
 20
48.6647473789
 30
0.0
 10
18.8828648065
 20
48.0342317924
 30
0.0
 10
17.7446602383
 20
47.2909494973
 30
0.0
 10
16.6835166191
 20
46.4412596413
 30
0.0
 10
15.7106736103
 20
45.4917465492
 30
0.0
 10
14.8340380352
 20
44.4527622964
 30
0.0
 10
14.0612552149
 20
43.334377335
 30
0.0
 10
13.400038694
 20
42.1466099569
 30
0.0
 10
12.8583052222
 20
40.8998046483
 30
0.0
 10
12.4394617543
 20
39.6065342363
 30
0.0
 10
12.1467796027
 20
38.2790119702
 30
0.0
 10
11.9836129578
 20
36.9294285982
 30
0.0
 10
11.9533808332
 20
35.5703536736
 30
0.0
 10
12.0544847322
 20
34.214715001
 30
0.0
 10
12.285336504
 20
32.8750562129
 30
0.0
 10
12.6444332324
 20
31.5639314394
 30
0.0
 10
13.1301888222
 20
30.2942700125
 30
0.0
 10
13.7362365375
 20
29.0774362622
 30
0.0
 10
14.4563644422
 20
27.9244427627
 30
0.0
 10
15.284435542
 20
26.8463440261
 30
0.0
 10
16.2140940051
 20
25.8545104847
 30
0.0
 10
17.2351496635
 20
24.9570565574
 30
0.0
 10
18.3376886303
 20
24.1618295233
 30
0.0
 10
19.5118505469
 20
23.4767438165
 30
0.0
 10
20.7474530335
 20
22.909923627
 30
0.0
 10
22.0319946837
 20
22.465029305
 30
0.0
 10
23.3533308546
 20
22.1455783187
 30
0.0
 10
24.6993410741
 20
21.9551705431
 30
0.0
 10
26.0575274528
 20
21.8974783183
 30
0.0
 10
27.4149325215
 20
21.9711647387
 30
0.0
 10
28.7589831137
 20
22.1748954792
 30
0.0
 10
30.0770972901
 20
22.5074216437
 30
0.0
 10
31.356316305
 20
22.9674187565
 30
0.0
 10
32.5851494806
 20
23.5487510501
 30
0.0
 10
33.7524609516
 20
24.2454304159
 30
0.0
 10
34.8470744376
 20
25.0515445197
 30
0.0
 10
35.8574933803
 20
25.9609686189
 30
0.0
 10
36.7753990793
 20
26.9636786153
 30
0.0
 10
37.5927455032
 20
28.0499212367
 30
0.0
 10
38.301420561
 20
29.2099980851
 30
0.0
 10
38.8930959407
 20
30.4338930467
 30
0.0
 10
39.3638593922
 20
31.7091812423
 30
0.0
 10
39.7099487278
 20
33.0237915956
 30
0.0
 10
39.9275198589
 20
34.3656788617
 30
0.0
 10
40.0126486187
 20
35.72242192
 30
0.0
 10
39.9664097752
 20
37.0810389294
 30
0.0
 10
39.7898832833
 20
38.4289323253
 30
0.0
 10
39.4840635088
 20
39.7534974983
 30
0.0
 10
39.0500127666
 20
41.0417515824
 30
0.0
 10
38.4936333499
 20
42.2820822455
 30
0.0
 10
37.8206870935
 20
43.4632348796
 30
0.0
 10
37.0368592568
 20
44.5739160015
 30
0.0
 10
36.1480409913
 20
45.6025076226
 30
0.0
 10
35.164086231
 20
46.540490159
 30
0.0
 10
34.0945836495
 20
47.3796221136
 30
0.0
 10
32.9490657223
 20
48.111597052
 30
0.0
 10
31.7373782065
 20
48.727885942
 30
0.0
 10
30.4718643788
 20
49.2243262316
 30
0.0
 10
29.1645168183
 20
49.5969125505
 30
0.0
 10
27.8273006223
 20
49.8415581663
 30
0.0
 10
26.4725550693
 20
49.9540886888
 30
0.0
 10
25.1132810694
 20
49.9353163093
 30
0.0
 10
23.7620954399
 20
49.7860661712
 30
0.0
 10
22.4316203115
 20
49.507077704
 30
0.0
 10
21.1348573677
 20
49.0991506279
 30
0.0
 10
19.8835358514
 20
48.5679513508
 30
0.0
 10
18.6890245161
 20
47.9190130802
 30
0.0
 10
17.5627294351
 20
47.1577916785
 30
0.0
 10
16.5163852815
 20
46.2899422998
 30
0.0
 10
15.5587090426
 20
45.3251446886
 30
0.0
 10
14.6981343151
 20
44.2728190035
 30
0.0
 10
13.9431584837
 20
43.142327904
 30
0.0
 10
13.3025078171
 20
41.9433427684
 30
0.0
 10
12.7805934691
 20
40.6881202294
 30
0.0
 10
12.3816623561
 20
39.38856947
 30
0.0
 10
12.1100421851
 20
38.0565705531
 30
0.0
 10
11.970155865
 20
36.7043758742
 30
0.0
 10
11.9614541126
 20
35.3450001026
 30
0.0
 10
12.0833669331
 20
33.9910741544
 30
0.0
 10
12.3354101354
 20
32.655232526
 30
0.0
 10
12.7170469207
 20
31.3504904073
 30
0.0
 10
13.2228490809
 20
30.0886891616
 30
0.0
 10
13.8475142957
 20
28.8813070437
 30
0.0
 10
14.5858183285
 20
27.739858058
 30
0.0
 10
15.4323443326
 20
26.6761887689
 30
0.0
 10
16.3775907065
 20
25.6992100068
 30
0.0
 10
17.4123096548
 20
24.8175440228
 30
0.0
 10
18.5273121582
 20
24.0398756814
 30
0.0
 10
19.7131051676
 20
23.3751249229
 30
0.0
 10
20.9575237008
 20
22.8279497011
 30
0.0
 10
22.2487468353
 20
22.4028367444
 30
0.0
 10
23.5749843956
 20
22.1043529662
 30
0.0
 10
24.9240758731
 20
21.9371679874
 30
0.0
 10
26.2829981563
 20
21.9009956575
 30
0.0
 10
27.6391113891
 20
21.995521363
 30
0.0
 10
28.9797738702
 20
22.2205163491
 30
0.0
 10
30.2919622194
 20
22.5757069574
 30
0.0
 10
31.5637277904
 20
23.0559053971
 30
0.0
 10
32.783487515
 20
23.656042401
 30
0.0
 10
33.9396241611
 20
24.3711274921
 30
0.0
 10
35.0201841116
 20
25.1959843435
 30
0.0
 10
36.0160663333
 20
26.1212933782
 30
0.0
 10
36.9184634422
 20
27.1379829409
 30
0.0
 10
37.7185066418
 20
28.2370414065
 30
0.0
 10
38.4070859634
 20
29.4091579322
 30
0.0
 10
38.9792985557
 20
30.6422641557
 30
0.0
 10
39.4304197117
 20
31.9246322431
 30
0.0
 10
39.7556451762
 20
33.2445667223
 30
0.0
 10
39.9500605241
 20
34.5900039391
 30
0.0
 10
40.0136886563
 20
35.9479176588
 30
0.0
 10
39.9465886764
 20
37.3056642484
 30
0.0
 10
39.7487338096
 20
38.6505999658
 30
0.0
 10
39.4201344619
 20
39.9696985598
 30
0.0
 10
38.9657358879
 20
41.2509089816
 30
0.0
 10
38.3903722312
 20
42.4825480812
 30
0.0
 10
37.6987981706
 20
43.6529001439
 30
0.0
 10
36.8959473987
 20
44.7499093828
 30
0.0
 10
35.9909536616
 20
45.7642882789
 30
0.0
 10
34.9927087685
 20
46.6870479132
 30
0.0
 10
33.91004327
 20
47.5091391796
 30
0.0
 10
32.7520819989
 20
48.2212658023
 30
0.0
 10
31.5307917686
 20
48.8182820353
 30
0.0
 10
30.2578025333
 20
49.2952271222
 30
0.0
 10
28.9447102851
 20
49.6470614292
 30
0.0
 10
27.6034768957
 20
49.8686277339
 30
0.0
 10
26.2471264027
 20
49.9596856785
 30
0.0
 10
24.8883010509
 20
49.9200388323
 30
0.0
 10
23.5396414593
 20
49.749404902
 30
0.0
 10
22.2141714289
 20
49.4475310367
 30
0.0
 10
20.9240394885
 20
49.0191179353
 30
0.0
 10
19.6810240979
 20
48.4687626428
 30
0.0
 10
18.496934669
 20
47.8009820981
 30
0.0
 10
17.383924234
 20
47.0204653442
 30
0.0
 10
16.3514630039
 20
46.1361565651
 30
0.0
 10
15.4087177611
 20
45.1567640918
 30
0.0
 10
14.5649142248
 20
44.0909337929
 30
0.0
 10
13.8295311812
 20
42.9476007642
 30
0.0
 10
13.2079551689
 20
41.7386253829
 30
0.0
 10
12.7053809675
 20
40.4755349745
 30
0.0
 10
12.3270815313
 20
39.169821315
 30
0.0
 10
12.0784547737
 20
37.8333396072
 30
0.0
 10
11.9600042126
 20
36.4791063687
 30
0.0
 10
11.9721817311
 20
35.1197572886
 30
0.0
 10
12.1155250246
 20
33.767924696
 30
0.0
 10
12.3905500938
 20
32.4366246232
 30
0.0
 10
12.7928027215
 20
31.1380981259
 30
0.0
 10
13.3179248442
 20
29.8842141781
 30
0.0
 10
13.9616391155
 20
28.6868710785
 30
0.0
 10
14.7195030723
 20
27.558314147
 30
0.0
 10
15.5827657161
 20
26.5081923771
 30
0.0
 10
16.5429057284
 20
25.5458466087
 30
0.0
 10
17.5914654281
 20
24.6806753464
 30
0.0
 10
18.7197030714
 20
23.9223359542
 30
0.0
 10
19.915869681
 20
23.276453765
 30
0.0
 10
21.1685453463
 20
22.7484557013
 30
0.0
 10
22.4663472764
 20
22.3438461296
 30
0.0
 10
23.7975317506
 20
22.0682617131
 30
0.0
 10
25.1490947544
 20
21.9224680278
 30
0.0
 10
26.508412075
 20
21.9071713091
 30
0.0
 10
27.862864679
 20
22.023163518
 30
0.0
 10
29.1994502345
 20
22.271222907
 30
0.0
 10
30.50584077
 20
22.6471470502
 30
0.0
 10
31.7700822588
 20
23.1468217908
 30
0.0
 10
32.9801930594
 20
23.7662148801
 30
0.0
 10
34.1238360269
 20
24.5011302331
 30
0.0
 10
35.1911933488
 20
25.343011057
 30
0.0
 10
36.1727284504
 20
26.2834819269
 30
0.0
 10
36.9837144523
 20
27.2268618139
 30
0.0
 10
37.6430447347
 20
28.1416891637
 30
0.0
 10
37.9970827092
 20
28.7162712045
 30
0.0
 10
38.1635882739
 20
29.0095699415
 30
0.0
  0
SPLINE
  5
263
100
AcDbEntity
  8
0
100
AcDbSpline
 62
7
  6
BYLAYER
 70
0
 71
3
 72
269
 73
265
 74
0
 42
0.0000001
 43
0.0000001
 44
0.0000000001
 40
0.0
 40
0.0
 40
0.0
 40
0.0
 40
0.0031254851
 40
0.0062511326
 40
0.0093765999
 40
0.0125017367
 40
0.0165639054
 40
0.0185958135
 40
0.0206278088
 40
0.0246904785
 40
0.028752625
 40
0.0328147751
 40
0.0368774508
 40
0.040940127
 40
0.0450022794
 40
0.0490644315
 40
0.0531271073
 40
0.0571897833
 40
0.0612519358
 40
0.0653140883
 40
0.0693767641
 40
0.0734394397
 40
0.0775015918
 40
0.0815637439
 40
0.0856264197
 40
0.0896890955
 40
0.0937512478
 40
0.0978134001
 40
0.1018760758
 40
0.1059387516
 40
0.1100009038
 40
0.114063056
 40
0.1181257318
 40
0.1201577282
 40
0.1221896346
 40
0.1262517868
 40
0.1303139391
 40
0.1343766149
 40
0.1384392906
 40
0.1425014429
 40
0.1465635951
 40
0.1506262709
 40
0.1546889467
 40
0.1587510989
 40
0.1628132511
 40
0.1668759269
 40
0.1709386027
 40
0.1750007549
 40
0.1790629071
 40
0.1831255829
 40
0.1851575793
 40
0.1871894857
 40
0.1912516379
 40
0.1953137902
 40
0.1993764659
 40
0.2034391417
 40
0.207501294
 40
0.2115634462
 40
0.215626122
 40
0.2196887978
 40
0.22375095
 40
0.2278131022
 40
0.231875778
 40
0.2359384538
 40
0.240000606
 40
0.2440627582
 40
0.248125434
 40
0.2501574304
 40
0.2521893368
 40
0.256251489
 40
0.2603136412
 40
0.264376317
 40
0.2684389928
 40
0.272501145
 40
0.2765632973
 40
0.2806259731
 40
0.2846886488
 40
0.2887508011
 40
0.2928129533
 40
0.2968756291
 40
0.3009383049
 40
0.3050004571
 40
0.3090626093
 40
0.3131252851
 40
0.3151572815
 40
0.3171891879
 40
0.3212513401
 40
0.3253134923
 40
0.3293761681
 40
0.3334388439
 40
0.3375009961
 40
0.3415631484
 40
0.3456258241
 40
0.3496884999
 40
0.3537506522
 40
0.3578128044
 40
0.3618754802
 40
0.365938156
 40
0.3700003082
 40
0.3740624604
 40
0.3781251362
 40
0.3801571326
 40
0.382189039
 40
0.3862511912
 40
0.3903133434
 40
0.3943760192
 40
0.398438695
 40
0.4025008472
 40
0.4065629994
 40
0.4106256752
 40
0.414688351
 40
0.4187505032
 40
0.4228126555
 40
0.4268753313
 40
0.430938007
 40
0.4350001593
 40
0.4390623115
 40
0.4431249873
 40
0.4451569837
 40
0.4471888901
 40
0.4512510423
 40
0.4553131945
 40
0.4593758703
 40
0.4634385461
 40
0.4675006983
 40
0.4715628505
 40
0.4756255263
 40
0.4796882021
 40
0.4837503543
 40
0.4878125066
 40
0.4918751823
 40
0.4959378581
 40
0.5000000104
 40
0.5040621626
 40
0.5081248384
 40
0.5121875142
 40
0.5162496664
 40
0.5203118186
 40
0.5243744944
 40
0.5284371702
 40
0.5324993224
 40
0.5365614746
 40
0.5406241504
 40
0.5446868262
 40
0.5487489784
 40
0.5528111306
 40
0.5548430371
 40
0.5568750334
 40
0.5609377092
 40
0.5649998614
 40
0.5690620137
 40
0.5731246895
 40
0.5771873652
 40
0.5812495175
 40
0.5853116697
 40
0.5893743455
 40
0.5934370213
 40
0.5974991735
 40
0.6015613257
 40
0.6056240015
 40
0.6096866773
 40
0.6137488295
 40
0.6178109817
 40
0.6198428881
 40
0.6218748845
 40
0.6259375603
 40
0.6299997125
 40
0.6340618648
 40
0.6381245405
 40
0.6421872163
 40
0.6462493686
 40
0.6503115208
 40
0.6543741966
 40
0.6584368724
 40
0.6624990246
 40
0.6665611768
 40
0.6706238526
 40
0.6746865284
 40
0.6787486806
 40
0.6828108328
 40
0.6848427392
 40
0.6868747356
 40
0.6909374114
 40
0.6949995636
 40
0.6990617158
 40
0.7031243916
 40
0.7071870674
 40
0.7112492196
 40
0.7153113719
 40
0.7193740477
 40
0.7234367234
 40
0.7274988757
 40
0.7315610279
 40
0.7356237037
 40
0.7396863795
 40
0.7437485317
 40
0.7478106839
 40
0.7498425903
 40
0.7518745867
 40
0.7559372625
 40
0.7599994147
 40
0.7640615669
 40
0.7681242427
 40
0.7721869185
 40
0.7762490707
 40
0.780311223
 40
0.7843738987
 40
0.7884365745
 40
0.7924987268
 40
0.796560879
 40
0.8006235548
 40
0.8046862306
 40
0.8087483828
 40
0.812810535
 40
0.8148424414
 40
0.8168744378
 40
0.8209371136
 40
0.8249992658
 40
0.829061418
 40
0.8331240938
 40
0.8371867696
 40
0.8412489218
 40
0.845311074
 40
0.8493737498
 40
0.8534364256
 40
0.8574985778
 40
0.8615607301
 40
0.8656234059
 40
0.8696860816
 40
0.8737482339
 40
0.8778103861
 40
0.8798422925
 40
0.8818742889
 40
0.8859369647
 40
0.8899991169
 40
0.8940612691
 40
0.8981239449
 40
0.9021866207
 40
0.9062487729
 40
0.9103109252
 40
0.914373601
 40
0.9184362768
 40
0.922498429
 40
0.926560581
 40
0.9306232566
 40
0.9346859324
 40
0.9387480849
 40
0.9428102374
 40
0.9468729134
 40
0.9509355892
 40
0.9549977413
 40
0.9590598937
 40
0.9631225699
 40
0.9671852457
 40
0.9712473957
 40
0.9753095422
 40
0.9793722119
 40
0.9814042072
 40
0.9834361153
 40
0.987498284
 40
0.9906234157
 40
0.9937488777
 40
0.9968745201
 40
1.0
 40
1.0
 40
1.0
 40
1.0
 10
29.3710035393
 20
22.335317926
 30
0.0
 10
29.7154056994
 20
22.4213804002
 30
0.0
 10
30.3976734584
 20
22.6196469158
 30
0.0
 10
31.3957210227
 20
22.9933842154
 30
0.0
 10
32.3627096321
 20
23.4413734019
 30
0.0
 10
33.3857030918
 20
24.0134228202
 30
0.0
 10
34.2522674757
 20
24.6042440295
 30
0.0
 10
34.9744039498
 20
25.179134781
 30
0.0
 10
35.6675054118
 20
25.7888319884
 30
0.0
 10
36.4765363943
 20
26.6135997781
 30
0.0
 10
37.3450512336
 20
27.6938291793
 30
0.0
 10
38.1013758668
 20
28.8554507082
 30
0.0
 10
38.7397000293
 20
30.0858436202
 30
0.0
 10
39.2545035531
 20
31.3728224579
 30
0.0
 10
39.6401577205
 20
32.7042232807
 30
0.0
 10
39.8909011052
 20
34.0674861711
 30
0.0
 10
40.0062667901
 20
35.4487991143
 30
0.0
 10
39.9858439839
 20
36.8347708909
 30
0.0
 10
39.8291253191
 20
38.2120134975
 30
0.0
 10
39.535630193
 20
39.5667158554
 30
0.0
 10
39.1102456301
 20
40.8859514856
 30
0.0
 10
38.557748221
 20
42.1572032977
 30
0.0
 10
37.8828242501
 20
43.3679201173
 30
0.0
 10
37.0903476507
 20
44.5051705138
 30
0.0
 10
36.189805904
 20
45.5589063519
 30
0.0
 10
35.1904269815
 20
46.519414772
 30
0.0
 10
34.1013684952
 20
47.3769166823
 30
0.0
 10
32.932108159
 20
48.1213543115
 30
0.0
 10
31.6952692882
 20
48.7471072411
 30
0.0
 10
30.4031140891
 20
49.2487645073
 30
0.0
 10
29.0678373519
 20
49.6208271766
 30
0.0
 10
27.7021410184
 20
49.8576614595
 30
0.0
 10
26.5499019213
 20
49.9420678177
 30
0.0
 10
25.6268006042
 20
49.9416643021
 30
0.0
 10
24.7048958529
 20
49.8959487638
 30
0.0
 10
23.5583767647
 20
49.7536442794
 30
0.0
 10
22.2067887464
 20
49.4463596161
 30
0.0
 10
20.8919433404
 20
49.0075499845
 30
0.0
 10
19.6263926849
 20
48.4421241112
 30
0.0
 10
18.4226169376
 20
47.7548947688
 30
0.0
 10
17.2935032308
 20
46.9508678352
 30
0.0
 10
16.2490008654
 20
46.0396326107
 30
0.0
 10
15.2987285742
 20
45.0305155941
 30
0.0
 10
14.4523714826
 20
43.9327735711
 30
0.0
 10
13.7198902683
 20
42.7559862682
 30
0.0
 10
13.1067763822
 20
41.5128336312
 30
0.0
 10
12.6183155262
 20
40.2156323846
 30
0.0
 10
12.2598820526
 20
38.8766327379
 30
0.0
 10
12.0369799945
 20
37.5085933985
 30
0.0
 10
11.964322271
 20
36.3555538383
 30
0.0
 10
11.9741345188
 20
35.4325045853
 30
0.0
 10
12.0292442396
 20
34.5111136814
 30
0.0
 10
12.1832272813
 20
33.3661045958
 30
0.0
 10
12.5042721063
 20
32.0177188002
 30
0.0
 10
12.9564605665
 20
30.707414282
 30
0.0
 10
13.534756252
 20
29.4476924951
 30
0.0
 10
14.234219436
 20
28.2509838948
 30
0.0
 10
15.0497131479
 20
27.1301239218
 30
0.0
 10
15.9715471767
 20
26.0949636206
 30
0.0
 10
16.9902974688
 20
25.1550261638
 30
0.0
 10
18.0966090032
 20
24.319901823
 30
0.0
 10
19.2808010262
 20
23.5994531169
 30
0.0
 10
20.5301382789
 20
22.9990419701
 30
0.0
 10
21.8322508017
 20
22.5238282711
 30
0.0
 10
23.1748342435
 20
22.1790612324
 30
0.0
 10
24.5450744591
 20
21.9701145573
 30
0.0
 10
25.6987946915
 20
21.9092130173
 30
0.0
 10
26.6216959846
 20
21.9284329776
 30
0.0
 10
27.5424773181
 20
21.9929311552
 30
0.0
 10
28.6858574465
 20
22.1585767564
 30
0.0
 10
30.0309009355
 20
22.4933483894
 30
0.0
 10
31.3365284377
 20
22.9588687
 30
0.0
 10
32.5902904823
 20
23.5499741185
 30
0.0
 10
33.7798076082
 20
24.2615984764
 30
0.0
 10
34.8922974003
 20
25.0884742444
 30
0.0
 10
35.9180080937
 20
26.0208113076
 30
0.0
 10
36.8475130656
 20
27.0490890364
 30
0.0
 10
37.671317894
 20
28.1638551467
 30
0.0
 10
38.379659244
 20
29.3553288632
 30
0.0
 10
38.9673052744
 20
30.6107209371
 30
0.0
 10
39.429222446
 20
31.9176094589
 30
0.0
 10
39.7602872317
 20
33.2636372136
 30
0.0
 10
39.9552568161
 20
34.6359359504
 30
0.0
 10
40.0043958457
 20
35.7902169941
 30
0.0
 10
39.9757701695
 20
36.7128744465
 30
0.0
 10
39.9018902359
 20
37.632950549
 30
0.0
 10
39.7245992843
 20
38.7745829337
 30
0.0
 10
39.376135623
 20
40.1161443785
 30
0.0
 10
38.8973318252
 20
41.4169592221
 30
0.0
 10
38.2934780842
 20
42.6646312702
 30
0.0
 10
37.5697664834
 20
43.846833342
 30
0.0
 10
36.731594564
 20
44.9508373758
 30
0.0
 10
35.7888513275
 20
45.9669918996
 30
0.0
 10
34.7511529905
 20
46.8859678196
 30
0.0
 10
33.6280481183
 20
47.6983675499
 30
0.0
 10
32.4294164912
 20
48.3945279538
 30
0.0
 10
31.1681000197
 20
48.9693478169
 30
0.0
 10
29.8565712725
 20
49.4179204722
 30
0.0
 10
28.5072390445
 20
49.7352486104
 30
0.0
 10
27.1330243558
 20
49.9162208485
 30
0.0
 10
25.9783024197
 20
49.9535922625
 30
0.0
 10
25.0559846636
 20
49.9155638445
 30
0.0
 10
24.1367093794
 20
49.8323098302
 30
0.0
 10
22.9969433435
 20
49.6433919471
 30
0.0
 10
21.6590033185
 20
49.2812724597
 30
0.0
 10
20.3631362762
 20
48.789234918
 30
0.0
 10
19.121683846
 20
48.1726955891
 30
0.0
 10
17.9469196482
 20
47.4369719324
 30
0.0
 10
16.8515160684
 20
46.5875909398
 30
0.0
 10
15.8450232833
 20
45.6345394725
 30
0.0
 10
14.9366718881
 20
44.5875283343
 30
0.0
 10
14.1357616566
 20
43.4562013803
 30
0.0
 10
13.4518545234
 20
42.2505363694
 30
0.0
 10
12.8899205462
 20
40.9834265393
 30
0.0
 10
12.4547390097
 20
39.6673938224
 30
0.0
 10
12.1511804865
 20
38.3148973041
 30
0.0
 10
11.9842243959
 20
36.9389094316
 30
0.0
 10
11.95862448
 20
35.783866568
 30
0.0
 10
12.0060516892
 20
34.8619843285
 30
0.0
 10
12.0986711347
 20
33.9436053668
 30
0.0
 10
12.2991963226
 20
32.8058240907
 30
0.0
 10
12.6749340152
 20
31.4716444851
 30
0.0
 10
13.1801541828
 20
30.1808598725
 30
0.0
 10
13.8093150468
 20
28.9457560357
 30
0.0
 10
14.5569743243
 20
27.7785517588
 30
0.0
 10
15.4174761485
 20
26.6918624354
 30
0.0
 10
16.3807368286
 20
25.6951359538
 30
0.0
 10
17.4369520121
 20
24.7975034539
 30
0.0
 10
18.5763834426
 20
24.0081659246
 30
0.0
 10
19.7889568448
 20
23.3365831281
 30
0.0
 10
21.0617274037
 20
22.7875933625
 30
0.0
 10
22.3821310572
 20
22.3658483571
 30
0.0
 10
23.7376375832
 20
22.0760902359
 30
0.0
 10
25.1153070812
 20
21.9231704368
 30
0.0
 10
26.5013298384
 20
21.9065700138
 30
0.0
 10
27.8823193809
 20
22.0257444319
 30
0.0
 10
29.2448856576
 20
22.2802456106
 30
0.0
 10
30.5752184399
 20
22.6695686236
 30
0.0
 10
31.8607725248
 20
23.1879172646
 30
0.0
 10
33.089403231
 20
23.8296348071
 30
0.0
 10
34.2489252085
 20
24.5891516661
 30
0.0
 10
35.3267880677
 20
25.4606858743
 30
0.0
 10
36.3136430556
 20
26.434052256
 30
0.0
 10
37.2004692731
 20
27.4993745518
 30
0.0
 10
37.9781302639
 20
28.6467443339
 30
0.0
 10
38.5275433685
 20
29.6630621109
 30
0.0
 10
38.9053131734
 20
30.5052546385
 30
0.0
 10
39.2413069555
 20
31.3650362282
 30
0.0
 10
39.5816039769
 20
32.4691092827
 30
0.0
 10
39.8575125944
 20
33.8274506965
 30
0.0
 10
39.9963874171
 20
35.206620154
 30
0.0
 10
39.9988585561
 20
36.5927366625
 30
0.0
 10
39.8656148825
 20
37.9724407032
 30
0.0
 10
39.5972388092
 20
39.332341938
 30
0.0
 10
39.1943765666
 20
40.6586374893
 30
0.0
 10
38.662951775
 20
41.9388414853
 30
0.0
 10
38.0087446932
 20
43.1608676388
 30
0.0
 10
37.2374488055
 20
44.3125879724
 30
0.0
 10
36.3549737025
 20
45.3815116892
 30
0.0
 10
35.3715993174
 20
46.3583943326
 30
0.0
 10
34.2972933428
 20
47.2343161367
 30
0.0
 10
33.1420568155
 20
48.000242112
 30
0.0
 10
32.120191913
 20
48.5392678111
 30
0.0
 10
31.2741926972
 20
48.9084339062
 30
0.0
 10
30.4110311369
 20
49.2356468713
 30
0.0
 10
29.3035469408
 20
49.5646729001
 30
0.0
 10
27.9424638751
 20
49.8267222276
 30
0.0
 10
26.561950571
 20
49.9515325878
 30
0.0
 10
25.1758808775
 20
49.9398755417
 30
0.0
 10
23.7976065984
 20
49.7925760921
 30
0.0
 10
22.4405114397
 20
49.5103531033
 30
0.0
 10
21.1183909754
 20
49.0939934586
 30
0.0
 10
19.8436700519
 20
48.5495477336
 30
0.0
 10
18.6283754129
 20
47.8829190765
 30
0.0
 10
17.4845763749
 20
47.0999242912
 30
0.0
 10
16.4247028521
 20
46.2065999742
 30
0.0
 10
15.4578940422
 20
45.2133197492
 30
0.0
 10
14.5929676516
 20
44.1301417062
 30
0.0
 10
13.8388562644
 20
42.9671584521
 30
0.0
 10
13.3102739706
 20
41.9398525863
 30
0.0
 10
12.9497499382
 20
41.0901345736
 30
0.0
 10
12.6313517845
 20
40.2236827173
 30
0.0
 10
12.313630931
 20
39.1129024368
 30
0.0
 10
12.065468118
 20
37.7492191231
 30
0.0
 10
11.954735187
 20
36.3675053949
 30
0.0
 10
11.9805192071
 20
34.9816265163
 30
0.0
 10
12.1418591296
 20
33.6049251886
 30
0.0
 10
12.4378997136
 20
32.2507770955
 30
0.0
 10
12.8677135044
 20
30.9329690742
 30
0.0
 10
13.4251236001
 20
29.6638636548
 30
0.0
 10
14.1041045758
 20
28.4554267882
 30
0.0
 10
14.8987169129
 20
27.3196678758
 30
0.0
 10
15.8027976359
 20
26.268954658
 30
0.0
 10
16.8058805082
 20
25.3123201241
 30
0.0
 10
17.8978180874
 20
24.4584790048
 30
0.0
 10
19.0684272452
 20
23.716260551
 30
0.0
 10
20.1010673468
 20
23.1981765772
 30
0.0
 10
20.9544158785
 20
22.8463320625
 30
0.0
 10
21.8240680146
 20
22.5367817988
 30
0.0
 10
22.9380289798
 20
22.230399129
 30
0.0
 10
24.3041708674
 20
21.9961486122
 30
0.0
 10
25.6869414726
 20
21.8995046145
 30
0.0
 10
27.0724855564
 20
21.93941293
 30
0.0
 10
28.4474709062
 20
22.1147765637
 30
0.0
 10
29.7985312502
 20
22.4246039869
 30
0.0
 10
31.1118899206
 20
22.8678272702
 30
0.0
 10
32.3752479876
 20
23.4381438269
 30
0.0
 10
33.5767015365
 20
24.1294065815
 30
0.0
 10
34.7043023283
 20
24.9355539174
 30
0.0
 10
35.7457460818
 20
25.8502971208
 30
0.0
 10
36.6921069543
 20
26.8630784295
 30
0.0
 10
37.5347740962
 20
27.9636621028
 30
0.0
 10
38.2650225072
 20
29.1417755489
 30
0.0
 10
38.7725543368
 20
30.1796426045
 30
0.0
 10
39.1156827803
 20
31.0365330002
 30
0.0
 10
39.4163529946
 20
31.9092950674
 30
0.0
 10
39.7113656505
 20
33.026320987
 30
0.0
 10
39.9316795346
 20
34.3947795191
 30
0.0
 10
40.0142245587
 20
35.7784633443
 30
0.0
 10
39.960196094
 20
37.1635286881
 30
0.0
 10
39.7708269677
 20
38.5366552119
 30
0.0
 10
39.4472448934
 20
39.8844874443
 30
0.0
 10
38.9906581642
 20
41.1932603179
 30
0.0
 10
38.407494397
 20
42.4507397814
 30
0.0
 10
37.7040216794
 20
43.6450851926
 30
0.0
 10
36.8864230959
 20
44.7644107168
 30
0.0
 10
35.961112446
 20
45.7964768096
 30
0.0
 10
34.9387379199
 20
46.7324657027
 30
0.0
 10
33.8296224927
 20
47.563871322
 30
0.0
 10
32.6441271525
 20
48.2820738241
 30
0.0
 10
31.6011409663
 20
48.7790007817
 30
0.0
 10
30.7407977284
 20
49.1133775063
 30
0.0
 10
29.8650164016
 20
49.4051364343
 30
0.0
 10
28.745041577
 20
49.688748427
 30
0.0
 10
27.3744085737
 20
49.8951027897
 30
0.0
 10
25.9899552855
 20
49.9635402641
 30
0.0
 10
24.6055125808
 20
49.8953972623
 30
0.0
 10
23.2343875365
 20
49.6920423167
 30
0.0
 10
21.8899234314
 20
49.3547392072
 30
0.0
 10
20.5858723062
 20
48.884836477
 30
0.0
 10
19.3344020624
 20
48.2888860726
 30
0.0
 10
18.147288899
 20
47.5732765483
 30
0.0
 10
17.0363548716
 20
46.7443114033
 30
0.0
 10
16.0137741078
 20
45.8085303577
 30
0.0
 10
15.0882531596
 20
44.7766652835
 30
0.0
 10
14.268200496
 20
43.6591464679
 30
0.0
 10
13.5620995167
 20
42.4663433515
 30
0.0
 10
12.9786676326
 20
41.2089789754
 30
0.0
 10
12.5218082652
 20
39.900310043
 30
0.0
 10
12.1952658959
 20
38.5532002592
 30
0.0
 10
12.0028776602
 20
37.1804858971
 30
0.0
 10
11.948560261
 20
35.7954202279
 30
0.0
 10
12.0308113448
 20
34.4117396448
 30
0.0
 10
12.2481294924
 20
33.0427629185
 30
0.0
 10
12.599123077
 20
31.7017949731
 30
0.0
 10
13.0822626037
 20
30.4026453347
 30
0.0
 10
13.5895955371
 20
29.3646731133
 30
0.0
 10
14.0548125517
 20
28.5673692498
 30
0.0
 10
14.558566817
 20
27.7939275239
 30
0.0
 10
15.1943364709
 20
26.9597817062
 30
0.0
 10
15.9844627254
 20
26.0940716574
 30
0.0
 10
16.7606062389
 20
25.3637575077
 30
0.0
 10
17.5896582269
 20
24.6940952494
 30
0.0
 10
18.1744619546
 20
24.290608161
 30
0.0
 10
18.4740907731
 20
24.1002354982
 30
0.0
  0
SPLINE
  5
264
100
AcDbEntity
  8
0
100
AcDbSpline
 62
7
  6
BYLAYER
 70
0
 71
3
 72
269
 73
265
 74
0
 42
0.0000001
 43
0.0000001
 44
0.0000000001
 40
0.0
 40
0.0
 40
0.0
 40
0.0
 40
0.0031254851
 40
0.0062511326
 40
0.0093765999
 40
0.0125017367
 40
0.0165639054
 40
0.0185958135
 40
0.0206278088
 40
0.0246904785
 40
0.028752625
 40
0.0328147751
 40
0.0368774508
 40
0.040940127
 40
0.0450022794
 40
0.0490644315
 40
0.0531271073
 40
0.0571897833
 40
0.0612519358
 40
0.0653140883
 40
0.0693767641
 40
0.0734394397
 40
0.0775015918
 40
0.0815637439
 40
0.0856264197
 40
0.0896890955
 40
0.0937512478
 40
0.0978134001
 40
0.1018760758
 40
0.1059387516
 40
0.1100009038
 40
0.114063056
 40
0.1181257318
 40
0.1201577282
 40
0.1221896346
 40
0.1262517868
 40
0.1303139391
 40
0.1343766149
 40
0.1384392906
 40
0.1425014429
 40
0.1465635951
 40
0.1506262709
 40
0.1546889467
 40
0.1587510989
 40
0.1628132511
 40
0.1668759269
 40
0.1709386027
 40
0.1750007549
 40
0.1790629071
 40
0.1831255829
 40
0.1851575793
 40
0.1871894857
 40
0.1912516379
 40
0.1953137902
 40
0.1993764659
 40
0.2034391417
 40
0.207501294
 40
0.2115634462
 40
0.215626122
 40
0.2196887978
 40
0.22375095
 40
0.2278131022
 40
0.231875778
 40
0.2359384538
 40
0.240000606
 40
0.2440627582
 40
0.248125434
 40
0.2501574304
 40
0.2521893368
 40
0.256251489
 40
0.2603136412
 40
0.264376317
 40
0.2684389928
 40
0.272501145
 40
0.2765632973
 40
0.2806259731
 40
0.2846886488
 40
0.2887508011
 40
0.2928129533
 40
0.2968756291
 40
0.3009383049
 40
0.3050004571
 40
0.3090626093
 40
0.3131252851
 40
0.3151572815
 40
0.3171891879
 40
0.3212513401
 40
0.3253134923
 40
0.3293761681
 40
0.3334388439
 40
0.3375009961
 40
0.3415631484
 40
0.3456258241
 40
0.3496884999
 40
0.3537506522
 40
0.3578128044
 40
0.3618754802
 40
0.365938156
 40
0.3700003082
 40
0.3740624604
 40
0.3781251362
 40
0.3801571326
 40
0.382189039
 40
0.3862511912
 40
0.3903133434
 40
0.3943760192
 40
0.398438695
 40
0.4025008472
 40
0.4065629994
 40
0.4106256752
 40
0.414688351
 40
0.4187505032
 40
0.4228126555
 40
0.4268753313
 40
0.430938007
 40
0.4350001593
 40
0.4390623115
 40
0.4431249873
 40
0.4451569837
 40
0.4471888901
 40
0.4512510423
 40
0.4553131945
 40
0.4593758703
 40
0.4634385461
 40
0.4675006983
 40
0.4715628505
 40
0.4756255263
 40
0.4796882021
 40
0.4837503543
 40
0.4878125066
 40
0.4918751823
 40
0.4959378581
 40
0.5000000104
 40
0.5040621626
 40
0.5081248384
 40
0.5121875142
 40
0.5162496664
 40
0.5203118186
 40
0.5243744944
 40
0.5284371702
 40
0.5324993224
 40
0.5365614746
 40
0.5406241504
 40
0.5446868262
 40
0.5487489784
 40
0.5528111306
 40
0.5548430371
 40
0.5568750334
 40
0.5609377092
 40
0.5649998614
 40
0.5690620137
 40
0.5731246895
 40
0.5771873652
 40
0.5812495175
 40
0.5853116697
 40
0.5893743455
 40
0.5934370213
 40
0.5974991735
 40
0.6015613257
 40
0.6056240015
 40
0.6096866773
 40
0.6137488295
 40
0.6178109817
 40
0.6198428881
 40
0.6218748845
 40
0.6259375603
 40
0.6299997125
 40
0.6340618648
 40
0.6381245405
 40
0.6421872163
 40
0.6462493686
 40
0.6503115208
 40
0.6543741966
 40
0.6584368724
 40
0.6624990246
 40
0.6665611768
 40
0.6706238526
 40
0.6746865284
 40
0.6787486806
 40
0.6828108328
 40
0.6848427392
 40
0.6868747356
 40
0.6909374114
 40
0.6949995636
 40
0.6990617158
 40
0.7031243916
 40
0.7071870674
 40
0.7112492196
 40
0.7153113719
 40
0.7193740477
 40
0.7234367234
 40
0.7274988757
 40
0.7315610279
 40
0.7356237037
 40
0.7396863795
 40
0.7437485317
 40
0.7478106839
 40
0.7498425903
 40
0.7518745867
 40
0.7559372625
 40
0.7599994147
 40
0.7640615669
 40
0.7681242427
 40
0.7721869185
 40
0.7762490707
 40
0.780311223
 40
0.7843738987
 40
0.7884365745
 40
0.7924987268
 40
0.796560879
 40
0.8006235548
 40
0.8046862306
 40
0.8087483828
 40
0.812810535
 40
0.8148424414
 40
0.8168744378
 40
0.8209371136
 40
0.8249992658
 40
0.829061418
 40
0.8331240938
 40
0.8371867696
 40
0.8412489218
 40
0.845311074
 40
0.8493737498
 40
0.8534364256
 40
0.8574985778
 40
0.8615607301
 40
0.8656234059
 40
0.8696860816
 40
0.8737482339
 40
0.8778103861
 40
0.8798422925
 40
0.8818742889
 40
0.8859369647
 40
0.8899991169
 40
0.8940612691
 40
0.8981239449
 40
0.9021866207
 40
0.9062487729
 40
0.9103109252
 40
0.914373601
 40
0.9184362768
 40
0.922498429
 40
0.926560581
 40
0.9306232566
 40
0.9346859324
 40
0.9387480849
 40
0.9428102374
 40
0.9468729134
 40
0.9509355892
 40
0.9549977413
 40
0.9590598937
 40
0.9631225699
 40
0.9671852457
 40
0.9712473957
 40
0.9753095422
 40
0.9793722119
 40
0.9814042072
 40
0.9834361153
 40
0.987498284
 40
0.9906234157
 40
0.9937488777
 40
0.9968745201
 40
1.0
 40
1.0
 40
1.0
 40
1.0
 10
36.5876129273
 20
26.7750030715
 30
0.0
 10
36.8194302041
 20
27.0438531181
 30
0.0
 10
37.2626545958
 20
27.5991467743
 30
0.0
 10
37.8627698141
 20
28.4798511712
 30
0.0
 10
38.3947041786
 20
29.4033267333
 30
0.0
 10
38.9008902941
 20
30.4604604865
 30
0.0
 10
39.2684305213
 20
31.4427627384
 30
0.0
 10
39.5271350496
 20
32.3287945834
 30
0.0
 10
39.7420501999
 20
33.226531627
 30
0.0
 10
39.9277229325
 20
34.3668380219
 30
0.0
 10
40.0147462668
 20
35.7501819865
 30
0.0
 10
39.963176894
 20
37.1353650527
 30
0.0
 10
39.7755419908
 20
38.5087250192
 30
0.0
 10
39.4543548716
 20
39.8571225982
 30
0.0
 10
39.002027747
 20
41.1673735132
 30
0.0
 10
38.4210926391
 20
42.4258934192
 30
0.0
 10
37.7191297007
 20
43.6211267527
 30
0.0
 10
36.9035223876
 20
44.7418941537
 30
0.0
 10
35.9815733844
 20
45.7769632205
 30
0.0
 10
34.9608511215
 20
46.7147712657
 30
0.0
 10
33.8528002463
 20
47.5475725217
 30
0.0
 10
32.6685391806
 20
48.2678920933
 30
0.0
 10
31.4191322005
 20
48.868175178
 30
0.0
 10
30.1160161101
 20
49.3406644159
 30
0.0
 10
28.7727356263
 20
49.6826179153
 30
0.0
 10
27.402430145
 20
49.8914181636
 30
0.0
 10
26.0182197466
 20
49.9643529692
 30
0.0
 10
24.6336467212
 20
49.8986669363
 30
0.0
 10
23.2622659373
 20
49.6970438552
 30
0.0
 10
21.9172164487
 20
49.3621305168
 30
0.0
 10
20.6116329287
 20
48.8964629665
 30
0.0
 10
19.3591422029
 20
48.3027593918
 30
0.0
 10
18.3689413505
 20
47.7075437653
 30
0.0
 10
17.614866418
 20
47.1751086043
 30
0.0
 10
16.8878885673
 20
46.6063366943
 30
0.0
 10
16.0330452472
 20
45.8291626574
 30
0.0
 10
15.1057308035
 20
44.7989675505
 30
0.0
 10
14.2842556402
 20
43.6824771159
 30
0.0
 10
13.5760471243
 20
42.4909379526
 30
0.0
 10
12.9885291152
 20
41.2354767593
 30
0.0
 10
12.5293467177
 20
39.9276126232
 30
0.0
 10
12.2011023695
 20
38.5809164905
 30
0.0
 10
12.0062798739
 20
37.2085540108
 30
0.0
 10
11.9474574712
 20
35.8236721383
 30
0.0
 10
12.0272524145
 20
34.4398405545
 30
0.0
 10
12.2428428842
 20
33.0705860618
 30
0.0
 10
12.5914483068
 20
31.7290200585
 30
0.0
 10
13.0703988902
 20
30.428250691
 30
0.0
 10
13.6768376955
 20
29.1818763744
 30
0.0
 10
14.2821150718
 20
28.1977937203
 30
0.0
 10
14.8222085189
 20
27.4491848291
 30
0.0
 10
15.3983606389
 20
26.7280419766
 30
0.0
 10
16.1842073351
 20
25.8811644451
 30
0.0
 10
17.2238006233
 20
24.9643984833
 30
0.0
 10
18.3486059849
 20
24.1543458724
 30
0.0
 10
19.5473017014
 20
23.4583189625
 30
0.0
 10
20.808685984
 20
22.8836278181
 30
0.0
 10
22.1211624206
 20
22.4377997386
 30
0.0
 10
23.4711342445
 20
22.1232987039
 30
0.0
 10
24.8454111736
 20
21.9424741968
 30
0.0
 10
26.230820658
 20
21.8977703224
 30
0.0
 10
27.6137670445
 20
21.9916658883
 30
0.0
 10
28.9807529949
 20
22.221201349
 30
0.0
 10
30.3186961332
 20
22.5834626368
 30
0.0
 10
31.6145162058
 20
23.0756464929
 30
0.0
 10
32.8546446234
 20
23.6947575246
 30
0.0
 10
33.8325068412
 20
24.3100337676
 30
0.0
 10
34.5755719183
 20
24.8577293901
 30
0.0
 10
35.2908048536
 20
25.4412018637
 30
0.0
 10
36.1296286148
 20
26.2356395773
 30
0.0
 10
37.0357508521
 20
27.284523043
 30
0.0
 10
37.8342967537
 20
28.417526475
 30
0.0
 10
38.5180697467
 20
29.6232542114
 30
0.0
 10
39.0798743208
 20
30.890430537
 30
0.0
 10
39.5123017647
 20
32.20738292
 30
0.0
 10
39.8130268121
 20
33.5604901854
 30
0.0
 10
39.979834545
 20
34.9365387894
 30
0.0
 10
40.0104152468
 20
36.3223319545
 30
0.0
 10
39.9024288132
 20
37.7042494685
 30
0.0
 10
39.6589722082
 20
39.0688248596
 30
0.0
 10
39.2830926908
 20
40.4030061329
 30
0.0
 10
38.7777266951
 20
41.693742287
 30
0.0
 10
38.146007757
 20
42.9274959678
 30
0.0
 10
37.5207965688
 20
43.8990361586
 30
0.0
 10
36.9655556712
 20
44.6364802238
 30
0.0
 10
36.3748234615
 20
45.3457289359
 30
0.0
 10
35.5718772652
 20
46.1764117809
 30
0.0
 10
34.5138125912
 20
47.071796156
 30
0.0
 10
33.3727287974
 20
47.8587523869
 30
0.0
 10
32.160094305
 20
48.5302004253
 30
0.0
 10
30.8872575841
 20
49.0790600627
 30
0.0
 10
29.565966074
 20
49.4980419459
 30
0.0
 10
28.2098639422
 20
49.7849597635
 30
0.0
 10
26.8321866219
 20
49.9377333924
 30
0.0
 10
25.4461537471
 20
49.9541877446
 30
0.0
 10
24.0654086741
 20
49.8321216621
 30
0.0
 10
22.7033856091
 20
49.5747692055
 30
0.0
 10
21.3731048097
 20
49.1853105089
 30
0.0
 10
20.0875866697
 20
48.6668148766
 30
0.0
 10
18.8603359012
 20
48.0225536618
 30
0.0
 10
17.8952186714
 20
47.3874724819
 30
0.0
 10
17.1634722315
 20
46.8247439938
 30
0.0
 10
16.4602814271
 20
46.2268134195
 30
0.0
 10
15.6378257985
 20
45.4154421591
 30
0.0
 10
14.7532723076
 20
44.3483061999
 30
0.0
 10
13.9779875049
 20
43.1992605922
 30
0.0
 10
13.3189341784
 20
41.9798453253
 30
0.0
 10
12.7830764989
 20
40.7014804451
 30
0.0
 10
12.3775837049
 20
39.3759870776
 30
0.0
 10
12.1045029251
 20
38.0170309659
 30
0.0
 10
11.9657792721
 20
36.6378680573
 30
0.0
 10
11.9634529789
 20
35.2517394687
 30
0.0
 10
12.0995860288
 20
33.8723102831
 30
0.0
 10
12.3708076003
 20
32.5129810457
 30
0.0
 10
12.7738050151
 20
31.186738924
 30
0.0
 10
13.3053764172
 20
29.9065723515
 30
0.0
 10
13.9621129759
 20
28.6859519952
 30
0.0
 10
14.6069981684
 20
27.7273579931
 30
0.0
 10
15.1771557849
 20
27.0013852003
 30
0.0
 10
15.7822226043
 20
26.3043253584
 30
0.0
 10
16.6019346349
 20
25.4901823918
 30
0.0
 10
17.6780310138
 20
24.6165516821
 30
0.0
 10
18.8349190601
 20
23.8530188524
 30
0.0
 10
20.0609884157
 20
23.2064287073
 30
0.0
 10
21.3447486448
 20
22.6836286562
 30
0.0
 10
22.6743061642
 20
22.2916670791
 30
0.0
 10
24.035975069
 20
22.0324517046
 30
0.0
 10
25.4164802987
 20
21.9077924513
 30
0.0
 10
26.8025605395
 20
21.9195944147
 30
0.0
 10
28.1805307359
 20
22.0697804535
 30
0.0
 10
29.537024147
 20
22.3548423486
 30
0.0
 10
30.8590927064
 20
22.7713389053
 30
0.0
 10
32.1337638937
 20
23.3159223011
 30
0.0
 10
33.3476674096
 20
23.9850978871
 30
0.0
 10
34.4898178549
 20
24.7704812444
 30
0.0
 10
35.5495904283
 20
25.6639110127
 30
0.0
 10
36.5163018061
 20
26.6573025874
 30
0.0
 10
37.3789580861
 20
27.7422827082
 30
0.0
 10
38.1306491404
 20
28.9068835744
 30
0.0
 10
38.7647117246
 20
30.1394822342
 30
0.0
 10
39.2743991307
 20
31.4285034999
 30
0.0
 10
39.652788785
 20
32.7619882162
 30
0.0
 10
39.8981124659
 20
34.1262246957
 30
0.0
 10
40.0086917867
 20
35.5079426654
 30
0.0
 10
39.982772477
 20
36.8937789555
 30
0.0
 10
39.8458841824
 20
38.0409573104
 30
0.0
 10
39.6691098618
 20
38.9469093614
 30
0.0
 10
39.4480595736
 20
39.8431531752
 30
0.0
 10
39.0897081605
 20
40.9414990392
 30
0.0
 10
38.5321735924
 20
42.2105034391
 30
0.0
 10
37.8506566005
 20
43.4175366609
 30
0.0
 10
37.0536735296
 20
44.5516191388
 30
0.0
 10
36.1494881457
 20
45.6022312974
 30
0.0
 10
35.146294988
 20
46.5587670122
 30
0.0
 10
34.0525785452
 20
47.41031984
 30
0.0
 10
32.8803765333
 20
48.1501015806
 30
0.0
 10
31.6413791878
 20
48.7715679142
 30
0.0
 10
30.3472298686
 20
49.2680904341
 30
0.0
 10
29.0099576664
 20
49.6328688284
 30
0.0
 10
27.6432915797
 20
49.8642747222
 30
0.0
 10
26.260518299
 20
49.9607650746
 30
0.0
 10
24.8750181804
 20
49.9207219107
 30
0.0
 10
23.7292946564
 20
49.7721480582
 30
0.0
 10
22.8251914459
 20
49.5861489619
 30
0.0
 10
21.9312472531
 20
49.3559751496
 30
0.0
 10
20.8366109564
 20
48.9864474102
 30
0.0
 10
19.5733551723
 20
48.4160074172
 30
0.0
 10
18.3733310437
 20
47.7222230849
 30
0.0
 10
17.2474307631
 20
46.9137222254
 30
0.0
 10
16.2060891303
 20
45.9988753966
 30
0.0
 10
15.2598281959
 20
44.9859848155
 30
0.0
 10
14.4194673578
 20
43.8836456945
 30
0.0
 10
13.6916717687
 20
42.7039643134
 30
0.0
 10
13.0828662553
 20
41.4586970036
 30
0.0
 10
12.5995602043
 20
40.1595540807
 30
0.0
 10
12.2484309674
 20
38.8186333229
 30
0.0
 10
12.0309669015
 20
37.4496796128
 30
0.0
 10
11.9485755421
 20
36.0659946784
 30
0.0
 10
12.0027384002
 20
34.6809746719
 30
0.0
 10
12.1629823751
 20
33.5368250087
 30
0.0
 10
12.3581869234
 20
32.6346645665
 30
0.0
 10
12.5974603468
 20
31.7431128673
 30
0.0
 10
12.9781260222
 20
30.6522998604
 30
0.0
 10
13.5614121766
 20
29.3949239327
 30
0.0
 10
14.2673917716
 20
28.2020335687
 30
0.0
 10
15.0873264241
 20
27.0844324558
 30
0.0
 10
16.0127396537
 20
26.0524695346
 30
0.0
 10
17.0352224283
 20
25.1165816882
 30
0.0
 10
18.1460697046
 20
24.2875001456
 30
0.0
 10
19.333107897
 20
23.5717663193
 30
0.0
 10
20.5845157994
 20
22.9756848752
 30
0.0
 10
21.8885173572
 20
22.5056455042
 30
0.0
 10
23.2329473614
 20
22.1682019038
 30
0.0
 10
24.6040464733
 20
21.9647022583
 30
0.0
 10
25.9884993095
 20
21.8964184515
 30
0.0
 10
27.3728953132
 20
21.9646953767
 30
0.0
 10
28.5153522489
 20
22.1365928261
 30
0.0
 10
29.4154761967
 20
22.3409825466
 30
0.0
 10
30.3045427785
 20
22.5893307229
 30
0.0
 10
31.3914191701
 20
22.9810947866
 30
0.0
 10
32.6427846119
 20
23.5771665044
 30
0.0
 10
33.828417281
 20
24.2952680174
 30
0.0
 10
34.9376031178
 20
25.1265512792
 30
0.0
 10
35.9600801161
 20
26.0624347677
 30
0.0
 10
36.8854976444
 20
27.0944035093
 30
0.0
 10
37.7032137577
 20
28.2136435344
 30
0.0
 10
38.4068114633
 20
29.4079152159
 30
0.0
 10
38.9901069106
 20
30.6653337011
 30
0.0
 10
39.446830769
 20
31.9740584202
 30
0.0
 10
39.7705536756
 20
33.3218579971
 30
0.0
 10
39.960067759
 20
34.6949600663
 30
0.0
 10
40.014236919
 20
36.0800369725
 30
0.0
 10
39.9318530201
 20
37.4636651475
 30
0.0
 10
39.7483199547
 20
38.6043106652
 30
0.0
 10
39.5347662963
 20
39.502304604
 30
0.0
 10
39.2773691682
 20
40.3887937027
 30
0.0
 10
38.8745474168
 20
41.4716205628
 30
0.0
 10
38.2657520619
 20
42.7168455133
 30
0.0
 10
37.5356032351
 20
43.8950973114
 30
0.0
 10
36.6930577266
 20
44.9957526379
 30
0.0
 10
35.7468012086
 20
46.0086374875
 30
0.0
 10
34.7054537119
 20
46.9234885554
 30
0.0
 10
33.5779372166
 20
47.7297542863
 30
0.0
 10
32.3765561197
 20
48.4211427737
 30
0.0
 10
31.1132576857
 20
48.9915916253
 30
0.0
 10
29.7999457699
 20
49.4349525218
 30
0.0
 10
28.4489166445
 20
49.7449211032
 30
0.0
 10
27.0739542708
 20
49.920429936
 30
0.0
 10
25.688397191
 20
49.9604788216
 30
0.0
 10
24.30568059
 20
49.8639965074
 30
0.0
 10
23.1669649918
 20
49.6688468926
 30
0.0
 10
22.2711943543
 20
49.4461514819
 30
0.0
 10
21.3873748364
 20
49.1797321428
 30
0.0
 10
20.3087100043
 20
48.7658945536
 30
0.0
 10
19.069754915
 20
48.1444388116
 30
0.0
 10
17.8990064017
 20
47.4023185291
 30
0.0
 10
16.8069959369
 20
46.548598308
 30
0.0
 10
15.8038084642
 20
45.5920670666
 30
0.0
 10
14.8996188924
 20
44.5414489933
 30
0.0
 10
14.1048872875
 20
43.4057731641
 30
0.0
 10
13.4257798342
 20
42.1974074402
 30
0.0
 10
12.8682368246
 20
40.9283603779
 30
0.0
 10
12.4382850503
 20
39.6105974642
 30
0.0
 10
12.1421028316
 20
38.2564801587
 30
0.0
 10
11.9806184851
 20
36.8797966937
 30
0.0
 10
11.9546905939
 20
35.4939170385
 30
0.0
 10
12.0652740441
 20
34.1122046343
 30
0.0
 10
12.313311116
 20
32.7484467568
 30
0.0
 10
12.6943498786
 20
31.4157261117
 30
0.0
 10
13.2040350602
 20
30.1267126502
 30
0.0
 10
13.8381029141
 20
28.894107316
 30
0.0
 10
14.5921143402
 20
27.7309976663
 30
0.0
 10
15.456923597
 20
26.6477423196
 30
0.0
 10
16.4236264378
 20
25.654359175
 30
0.0
 10
17.4834163135
 20
24.7609181045
 30
0.0
 10
18.627083148
 20
23.9778218417
 30
0.0
 10
19.639968398
 20
23.4220912342
 30
0.0
 10
20.4797098208
 20
23.0387445711
 30
0.0
 10
21.3371868542
 20
22.6971108485
 30
0.0
 10
22.3375313891
 20
22.3819710232
 30
0.0
 10
23.4822022756
 20
22.1300147803
 30
0.0
 10
24.5374006649
 20
21.9806365019
 30
0.0
 10
25.6008712339
 20
21.9113177616
 30
0.0
 10
26.3113236134
 20
21.918710113
 30
0.0
 10
26.6659007288
 20
21.9358637967
 30
0.0
  0
SPLINE
  5
265
100
AcDbEntity
  8
0
100
AcDbSpline
 62
7
  6
BYLAYER
 70
0
 71
3
 72
269
 73
265
 74
0
 42
0.0000001
 43
0.0000001
 44
0.0000000001
 40
0.0
 40
0.0
 40
0.0
 40
0.0
 40
0.0031254851
 40
0.0062511326
 40
0.0093765999
 40
0.0125017367
 40
0.0165639054
 40
0.0185958135
 40
0.0206278088
 40
0.0246904785
 40
0.028752625
 40
0.0328147751
 40
0.0368774508
 40
0.040940127
 40
0.0450022794
 40
0.0490644315
 40
0.0531271073
 40
0.0571897833
 40
0.0612519358
 40
0.0653140883
 40
0.0693767641
 40
0.0734394397
 40
0.0775015918
 40
0.0815637439
 40
0.0856264197
 40
0.0896890955
 40
0.0937512478
 40
0.0978134001
 40
0.1018760758
 40
0.1059387516
 40
0.1100009038
 40
0.114063056
 40
0.1181257318
 40
0.1201577282
 40
0.1221896346
 40
0.1262517868
 40
0.1303139391
 40
0.1343766149
 40
0.1384392906
 40
0.1425014429
 40
0.1465635951
 40
0.1506262709
 40
0.1546889467
 40
0.1587510989
 40
0.1628132511
 40
0.1668759269
 40
0.1709386027
 40
0.1750007549
 40
0.1790629071
 40
0.1831255829
 40
0.1851575793
 40
0.1871894857
 40
0.1912516379
 40
0.1953137902
 40
0.1993764659
 40
0.2034391417
 40
0.207501294
 40
0.2115634462
 40
0.215626122
 40
0.2196887978
 40
0.22375095
 40
0.2278131022
 40
0.231875778
 40
0.2359384538
 40
0.240000606
 40
0.2440627582
 40
0.248125434
 40
0.2501574304
 40
0.2521893368
 40
0.256251489
 40
0.2603136412
 40
0.264376317
 40
0.2684389928
 40
0.272501145
 40
0.2765632973
 40
0.2806259731
 40
0.2846886488
 40
0.2887508011
 40
0.2928129533
 40
0.2968756291
 40
0.3009383049
 40
0.3050004571
 40
0.3090626093
 40
0.3131252851
 40
0.3151572815
 40
0.3171891879
 40
0.3212513401
 40
0.3253134923
 40
0.3293761681
 40
0.3334388439
 40
0.3375009961
 40
0.3415631484
 40
0.3456258241
 40
0.3496884999
 40
0.3537506522
 40
0.3578128044
 40
0.3618754802
 40
0.365938156
 40
0.3700003082
 40
0.3740624604
 40
0.3781251362
 40
0.3801571326
 40
0.382189039
 40
0.3862511912
 40
0.3903133434
 40
0.3943760192
 40
0.398438695
 40
0.4025008472
 40
0.4065629994
 40
0.4106256752
 40
0.414688351
 40
0.4187505032
 40
0.4228126555
 40
0.4268753313
 40
0.430938007
 40
0.4350001593
 40
0.4390623115
 40
0.4431249873
 40
0.4451569837
 40
0.4471888901
 40
0.4512510423
 40
0.4553131945
 40
0.4593758703
 40
0.4634385461
 40
0.4675006983
 40
0.4715628505
 40
0.4756255263
 40
0.4796882021
 40
0.4837503543
 40
0.4878125066
 40
0.4918751823
 40
0.4959378581
 40
0.5000000104
 40
0.5040621626
 40
0.5081248384
 40
0.5121875142
 40
0.5162496664
 40
0.5203118186
 40
0.5243744944
 40
0.5284371702
 40
0.5324993224
 40
0.5365614746
 40
0.5406241504
 40
0.5446868262
 40
0.5487489784
 40
0.5528111306
 40
0.5548430371
 40
0.5568750334
 40
0.5609377092
 40
0.5649998614
 40
0.5690620137
 40
0.5731246895
 40
0.5771873652
 40
0.5812495175
 40
0.5853116697
 40
0.5893743455
 40
0.5934370213
 40
0.5974991735
 40
0.6015613257
 40
0.6056240015
 40
0.6096866773
 40
0.6137488295
 40
0.6178109817
 40
0.6198428881
 40
0.6218748845
 40
0.6259375603
 40
0.6299997125
 40
0.6340618648
 40
0.6381245405
 40
0.6421872163
 40
0.6462493686
 40
0.6503115208
 40
0.6543741966
 40
0.6584368724
 40
0.6624990246
 40
0.6665611768
 40
0.6706238526
 40
0.6746865284
 40
0.6787486806
 40
0.6828108328
 40
0.6848427392
 40
0.6868747356
 40
0.6909374114
 40
0.6949995636
 40
0.6990617158
 40
0.7031243916
 40
0.7071870674
 40
0.7112492196
 40
0.7153113719
 40
0.7193740477
 40
0.7234367234
 40
0.7274988757
 40
0.7315610279
 40
0.7356237037
 40
0.7396863795
 40
0.7437485317
 40
0.7478106839
 40
0.7498425903
 40
0.7518745867
 40
0.7559372625
 40
0.7599994147
 40
0.7640615669
 40
0.7681242427
 40
0.7721869185
 40
0.7762490707
 40
0.780311223
 40
0.7843738987
 40
0.7884365745
 40
0.7924987268
 40
0.796560879
 40
0.8006235548
 40
0.8046862306
 40
0.8087483828
 40
0.812810535
 40
0.8148424414
 40
0.8168744378
 40
0.8209371136
 40
0.8249992658
 40
0.829061418
 40
0.8331240938
 40
0.8371867696
 40
0.8412489218
 40
0.845311074
 40
0.8493737498
 40
0.8534364256
 40
0.8574985778
 40
0.8615607301
 40
0.8656234059
 40
0.8696860816
 40
0.8737482339
 40
0.8778103861
 40
0.8798422925
 40
0.8818742889
 40
0.8859369647
 40
0.8899991169
 40
0.8940612691
 40
0.8981239449
 40
0.9021866207
 40
0.9062487729
 40
0.9103109252
 40
0.914373601
 40
0.9184362768
 40
0.922498429
 40
0.926560581
 40
0.9306232566
 40
0.9346859324
 40
0.9387480849
 40
0.9428102374
 40
0.9468729134
 40
0.9509355892
 40
0.9549977413
 40
0.9590598937
 40
0.9631225699
 40
0.9671852457
 40
0.9712473957
 40
0.9753095422
 40
0.9793722119
 40
0.9814042072
 40
0.9834361153
 40
0.987498284
 40
0.9906234157
 40
0.9937488777
 40
0.9968745201
 40
1.0
 40
1.0
 40
1.0
 40
1.0
 10
26.6659005456
 20
21.9358637841
 30
0.0
 10
27.0204599089
 20
21.9533924817
 30
0.0
 10
27.7282441524
 20
22.0153632068
 30
0.0
 10
28.7798766779
 20
22.1881276164
 30
0.0
 10
29.8154640285
 20
22.4397625133
 30
0.0
 10
30.9300863842
 20
22.8022168683
 30
0.0
 10
31.8949049583
 20
23.2134694086
 30
0.0
 10
32.7149519876
 20
23.6371477455
 30
0.0
 10
33.5132775814
 20
24.1006092514
 30
0.0
 10
34.4670989311
 20
24.7525278588
 30
0.0
 10
35.5288906972
 20
25.6434890425
 30
0.0
 10
36.4964380493
 20
26.6360834453
 30
0.0
 10
37.3615899963
 20
27.719059236
 30
0.0
 10
38.1165646665
 20
28.8815352331
 30
0.0
 10
38.7534778852
 20
30.1126724471
 30
0.0
 10
39.2642383841
 20
31.4012692289
 30
0.0
 10
39.6457053708
 20
32.7338673028
 30
0.0
 10
39.8948748427
 20
34.0974102726
 30
0.0
 10
40.0086486846
 20
35.478863656
 30
0.0
 10
39.9838728612
 20
36.8647727533
 30
0.0
 10
39.822830558
 20
38.2415080404
 30
0.0
 10
39.5277761471
 20
39.5958630351
 30
0.0
 10
39.1008687944
 20
40.9146153606
 30
0.0
 10
38.5443778816
 20
42.184133178
 30
0.0
 10
37.8656585095
 20
43.3927169227
 30
0.0
 10
37.0718763332
 20
44.5290463258
 30
0.0
 10
36.1701151238
 20
45.581749814
 30
0.0
 10
35.167718529
 20
46.539120267
 30
0.0
 10
34.0759777766
 20
47.3931924248
 30
0.0
 10
32.9058705462
 20
48.1362766331
 30
0.0
 10
31.6682912982
 20
48.7606100375
 30
0.0
 10
30.3746057925
 20
49.2581989895
 30
0.0
 10
29.2607055243
 20
49.5648022553
 30
0.0
 10
28.3551061517
 20
49.74370441
 30
0.0
 10
27.4418794052
 20
49.8779250883
 30
0.0
 10
26.2895551759
 20
49.961024162
 30
0.0
 10
24.9040227041
 20
49.9221165092
 30
0.0
 10
23.5289864205
 20
49.7470520832
 30
0.0
 10
22.1777128531
 20
49.4382080684
 30
0.0
 10
20.8633792823
 20
48.9978815034
 30
0.0
 10
19.5995997209
 20
48.4284798061
 30
0.0
 10
18.3979965581
 20
47.7374771542
 30
0.0
 10
17.2698168661
 20
46.9321541364
 30
0.0
 10
16.2263593041
 20
46.0197100602
 30
0.0
 10
15.2792555625
 20
45.0076075021
 30
0.0
 10
14.4363553891
 20
43.9072182919
 30
0.0
 10
13.7052361517
 20
42.729597919
 30
0.0
 10
13.0935492603
 20
41.4857194058
 30
0.0
 10
12.6091721037
 20
40.1870293997
 30
0.0
 10
12.3139382444
 20
39.0700619246
 30
0.0
 10
12.1442757466
 20
38.1626861256
 30
0.0
 10
12.0193701469
 20
37.2481387675
 30
0.0
 10
11.9480205086
 20
36.0950274059
 30
0.0
 10
12.0010482446
 20
34.7099634749
 30
0.0
 10
12.1901186978
 20
33.3367829705
 30
0.0
 10
12.5127195878
 20
31.9887275021
 30
0.0
 10
12.9664196855
 20
30.6789502535
 30
0.0
 10
13.5486729367
 20
29.4210399925
 30
0.0
 10
14.2518870902
 20
28.2265423239
 30
0.0
 10
15.068667299
 20
27.1066295278
 30
0.0
 10
15.9916994676
 20
26.0725262972
 30
0.0
 10
17.0134028505
 20
25.1357876556
 30
0.0
 10
18.1223261997
 20
24.304147035
 30
0.0
 10
19.3073373673
 20
23.585068726
 30
0.0
 10
20.5573859139
 20
22.9860918982
 30
0.0
 10
21.8609454956
 20
22.5149768608
 30
0.0
 10
22.9808641343
 20
22.2311430802
 30
0.0
 10
23.8899220922
 20
22.0707378655
 30
0.0
 10
24.8056950499
 20
21.9551603204
 30
0.0
 10
25.9594737473
 20
21.8955675294
 30
0.0
 10
27.3439252429
 20
21.9627098392
 30
0.0
 10
28.7151073076
 20
22.1657666769
 30
0.0
 10
30.0598046263
 20
22.5020909272
 30
0.0
 10
31.3648894788
 20
22.9691174226
 30
0.0
 10
32.616799754
 20
23.564161737
 30
0.0
 10
33.8040678311
 20
24.2795143347
 30
0.0
 10
34.9155973828
 20
25.1076668787
 30
0.0
 10
35.9402388484
 20
26.0411912451
 30
0.0
 10
36.8665150718
 20
27.0723893073
 30
0.0
 10
37.6868097399
 20
28.1897315886
 30
0.0
 10
38.3937724148
 20
29.3820104394
 30
0.0
 10
38.9799769508
 20
30.6380991508
 30
0.0
 10
39.4377809245
 20
31.9463928806
 30
0.0
 10
39.7101851386
 20
33.0691463337
 30
0.0
 10
39.8613164057
 20
33.9797920078
 30
0.0
 10
39.9675538887
 20
34.8966954249
 30
0.0
 10
40.0153836414
 20
36.0510215911
 30
0.0
 10
39.9341337333
 20
37.4347168198
 30
0.0
 10
39.7171116066
 20
38.8037579917
 30
0.0
 10
39.3670989371
 20
40.1449574591
 30
0.0
 10
38.8867945637
 20
41.4452143294
 30
0.0
 10
38.2790210056
 20
42.6909945569
 30
0.0
 10
37.5516042823
 20
43.8709096965
 30
0.0
 10
36.7121654405
 20
44.9739405262
 30
0.0
 10
35.7682458607
 20
45.989013776
 30
0.0
 10
34.7276602512
 20
46.9047313496
 30
0.0
 10
33.6020151191
 20
47.7135948443
 30
0.0
 10
32.4025924518
 20
48.4083684383
 30
0.0
 10
31.1405940715
 20
48.9817397813
 30
0.0
 10
29.8277021133
 20
49.4261851298
 30
0.0
 10
28.7022304895
 20
49.6871314772
 30
0.0
 10
27.7900917067
 20
49.8289730954
 30
0.0
 10
26.872153088
 20
49.9258594794
 30
0.0
 10
25.7173993767
 20
49.9619212245
 30
0.0
 10
24.334604168
 20
49.8665721592
 30
0.0
 10
22.9678461194
 20
49.6356072903
 30
0.0
 10
21.6302838415
 20
49.2719425646
 30
0.0
 10
20.3349900381
 20
48.7784102124
 30
0.0
 10
19.0954692833
 20
48.1579705525
 30
0.0
 10
17.9230296634
 20
47.4185652754
 30
0.0
 10
16.8286121504
 20
46.5679273457
 30
0.0
 10
15.8232125729
 20
45.613710617
 30
0.0
 10
14.9181487836
 20
44.5638455672
 30
0.0
 10
14.1208004958
 20
43.4300145285
 30
0.0
 10
13.4382881631
 20
42.2235726536
 30
0.0
 10
12.8778095811
 20
40.9557957143
 30
0.0
 10
12.4467690316
 20
39.6384419249
 30
0.0
 10
12.1973076609
 20
38.5103690563
 30
0.0
 10
12.0647704275
 20
37.5968319277
 30
0.0
 10
11.9772452082
 20
36.6779534727
 30
0.0
 10
11.9529552171
 20
35.5228921845
 30
0.0
 10
12.0623935336
 20
34.1411406553
 30
0.0
 10
12.3072771498
 20
32.7768077236
 30
0.0
 10
12.6845561504
 20
31.4430215953
 30
0.0
 10
13.1912652076
 20
30.1528254278
 30
0.0
 10
13.8243065126
 20
28.9196929201
 30
0.0
 10
14.5756235212
 20
27.7548506264
 30
0.0
 10
15.4373721843
 20
26.669160127
 30
0.0
 10
16.4017868573
 20
25.6735386836
 30
0.0
 10
17.4608225387
 20
24.7792226691
 30
0.0
 10
18.6027207091
 20
23.9934725645
 30
0.0
 10
19.8160601126
 20
23.3232918802
 30
0.0
 10
21.0894702466
 20
22.7757662268
 30
0.0
 10
22.4111999651
 20
22.3581680203
 30
0.0
 10
23.7676017619
 20
22.0726705188
 30
0.0
 10
25.1454383388
 20
21.9213396707
 30
0.0
 10
26.5314876238
 20
21.9063367373
 30
0.0
 10
27.9121043278
 20
22.0298488291
 30
0.0
 10
29.2738563468
 20
22.2886268371
 30
0.0
 10
30.6037315627
 20
22.6794806806
 30
0.0
 10
31.8886948885
 20
23.19931366
 30
0.0
 10
33.1153118985
 20
23.8448916413
 30
0.0
 10
34.2724335742
 20
24.6080392732
 30
0.0
 10
35.3492925091
 20
25.4808205564
 30
0.0
 10
36.3350016924
 20
26.4552903812
 30
0.0
 10
37.0713551338
 20
27.3455376461
 30
0.0
 10
37.6055130907
 20
28.0983148749
 30
0.0
 10
38.1021070427
 20
28.8764605235
 30
0.0
 10
38.6503720736
 20
29.8934093069
 30
0.0
 10
39.1848626176
 20
31.1722903882
 30
0.0
 10
39.5889746757
 20
32.4982195166
 30
0.0
 10
39.860630193
 20
33.8574576715
 30
0.0
 10
39.9979100437
 20
35.2367659615
 30
0.0
 10
39.9987846851
 20
36.6228959411
 30
0.0
 10
39.8612070472
 20
38.0021820859
 30
0.0
 10
39.5885627509
 20
39.3612257453
 30
0.0
 10
39.1841743984
 20
40.6870480887
 30
0.0
 10
38.6512713729
 20
41.9666462438
 30
0.0
 10
37.9932245758
 20
43.1866194536
 30
0.0
 10
37.2183225695
 20
44.3359026045
 30
0.0
 10
36.3346106887
 20
45.4038097379
 30
0.0
 10
35.3501445965
 20
46.3795353893
 30
0.0
 10
34.4524382593
 20
47.1067766941
 30
0.0
 10
33.694255704
 20
47.6332341871
 30
0.0
 10
32.9110889196
 20
48.1218710578
 30
0.0
 10
31.8886047452
 20
48.6597423113
 30
0.0
 10
30.6043422762
 20
49.1811700363
 30
0.0
 10
29.2743630928
 20
49.5717465086
 30
0.0
 10
27.9124266826
 20
49.8295338168
 30
0.0
 10
26.5317908099
 20
49.9527478728
 30
0.0
 10
25.1457239185
 20
49.9394942747
 30
0.0
 10
23.7679116877
 20
49.7878653454
 30
0.0
 10
22.4117175639
 20
49.5013830961
 30
0.0
 10
21.0900858378
 20
49.0835022441
 30
0.0
 10
19.8159857907
 20
48.5375845369
 30
0.0
 10
18.6027831253
 20
47.8671372888
 30
0.0
 10
17.461457899
 20
47.0805614133
 30
0.0
 10
16.4026135126
 20
46.1860107442
 30
0.0
 10
15.4369727619
 20
45.1916506616
 30
0.0
 10
14.7189191474
 20
44.2865785153
 30
0.0
 10
14.2002168122
 20
43.5230694017
 30
0.0
 10
13.7195877876
 20
42.7349628452
 30
0.0
 10
13.1921661914
 20
41.7070495064
 30
0.0
 10
12.6838554568
 20
40.4175390726
 30
0.0
 10
12.3068551477
 20
39.0836480067
 30
0.0
 10
12.0629628303
 20
37.7191548336
 30
0.0
 10
11.9538273699
 20
36.3373348136
 30
0.0
 10
11.9812078305
 20
34.9514750099
 30
0.0
 10
12.1468722984
 20
33.5752798348
 30
0.0
 10
12.4471627377
 20
32.2220761427
 30
0.0
 10
12.8784926754
 20
30.9047723391
 30
0.0
 10
13.4373683485
 20
29.6363027671
 30
0.0
 10
14.1201463943
 20
28.4299966866
 30
0.0
 10
14.9183144212
 20
27.2967479579
 30
0.0
 10
15.823610943
 20
26.2470763227
 30
0.0
 10
16.8277617113
 20
25.2916207937
 30
0.0
 10
17.740105638
 20
24.5828294686
 30
0.0
 10
18.5088619885
 20
24.0719361796
 30
0.0
 10
19.3018264402
 20
23.5993649341
 30
0.0
 10
20.3350621527
 20
23.0824477893
 30
0.0
 10
21.6296865831
 20
22.587306854
 30
0.0
 10
22.9673509527
 20
22.2239218748
 30
0.0
 10
24.3342591305
 20
21.9939498864
 30
0.0
 10
25.7171197396
 20
21.8989043596
 30
0.0
 10
27.1026284778
 20
21.9404088382
 30
0.0
 10
28.4770636231
 20
22.1200916337
 30
0.0
 10
29.8271362984
 20
22.4341590657
 30
0.0
 10
31.1399753237
 20
22.8788932779
 30
0.0
 10
32.4026826385
 20
23.4506688548
 30
0.0
 10
33.6019668101
 20
24.1457067642
 30
0.0
 10
34.7270213072
 20
24.9553840201
 30
0.0
 10
35.7674111401
 20
25.8713323427
 30
0.0
 10
36.7125821844
 20
26.8851694749
 30
0.0
 10
37.4120375833
 20
27.804690398
 30
0.0
 10
37.9150687491
 20
28.5786141186
 30
0.0
 10
38.3795331197
 20
29.3763540838
 30
0.0
 10
38.8858921102
 20
30.4148048265
 30
0.0
 10
39.3678118058
 20
31.7144087541
 30
0.0
 10
39.7175437028
 20
33.0557074566
 30
0.0
 10
39.9335714703
 20
34.4248886299
 30
0.0
 10
40.014517189
 20
35.8086461618
 30
0.0
 10
39.9588930043
 20
37.1936598929
 30
0.0
 10
39.7652105484
 20
38.5661922176
 30
0.0
 10
39.4373987524
 20
39.912993616
 30
0.0
 10
38.9793064695
 20
41.2212314714
 30
0.0
 10
38.394690391
 20
42.4780453452
 30
0.0
 10
37.6874648266
 20
43.6701830134
 30
0.0
 10
36.8663624599
 20
44.7869263963
 30
0.0
 10
35.9398574948
 20
45.81792634
 30
0.0
 10
34.9164393263
 20
46.7527147054
 30
0.0
 10
33.9898369352
 20
47.4427615114
 30
0.0
 10
33.2108262468
 20
47.9378782939
 30
0.0
 10
32.4083936454
 20
48.3941875363
 30
0.0
 10
31.3648357587
 20
48.8899357662
 30
0.0
 10
30.0603873538
 20
49.3585841542
 30
0.0
 10
28.7155936719
 20
49.6946266338
 30
0.0
 10
27.3442817517
 20
49.8966877354
 30
0.0
 10
25.9597710549
 20
49.9635252366
 30
0.0
 10
24.5753962091
 20
49.8937871256
 30
0.0
 10
23.2049092831
 20
49.6861251441
 30
0.0
 10
21.8615190555
 20
49.3446030335
 30
0.0
 10
20.5580183262
 20
48.8732003365
 30
0.0
 10
19.3072283577
 20
48.275804254
 30
0.0
 10
18.1223616614
 20
47.5564653243
 30
0.0
 10
17.0140434726
 20
46.724019921
 30
0.0
 10
15.9925480425
 20
45.7870664748
 30
0.0
 10
15.0682113071
 20
44.754129174
 30
0.0
 10
14.2516674388
 20
43.6340336207
 30
0.0
 10
13.5493204261
 20
42.4390258675
 30
0.0
 10
12.9673420106
 20
41.1809973256
 30
0.0
 10
12.5119894954
 20
39.8717944994
 30
0.0
 10
12.1896792309
 20
38.5236574955
 30
0.0
 10
12.0016055553
 20
37.1503529083
 30
0.0
 10
11.9488826063
 20
35.7652374816
 30
0.0
 10
12.0327295337
 20
34.3816330512
 30
0.0
 10
12.254328256
 20
33.0133832233
 30
0.0
 10
12.5503892515
 20
31.8966375384
 30
0.0
 10
12.8518824817
 20
31.0241570782
 30
0.0
 10
13.1958138734
 20
30.1675990469
 30
0.0
 10
13.6574556213
 20
29.2258511005
 30
0.0
 10
14.2643834143
 20
28.2231587047
 30
0.0
 10
14.8838933002
 20
27.3559995427
 30
0.0
 10
15.5670847075
 20
26.538060523
 30
0.0
 10
16.0623798862
 20
26.0286688109
 30
0.0
 10
16.3193254098
 20
25.7837235568
 30
0.0
  0
SPLINE
  5
266
100
AcDbEntity
  8
0
100
AcDbSpline
 62
7
  6
BYLAYER
 70
0
 71
3
 72
15
 73
11
 74
0
 42
0.0000001
 43
0.0000001
 44
0.0000000001
 40
0.0
 40
0.0
 40
0.0
 40
0.0
 40
0.1332922336
 40
0.257204036
 40
0.3784727863
 40
0.4993853215
 40
0.6210316255
 40
0.7429286814
 40
0.866651837
 40
1.0
 40
1.0
 40
1.0
 40
1.0
 10
36.2359716405
 20
45.4773552047
 30
0.0
 10
36.5328347882
 20
45.1386235369
 30
0.0
 10
37.0829141211
 20
44.4642706178
 30
0.0
 10
37.8037621872
 20
43.4060769853
 30
0.0
 10
38.4126342762
 20
42.3275361593
 30
0.0
 10
38.9244856587
 20
41.2081359473
 30
0.0
 10
39.3413445861
 20
40.0477596982
 30
0.0
 10
39.6617159186
 20
38.8472879334
 30
0.0
 10
39.8869503364
 20
37.5851302341
 30
0.0
 10
39.964213978
 20
36.7187360272
 30
0.0
 10
39.988342628
 20
36.2687860734
 30
0.0
  0
SPLINE
  5
267
100
AcDbEntity
  8
0
100
AcDbSpline
 62
7
  6
BYLAYER
 70
0
 71
3
 72
13
 73
9
 74
0
 42
0.0000001
 43
0.0000001
 44
0.0000000001
 40
0.0
 40
0.0
 40
0.0
 40
0.0
 40
0.1688325437
 40
0.3361855701
 40
0.5017085956
 40
0.6684151949
 40
0.8340077823
 40
1.0
 40
1.0
 40
1.0
 40
1.0
 10
24.2610984527
 20
50.2268412325
 30
0.0
 10
25.0097173203
 20
50.2948684306
 30
0.0
 10
26.513664267
 20
50.3141747555
 30
0.0
 10
28.7329437214
 20
49.9919208174
 30
0.0
 10
30.8663014377
 20
49.3311686771
 30
0.0
 10
32.8641364696
 20
48.3500474182
 30
0.0
 10
34.6848263631
 20
47.0670989304
 30
0.0
 10
35.74830297
 20
46.0326792426
 30
0.0
 10
36.2359716405
 20
45.4773552047
 30
0.0
  0
SPLINE
  5
268
100
AcDbEntity
  8
0
100
AcDbSpline
 62
7
  6
BYLAYER
 70
0
 71
3
 72
14
 73
10
 74
0
 42
0.0000001
 43
0.0000001
 44
0.0000000001
 40
0.0
 40
0.0
 40
0.0
 40
0.0
 40
0.1437576664
 40
0.288311966
 40
0.4332447862
 40
0.5762135101
 40
0.7173375953
 40
0.8588611254
 40
1.0
 40
1.0
 40
1.0
 40
1.0
 10
38.1167327133
 20
44.7467569025
 30
0.0
 10
37.6543200717
 20
45.3348091347
 30
0.0
 10
36.6376491232
 20
46.4471477765
 30
0.0
 10
34.8761820244
 20
47.8676255925
 30
0.0
 10
32.9224174572
 20
49.0022717057
 30
0.0
 10
30.8358059901
 20
49.8200345772
 30
0.0
 10
28.6669302751
 20
50.3092504906
 30
0.0
 10
26.4590078362
 20
50.4646036198
 30
0.0
 10
24.9862272601
 20
50.3435268652
 30
0.0
 10
24.2610984528
 20
50.2268412325
 30
0.0
  0
SPLINE
  5
269
100
AcDbEntity
  8
0
100
AcDbSpline
 62
7
  6
BYLAYER
 70
0
 71
3
 72
269
 73
265
 74
0
 42
0.0000001
 43
0.0000001
 44
0.0000000001
 40
0.0
 40
0.0
 40
0.0
 40
0.0
 40
0.0031254799
 40
0.0062511223
 40
0.0093765843
 40
0.012501716
 40
0.0165638847
 40
0.0185957928
 40
0.0206277881
 40
0.0246904578
 40
0.0287526043
 40
0.0328147543
 40
0.0368774301
 40
0.0409401063
 40
0.0450022587
 40
0.0490644108
 40
0.0531270866
 40
0.0571897626
 40
0.0612519151
 40
0.0653140676
 40
0.0693767434
 40
0.073439419
 40
0.077501571
 40
0.0815637232
 40
0.085626399
 40
0.0896890748
 40
0.0937512271
 40
0.0978133793
 40
0.1018760551
 40
0.1059387309
 40
0.1100008831
 40
0.1140630353
 40
0.1181257111
 40
0.1201577075
 40
0.1221896139
 40
0.1262517661
 40
0.1303139184
 40
0.1343765941
 40
0.1384392699
 40
0.1425014222
 40
0.1465635744
 40
0.1506262502
 40
0.154688926
 40
0.1587510782
 40
0.1628132304
 40
0.1668759062
 40
0.170938582
 40
0.1750007342
 40
0.1790628864
 40
0.1831255622
 40
0.1851575586
 40
0.187189465
 40
0.1912516172
 40
0.1953137694
 40
0.1993764452
 40
0.203439121
 40
0.2075012732
 40
0.2115634255
 40
0.2156261013
 40
0.219688777
 40
0.2237509293
 40
0.2278130815
 40
0.2318757573
 40
0.2359384331
 40
0.2400005853
 40
0.2440627375
 40
0.2481254133
 40
0.2501574097
 40
0.2521893161
 40
0.2562514683
 40
0.2603136205
 40
0.2643762963
 40
0.2684389721
 40
0.2725011243
 40
0.2765632766
 40
0.2806259523
 40
0.2846886281
 40
0.2887507804
 40
0.2928129326
 40
0.2968756084
 40
0.3009382842
 40
0.3050004364
 40
0.3090625886
 40
0.3131252644
 40
0.3151572608
 40
0.3171891672
 40
0.3212513194
 40
0.3253134716
 40
0.3293761474
 40
0.3334388232
 40
0.3375009754
 40
0.3415631276
 40
0.3456258034
 40
0.3496884792
 40
0.3537506314
 40
0.3578127837
 40
0.3618754595
 40
0.3659381352
 40
0.3700002875
 40
0.3740624397
 40
0.3781251155
 40
0.3801571119
 40
0.3821890183
 40
0.3862511705
 40
0.3903133227
 40
0.3943759985
 40
0.3984386743
 40
0.4025008265
 40
0.4065629787
 40
0.4106256545
 40
0.4146883303
 40
0.4187504825
 40
0.4228126348
 40
0.4268753105
 40
0.4309379863
 40
0.4350001386
 40
0.4390622908
 40
0.4431249666
 40
0.4451569629
 40
0.4471888694
 40
0.4512510216
 40
0.4553131738
 40
0.4593758496
 40
0.4634385254
 40
0.4675006776
 40
0.4715628298
 40
0.4756255056
 40
0.4796881814
 40
0.4837503336
 40
0.4878124858
 40
0.4918751616
 40
0.4959378374
 40
0.4999999896
 40
0.5040621419
 40
0.5081248177
 40
0.5121874934
 40
0.5162496457
 40
0.5203117979
 40
0.5243744737
 40
0.5284371495
 40
0.5324993017
 40
0.5365614539
 40
0.5406241297
 40
0.5446868055
 40
0.5487489577
 40
0.5528111099
 40
0.5548430163
 40
0.5568750127
 40
0.5609376885
 40
0.5649998407
 40
0.569061993
 40
0.5731246687
 40
0.5771873445
 40
0.5812494968
 40
0.585311649
 40
0.5893743248
 40
0.5934370006
 40
0.5974991528
 40
0.601561305
 40
0.6056239808
 40
0.6096866566
 40
0.6137488088
 40
0.617810961
 40
0.6198428674
 40
0.6218748638
 40
0.6259375396
 40
0.6299996918
 40
0.634061844
 40
0.6381245198
 40
0.6421871956
 40
0.6462493478
 40
0.6503115001
 40
0.6543741759
 40
0.6584368516
 40
0.6624990039
 40
0.6665611561
 40
0.6706238319
 40
0.6746865077
 40
0.6787486599
 40
0.6828108121
 40
0.6848427185
 40
0.6868747149
 40
0.6909373907
 40
0.6949995429
 40
0.6990616951
 40
0.7031243709
 40
0.7071870467
 40
0.7112491989
 40
0.7153113512
 40
0.7193740269
 40
0.7234367027
 40
0.727498855
 40
0.7315610072
 40
0.735623683
 40
0.7396863588
 40
0.743748511
 40
0.7478106632
 40
0.7498425696
 40
0.751874566
 40
0.7559372418
 40
0.759999394
 40
0.7640615462
 40
0.768124222
 40
0.7721868978
 40
0.77624905
 40
0.7803112022
 40
0.784373878
 40
0.7884365538
 40
0.792498706
 40
0.7965608583
 40
0.8006235341
 40
0.8046862098
 40
0.8087483621
 40
0.8128105143
 40
0.8148424207
 40
0.8168744171
 40
0.8209370929
 40
0.8249992451
 40
0.8290613973
 40
0.8331240731
 40
0.8371867489
 40
0.8412489011
 40
0.8453110533
 40
0.8493737291
 40
0.8534364049
 40
0.8574985571
 40
0.8615607094
 40
0.8656233851
 40
0.8696860609
 40
0.8737482132
 40
0.8778103654
 40
0.8798422718
 40
0.8818742682
 40
0.885936944
 40
0.8899990962
 40
0.8940612484
 40
0.8981239242
 40
0.9021865999
 40
0.9062487522
 40
0.9103109045
 40
0.9143735803
 40
0.9184362561
 40
0.9224984082
 40
0.9265605603
 40
0.9306232359
 40
0.9346859117
 40
0.9387480642
 40
0.9428102167
 40
0.9468728927
 40
0.9509355685
 40
0.9549977206
 40
0.959059873
 40
0.9631225492
 40
0.9671852249
 40
0.971247375
 40
0.9753095215
 40
0.9793721912
 40
0.9814041865
 40
0.9834360946
 40
0.9874982633
 40
0.9906234001
 40
0.9937488674
 40
0.9968745149
 40
1.0
 40
1.0
 40
1.0
 40
1.0
 10
39.9254504948
 20
37.2972000505
 30
0.0
 10
39.8906224606
 20
37.6504792427
 30
0.0
 10
39.7941504741
 20
38.3543900227
 30
0.0
 10
39.5702203606
 20
39.396325742
 30
0.0
 10
39.2682979862
 20
40.4183826831
 30
0.0
 10
38.8518276562
 20
41.5139673904
 30
0.0
 10
38.3939351868
 20
42.4575439821
 30
0.0
 10
37.9307035551
 20
43.2559153985
 30
0.0
 10
37.428797337
 20
44.0306479134
 30
0.0
 10
36.7310630776
 20
44.9514844575
 30
0.0
 10
35.7892972958
 20
45.9684853413
 30
0.0
 10
34.750623449
 20
46.8863895666
 30
0.0
 10
33.6266781093
 20
47.697605523
 30
0.0
 10
32.4287096099
 20
48.3948921723
 30
0.0
 10
31.1679291406
 20
48.9709042346
 30
0.0
 10
29.8559202336
 20
49.4181072995
 30
0.0
 10
28.5062785243
 20
49.7340217578
 30
0.0
 10
27.1321915662
 20
49.9162849954
 30
0.0
 10
25.7468296224
 20
49.9624393272
 30
0.0
 10
24.3637854035
 20
49.8699917423
 30
0.0
 10
22.9965606286
 20
49.6418884997
 30
0.0
 10
21.6582358879
 20
49.2810264136
 30
0.0
 10
20.3619122974
 20
48.7902079821
 30
0.0
 10
19.1210945629
 20
48.1723657899
 30
0.0
 10
17.9471089863
 20
47.4354176778
 30
0.0
 10
16.8509122811
 20
46.5870737386
 30
0.0
 10
15.8435164038
 20
45.6349647851
 30
0.0
 10
14.9362557624
 20
44.5869975879
 30
0.0
 10
14.1365345339
 20
43.4548389958
 30
0.0
 10
13.4514969349
 20
42.2498292202
 30
0.0
 10
12.8883643603
 20
40.9832289287
 30
0.0
 10
12.4545657003
 20
39.6667808001
 30
0.0
 10
12.2027422484
 20
38.5392328769
 30
0.0
 10
12.0682919991
 20
37.6259753365
 30
0.0
 10
11.9788424783
 20
36.7072822081
 30
0.0
 10
11.9521333868
 20
35.552274325
 30
0.0
 10
12.0586775315
 20
34.1702966186
 30
0.0
 10
12.3007031605
 20
32.8054537964
 30
0.0
 10
12.6751878607
 20
31.470880423
 30
0.0
 10
13.1791936287
 20
30.1796258374
 30
0.0
 10
13.8096508791
 20
28.945170197
 30
0.0
 10
14.5585266067
 20
27.7787569038
 30
0.0
 10
15.4179994977
 20
26.6912639475
 30
0.0
 10
16.3803269026
 20
25.6936248136
 30
0.0
 10
17.437486949
 20
24.7970927607
 30
0.0
 10
18.5777379251
 20
24.008952654
 30
0.0
 10
19.7896673874
 20
23.3362327567
 30
0.0
 10
21.0619416444
 20
22.7860393144
 30
0.0
 10
22.3827429055
 20
22.3656811455
 30
0.0
 10
23.512798981
 20
22.1253633589
 30
0.0
 10
24.4273794718
 20
22.0002285137
 30
0.0
 10
25.3469365958
 20
21.9201474621
 30
0.0
 10
26.5021567142
 20
21.90521223
 30
0.0
 10
27.8829766764
 20
22.0258367124
 30
0.0
 10
29.2452817437
 20
22.2817609929
 30
0.0
 10
30.5759688398
 20
22.6698289411
 30
0.0
 10
31.862019249
 20
23.1869697003
 30
0.0
 10
33.0899848006
 20
23.8299764477
 30
0.0
 10
34.2487045535
 20
24.5907019962
 30
0.0
 10
35.3273808023
 20
25.461214564
 30
0.0
 10
36.3151595468
 20
26.4336604637
 30
0.0
 10
37.2008698761
 20
27.4999035401
 30
0.0
 10
37.9773469817
 20
28.64812844
 30
0.0
 10
38.6376792871
 20
29.8668516769
 30
0.0
 10
39.1748764351
 20
31.1446677173
 30
0.0
 10
39.5817504404
 20
32.4696848891
 30
0.0
 10
39.8105375947
 20
33.6021317136
 30
0.0
 10
39.9263440356
 20
34.5179401389
 30
0.0
 10
39.9970482988
 20
35.438265726
 30
0.0
 10
40.0002081205
 20
36.5935780641
 30
0.0
 10
39.8655158325
 20
37.9730968285
 30
0.0
 10
39.5957194885
 20
39.3327226103
 30
0.0
 10
39.1941086087
 20
40.6593851829
 30
0.0
 10
38.6638865842
 20
41.9400978066
 30
0.0
 10
38.0083971422
 20
43.161445695
 30
0.0
 10
37.2359008051
 20
44.3123515274
 30
0.0
 10
36.3544389987
 20
45.3820990043
 30
0.0
 10
35.3719756325
 20
46.3599147383
 30
0.0
 10
34.2967602989
 20
47.2347113271
 30
0.0
 10
33.140680765
 20
47.9994447628
 30
0.0
 10
31.9152903675
 20
48.647320874
 30
0.0
 10
30.6320652969
 20
49.1714659179
 30
0.0
 10
29.3029698714
 20
49.5648134891
 30
0.0
 10
28.1682499486
 20
49.7820462422
 30
0.0
 10
27.2513087328
 20
49.8885122477
 30
0.0
 10
26.3303102958
 20
49.949832377
 30
0.0
 10
25.1750257641
 20
49.9412164599
 30
0.0
 10
23.7969515168
 20
49.7924703597
 30
0.0
 10
22.4401462729
 20
49.5088299815
 30
0.0
 10
21.1176460518
 20
49.0937178938
 30
0.0
 10
19.8424042677
 20
48.5504696891
 30
0.0
 10
18.6278009291
 20
47.8825656518
 30
0.0
 10
17.4848285857
 20
47.0983787812
 30
0.0
 10
16.4241210175
 20
46.206059312
 30
0.0
 10
15.4563698798
 20
45.2136805479
 30
0.0
 10
14.5925779147
 20
44.129604662
 30
0.0
 10
13.8396675976
 20
42.9657906001
 30
0.0
 10
13.204314989
 20
41.7338603486
 30
0.0
 10
12.693276503
 20
40.4453595629
 30
0.0
 10
12.3134962312
 20
39.1123239645
 30
0.0
 10
12.1078404477
 20
37.9754488302
 30
0.0
 10
12.0107259384
 20
37.0574700854
 30
0.0
 10
11.9587963137
 20
36.1358944818
 30
0.0
 10
11.9791870743
 20
34.9807577799
 30
0.0
 10
12.1419715335
 20
33.6042712186
 30
0.0
 10
12.4394264782
 20
32.2504274722
 30
0.0
 10
12.8679966476
 20
30.932226998
 30
0.0
 10
13.424214594
 20
29.6625885393
 30
0.0
 10
14.1044638377
 20
28.4548559366
 30
0.0
 10
14.900259772
 20
27.3199358262
 30
0.0
 10
15.8033442004
 20
26.2683783644
 30
0.0
 10
16.8055352633
 20
25.3107923635
 30
0.0
 10
17.8983590762
 20
24.4580947621
 30
0.0
 10
19.0697867566
 20
23.7170857839
 30
0.0
 10
20.308128876
 20
23.0943226851
 30
0.0
 10
21.6017715135
 20
22.5964438491
 30
0.0
 10
22.938608795
 20
22.2302703322
 30
0.0
 10
24.07752103
 20
22.0362128841
 30
0.0
 10
24.9964419342
 20
21.9484599604
 30
0.0
 10
25.9184989613
 20
21.9059262352
 30
0.0
 10
27.0733678255
 20
21.938089721
 30
0.0
 10
28.4481236965
 20
22.1148956274
 30
0.0
 10
29.7988652938
 20
22.4261342357
 30
0.0
 10
31.1126290723
 20
22.8681179624
 30
0.0
 10
32.3765323019
 20
23.4372478644
 30
0.0
 10
33.5772686967
 20
24.1297716441
 30
0.0
 10
34.7040186659
 20
24.9370939613
 30
0.0
 10
35.746316776
 20
25.8508495458
 30
0.0
 10
36.6936381494
 20
26.8627487185
 30
0.0
 10
37.5351528242
 20
27.9642071882
 30
0.0
 10
38.2641833883
 20
29.1431258007
 30
0.0
 10
38.8742926183
 20
30.3877548158
 30
0.0
 10
39.3589588094
 20
31.6863911751
 30
0.0
 10
39.7114922685
 20
33.0269425061
 30
0.0
 10
39.9303890097
 20
34.3956714327
 30
0.0
 10
40.0142321899
 20
35.7792555391
 30
0.0
 10
39.9615090233
 20
37.1643829614
 30
0.0
 10
39.7707015798
 20
38.5373178614
 30
0.0
 10
39.4457112446
 20
39.8848028894
 30
0.0
 10
38.9903599288
 20
41.1939972966
 30
0.0
 10
38.4083773958
 20
42.4520328314
 30
0.0
 10
37.7036501874
 20
43.6456490934
 30
0.0
 10
36.8848885214
 20
44.7641097385
 30
0.0
 10
35.9605449082
 20
45.797047887
 30
0.0
 10
34.9390867998
 20
46.7339776423
 30
0.0
 10
34.0139316718
 20
47.4259636048
 30
0.0
 10
33.2359596624
 20
47.9227108561
 30
0.0
 10
32.4344845125
 20
48.3806997073
 30
0.0
 10
31.3919672057
 20
48.8786324711
 30
0.0
 10
30.0885031928
 20
49.3500118604
 30
0.0
 10
28.7444162607
 20
49.6888701315
 30
0.0
 10
27.37353054
 20
49.8938028585
 30
0.0
 10
25.9891628655
 20
49.9635399234
 30
0.0
 10
24.6046450087
 20
49.8967013902
 30
0.0
 10
23.2337261781
 20
49.6919101905
 30
0.0
 10
21.8896236413
 20
49.353202424
 30
0.0
 10
20.5851384256
 20
48.8845307394
 30
0.0
 10
19.3331001251
 20
48.2897558516
 30
0.0
 10
18.1467288303
 20
47.5728992616
 30
0.0
 10
17.0366715503
 20
46.7427801645
 30
0.0
 10
16.0132084733
 20
45.8079562966
 30
0.0
 10
15.0867386462
 20
44.7770015483
 30
0.0
 10
14.4042183156
 20
43.8448413788
 30
0.0
 10
13.9154263838
 20
43.0618466621
 30
0.0
 10
13.4656303956
 20
42.2557450725
 30
0.0
 10
12.978349403
 20
41.2082067169
 30
0.0
 10
12.5202801171
 20
39.9000058566
 30
0.0
 10
12.1951391165
 20
38.5525349149
 30
0.0
 10
12.004189851
 20
37.179631619
 30
0.0
 10
11.9485666403
 20
35.7946250578
 30
0.0
 10
12.029513464
 20
34.4108603751
 30
0.0
 10
12.2482671795
 20
33.042100101
 30
0.0
 10
12.600657179
 20
31.7015196788
 30
0.0
 10
13.0826005443
 20
30.4018791829
 30
0.0
 10
13.6901059947
 20
29.1559681905
 30
0.0
 10
14.4190174918
 20
27.9769651162
 30
0.0
 10
15.2604077783
 20
26.8754265259
 30
0.0
 10
16.2056147813
 20
25.8615448486
 30
0.0
 10
17.245959063
 20
24.9456312014
 30
0.0
 10
18.1850274311
 20
24.2726474103
 30
0.0
 10
18.9729635094
 20
23.7918615789
 30
0.0
 10
19.7836077922
 20
23.3503051833
 30
0.0
 10
20.8360583672
 20
22.873726586
 30
0.0
 10
22.1488601649
 20
22.4290149925
 30
0.0
 10
23.4995751265
 20
22.1176250415
 30
0.0
 10
24.8743533657
 20
21.9406790754
 30
0.0
 10
26.2598549244
 20
21.8991754976
 30
0.0
 10
27.6427226727
 20
21.9942222022
 30
0.0
 10
29.0091821886
 20
22.2269157069
 30
0.0
 10
30.3461012226
 20
22.5929513295
 30
0.0
 10
31.6407619781
 20
23.0881163061
 30
0.0
 10
32.8804162237
 20
23.7082892049
 30
0.0
 10
34.0519285901
 20
24.4491798819
 30
0.0
 10
35.1448340511
 20
25.3017539453
 30
0.0
 10
36.1490289958
 20
26.2572458851
 30
0.0
 10
37.0542913082
 20
27.306871618
 30
0.0
 10
37.7176686431
 20
28.2527506245
 30
0.0
 10
38.1903984249
 20
29.045546205
 30
0.0
 10
38.6236693543
 20
29.8606489625
 30
0.0
 10
39.0894960443
 20
30.9179024171
 30
0.0
 10
39.5208037439
 20
32.2351687644
 30
0.0
 10
39.8184102949
 20
33.5889874191
 30
0.0
 10
39.9813345785
 20
34.9654977749
 30
0.0
 10
40.0087142115
 20
36.3513503905
 30
0.0
 10
39.8995775006
 20
37.7331775373
 30
0.0
 10
39.6529683812
 20
39.0971943326
 30
0.0
 10
39.2733251633
 20
40.4303130848
 30
0.0
 10
38.7649900185
 20
41.7198595968
 30
0.0
 10
38.1322141014
 20
42.9531283071
 30
0.0
 10
37.3794212161
 20
44.1170282563
 30
0.0
 10
36.5157519505
 20
45.2011870453
 30
0.0
 10
35.5500743405
 20
46.1955909308
 30
0.0
 10
34.4912762027
 20
47.0901078601
 30
0.0
 10
33.538684826
 20
47.74380982
 30
0.0
 10
32.7411121074
 20
48.20843444
 30
0.0
 10
31.9216355565
 20
48.6333748904
 30
0.0
 10
30.8596890613
 20
49.088401278
 30
0.0
 10
29.5380950161
 20
49.506260275
 30
0.0
 10
28.1813133174
 20
49.7900525073
 30
0.0
 10
26.8032138516
 20
49.9389381822
 30
0.0
 10
25.4171541565
 20
49.952191026
 30
0.0
 10
24.0365111702
 20
49.8289756469
 30
0.0
 10
22.675078804
 20
49.5684765332
 30
0.0
 10
21.3458988322
 20
49.1752651612
 30
0.0
 10
20.0616005358
 20
48.6538126594
 30
0.0
 10
18.8348454859
 20
48.0084994638
 30
0.0
 10
17.6786788724
 20
47.2438825789
 30
0.0
 10
16.6033793893
 20
46.3692078386
 30
0.0
 10
15.6188698722
 20
45.3934448832
 30
0.0
 10
14.7351912577
 20
44.3255843389
 30
0.0
 10
14.0912325862
 20
43.3663795562
 30
0.0
 10
13.634761398
 20
42.5641125587
 30
0.0
 10
13.218195574
 20
41.7403473502
 30
0.0
 10
12.774016762
 20
40.6738181414
 30
0.0
 10
12.36964988
 20
39.3480337029
 30
0.0
 10
12.0997014508
 20
37.9884299221
 30
0.0
 10
11.9648698541
 20
36.6088845218
 30
0.0
 10
11.9657451765
 20
35.222761744
 30
0.0
 10
12.1030264223
 20
33.8434463424
 30
0.0
 10
12.3773884547
 20
32.4847398295
 30
0.0
 10
12.7841271382
 20
31.1596367018
 30
0.0
 10
13.3186427557
 20
29.8807200866
 30
0.0
 10
13.9764264314
 20
28.6606060506
 30
0.0
 10
14.7527870346
 20
27.5122934636
 30
0.0
 10
15.6383797007
 20
26.4459632208
 30
0.0
 10
16.6241143699
 20
25.4714572761
 30
0.0
 10
17.700972122
 20
24.5986828212
 30
0.0
 10
18.8596184151
 20
23.8378302041
 30
0.0
 10
20.087508983
 20
23.1946975509
 30
0.0
 10
21.3724651233
 20
22.6748683424
 30
0.0
 10
22.7023488067
 20
22.2840137122
 30
0.0
 10
24.0646211024
 20
22.0279444242
 30
0.0
 10
25.4454735083
 20
21.9071808956
 30
0.0
 10
26.8315108012
 20
21.9221834604
 30
0.0
 10
28.2093674949
 20
22.073519044
 30
0.0
 10
29.5651587739
 20
22.3616918969
 30
0.0
 10
30.6661087063
 20
22.7119522059
 30
0.0
 10
31.5228196697
 20
23.0557059642
 30
0.0
 10
32.3615541192
 20
23.4410694118
 30
0.0
 10
33.2796271701
 20
23.9481644778
 30
0.0
 10
34.2514751436
 20
24.6033496973
 30
0.0
 10
35.0873373844
 20
25.264481754
 30
0.0
 10
35.8709272291
 20
25.9868151016
 30
0.0
 10
36.3555163184
 20
26.5064037087
 30
0.0
 10
36.5876176614
 20
26.775008556
 30
0.0
  0
SPLINE
  5
26A
100
AcDbEntity
  8
0
100
AcDbSpline
 62
7
  6
BYLAYER
 70
0
 71
3
 72
269
 73
265
 74
0
 42
0.0000001
 43
0.0000001
 44
0.0000000001
 40
0.0
 40
0.0
 40
0.0
 40
0.0
 40
0.0031254799
 40
0.0062511223
 40
0.0093765843
 40
0.012501716
 40
0.0165638847
 40
0.0185957928
 40
0.0206277881
 40
0.0246904578
 40
0.0287526043
 40
0.0328147543
 40
0.0368774301
 40
0.0409401063
 40
0.0450022587
 40
0.0490644108
 40
0.0531270866
 40
0.0571897626
 40
0.0612519151
 40
0.0653140676
 40
0.0693767434
 40
0.073439419
 40
0.077501571
 40
0.0815637232
 40
0.085626399
 40
0.0896890748
 40
0.0937512271
 40
0.0978133793
 40
0.1018760551
 40
0.1059387309
 40
0.1100008831
 40
0.1140630353
 40
0.1181257111
 40
0.1201577075
 40
0.1221896139
 40
0.1262517661
 40
0.1303139184
 40
0.1343765941
 40
0.1384392699
 40
0.1425014222
 40
0.1465635744
 40
0.1506262502
 40
0.154688926
 40
0.1587510782
 40
0.1628132304
 40
0.1668759062
 40
0.170938582
 40
0.1750007342
 40
0.1790628864
 40
0.1831255622
 40
0.1851575586
 40
0.187189465
 40
0.1912516172
 40
0.1953137694
 40
0.1993764452
 40
0.203439121
 40
0.2075012732
 40
0.2115634255
 40
0.2156261013
 40
0.219688777
 40
0.2237509293
 40
0.2278130815
 40
0.2318757573
 40
0.2359384331
 40
0.2400005853
 40
0.2440627375
 40
0.2481254133
 40
0.2501574097
 40
0.2521893161
 40
0.2562514683
 40
0.2603136205
 40
0.2643762963
 40
0.2684389721
 40
0.2725011243
 40
0.2765632766
 40
0.2806259523
 40
0.2846886281
 40
0.2887507804
 40
0.2928129326
 40
0.2968756084
 40
0.3009382842
 40
0.3050004364
 40
0.3090625886
 40
0.3131252644
 40
0.3151572608
 40
0.3171891672
 40
0.3212513194
 40
0.3253134716
 40
0.3293761474
 40
0.3334388232
 40
0.3375009754
 40
0.3415631276
 40
0.3456258034
 40
0.3496884792
 40
0.3537506314
 40
0.3578127837
 40
0.3618754595
 40
0.3659381352
 40
0.3700002875
 40
0.3740624397
 40
0.3781251155
 40
0.3801571119
 40
0.3821890183
 40
0.3862511705
 40
0.3903133227
 40
0.3943759985
 40
0.3984386743
 40
0.4025008265
 40
0.4065629787
 40
0.4106256545
 40
0.4146883303
 40
0.4187504825
 40
0.4228126348
 40
0.4268753105
 40
0.4309379863
 40
0.4350001386
 40
0.4390622908
 40
0.4431249666
 40
0.4451569629
 40
0.4471888694
 40
0.4512510216
 40
0.4553131738
 40
0.4593758496
 40
0.4634385254
 40
0.4675006776
 40
0.4715628298
 40
0.4756255056
 40
0.4796881814
 40
0.4837503336
 40
0.4878124858
 40
0.4918751616
 40
0.4959378374
 40
0.4999999896
 40
0.5040621419
 40
0.5081248177
 40
0.5121874934
 40
0.5162496457
 40
0.5203117979
 40
0.5243744737
 40
0.5284371495
 40
0.5324993017
 40
0.5365614539
 40
0.5406241297
 40
0.5446868055
 40
0.5487489577
 40
0.5528111099
 40
0.5548430163
 40
0.5568750127
 40
0.5609376885
 40
0.5649998407
 40
0.569061993
 40
0.5731246687
 40
0.5771873445
 40
0.5812494968
 40
0.585311649
 40
0.5893743248
 40
0.5934370006
 40
0.5974991528
 40
0.601561305
 40
0.6056239808
 40
0.6096866566
 40
0.6137488088
 40
0.617810961
 40
0.6198428674
 40
0.6218748638
 40
0.6259375396
 40
0.6299996918
 40
0.634061844
 40
0.6381245198
 40
0.6421871956
 40
0.6462493478
 40
0.6503115001
 40
0.6543741759
 40
0.6584368516
 40
0.6624990039
 40
0.6665611561
 40
0.6706238319
 40
0.6746865077
 40
0.6787486599
 40
0.6828108121
 40
0.6848427185
 40
0.6868747149
 40
0.6909373907
 40
0.6949995429
 40
0.6990616951
 40
0.7031243709
 40
0.7071870467
 40
0.7112491989
 40
0.7153113512
 40
0.7193740269
 40
0.7234367027
 40
0.727498855
 40
0.7315610072
 40
0.735623683
 40
0.7396863588
 40
0.743748511
 40
0.7478106632
 40
0.7498425696
 40
0.751874566
 40
0.7559372418
 40
0.759999394
 40
0.7640615462
 40
0.768124222
 40
0.7721868978
 40
0.77624905
 40
0.7803112022
 40
0.784373878
 40
0.7884365538
 40
0.792498706
 40
0.7965608583
 40
0.8006235341
 40
0.8046862098
 40
0.8087483621
 40
0.8128105143
 40
0.8148424207
 40
0.8168744171
 40
0.8209370929
 40
0.8249992451
 40
0.8290613973
 40
0.8331240731
 40
0.8371867489
 40
0.8412489011
 40
0.8453110533
 40
0.8493737291
 40
0.8534364049
 40
0.8574985571
 40
0.8615607094
 40
0.8656233851
 40
0.8696860609
 40
0.8737482132
 40
0.8778103654
 40
0.8798422718
 40
0.8818742682
 40
0.885936944
 40
0.8899990962
 40
0.8940612484
 40
0.8981239242
 40
0.9021865999
 40
0.9062487522
 40
0.9103109045
 40
0.9143735803
 40
0.9184362561
 40
0.9224984082
 40
0.9265605603
 40
0.9306232359
 40
0.9346859117
 40
0.9387480642
 40
0.9428102167
 40
0.9468728927
 40
0.9509355685
 40
0.9549977206
 40
0.959059873
 40
0.9631225492
 40
0.9671852249
 40
0.971247375
 40
0.9753095215
 40
0.9793721912
 40
0.9814041865
 40
0.9834360946
 40
0.9874982633
 40
0.9906234001
 40
0.9937488674
 40
0.9968745149
 40
1.0
 40
1.0
 40
1.0
 40
1.0
 10
23.9347282843
 20
49.7905151503
 30
0.0
 10
23.5835722003
 20
49.7384710888
 30
0.0
 10
22.8852144275
 20
49.6077283971
 30
0.0
 10
21.8554615708
 20
49.3331673053
 30
0.0
 10
20.8493736638
 20
48.9816781385
 30
0.0
 10
19.775441414
 20
48.5121859561
 30
0.0
 10
18.8553592648
 20
48.0087466481
 30
0.0
 10
18.0805697528
 20
47.5070677914
 30
0.0
 10
17.3312801653
 20
46.9679152755
 30
0.0
 10
16.4456271316
 20
46.2260313617
 30
0.0
 10
15.4758454488
 20
45.2357096599
 30
0.0
 10
14.6097760533
 20
44.1534364369
 30
0.0
 10
13.8544330486
 20
42.9912052208
 30
0.0
 10
13.2164993492
 20
41.7606046391
 30
0.0
 10
12.7027638018
 20
40.4731913118
 30
0.0
 10
12.3201859691
 20
39.1409029965
 30
0.0
 10
12.070578356
 20
37.7774402255
 30
0.0
 10
11.9556565473
 20
36.3960902212
 30
0.0
 10
11.9772319294
 20
35.0101275809
 30
0.0
 10
12.1371305363
 20
33.63325057
 30
0.0
 10
12.4317500705
 20
32.2788008647
 30
0.0
 10
12.8575581923
 20
30.9597019297
 30
0.0
 10
13.411115763
 20
29.688902339
 30
0.0
 10
14.0888339972
 20
28.4797474192
 30
0.0
 10
14.8822512196
 20
27.3431631658
 30
0.0
 10
15.7831313093
 20
26.289716575
 30
0.0
 10
16.7833146322
 20
25.3300336932
 30
0.0
 10
17.8743501739
 20
24.4750491529
 30
0.0
 10
19.0442233221
 20
23.7315883682
 30
0.0
 10
20.2812584105
 20
23.1062330602
 30
0.0
 10
21.5738554519
 20
22.6056459212
 30
0.0
 10
22.9099228869
 20
22.2366733452
 30
0.0
 10
24.0484261905
 20
22.0402309924
 30
0.0
 10
24.9671612904
 20
21.9505536789
 30
0.0
 10
25.8891272139
 20
21.9060888963
 30
0.0
 10
27.0440609092
 20
21.9358335611
 30
0.0
 10
28.4191840671
 20
22.1097597995
 30
0.0
 10
29.7705745582
 20
22.4181687408
 30
0.0
 10
31.0852611429
 20
22.8573999598
 30
0.0
 10
32.3503535821
 20
23.4238815033
 30
0.0
 10
33.5525377604
 20
24.1138889483
 30
0.0
 10
34.6809761094
 20
24.9188496419
 30
0.0
 10
35.7251856957
 20
25.8304202209
 30
0.0
 10
36.6746243133
 20
26.8403331811
 30
0.0
 10
37.5184440051
 20
27.940026508
 30
0.0
 10
38.2499421831
 20
29.1174166438
 30
0.0
 10
38.86265647
 20
30.3607614409
 30
0.0
 10
39.3500427522
 20
31.6583936002
 30
0.0
 10
39.7053782337
 20
32.9981524058
 30
0.0
 10
39.8902061348
 20
34.1385988181
 30
0.0
 10
39.9705145397
 20
35.0582002338
 30
0.0
 10
40.0055798317
 20
35.9805714738
 30
0.0
 10
39.9640649963
 20
37.1351420007
 30
0.0
 10
39.7761317858
 20
38.5084209752
 30
0.0
 10
39.4539647547
 20
39.8565977953
 30
0.0
 10
39.001356348
 20
41.1667392038
 30
0.0
 10
38.4220097174
 20
42.4259920384
 30
0.0
 10
37.7197847973
 20
43.6210808362
 30
0.0
 10
36.9033642574
 20
44.7412559689
 30
0.0
 10
35.9811978756
 20
45.7761200879
 30
0.0
 10
34.9616601785
 20
46.7152158018
 30
0.0
 10
33.8534233043
 20
47.5477829858
 30
0.0
 10
32.6686384993
 20
48.2672425623
 30
0.0
 10
31.4191131694
 20
48.8672521722
 30
0.0
 10
30.1165807089
 20
49.3413869611
 30
0.0
 10
28.7732697241
 20
49.6830484309
 30
0.0
 10
27.6309986858
 20
49.8562426781
 30
0.0
 10
26.710626492
 20
49.9271738313
 30
0.0
 10
25.7879457603
 20
49.9528359902
 30
0.0
 10
24.6338583498
 20
49.8995552977
 30
0.0
 10
23.2625662287
 20
49.6976346398
 30
0.0
 10
21.9177431425
 20
49.3617429891
 30
0.0
 10
20.6122830219
 20
48.8958044163
 30
0.0
 10
19.359000617
 20
48.3036528872
 30
0.0
 10
18.1711313586
 20
47.5892834464
 30
0.0
 10
17.0593358179
 20
46.7614878788
 30
0.0
 10
16.0339246789
 20
45.8288214988
 30
0.0
 10
15.1052694319
 20
44.7997649854
 30
0.0
 10
14.2840412516
 20
43.6830996993
 30
0.0
 10
13.5766950216
 20
42.4910433133
 30
0.0
 10
12.9894524244
 20
41.2354672647
 30
0.0
 10
12.528618387
 20
39.9281698238
 30
0.0
 10
12.2006664244
 20
38.5814462175
 30
0.0
 10
12.0391238243
 20
37.4374692244
 30
0.0
 10
11.9775772919
 20
36.5164218706
 30
0.0
 10
11.9613209321
 20
35.5935275051
 30
0.0
 10
12.0263619464
 20
34.44004311
 30
0.0
 10
12.2422490739
 20
33.0708803068
 30
0.0
 10
12.5918304482
 20
31.7295506692
 30
0.0
 10
13.0710507805
 20
30.4289074617
 30
0.0
 10
13.675945689
 20
29.1817256909
 30
0.0
 10
14.4023854342
 20
28.0011993804
 30
0.0
 10
15.2414700292
 20
26.897898937
 30
0.0
 10
16.184539512
 20
25.8820473086
 30
0.0
 10
17.2230079325
 20
24.9639290071
 30
0.0
 10
18.3479856193
 20
24.1541251485
 30
0.0
 10
19.5471897427
 20
23.4589657519
 30
0.0
 10
20.8086860673
 20
22.8845511762
 30
0.0
 10
22.1206126725
 20
22.4370657667
 30
0.0
 10
23.4706089883
 20
22.1228573825
 30
0.0
 10
24.6161730875
 20
21.9729832123
 30
0.0
 10
25.5377999132
 20
21.9208276948
 30
0.0
 10
26.4608120323
 20
21.913978823
 30
0.0
 10
27.6135735756
 20
21.9907734018
 30
0.0
 10
28.9804648177
 20
22.2206045704
 30
0.0
 10
30.3181616551
 20
22.5838393501
 30
0.0
 10
31.6138528248
 20
23.0762916552
 30
0.0
 10
32.8548043909
 20
23.6938671003
 30
0.0
 10
34.0278651078
 20
24.4323016794
 30
0.0
 10
35.1225558312
 20
25.2825881288
 30
0.0
 10
36.1287424114
 20
26.2359627384
 30
0.0
 10
37.0362283835
 20
27.2837351785
 30
0.0
 10
37.8345237894
 20
28.4169083913
 30
0.0
 10
38.5174241321
 20
29.623135666
 30
0.0
 10
39.0789510098
 20
30.890421209
 30
0.0
 10
39.5130413018
 20
32.2068406814
 30
0.0
 10
39.8134734643
 20
33.5599694548
 30
0.0
 10
39.9516636341
 20
34.7070016467
 30
0.0
 10
39.9944227182
 20
35.6291121956
 30
0.0
 10
39.9918633904
 20
36.5521461759
 30
0.0
 10
39.9033232253
 20
37.7040651064
 30
0.0
 10
39.659571893
 20
39.06854278
 30
0.0
 10
39.2827214447
 20
40.4024678429
 30
0.0
 10
38.7770883278
 20
41.6930723646
 30
0.0
 10
38.1468965069
 20
42.9276648026
 30
0.0
 10
37.396543809
 20
44.0931380559
 30
0.0
 10
36.5351438472
 20
45.179105331
 30
0.0
 10
35.5715631386
 20
46.1755223304
 30
0.0
 10
34.5145956036
 20
47.0722816905
 30
0.0
 10
33.3733443258
 20
47.8589857197
 30
0.0
 10
32.160220205
 20
48.5295560186
 30
0.0
 10
30.8872734106
 20
49.0781370211
 30
0.0
 10
29.5665116128
 20
49.4987865002
 30
0.0
 10
28.2103395377
 20
49.7854134588
 30
0.0
 10
26.8325516301
 20
49.9371867743
 30
0.0
 10
25.4465236131
 20
49.9533420922
 30
0.0
 10
24.0656253572
 20
49.8330187141
 30
0.0
 10
22.7036504526
 20
49.5753715147
 30
0.0
 10
21.3736498397
 20
49.1849448399
 30
0.0
 10
20.0882622378
 20
48.6661833056
 30
0.0
 10
18.8601583374
 20
48.0234408336
 30
0.0
 10
17.7023928512
 20
47.261247093
 30
0.0
 10
16.6252638134
 20
46.388826371
 30
0.0
 10
15.6387128239
 20
45.4151275063
 30
0.0
 10
14.7527996275
 20
44.3491200758
 30
0.0
 10
14.1068334162
 20
43.391266101
 30
0.0
 10
13.6486829665
 20
42.5899568944
 30
0.0
 10
13.2303927676
 20
41.7670659459
 30
0.0
 10
12.7839811975
 20
40.7014693607
 30
0.0
 10
12.3768384875
 20
39.3765347301
 30
0.0
 10
12.1040431039
 20
38.0174993046
 30
0.0
 10
11.9663224903
 20
36.6382393167
 30
0.0
 10
11.964294724
 20
35.2521177475
 30
0.0
 10
12.0986868398
 20
33.8725178618
 30
0.0
 10
12.3702026163
 20
32.5132397229
 30
0.0
 10
12.7741651116
 20
31.1872876564
 30
0.0
 10
13.3060010691
 20
29.9072543208
 30
0.0
 10
13.9612276601
 20
28.6857653984
 30
0.0
 10
14.7351823865
 20
27.5358287474
 30
0.0
 10
15.618536478
 20
26.4676478502
 30
0.0
 10
16.6022402302
 20
25.4910725782
 30
0.0
 10
17.677221998
 20
24.616070731
 30
0.0
 10
18.6416102573
 20
23.9799010457
 30
0.0
 10
19.4475475592
 20
23.529941776
 30
0.0
 10
20.2746592046
 20
23.1200606594
 30
0.0
 10
21.3447505077
 20
22.684533421
 30
0.0
 10
22.673766135
 20
22.2909163177
 30
0.0
 10
24.0355114445
 20
22.0319871361
 30
0.0
 10
25.41610351
 20
21.9083318478
 30
0.0
 10
26.8021737447
 20
21.9204322953
 30
0.0
 10
28.1803321687
 20
22.0688790658
 30
0.0
 10
29.5367722623
 20
22.3542352436
 30
0.0
 10
30.8585380453
 20
22.7716915829
 30
0.0
 10
32.1330841265
 20
23.3165467131
 30
0.0
 10
33.3478311709
 20
23.9841893506
 30
0.0
 10
34.4898195186
 20
24.7698246562
 30
0.0
 10
35.5489413013
 20
25.6640203449
 30
0.0
 10
36.5154393986
 20
26.657626787
 30
0.0
 10
37.379438992
 20
27.7414712113
 30
0.0
 10
38.0057460593
 20
28.7122935641
 30
0.0
 10
38.4474674024
 20
29.5227752321
 30
0.0
 10
38.8488968537
 20
30.3540216452
 30
0.0
 10
39.2734945134
 20
31.4284964935
 30
0.0
 10
39.6535451167
 20
32.7614550452
 30
0.0
 10
39.8985811959
 20
34.125768766
 30
0.0
 10
40.0081583123
 20
35.5075494785
 30
0.0
 10
39.9819309084
 20
36.8934243789
 30
0.0
 10
39.8194449054
 20
38.2699981634
 30
0.0
 10
39.5202779719
 20
39.6234592902
 30
0.0
 10
39.0893711585
 20
40.9409014705
 30
0.0
 10
38.531553461
 20
42.2098278838
 30
0.0
 10
37.8515641389
 20
43.4177068492
 30
0.0
 10
37.0543298742
 20
44.5516282516
 30
0.0
 10
36.1493854871
 20
45.6015808869
 30
0.0
 10
35.1459795815
 20
46.5579013994
 30
0.0
 10
34.053385102
 20
47.4108089776
 30
0.0
 10
33.0762295151
 20
48.0271883593
 30
0.0
 10
32.2612876826
 20
48.4606258851
 30
0.0
 10
31.4259928606
 20
48.8535619664
 30
0.0
 10
30.3472460949
 20
49.2671859355
 30
0.0
 10
29.0104831008
 20
49.6336305551
 30
0.0
 10
27.6437427082
 20
49.8647480751
 30
0.0
 10
26.2609169029
 20
49.9602356355
 30
0.0
 10
24.8753813163
 20
49.9198839997
 30
0.0
 10
23.5005351845
 20
49.7433756451
 30
0.0
 10
22.1501936366
 20
49.4304290367
 30
0.0
 10
20.8372119289
 20
48.9861165164
 30
0.0
 10
19.5740370132
 20
48.4153942037
 30
0.0
 10
18.3731516142
 20
47.7231288415
 30
0.0
 10
17.2474149609
 20
46.914378443
 30
0.0
 10
16.2067405534
 20
45.9987793726
 30
0.0
 10
15.2606969785
 20
44.9856782482
 30
0.0
 10
14.4189700248
 20
43.8844472238
 30
0.0
 10
13.8125823647
 20
42.9010599202
 30
0.0
 10
13.3874736864
 20
42.0817425881
 30
0.0
 10
13.0030717974
 20
41.2424861366
 30
0.0
 10
12.6004644906
 20
40.1595795253
 30
0.0
 10
12.2476639248
 20
38.819150966
 30
0.0
 10
12.0304889751
 20
37.4501258932
 30
0.0
 10
11.9491008909
 20
36.0663986579
 30
0.0
 10
12.0035725662
 20
34.6813463293
 30
0.0
 10
12.1940849351
 20
33.308370684
 30
0.0
 10
12.5207787063
 20
31.9612890028
 30
0.0
 10
12.9784507736
 20
30.6529041744
 30
0.0
 10
13.5620184088
 20
29.3956119884
 30
0.0
 10
14.2664878908
 20
28.2018449167
 30
0.0
 10
15.0866704011
 20
27.0844099661
 30
0.0
 10
16.0128290322
 20
26.0531219027
 30
0.0
 10
17.0355201238
 20
25.1174535504
 30
0.0
 10
18.1452732862
 20
24.2869946685
 30
0.0
 10
19.134790143
 20
23.6906617281
 30
0.0
 10
19.9583978563
 20
23.2739260619
 30
0.0
 10
20.8015287469
 20
22.8980983012
 30
0.0
 10
21.888482699
 20
22.506549484
 30
0.0
 10
23.2324375621
 20
22.1674296251
 30
0.0
 10
24.6036050813
 20
21.964219809
 30
0.0
 10
25.9880899864
 20
21.8969396578
 30
0.0
 10
27.3725151646
 20
21.9655257139
 30
0.0
 10
28.7434776959
 20
22.1700223045
 30
0.0
 10
30.0871595776
 20
22.5104292868
 30
0.0
 10
31.3908116231
 20
22.9814133629
 30
0.0
 10
32.6420904227
 20
23.5777656244
 30
0.0
 10
33.828615229
 20
24.2943662865
 30
0.0
 10
34.9376318518
 20
25.1258948273
 30
0.0
 10
35.9594280448
 20
26.0625202043
 30
0.0
 10
36.8846176516
 20
27.0946824327
 30
0.0
 10
37.7037458803
 20
28.2128893958
 30
0.0
 10
38.4070905393
 20
29.4073198995
 30
0.0
 10
38.9894732088
 20
30.6651614168
 30
0.0
 10
39.445912001
 20
31.9739770331
 30
0.0
 10
39.7713354926
 20
33.3213661767
 30
0.0
 10
39.960552381
 20
34.6945210322
 30
0.0
 10
40.0137174124
 20
36.0796241605
 30
0.0
 10
39.9310251559
 20
37.4632738434
 30
0.0
 10
39.7125622639
 20
38.832092857
 30
0.0
 10
39.358503358
 20
40.1721883299
 30
0.0
 10
38.9548800609
 20
41.2547137438
 30
0.0
 10
38.569686564
 20
42.0936096201
 30
0.0
 10
38.1438112027
 20
42.9125178201
 30
0.0
 10
37.5924738814
 20
43.8047233406
 30
0.0
 10
36.8905963132
 20
44.743405414
 30
0.0
 10
36.1894218793
 20
45.5459736013
 30
0.0
 10
35.429672715
 20
46.2933421296
 30
0.0
 10
34.8870323599
 20
46.7519709023
 30
0.0
 10
34.6074100928
 20
46.9706738631
 30
0.0
  0
SPLINE
  5
26B
100
AcDbEntity
  8
0
100
AcDbSpline
 62
7
  6
BYLAYER
 70
0
 71
3
 72
18
 73
14
 74
0
 42
0.0000001
 43
0.0000001
 44
0.0000000001
 40
0.0
 40
0.0
 40
0.0
 40
0.0
 40
0.0145015862
 40
0.1364967063
 40
0.2584917194
 40
0.3805024467
 40
0.4415276452
 40
0.5025502237
 40
0.6245459042
 40
0.7184004982
 40
0.8122650158
 40
0.9061349476
 40
1.0
 40
1.0
 40
1.0
 40
1.0
 10
23.9347461218
 20
49.7903940707
 30
0.0
 10
23.8804781318
 20
49.7824067655
 30
0.0
 10
23.3701176684
 20
49.7042343105
 30
0.0
 10
22.41206747
 20
49.5029019185
 30
0.0
 10
21.0908675831
 20
49.0838023549
 30
0.0
 10
20.029351461
 20
48.6277798114
 30
0.0
 10
19.2102737248
 20
48.2020663121
 30
0.0
 10
18.4131471021
 20
47.7366959105
 30
0.0
 10
17.5489394537
 20
47.1424327759
 30
0.0
 10
16.6456645954
 20
46.39553875
 30
0.0
 10
15.878306774
 20
45.6559961509
 30
0.0
 10
15.1689440728
 20
44.8606452422
 30
0.0
 10
14.7373706964
 20
44.2962488151
 30
0.0
 10
14.5325883202
 20
44.0062767893
 30
0.0
  0
SPLINE
  5
26C
100
AcDbEntity
  8
0
100
AcDbSpline
 62
7
  6
BYLAYER
 70
0
 71
3
 72
26
 73
22
 74
0
 42
0.0000001
 43
0.0000001
 44
0.0000000001
 40
0.0
 40
0.0
 40
0.0
 40
0.0
 40
0.0191900856
 40
0.0801906979
 40
0.1411913122
 40
0.202199787
 40
0.2632082583
 40
0.3242088659
 40
0.3852094772
 40
0.4462179553
 40
0.507226426
 40
0.5682270025
 40
0.6292275254
 40
0.6902359059
 40
0.720750014
 40
0.7512628121
 40
0.8122636688
 40
0.8591932864
 40
0.906127866
 40
0.9530651529
 40
1.0
 40
1.0
 40
1.0
 40
1.0
 10
23.9347632981
 20
49.7902773707
 30
0.0
 10
23.791146145
 20
49.7691293119
 30
0.0
 10
23.1923710764
 20
49.671469587
 30
0.0
 10
22.1502835921
 20
49.4313476157
 30
0.0
 10
20.8373896617
 20
48.9867495219
 30
0.0
 10
19.5746292964
 20
48.4151105483
 30
0.0
 10
18.373900297
 20
47.7225901092
 30
0.0
 10
17.2471444948
 20
46.9152616039
 30
0.0
 10
16.2066605709
 20
45.9994283812
 30
0.0
 10
15.2613599823
 20
44.9856512884
 30
0.0
 10
14.4198524
 20
43.8842024955
 30
0.0
 10
13.6908131825
 20
42.7052651153
 30
0.0
 10
13.0831880304
 20
41.4594700841
 30
0.0
 10
12.6813844608
 20
40.3762679196
 30
0.0
 10
12.4248221833
 20
39.4895345216
 30
0.0
 10
12.2121162354
 20
38.5913493274
 30
0.0
 10
12.0464903916
 20
37.5556989942
 30
0.0
 10
11.964454033
 20
36.3865000413
 30
0.0
 10
11.9708250229
 20
35.3207980696
 30
0.0
 10
12.0576053886
 20
34.2586080311
 30
0.0
 10
12.1687039648
 20
33.5568559292
 30
0.0
 10
12.2374716177
 20
33.2085879185
 30
0.0
  0
SPLINE
  5
26D
100
AcDbEntity
  8
0
100
AcDbSpline
 62
7
  6
BYLAYER
 70
0
 71
3
 72
270
 73
266
 74
0
 42
0.0000001
 43
0.0000001
 44
0.0000000001
 40
0.0
 40
0.0
 40
0.0
 40
0.0
 40
0.0030475009
 40
0.0060947101
 40
0.0101177441
 40
0.0141413536
 40
0.0181649999
 40
0.0221881493
 40
0.0262112785
 40
0.0302348912
 40
0.0342584975
 40
0.0382816053
 40
0.0423047165
 40
0.0463283286
 40
0.0483407739
 40
0.0503531334
 40
0.054376247
 40
0.0583993604
 40
0.0624229725
 40
0.0664465849
 40
0.0704696986
 40
0.0744928122
 40
0.0785164243
 40
0.0825400364
 40
0.0865631496
 40
0.0905862629
 40
0.0946098751
 40
0.0986334873
 40
0.1026566008
 40
0.1066797142
 40
0.1107033264
 40
0.1127157714
 40
0.1147281307
 40
0.1187512441
 40
0.1227743575
 40
0.1267979696
 40
0.1308215818
 40
0.1348446952
 40
0.1388678086
 40
0.1428914208
 40
0.1469150329
 40
0.1509381463
 40
0.1549612597
 40
0.1589848719
 40
0.1630084841
 40
0.1670315975
 40
0.1710547109
 40
0.175078323
 40
0.1770907681
 40
0.1791031274
 40
0.1831262408
 40
0.1871493542
 40
0.1911729664
 40
0.1951965785
 40
0.1992196919
 40
0.2032428053
 40
0.2072664175
 40
0.2112900296
 40
0.215313143
 40
0.2193362565
 40
0.2233598686
 40
0.2273834808
 40
0.2314065942
 40
0.2354297076
 40
0.2394533197
 40
0.2414657648
 40
0.2434781241
 40
0.2475012375
 40
0.2515243509
 40
0.2555479631
 40
0.2595715752
 40
0.2635946886
 40
0.267617802
 40
0.2716414142
 40
0.2756650263
 40
0.2796881397
 40
0.2837112532
 40
0.2877348653
 40
0.2917584775
 40
0.2957815909
 40
0.2998047043
 40
0.3038283164
 40
0.3058407615
 40
0.3078531208
 40
0.3118762342
 40
0.3158993476
 40
0.3199229598
 40
0.3239465719
 40
0.3279696853
 40
0.3319927987
 40
0.3360164109
 40
0.340040023
 40
0.3440631365
 40
0.3480862499
 40
0.352109862
 40
0.3561334742
 40
0.3601565876
 40
0.364179701
 40
0.3682033131
 40
0.3702157582
 40
0.3722281175
 40
0.3762512309
 40
0.3802743443
 40
0.3842979565
 40
0.3883215686
 40
0.392344682
 40
0.3963677954
 40
0.4003914076
 40
0.4044150197
 40
0.4084381332
 40
0.4124612466
 40
0.4164848587
 40
0.4205084709
 40
0.4245315843
 40
0.4285546977
 40
0.4325783099
 40
0.4345907549
 40
0.4366031142
 40
0.4406262276
 40
0.444649341
 40
0.4486729532
 40
0.4526965653
 40
0.4567196787
 40
0.4607427921
 40
0.4647664043
 40
0.4687900165
 40
0.4728131299
 40
0.4768362433
 40
0.4808598554
 40
0.4848834676
 40
0.488906581
 40
0.4929296944
 40
0.4969533066
 40
0.5009769187
 40
0.5050000321
 40
0.5090231455
 40
0.5130467577
 40
0.5170703698
 40
0.5210934832
 40
0.5251165967
 40
0.5291402088
 40
0.533163821
 40
0.5371869344
 40
0.5412100478
 40
0.5452336599
 40
0.5492572721
 40
0.5532803855
 40
0.5573034989
 40
0.5593158582
 40
0.5613283033
 40
0.5653519154
 40
0.5693750288
 40
0.5733981422
 40
0.5774217544
 40
0.5814453665
 40
0.58546848
 40
0.5894915934
 40
0.5935152055
 40
0.5975388177
 40
0.6015619311
 40
0.6055850445
 40
0.6096086566
 40
0.6136322688
 40
0.6176553822
 40
0.6216784956
 40
0.6236908549
 40
0.6257033
 40
0.6297269121
 40
0.6337500255
 40
0.6377731389
 40
0.6417967511
 40
0.6458203632
 40
0.6498434767
 40
0.6538665901
 40
0.6578902022
 40
0.6619138144
 40
0.6659369278
 40
0.6699600412
 40
0.6739836533
 40
0.6780072655
 40
0.6820303789
 40
0.6860534923
 40
0.6880658516
 40
0.6900782967
 40
0.6941019088
 40
0.6981250222
 40
0.7021481356
 40
0.7061717478
 40
0.7101953599
 40
0.7142184734
 40
0.7182415868
 40
0.7222651989
 40
0.7262888111
 40
0.7303119245
 40
0.7343350379
 40
0.7383586501
 40
0.7423822622
 40
0.7464053756
 40
0.750428489
 40
0.7524408484
 40
0.7544532934
 40
0.7584769055
 40
0.7625000189
 40
0.7665231323
 40
0.7705467445
 40
0.7745703567
 40
0.7785934701
 40
0.7826165835
 40
0.7866401956
 40
0.7906638078
 40
0.7946869212
 40
0.7987100346
 40
0.8027336468
 40
0.8067572589
 40
0.8107803723
 40
0.8148034857
 40
0.8168158451
 40
0.8188282901
 40
0.8228519022
 40
0.8268750156
 40
0.830898129
 40
0.8349217412
 40
0.8389453534
 40
0.8429684668
 40
0.8469915802
 40
0.8510151923
 40
0.8550388045
 40
0.8590619179
 40
0.8630850313
 40
0.8671086435
 40
0.8711322556
 40
0.875155369
 40
0.8791784824
 40
0.8811908418
 40
0.8832032868
 40
0.8872268989
 40
0.8912500123
 40
0.8952731257
 40
0.8992967379
 40
0.90332035
 40
0.9073434635
 40
0.9113665769
 40
0.9153901891
 40
0.9194138013
 40
0.9234369146
 40
0.9274600279
 40
0.9314836399
 40
0.935507252
 40
0.9395303656
 40
0.9435534794
 40
0.9475770917
 40
0.9516007039
 40
0.9556238172
 40
0.9596469308
 40
0.9636705434
 40
0.9676941555
 40
0.9717172668
 40
0.9757403746
 40
0.9797639809
 40
0.9837875935
 40
0.9878107228
 40
0.9908577596
 40
0.9939051016
 40
0.9969526187
 40
1.0
 40
1.0
 40
1.0
 40
1.0
 10
38.1635732905
 20
29.0095912823
 30
0.0
 10
38.3346320508
 20
29.3105103228
 30
0.0
 10
38.6545442388
 20
29.9248935092
 30
0.0
 10
39.1085897904
 20
30.9813603857
 30
0.0
 10
39.5041664634
 20
32.1796017447
 30
0.0
 10
39.8053960744
 20
33.5188759797
 30
0.0
 10
39.975346497
 20
34.8810915115
 30
0.0
 10
40.0117108037
 20
36.253388421
 30
0.0
 10
39.9121710906
 20
37.6225516022
 30
0.0
 10
39.6796459826
 20
38.9754797297
 30
0.0
 10
39.3170114239
 20
40.2994738776
 30
0.0
 10
38.8270379267
 20
41.5818371298
 30
0.0
 10
38.212681365
 20
42.8094063668
 30
0.0
 10
37.6032962609
 20
43.7778140485
 30
0.0
 10
37.0613508207
 20
44.5140862672
 30
0.0
 10
36.4842839383
 20
45.2230885565
 30
0.0
 10
35.6990264519
 20
46.05526253
 30
0.0
 10
34.6627819609
 20
46.9555722503
 30
0.0
 10
33.543678269
 20
47.7506319683
 30
0.0
 10
32.3527574181
 20
48.4334020367
 30
0.0
 10
31.1009461464
 20
48.9968464049
 30
0.0
 10
29.7995483873
 20
49.4337237214
 30
0.0
 10
28.4617718542
 20
49.7416698415
 30
0.0
 10
27.1004368781
 20
49.9184284444
 30
0.0
 10
25.7283472329
 20
49.9616539058
 30
0.0
 10
24.3587096722
 20
49.8689680702
 30
0.0
 10
23.0046349745
 20
49.6432231677
 30
0.0
 10
21.6788388883
 20
49.2872284599
 30
0.0
 10
20.394034285
 20
48.803688282
 30
0.0
 10
19.1634013547
 20
48.1954897001
 30
0.0
 10
18.1919531694
 20
47.5909628772
 30
0.0
 10
17.4529759329
 20
47.052711817
 30
0.0
 10
16.7410925356
 20
46.4792030293
 30
0.0
 10
15.9049963967
 20
45.6981230295
 30
0.0
 10
14.9995077751
 20
44.6664009364
 30
0.0
 10
14.1988523519
 20
43.5512938333
 30
0.0
 10
13.5101251962
 20
42.3638081798
 30
0.0
 10
12.9404172016
 20
41.1148351552
 30
0.0
 10
12.4970264652
 20
39.8156421618
 30
0.0
 10
12.1823831959
 20
38.4794249397
 30
0.0
 10
11.9988078491
 20
37.1189923963
 30
0.0
 10
11.9487101017
 20
35.7471364391
 30
0.0
 10
12.0345341845
 20
34.3770517647
 30
0.0
 10
12.2534935931
 20
33.021863277
 30
0.0
 10
12.6028428087
 20
31.6943006284
 30
0.0
 10
13.0799412231
 20
30.407090066
 30
0.0
 10
13.6819678364
 20
29.1734260707
 30
0.0
 10
14.2816210182
 20
28.1989619558
 30
0.0
 10
14.8161637356
 20
27.4572978497
 30
0.0
 10
15.3860994546
 20
26.7425506329
 30
0.0
 10
16.1629815908
 20
25.902552493
 30
0.0
 10
17.1901550831
 20
24.9919072566
 30
0.0
 10
18.3012376548
 20
24.1856762236
 30
0.0
 10
19.4852585248
 20
23.4910095056
 30
0.0
 10
20.73136217
 20
22.9150524611
 30
0.0
 10
22.0283178868
 20
22.465159534
 30
0.0
 10
23.3629422739
 20
22.1438270011
 30
0.0
 10
24.7224382076
 20
21.9534394498
 30
0.0
 10
26.0940260111
 20
21.8964706026
 30
0.0
 10
27.4645233965
 20
21.975430753
 30
0.0
 10
28.8207916666
 20
22.1875991753
 30
0.0
 10
30.1500875763
 20
22.5302941487
 30
0.0
 10
31.4396718111
 20
23.0009388448
 30
0.0
 10
32.6763359253
 20
23.5967783912
 30
0.0
 10
33.6537915223
 20
24.1915428872
 30
0.0
 10
34.3981238878
 20
24.7223638481
 30
0.0
 10
35.115716988
 20
25.2887121952
 30
0.0
 10
35.9595960499
 20
26.0613769722
 30
0.0
 10
36.8753750498
 20
27.0839760887
 30
0.0
 10
37.687161463
 20
28.1910062504
 30
0.0
 10
38.3877503143
 20
29.3715326293
 30
0.0
 10
38.9699419584
 20
30.6147356301
 30
0.0
 10
39.4263257886
 20
31.909421529
 30
0.0
 10
39.7543395225
 20
33.2424195941
 30
0.0
 10
39.951534501
 20
34.6009448069
 30
0.0
 10
40.0153730184
 20
35.972230042
 30
0.0
 10
39.9432787813
 20
37.3431057511
 30
0.0
 10
39.7379066689
 20
38.7004197734
 30
0.0
 10
39.4018745364
 20
40.0314155909
 30
0.0
 10
38.9376953676
 20
41.3233411414
 30
0.0
 10
38.3480578384
 20
42.5629743454
 30
0.0
 10
37.7581969515
 20
43.5433968991
 30
0.0
 10
37.2311110659
 20
44.2903788481
 30
0.0
 10
36.6683643008
 20
45.0107998265
 30
0.0
 10
35.8999362699
 20
45.8585386365
 30
0.0
 10
34.8819371872
 20
46.7794284222
 30
0.0
 10
33.7789872119
 20
47.5967498472
 30
0.0
 10
32.6019849447
 20
48.3032432532
 30
0.0
 10
31.3617137816
 20
48.8916548893
 30
0.0
 10
30.0693301856
 20
49.3545181714
 30
0.0
 10
28.7379918887
 20
49.6892048761
 30
0.0
 10
27.3804714834
 20
49.8932023341
 30
0.0
 10
26.0095232236
 20
49.9639089198
 30
0.0
 10
24.6383035875
 20
49.8986824051
 30
0.0
 10
23.2799778692
 20
49.7001117555
 30
0.0
 10
21.9473155399
 20
49.3707508953
 30
0.0
 10
20.6530810894
 20
48.9130489006
 30
0.0
 10
19.4105098992
 20
48.3296281831
 30
0.0
 10
18.4271449886
 20
47.7446857053
 30
0.0
 10
17.6775321986
 20
47.2213481202
 30
0.0
 10
16.954301418
 20
46.662217057
 30
0.0
 10
16.1027241305
 20
45.8980450529
 30
0.0
 10
15.1767466651
 20
44.8846715466
 30
0.0
 10
14.3539107357
 20
43.7858294319
 30
0.0
 10
13.6415305016
 20
42.6123808085
 30
0.0
 10
13.0469136373
 20
41.3750726026
 30
0.0
 10
12.577582517
 20
40.0850237366
 30
0.0
 10
12.236231239
 20
38.7553786124
 30
0.0
 10
12.0254364202
 20
37.3988970763
 30
0.0
 10
11.9478635402
 20
36.0283201903
 30
0.0
 10
12.006220696
 20
34.6567910323
 30
0.0
 10
12.1979849003
 20
33.2974876998
 30
0.0
 10
12.5206662243
 20
31.9631922965
 30
0.0
 10
12.9718795608
 20
30.6666814197
 30
0.0
 10
13.5490688279
 20
29.4212034206
 30
0.0
 10
14.1290782196
 20
28.4349208266
 30
0.0
 10
14.6486543734
 20
27.6826960042
 30
0.0
 10
15.2041557054
 20
26.956673568
 30
0.0
 10
15.964052509
 20
26.1012791698
 30
0.0
 10
16.9727750123
 20
25.1702372584
 30
0.0
 10
18.0674816955
 20
24.3419074704
 30
0.0
 10
19.2373472321
 20
23.6236582824
 30
0.0
 10
20.4716614352
 20
23.0228511094
 30
0.0
 10
21.7593432037
 20
22.5470639275
 30
0.0
 10
23.0872617889
 20
22.1990566384
 30
0.0
 10
24.4426704358
 20
21.981469758
 30
0.0
 10
25.8128415016
 20
21.8970324916
 30
0.0
 10
27.1846459823
 20
21.9485189681
 30
0.0
 10
28.5448920244
 20
22.1334713783
 30
0.0
 10
29.8807900025
 20
22.4494670751
 30
0.0
 10
31.1795336565
 20
22.8941729484
 30
0.0
 10
32.4279287094
 20
23.4651442125
 30
0.0
 10
33.6147188771
 20
24.1550759384
 30
0.0
 10
34.7290062718
 20
24.9568491548
 30
0.0
 10
35.7598434662
 20
25.8634213092
 30
0.0
 10
36.6959669742
 20
26.8674985823
 30
0.0
 10
37.529758981
 20
27.958034037
 30
0.0
 10
38.25386201
 20
29.124289366
 30
0.0
 10
38.8608436381
 20
30.3555779973
 30
0.0
 10
39.3430751507
 20
31.6408605226
 30
0.0
 10
39.6977296693
 20
32.9670191945
 30
0.0
 10
39.922103144
 20
34.3213210021
 30
0.0
 10
40.0134027594
 20
35.6910516907
 30
0.0
 10
39.968787937
 20
37.0630977282
 30
0.0
 10
39.7906531483
 20
38.4242499117
 30
0.0
 10
39.4813465776
 20
39.7617260443
 30
0.0
 10
39.0431758554
 20
41.0626359365
 30
0.0
 10
38.5724905578
 20
42.1055156416
 30
0.0
 10
38.1364718942
 20
42.9089943487
 30
0.0
 10
37.6618684413
 20
43.6903733383
 30
0.0
 10
36.9982653993
 20
44.6224652074
 30
0.0
 10
36.0968944246
 20
45.657787989
 30
0.0
 10
35.0975118221
 20
46.598940656
 30
0.0
 10
34.0111684607
 20
47.4381817187
 30
0.0
 10
32.8485543432
 20
48.1681183417
 30
0.0
 10
31.6203217104
 20
48.7812597515
 30
0.0
 10
30.3374708066
 20
49.2699233483
 30
0.0
 10
29.0131052725
 20
49.6312162288
 30
0.0
 10
27.659944356
 20
49.8623706908
 30
0.0
 10
26.2906881785
 20
49.9605302421
 30
0.0
 10
24.9184358749
 20
49.9227886599
 30
0.0
 10
23.5564084774
 20
49.7514742179
 30
0.0
 10
22.2173997846
 20
49.4488710446
 30
0.0
 10
20.9143113833
 20
49.0172221734
 30
0.0
 10
19.8690870642
 20
48.5517666424
 30
0.0
 10
19.0634343874
 20
48.1197781332
 30
0.0
 10
18.2796878768
 20
47.6490946196
 30
0.0
 10
17.3442836645
 20
46.99016882
 30
0.0
 10
16.3044588375
 20
46.0939951619
 30
0.0
 10
15.3583119964
 20
45.0993394005
 30
0.0
 10
14.5136398881
 20
44.0172134884
 30
0.0
 10
13.7778888022
 20
42.8582702631
 30
0.0
 10
13.1586027765
 20
41.6331243097
 30
0.0
 10
12.6635194151
 20
40.352737252
 30
0.0
 10
12.2955972222
 20
39.0301980755
 30
0.0
 10
12.0576675769
 20
37.6782120049
 30
0.0
 10
11.9526505515
 20
36.3094646939
 30
0.0
 10
11.9835179469
 20
34.9370405555
 30
0.0
 10
12.1480077436
 20
33.5741721186
 30
0.0
 10
12.443899927
 20
32.2336644626
 30
0.0
 10
12.8690161167
 20
30.9284302481
 30
0.0
 10
13.3292302023
 20
29.8808875406
 30
0.0
 10
13.7571777181
 20
29.0730811087
 30
0.0
 10
14.2239294825
 20
28.286986742
 30
0.0
 10
14.8781615066
 20
27.3482936567
 30
0.0
 10
15.7691153622
 20
26.3039928746
 30
0.0
 10
16.7590193256
 20
25.352875599
 30
0.0
 10
17.8369006368
 20
24.5027936388
 30
0.0
 10
18.992143891
 20
23.7612465509
 30
0.0
 10
20.2141724248
 20
23.1358314477
 30
0.0
 10
21.4920635102
 20
22.6343407438
 30
0.0
 10
22.8127431453
 20
22.25979847
 30
0.0
 10
24.1635204473
 20
22.0150996114
 30
0.0
 10
25.5317245487
 20
21.9032277469
 30
0.0
 10
26.9042860864
 20
21.9272201809
 30
0.0
 10
28.2679613671
 20
22.0848812052
 30
0.0
 10
29.6099343516
 20
22.3740549743
 30
0.0
 10
30.9172816298
 20
22.7926278159
 30
0.0
 10
31.9671164417
 20
23.247588909
 30
0.0
 10
32.7770563601
 20
23.6714846938
 30
0.0
 10
33.565478859
 20
24.1342929976
 30
0.0
 10
34.5074372646
 20
24.783814831
 30
0.0
 10
35.5561877992
 20
25.6695265292
 30
0.0
 10
36.5122516448
 20
26.654653857
 30
0.0
 10
37.3677221276
 20
27.7282635222
 30
0.0
 10
38.1150466113
 20
28.879777819
 30
0.0
 10
38.7465750998
 20
30.0986582713
 30
0.0
 10
39.2544605633
 20
31.3740213208
 30
0.0
 10
39.6356135204
 20
32.6928082774
 30
0.0
 10
39.8870754526
 20
34.0423429186
 30
0.0
 10
40.0057993492
 20
35.4099694808
 30
0.0
 10
39.9886824785
 20
36.7826339789
 30
0.0
 10
39.8378541826
 20
38.1470818873
 30
0.0
 10
39.5554060833
 20
39.4904865289
 30
0.0
 10
39.1433870921
 20
40.7999140681
 30
0.0
 10
38.693690407
 20
41.8520146432
 30
0.0
 10
38.2738569892
 20
42.6640677258
 30
0.0
 10
37.8150037582
 20
43.4547985746
 30
0.0
 10
37.1702084128
 20
44.3999986658
 30
0.0
 10
36.2897610953
 20
45.4531726388
 30
0.0
 10
35.3094351211
 20
46.4141590658
 30
0.0
 10
34.2401240398
 20
47.2749966067
 30
0.0
 10
33.0923675929
 20
48.0280797352
 30
0.0
 10
31.876665805
 20
48.6657057632
 30
0.0
 10
30.6038627913
 20
49.1799732429
 30
0.0
 10
29.2870016028
 20
49.5677273195
 30
0.0
 10
27.9387434837
 20
49.8259460159
 30
0.0
 10
26.5717287761
 20
49.9515189659
 30
0.0
 10
25.1989957593
 20
49.9412780883
 30
0.0
 10
23.8338094586
 20
49.7972863055
 30
0.0
 10
22.4890068671
 20
49.5215709629
 30
0.0
 10
21.177531921
 20
49.1161161596
 30
0.0
 10
20.1231919803
 20
48.671695165
 30
0.0
 10
19.3090461079
 20
48.2559346475
 30
0.0
 10
18.5160267491
 20
47.801048002
 30
0.0
 10
17.567608689
 20
47.1609953236
 30
0.0
 10
16.510037705
 20
46.2858344803
 30
0.0
 10
15.5441528122
 20
45.31033446
 30
0.0
 10
14.6779698159
 20
44.2453487947
 30
0.0
 10
13.9191469374
 20
43.1013789947
 30
0.0
 10
13.2754393617
 20
41.8888863655
 30
0.0
 10
12.7548027508
 20
40.6186753178
 30
0.0
 10
12.3604572763
 20
39.3037729138
 30
0.0
 10
12.095488262
 20
37.9568252136
 30
0.0
 10
11.9630695533
 20
36.5904564497
 30
0.0
 10
11.966433816
 20
35.2176902796
 30
0.0
 10
12.1035871712
 20
33.8517965968
 30
0.0
 10
12.3725567636
 20
32.505642051
 30
0.0
 10
12.7714598039
 20
31.1921067843
 30
0.0
 10
13.2983154886
 20
29.9244626369
 30
0.0
 10
13.9462182013
 20
28.7142151692
 30
0.0
 10
14.7084355912
 20
27.5725053082
 30
0.0
 10
15.5783134212
 20
26.5105208146
 30
0.0
 10
16.5489573288
 20
25.5397741947
 30
0.0
 10
17.6095934751
 20
24.6682652443
 30
0.0
 10
18.7497471456
 20
23.9037226836
 30
0.0
 10
19.958999018
 20
23.253948265
 30
0.0
 10
21.2265811315
 20
22.7269520643
 30
0.0
 10
22.5394962901
 20
22.326021791
 30
0.0
 10
23.8850758503
 20
22.0543088917
 30
0.0
 10
25.1404116264
 20
21.9263142857
 30
0.0
 10
26.2901593632
 20
21.9095770807
 30
0.0
 10
27.3273472656
 20
21.9714552644
 30
0.0
 10
28.3571863667
 20
22.1095068198
 30
0.0
 10
29.035124734
 20
22.2517856006
 30
0.0
 10
29.3710033338
 20
22.3353491189
 30
0.0
  0
SPLINE
  5
26E
100
AcDbEntity
  8
0
100
AcDbSpline
 62
7
  6
BYLAYER
 70
0
 71
3
 72
19
 73
15
 74
0
 42
0.0000001
 43
0.0000001
 44
0.0000000001
 40
0.0
 40
0.0
 40
0.0
 40
0.0
 40
0.0369113488
 40
0.1244639922
 40
0.2120141729
 40
0.2995635961
 40
0.3871145939
 40
0.4746695911
 40
0.5622289737
 40
0.6497888699
 40
0.7373454488
 40
0.8248984558
 40
0.9124492029
 40
1.0
 40
1.0
 40
1.0
 40
1.0
 10
36.5869098316
 20
26.7756092156
 30
0.0
 10
36.7000599929
 20
26.9068575401
 30
0.0
 10
37.0734078526
 20
27.3564859786
 30
0.0
 10
37.6609445577
 20
28.1611161698
 30
0.0
 10
38.2985069445
 20
29.2179679445
 30
0.0
 10
38.8411417838
 20
30.3265474992
 30
0.0
 10
39.2844246694
 20
31.4784809121
 30
0.0
 10
39.6251789109
 20
32.664858339
 30
0.0
 10
39.8595600624
 20
33.8768160822
 30
0.0
 10
39.9856714912
 20
35.1047645886
 30
0.0
 10
40.003221338
 20
36.338984262
 30
0.0
 10
39.9127133362
 20
37.5699908084
 30
0.0
 10
39.7144941793
 20
38.7881695492
 30
0.0
 10
39.511815219
 20
39.5858639786
 30
0.0
 10
39.3931562743
 20
39.9792534973
 30
0.0
  0
SPLINE
  5
26F
100
AcDbEntity
  8
0
100
AcDbSpline
 62
7
  6
BYLAYER
 70
0
 71
3
 72
32
 73
28
 74
0
 42
0.0000001
 43
0.0000001
 44
0.0000000001
 40
0.0
 40
0.0
 40
0.0
 40
0.0
 40
0.1090017416
 40
0.2050512352
 40
0.2899945249
 40
0.365491062
 40
0.4328542411
 40
0.4931808928
 40
0.5473939671
 40
0.5962752077
 40
0.6404624309
 40
0.6805291228
 40
0.7170704893
 40
0.7504560451
 40
0.7809612292
 40
0.8088833126
 40
0.8344630805
 40
0.8578930971
 40
0.8793960773
 40
0.8991810052
 40
0.9174092104
 40
0.9342196031
 40
0.9496796537
 40
0.9639348806
 40
0.9771481871
 40
0.9891716946
 40
1.0
 40
1.0
 40
1.0
 40
1.0
 10
23.9312582916
 20
22.0698319003
 30
0.0
 10
23.558572064
 20
22.1297184974
 30
0.0
 10
22.861652123
 20
22.2702381475
 30
0.0
 10
21.8934578648
 20
22.5396482048
 30
0.0
 10
21.0549426429
 20
22.8343787641
 30
0.0
 10
20.3270388942
 20
23.1395151475
 30
0.0
 10
19.6931815879
 20
23.4456582062
 30
0.0
 10
19.1393099311
 20
23.746133521
 30
0.0
 10
18.6535388633
 20
24.0367494303
 30
0.0
 10
18.2259189369
 20
24.3149208158
 30
0.0
 10
17.8481100416
 20
24.5792896658
 30
0.0
 10
17.5127958445
 20
24.8294777748
 30
0.0
 10
17.2138465511
 20
25.065588924
 30
0.0
 10
16.9463399978
 20
25.2878984602
 30
0.0
 10
16.7064571725
 20
25.4966068507
 30
0.0
 10
16.4909062935
 20
25.6920002076
 30
0.0
 10
16.2969551827
 20
25.8746611614
 30
0.0
 10
16.1219171674
 20
26.0449292238
 30
0.0
 10
15.9636986034
 20
26.2036688595
 30
0.0
 10
15.8203390543
 20
26.351749636
 30
0.0
 10
15.6898249196
 20
26.4896303214
 30
0.0
 10
15.5711646262
 20
26.6180899762
 30
0.0
 10
15.4625756242
 20
26.7371116554
 30
0.0
 10
15.3631567268
 20
26.8476490338
 30
0.0
 10
15.2738220358
 20
26.9511912666
 30
0.0
 10
15.189918842
 20
27.0437686105
 30
0.0
 10
15.1324332986
 20
27.0983125993
 30
0.0
 10
15.1041229029
 20
27.1229013994
 30
0.0
  0
SPLINE
  5
270
100
AcDbEntity
  8
0
100
AcDbSpline
 62
7
  6
BYLAYER
 70
0
 71
3
 72
10
 73
6
 74
0
 42
0.0000001
 43
0.0000001
 44
0.0000000001
 40
0.0
 40
0.0
 40
0.0
 40
0.0
 40
0.3331464586
 40
0.6664706832
 40
1.0
 40
1.0
 40
1.0
 40
1.0
 10
25.9814777977
 20
46.8226939895
 30
0.0
 10
26.0295458493
 20
46.8234861256
 30
0.0
 10
26.1257354975
 20
46.8233505423
 30
0.0
 10
26.270011545
 20
46.8204932155
 30
0.0
 10
26.3661936906
 20
46.8170155176
 30
0.0
 10
26.4142496575
 20
46.8143501418
 30
0.0
  0
SPLINE
  5
271
100
AcDbEntity
  8
0
100
AcDbSpline
 62
7
  6
BYLAYER
 70
0
 71
3
 72
15
 73
11
 74
0
 42
0.0000001
 43
0.0000001
 44
0.0000000001
 40
0.0
 40
0.0
 40
0.0
 40
0.0
 40
0.1250701883
 40
0.2511603031
 40
0.3766392009
 40
0.4995157938
 40
0.6230120759
 40
0.7479830523
 40
0.8738395041
 40
1.0
 40
1.0
 40
1.0
 40
1.0
 10
20.1472537859
 20
40.8299781187
 30
0.0
 10
20.1405781791
 20
41.2165938834
 30
0.0
 10
20.2049677991
 20
41.9964823613
 30
0.0
 10
20.5307193504
 20
43.1222018534
 30
0.0
 10
21.0700142983
 20
44.1551965399
 30
0.0
 10
21.7932288306
 20
45.0580239657
 30
0.0
 10
22.6766630072
 20
45.802563724
 30
0.0
 10
23.695239949
 20
46.3673124077
 30
0.0
 10
24.8115336941
 20
46.7265072503
 30
0.0
 10
25.5914865054
 20
46.8162671392
 30
0.0
 10
25.9814777977
 20
46.8226939897
 30
0.0
  0
SPLINE
  5
272
100
AcDbEntity
  8
0
100
AcDbSpline
 62
7
  6
BYLAYER
 70
0
 71
3
 72
15
 73
11
 74
0
 42
0.0000001
 43
0.0000001
 44
0.0000000001
 40
0.0
 40
0.0
 40
0.0
 40
0.0
 40
0.1245559488
 40
0.2491362715
 40
0.3733034427
 40
0.4970474102
 40
0.6214849452
 40
0.7475899068
 40
0.8735554606
 40
1.0
 40
1.0
 40
1.0
 40
1.0
 10
25.9814777977
 20
35.154108336
 30
0.0
 10
25.6067729244
 20
35.1473293709
 30
0.0
 10
24.853845974
 20
35.2090118154
 30
0.0
 10
23.7675717573
 20
35.520939868
 30
0.0
 10
22.7650258034
 20
36.0378813273
 30
0.0
 10
21.8817289579
 20
36.738591702
 30
0.0
 10
21.1486925511
 20
37.6029259243
 30
0.0
 10
20.5932391573
 20
38.5987225425
 30
0.0
 10
20.241915018
 20
39.6894461886
 30
0.0
 10
20.153821927
 20
40.4495862053
 30
0.0
 10
20.1472537859
 20
40.8299781187
 30
0.0
  0
SPLINE
  5
273
100
AcDbEntity
  8
0
100
AcDbSpline
 62
7
  6
BYLAYER
 70
0
 71
3
 72
14
 73
10
 74
0
 42
0.0000001
 43
0.0000001
 44
0.0000000001
 40
0.0
 40
0.0
 40
0.0
 40
0.0
 40
0.143082856
 40
0.2872274724
 40
0.4303472018
 40
0.5707664875
 40
0.7121887133
 40
0.8557965838
 40
1.0
 40
1.0
 40
1.0
 40
1.0
 10
31.4987179148
 20
40.8299781176
 30
0.0
 10
31.5065891494
 20
40.411601573
 30
0.0
 10
31.4252264666
 20
39.5668240657
 30
0.0
 10
31.0208737724
 20
38.3640559635
 30
0.0
 10
30.361608314
 20
37.2883539481
 30
0.0
 10
29.4850751609
 20
36.3931609364
 30
0.0
 10
28.4332883293
 20
35.7094201561
 30
0.0
 10
27.2459844149
 20
35.2717455946
 30
0.0
 10
26.4031364959
 20
35.1617367604
 30
0.0
 10
25.9814777977
 20
35.1541083312
 30
0.0
  0
SPLINE
  5
274
100
AcDbEntity
  8
0
100
AcDbSpline
 62
7
  6
BYLAYER
 70
0
 71
3
 72
82
 73
78
 74
0
 42
0.0000001
 43
0.0000001
 44
0.0000000001
 40
0.0
 40
0.0
 40
0.0
 40
0.0
 40
0.0132259971
 40
0.0265399315
 40
0.0398823571
 40
0.0531698354
 40
0.066567674
 40
0.0799326082
 40
0.0932622162
 40
0.1065750704
 40
0.119850281
 40
0.1331812062
 40
0.1465921694
 40
0.1599599216
 40
0.1732376662
 40
0.186464746
 40
0.1996954322
 40
0.2129652087
 40
0.2263397206
 40
0.2397646729
 40
0.2531219629
 40
0.2664507301
 40
0.279818437
 40
0.2932133196
 40
0.3065599116
 40
0.319906137
 40
0.3332686077
 40
0.3466462418
 40
0.3600399204
 40
0.3733956605
 40
0.3867375391
 40
0.4001101513
 40
0.4134817819
 40
0.4268243117
 40
0.4401784015
 40
0.4535755272
 40
0.4669592348
 40
0.4802791791
 40
0.4935595608
 40
0.5068332057
 40
0.5201187259
 40
0.5333903523
 40
0.5465981178
 40
0.5598035532
 40
0.5730801328
 40
0.5864221996
 40
0.5998037572
 40
0.6131410896
 40
0.6264568785
 40
0.6397467823
 40
0.6530145239
 40
0.6662640142
 40
0.6795475118
 40
0.6929097369
 40
0.7062175771
 40
0.7195195371
 40
0.7328740859
 40
0.7462575431
 40
0.7596262321
 40
0.7729366004
 40
0.7862242791
 40
0.7996946287
 40
0.8132523369
 40
0.8267201923
 40
0.8401287973
 40
0.8532865773
 40
0.8666150303
 40
0.8800595193
 40
0.8934751437
 40
0.9068335288
 40
0.9201266673
 40
0.9333781554
 40
0.9466612443
 40
0.9599246311
 40
0.9732840328
 40
0.9866639988
 40
1.0
 40
1.0
 40
1.0
 40
1.0
 10
30.398393956
 20
44.0290887844
 30
0.0
 10
30.6354951849
 20
43.7013830403
 30
0.0
 10
31.0393271765
 20
42.9882574364
 30
0.0
 10
31.3936637278
 20
41.8108399199
 30
0.0
 10
31.4752571873
 20
40.5814330823
 30
0.0
 10
31.2818798103
 20
39.3624115286
 30
0.0
 10
30.8213192476
 20
38.216039449
 30
0.0
 10
30.1141588918
 20
37.2017036437
 30
0.0
 10
29.2017567174
 20
36.3711532553
 30
0.0
 10
28.1289779773
 20
35.7669986517
 30
0.0
 10
26.9489785049
 20
35.4165941306
 30
0.0
 10
25.7174310224
 20
35.3355342222
 30
0.0
 10
24.4962912853
 20
35.5344548055
 30
0.0
 10
23.3519386848
 20
35.9996900846
 30
0.0
 10
22.3443215689
 20
36.7046466135
 30
0.0
 10
21.5221035715
 20
37.6131137334
 30
0.0
 10
20.9196881851
 20
38.6797727325
 30
0.0
 10
20.5681555059
 20
39.8582679234
 30
0.0
 10
20.4878757633
 20
41.0913969784
 30
0.0
 10
20.684643756
 20
42.3143382916
 30
0.0
 10
21.1515567616
 20
43.4600297827
 30
0.0
 10
21.8601307695
 20
44.471730622
 30
0.0
 10
22.7773708063
 20
45.3011365553
 30
0.0
 10
23.8581287364
 20
45.9031163162
 30
0.0
 10
25.0448003077
 20
46.2498807419
 30
0.0
 10
26.2781812771
 20
46.3220293696
 30
0.0
 10
27.4972496982
 20
46.116648921
 30
0.0
 10
28.6416651517
 20
45.644778312
 30
0.0
 10
29.6502050257
 20
44.9272761463
 30
0.0
 10
30.4728780631
 20
44.0043247358
 30
0.0
 10
31.0687088543
 20
42.9214972547
 30
0.0
 10
31.4065378536
 20
41.7322267379
 30
0.0
 10
31.4718544897
 20
40.4976100363
 30
0.0
 10
31.2585445357
 20
39.2802771276
 30
0.0
 10
30.7788242352
 20
38.1406957027
 30
0.0
 10
30.0567808167
 20
37.1350962746
 30
0.0
 10
29.127297777
 20
36.3190216386
 30
0.0
 10
28.0432604883
 20
35.7315231605
 30
0.0
 10
26.8588425126
 20
35.4005496011
 30
0.0
 10
25.6316647974
 20
35.3422038636
 30
0.0
 10
24.4220862147
 20
35.5558581608
 30
0.0
 10
23.2923380657
 20
36.0331320342
 30
0.0
 10
22.2986138399
 20
36.7470828293
 30
0.0
 10
21.485653661
 20
37.6620014607
 30
0.0
 10
20.895218512
 20
38.7389765837
 30
0.0
 10
20.5564941823
 20
39.9250913364
 30
0.0
 10
20.4908233048
 20
41.1590683871
 30
0.0
 10
20.7037884006
 20
42.3752556914
 30
0.0
 10
21.179501448
 20
43.511491318
 30
0.0
 10
21.8957244146
 20
44.5111967792
 30
0.0
 10
22.8144256058
 20
45.3252739812
 30
0.0
 10
23.8899267419
 20
45.9167280331
 30
0.0
 10
25.0732209637
 20
46.2538906975
 30
0.0
 10
26.303585692
 20
46.3203348815
 30
0.0
 10
27.5185110253
 20
46.110907363
 30
0.0
 10
28.6555218063
 20
45.6353495699
 30
0.0
 10
29.6610338639
 20
44.9185220783
 30
0.0
 10
30.4814395151
 20
43.9925413131
 30
0.0
 10
31.0732364164
 20
42.9079844558
 30
0.0
 10
31.4089271994
 20
41.7219359408
 30
0.0
 10
31.4705667782
 20
40.4877545066
 30
0.0
 10
31.2547027685
 20
39.2631482939
 30
0.0
 10
30.7655079881
 20
38.1134601638
 30
0.0
 10
30.0295108376
 20
37.1065900837
 30
0.0
 10
29.0967549496
 20
36.2974398262
 30
0.0
 10
28.0110205127
 20
35.719022787
 30
0.0
 10
26.8230363251
 20
35.3949669491
 30
0.0
 10
25.584414085
 20
35.3431222747
 30
0.0
 10
24.3653238916
 20
35.5730050839
 30
0.0
 10
23.2325292497
 20
36.0665186415
 30
0.0
 10
22.2420556137
 20
36.7970005274
 30
0.0
 10
21.4410690013
 20
37.7280169612
 30
0.0
 10
20.865323474
 20
38.8118921123
 30
0.0
 10
20.5447373139
 20
40.0001264611
 30
0.0
 10
20.496682127
 20
41.2329283272
 30
0.0
 10
20.7237568615
 20
42.4476018237
 30
0.0
 10
21.0549865007
 20
43.2033692545
 30
0.0
 10
21.2585373203
 20
43.5567924743
 30
0.0
  0
SPLINE
  5
275
100
AcDbEntity
  8
0
100
AcDbSpline
 62
7
  6
BYLAYER
 70
0
 71
3
 72
16
 73
12
 74
0
 42
0.0000001
 43
0.0000001
 44
0.0000000001
 40
0.0
 40
0.0
 40
0.0
 40
0.0
 40
0.1111104961
 40
0.2210963216
 40
0.3313055717
 40
0.442450189
 40
0.5541674072
 40
0.6656779824
 40
0.7769160967
 40
0.8882330191
 40
1.0
 40
1.0
 40
1.0
 40
1.0
 10
25.9814777977
 20
46.2190199076
 30
0.0
 10
26.1707568991
 20
46.2204535853
 30
0.0
 10
26.5477545882
 20
46.2020342652
 30
0.0
 10
27.107035636
 20
46.1197391096
 30
0.0
 10
27.6545888414
 20
45.9782317371
 30
0.0
 10
28.1873511027
 20
45.7801457671
 30
0.0
 10
28.6988693818
 20
45.527179166
 30
0.0
 10
29.1817211524
 20
45.2227910128
 30
0.0
 10
29.630129194
 20
44.8706496191
 30
0.0
 10
30.0395105087
 20
44.4733015146
 30
0.0
 10
30.2841883523
 20
44.1814490218
 30
0.0
 10
30.3986224762
 20
44.0292711809
 30
0.0
  0
SPLINE
  5
276
100
AcDbEntity
  8
0
100
AcDbSpline
 62
7
  6
BYLAYER
 70
0
 71
3
 72
93
 73
89
 74
0
 42
0.0000001
 43
0.0000001
 44
0.0000000001
 40
0.0
 40
0.0
 40
0.0
 40
0.0
 40
0.0118067866
 40
0.0235024005
 40
0.0351168288
 40
0.0466664708
 40
0.0583436265
 40
0.0700278161
 40
0.081713771
 40
0.0933821851
 40
0.1049697473
 40
0.1165524126
 40
0.1282067648
 40
0.1398839329
 40
0.1515349247
 40
0.1631742468
 40
0.1748220687
 40
0.1864610492
 40
0.1980806015
 40
0.2097821391
 40
0.2214701329
 40
0.2331365191
 40
0.2448307818
 40
0.2565325652
 40
0.2681790338
 40
0.2798175622
 40
0.2914644239
 40
0.3031302813
 40
0.3148003808
 40
0.3263981184
 40
0.337990016
 40
0.3496623235
 40
0.3613202389
 40
0.372880901
 40
0.3843629475
 40
0.3958449196
 40
0.4073930164
 40
0.4190110808
 40
0.4307026764
 40
0.4424105004
 40
0.4540852837
 40
0.4657024901
 40
0.4772533906
 40
0.4887438989
 40
0.5002042796
 40
0.5116663449
 40
0.523160848
 40
0.5347182295
 40
0.5463422548
 40
0.5580192125
 40
0.569721949
 40
0.5813996617
 40
0.5929986765
 40
0.6045384963
 40
0.6160318395
 40
0.6275096495
 40
0.6390118754
 40
0.6506151869
 40
0.6622796983
 40
0.6739164288
 40
0.6855855003
 40
0.6972814893
 40
0.7090009143
 40
0.7207192801
 40
0.7323208647
 40
0.7439631596
 40
0.7558002322
 40
0.7676190707
 40
0.7793808871
 40
0.7910133696
 40
0.8025574525
 40
0.8142373969
 40
0.82595239
 40
0.8375889452
 40
0.8491599103
 40
0.8607107018
 40
0.8723115659
 40
0.8839601193
 40
0.8955893097
 40
0.9072012721
 40
0.9188232547
 40
0.9303828161
 40
0.9419202105
 40
0.9535394168
 40
0.9651702844
 40
0.9767877669
 40
0.988397533
 40
1.0
 40
1.0
 40
1.0
 40
1.0
 10
23.2547093694
 20
45.5528259666
 30
0.0
 10
22.8956217384
 20
45.3449131658
 30
0.0
 10
22.2242110665
 20
44.849383261
 30
0.0
 10
21.418855706
 20
43.9006840515
 30
0.0
 10
20.8488178978
 20
42.8046547895
 30
0.0
 10
20.5365694519
 20
41.6100044137
 30
0.0
 10
20.5006007658
 20
40.3730714729
 30
0.0
 10
20.7422913433
 20
39.1546763107
 30
0.0
 10
21.2515067406
 20
38.0217674605
 30
0.0
 10
22.0007493637
 20
37.0356630285
 30
0.0
 10
22.9471024244
 20
36.2427612548
 30
0.0
 10
24.0464587912
 20
35.6815611163
 30
0.0
 10
25.2464363238
 20
35.3796300119
 30
0.0
 10
26.4860899571
 20
35.3522716325
 30
0.0
 10
27.6995000002
 20
35.605222094
 30
0.0
 10
28.8245386817
 20
36.1222276406
 30
0.0
 10
29.8062706603
 20
36.8763936621
 30
0.0
 10
30.5921105278
 20
37.8320614719
 30
0.0
 10
31.1465363453
 20
38.9399449268
 30
0.0
 10
31.439987167
 20
40.1458210675
 30
0.0
 10
31.4528755192
 20
41.388345954
 30
0.0
 10
31.188681736
 20
42.6020661907
 30
0.0
 10
30.6583077715
 20
43.7261842124
 30
0.0
 10
29.8883627633
 20
44.7008318377
 30
0.0
 10
28.922370805
 20
45.4782680751
 30
0.0
 10
27.807998746
 20
46.0180509796
 30
0.0
 10
26.6006187499
 20
46.2946942325
 30
0.0
 10
25.3606617604
 20
46.2957916243
 30
0.0
 10
24.1540557949
 20
46.0173129103
 30
0.0
 10
23.0426013623
 20
45.4782155291
 30
0.0
 10
22.0781800998
 20
44.705824759
 30
0.0
 10
21.3110510514
 20
43.7343190657
 30
0.0
 10
20.7803087651
 20
42.6174802274
 30
0.0
 10
20.5132222959
 20
41.416963289
 30
0.0
 10
20.5201795335
 20
40.1936255224
 30
0.0
 10
20.7949051288
 20
39.0020597521
 30
0.0
 10
21.3292193315
 20
37.8963908796
 30
0.0
 10
22.1016061494
 20
36.932284576
 30
0.0
 10
23.07355243
 20
36.1603755941
 30
0.0
 10
24.1967567381
 20
35.6270330404
 30
0.0
 10
25.4081853057
 20
35.3603831798
 30
0.0
 10
26.6430685186
 20
35.3695785475
 30
0.0
 10
27.838051175
 20
35.6539830545
 30
0.0
 10
28.9354336666
 20
36.1925371158
 30
0.0
 10
29.8856584964
 20
36.9568307994
 30
0.0
 10
30.6424319318
 20
37.9132368485
 30
0.0
 10
31.1723666759
 20
39.0152949439
 30
0.0
 10
31.4471564561
 20
40.2131671819
 30
0.0
 10
31.4461617951
 20
41.4486414607
 30
0.0
 10
31.169394769
 20
42.6579489479
 30
0.0
 10
30.6269528851
 20
43.7761152191
 30
0.0
 10
29.8480446632
 20
44.7406917324
 30
0.0
 10
28.8791130111
 20
45.5046104474
 30
0.0
 10
27.7699518232
 20
46.0302775581
 30
0.0
 10
26.576364996
 20
46.2959890248
 30
0.0
 10
25.3548255499
 20
46.2935932729
 30
0.0
 10
24.1603862978
 20
46.0189892354
 30
0.0
 10
23.0506573666
 20
45.4835511607
 30
0.0
 10
22.0837559695
 20
44.711641909
 30
0.0
 10
21.3144417358
 20
43.7397633487
 30
0.0
 10
20.7806674887
 20
42.6200051844
 30
0.0
 10
20.5104779377
 20
41.4059979413
 30
0.0
 10
20.5221896548
 20
40.1606592811
 30
0.0
 10
20.8112978908
 20
38.9528289138
 30
0.0
 10
21.3628533784
 20
37.8431253304
 30
0.0
 10
22.1516651682
 20
36.8821219205
 30
0.0
 10
23.1420582861
 20
36.1171487498
 30
0.0
 10
24.2849529451
 20
35.5967988102
 30
0.0
 10
25.5085305154
 20
35.3503629807
 30
0.0
 10
26.7464397815
 20
35.3830279118
 30
0.0
 10
27.9425204425
 20
35.69193333
 30
0.0
 10
29.0425990016
 20
36.2603598078
 30
0.0
 10
29.9903697378
 20
37.0628267737
 30
0.0
 10
30.7296423588
 20
38.0556195133
 30
0.0
 10
31.2280570814
 20
39.1819228833
 30
0.0
 10
31.4639878742
 20
40.3897279625
 30
0.0
 10
31.4234445343
 20
41.6224052146
 30
0.0
 10
31.1098410799
 20
42.8180796693
 30
0.0
 10
30.5360323843
 20
43.913617165
 30
0.0
 10
29.7320889751
 20
44.8518053515
 30
0.0
 10
28.7421611556
 20
45.5870755173
 30
0.0
 10
27.6151692542
 20
46.0811162626
 30
0.0
 10
26.4070132212
 20
46.3125645217
 30
0.0
 10
25.1747449183
 20
46.2710950329
 30
0.0
 10
23.980542106
 20
45.9528130012
 30
0.0
 10
22.8877859452
 20
45.3766564873
 30
0.0
 10
21.9508179248
 20
44.5734252628
 30
0.0
 10
21.4629191236
 20
43.9095753543
 30
0.0
 10
21.25858961
 20
43.5567103415
 30
0.0
  0
SPLINE
  5
277
100
AcDbEntity
  8
0
100
AcDbSpline
 62
7
  6
BYLAYER
 70
0
 71
3
 72
12
 73
8
 74
0
 42
0.0000001
 43
0.0000001
 44
0.0000000001
 40
0.0
 40
0.0
 40
0.0
 40
0.0
 40
0.1967664876
 40
0.3947197982
 40
0.5966095132
 40
0.7997666896
 40
1.0
 40
1.0
 40
1.0
 40
1.0
 10
23.1013416197
 20
45.818521148
 30
0.0
 10
22.7526398739
 20
45.6254623739
 30
0.0
 10
22.0917162692
 20
45.1634080532
 30
0.0
 10
21.2602933961
 20
44.2748951475
 30
0.0
 10
20.6247926229
 20
43.2209392395
 30
0.0
 10
20.2218822058
 20
42.0536900359
 30
0.0
 10
20.1222263675
 20
41.2355240139
 30
0.0
 10
20.1155553965
 20
40.8299781187
 30
0.0
  0
SPLINE
  5
278
100
AcDbEntity
  8
0
100
AcDbSpline
 62
7
  6
BYLAYER
 70
0
 71
3
 72
14
 73
10
 74
0
 42
0.0000001
 43
0.0000001
 44
0.0000000001
 40
0.0
 40
0.0
 40
0.0
 40
0.0
 40
0.1413699607
 40
0.285019665
 40
0.4291737328
 40
0.5710858505
 40
0.711905324
 40
0.8544945555
 40
1.0
 40
1.0
 40
1.0
 40
1.0
 10
20.1155553965
 20
40.8299781187
 30
0.0
 10
20.1094537408
 20
40.459042397
 30
0.0
 10
20.1690359567
 20
39.7082316992
 30
0.0
 10
20.4684546972
 20
38.6156919303
 30
0.0
 10
20.9736745262
 20
37.5994503479
 30
0.0
 10
21.6576531758
 20
36.7040327464
 30
0.0
 10
22.4922954404
 20
35.9532042729
 30
0.0
 10
23.4604872344
 20
35.3667969294
 30
0.0
 10
24.174626659
 20
35.1023119234
 30
0.0
 10
24.5437956397
 20
35.0047682496
 30
0.0
  0
SPLINE
  5
279
100
AcDbEntity
  8
0
100
AcDbSpline
 62
7
  6
BYLAYER
 70
0
 71
3
 72
15
 73
11
 74
0
 42
0.0000001
 43
0.0000001
 44
0.0000000001
 40
0.0
 40
0.0
 40
0.0
 40
0.0
 40
0.1270157642
 40
0.2529556347
 40
0.3774556296
 40
0.5016436741
 40
0.6258600671
 40
0.7517055141
 40
0.8768668025
 40
1.0
 40
1.0
 40
1.0
 40
1.0
 10
25.9814777977
 20
46.5376286025
 30
0.0
 10
26.3551911772
 20
46.531582907
 30
0.0
 10
27.1000808962
 20
46.4431913945
 30
0.0
 10
28.1636807549
 20
46.1005503077
 30
0.0
 10
29.1326148705
 20
45.5600069253
 30
0.0
 10
29.9756121475
 20
44.8467908235
 30
0.0
 10
30.6659518536
 20
43.9796887446
 30
0.0
 10
31.1751010511
 20
42.9917091486
 30
0.0
 10
31.4785820183
 20
41.9260618288
 30
0.0
 10
31.5364067519
 20
41.1922658581
 30
0.0
 10
31.5304163043
 20
40.8299781176
 30
0.0
  0
SPLINE
  5
27A
100
AcDbEntity
  8
0
100
AcDbSpline
 62
7
  6
BYLAYER
 70
0
 71
3
 72
10
 73
6
 74
0
 42
0.0000001
 43
0.0000001
 44
0.0000000001
 40
0.0
 40
0.0
 40
0.0
 40
0.0
 40
0.3342358004
 40
0.6675644857
 40
1.0
 40
1.0
 40
1.0
 40
1.0
 10
25.9814777977
 20
35.4259041111
 30
0.0
 10
26.3615715499
 20
35.4212986668
 30
0.0
 10
27.1241626769
 20
35.4932909307
 30
0.0
 10
28.2166390115
 20
35.8346392423
 30
0.0
 10
28.8839861416
 20
36.2056014883
 30
0.0
 10
29.1937493129
 20
36.4223660791
 30
0.0
  0
SPLINE
  5
27B
100
AcDbEntity
  8
0
100
AcDbSpline
 62
7
  6
BYLAYER
 70
0
 71
3
 72
35
 73
31
 74
0
 42
0.0000001
 43
0.0000001
 44
0.0000000001
 40
0.0
 40
0.0
 40
0.0
 40
0.0
 40
0.0074640353
 40
0.0161307322
 40
0.0259663393
 40
0.0366939235
 40
0.0482605814
 40
0.0608205834
 40
0.0744467031
 40
0.0892319244
 40
0.1053087367
 40
0.1227941613
 40
0.1418306182
 40
0.1625686287
 40
0.1851766982
 40
0.2098457005
 40
0.2368053405
 40
0.2663333951
 40
0.2987152337
 40
0.3342426828
 40
0.3733405211
 40
0.4164827984
 40
0.4641605962
 40
0.5169952864
 40
0.5758198201
 40
0.6416189859
 40
0.7154543153
 40
0.7986328514
 40
0.8928096044
 40
1.0
 40
1.0
 40
1.0
 40
1.0
 10
21.6254833675
 20
37.5809985427
 30
0.0
 10
21.6369588991
 20
37.5760874621
 30
0.0
 10
21.6603599767
 20
37.5621235458
 30
0.0
 10
21.6927855902
 20
37.5330169687
 30
0.0
 10
21.7252925808
 20
37.4964664929
 30
0.0
 10
21.7600445537
 20
37.4554958712
 30
0.0
 10
21.7981317865
 20
37.4113685589
 30
0.0
 10
21.8400621468
 20
37.3641671609
 30
0.0
 10
21.8860561945
 20
37.3133806775
 30
0.0
 10
21.9364209451
 20
37.2586212131
 30
0.0
 10
21.991655599
 20
37.199574449
 30
0.0
 10
22.0526257437
 20
37.1361675031
 30
0.0
 10
22.1199556362
 20
37.0680740542
 30
0.0
 10
22.1945058823
 20
36.995089548
 30
0.0
 10
22.2771951565
 20
36.916978224
 30
0.0
 10
22.3690773359
 20
36.8334767871
 30
0.0
 10
22.4715704675
 20
36.7444903039
 30
0.0
 10
22.5861814506
 20
36.6498524426
 30
0.0
 10
22.7145005069
 20
36.5493906818
 30
0.0
 10
22.8586843756
 20
36.443348527
 30
0.0
 10
23.0211655335
 20
36.3319808516
 30
0.0
 10
23.2047850057
 20
36.2157446086
 30
0.0
 10
23.4129014532
 20
36.0955909846
 30
0.0
 10
23.6496210252
 20
35.9730274462
 30
0.0
 10
23.9199783029
 20
35.8502897529
 30
0.0
 10
24.2297680838
 20
35.7306455963
 30
0.0
 10
24.5855130403
 20
35.6188625172
 30
0.0
 10
24.9946421634
 20
35.5217993741
 30
0.0
 10
25.4655256075
 20
35.4496545893
 30
0.0
 10
25.8022386161
 20
35.4285257906
 30
0.0
 10
25.9814777977
 20
35.4260305766
 30
0.0
  0
SPLINE
  5
27C
100
AcDbEntity
  8
0
100
AcDbSpline
 62
7
  6
BYLAYER
 70
0
 71
3
 72
10
 73
6
 74
0
 42
0.0000001
 43
0.0000001
 44
0.0000000001
 40
0.0
 40
0.0
 40
0.0
 40
0.0
 40
0.332528273
 40
0.6672858427
 40
1.0
 40
1.0
 40
1.0
 40
1.0
 10
21.7303702479
 20
37.4132374772
 30
0.0
 10
21.7183556447
 20
37.4315854219
 30
0.0
 10
21.6945039488
 20
37.4685744632
 30
0.0
 10
21.6596201878
 20
37.5245506056
 30
0.0
 10
21.6367595184
 20
37.5621734505
 30
0.0
 10
21.6254833675
 20
37.5809985427
 30
0.0
  0
SPLINE
  5
27D
100
AcDbEntity
  8
0
100
AcDbSpline
 62
7
  6
BYLAYER
 70
0
 71
3
 72
10
 73
6
 74
0
 42
0.0000001
 43
0.0000001
 44
0.0000000001
 40
0.0
 40
0.0
 40
0.0
 40
0.0
 40
0.3341456282
 40
0.6674434576
 40
1.0
 40
1.0
 40
1.0
 40
1.0
 10
25.9814777977
 20
46.5376680384
 30
0.0
 10
25.6475653984
 20
46.5430698591
 30
0.0
 10
24.9782891516
 20
46.4932963771
 30
0.0
 10
24.0042226502
 20
46.2509154373
 30
0.0
 10
23.3921984831
 20
45.9793648909
 30
0.0
 10
23.1013416197
 20
45.818521148
 30
0.0
  0
SPLINE
  5
27E
100
AcDbEntity
  8
0
100
AcDbSpline
 62
7
  6
BYLAYER
 70
0
 71
3
 72
12
 73
8
 74
0
 42
0.0000001
 43
0.0000001
 44
0.0000000001
 40
0.0
 40
0.0
 40
0.0
 40
0.0
 40
0.1940738452
 40
0.3926334959
 40
0.5952638325
 40
0.7983309239
 40
1.0
 40
1.0
 40
1.0
 40
1.0
 10
29.1937493129
 20
36.4223660791
 30
0.0
 10
29.4674182279
 20
36.6145481405
 30
0.0
 10
29.9859805249
 20
37.0560913997
 30
0.0
 10
30.6351541847
 20
37.8573883261
 30
0.0
 10
31.1319147328
 20
38.7797978754
 30
0.0
 10
31.4453704501
 20
39.7846391115
 30
0.0
 10
31.5246712378
 20
40.4825304356
 30
0.0
 10
31.5304163043
 20
40.8299781176
 30
0.0
  0
SPLINE
  5
27F
100
AcDbEntity
  8
0
100
AcDbSpline
 62
7
  6
BYLAYER
 70
0
 71
3
 72
12
 73
8
 74
0
 42
0.0000001
 43
0.0000001
 44
0.0000000001
 40
0.0
 40
0.0
 40
0.0
 40
0.0
 40
0.2036390145
 40
0.4042357645
 40
0.6044040042
 40
0.8037629525
 40
1.0
 40
1.0
 40
1.0
 40
1.0
 10
25.9814777977
 20
35.0393764045
 30
0.0
 10
25.6407412706
 20
35.0608696819
 30
0.0
 10
24.9667724054
 20
35.1659058813
 30
0.0
 10
24.0040865198
 20
35.4978175875
 30
0.0
 10
23.1213239564
 20
35.9921754713
 30
0.0
 10
22.3478232272
 20
36.6321869647
 30
0.0
 10
21.9177317004
 20
37.142794814
 30
0.0
 10
21.7303702479
 20
37.4132374772
 30
0.0
  0
SPLINE
  5
280
100
AcDbEntity
  8
0
100
AcDbSpline
 62
7
  6
BYLAYER
 70
0
 71
3
 72
14
 73
10
 74
0
 42
0.0000001
 43
0.0000001
 44
0.0000000001
 40
0.0
 40
0.0
 40
0.0
 40
0.0
 40
0.1498320177
 40
0.2972532223
 40
0.4435440082
 40
0.5896428757
 40
0.7373041063
 40
0.884524894
 40
1.0
 40
1.0
 40
1.0
 40
1.0
 10
22.9944714741
 20
45.392804129
 30
0.0
 10
23.3411782746
 20
45.6192873652
 30
0.0
 10
24.0822372153
 20
45.9932074554
 30
0.0
 10
25.2833590975
 20
46.2843619818
 30
0.0
 10
26.5088815842
 20
46.3036516707
 30
0.0
 10
27.7091005161
 20
46.0514050586
 30
0.0
 10
28.825336146
 20
45.5368093819
 30
0.0
 10
29.7322849625
 20
44.8400215302
 30
0.0
 10
30.210851108
 20
44.2881737855
 30
0.0
 10
30.3984054242
 20
44.0290970865
 30
0.0
  0
SPLINE
  5
281
100
AcDbEntity
  8
0
100
AcDbSpline
 62
7
  6
BYLAYER
 70
0
 71
3
 72
10
 73
6
 74
0
 42
0.0000001
 43
0.0000001
 44
0.0000000001
 40
0.0
 40
0.0
 40
0.0
 40
0.0
 40
0.3342520897
 40
0.6691388032
 40
1.0
 40
1.0
 40
1.0
 40
1.0
 10
25.9814777977
 20
46.5022884115
 30
0.0
 10
25.6227105633
 20
46.4788906136
 30
0.0
 10
24.9072016625
 20
46.361558635
 30
0.0
 10
23.892710097
 20
45.9857685593
 30
0.0
 10
23.2781895922
 20
45.6077230046
 30
0.0
 10
22.9942651852
 20
45.3931560475
 30
0.0
  0
SPLINE
  5
282
100
AcDbEntity
  8
0
100
AcDbSpline
 62
7
  6
BYLAYER
 70
0
 71
3
 72
11
 73
7
 74
0
 42
0.0000001
 43
0.0000001
 44
0.0000000001
 40
0.0
 40
0.0
 40
0.0
 40
0.0
 40
0.2516217676
 40
0.5002645895
 40
0.7514670889
 40
1.0
 40
1.0
 40
1.0
 40
1.0
 10
30.5685595481
 20
44.6976235279
 30
0.0
 10
30.2737481759
 20
45.0051990758
 30
0.0
 10
29.6210311048
 20
45.5570385402
 30
0.0
 10
28.4867451781
 20
46.154446851
 30
0.0
 10
27.2548356186
 20
46.4916404864
 30
0.0
 10
26.4014031328
 20
46.5296747306
 30
0.0
 10
25.9814777977
 20
46.502288372
 30
0.0
  0
SPLINE
  5
283
100
AcDbEntity
  8
0
100
AcDbSpline
 62
7
  6
BYLAYER
 70
0
 71
3
 72
59
 73
55
 74
0
 42
0.0000001
 43
0.0000001
 44
0.0000000001
 40
0.0
 40
0.0
 40
0.0
 40
0.0
 40
0.0853638477
 40
0.1619432153
 40
0.2308847901
 40
0.2931466686
 40
0.3495319988
 40
0.400719839
 40
0.4472885
 40
0.4897332107
 40
0.5284804823
 40
0.5639016972
 40
0.5963229951
 40
0.6260328237
 40
0.6532882832
 40
0.6783181522
 40
0.7013256424
 40
0.7224919939
 40
0.7419792964
 40
0.759933123
 40
0.7764814877
 40
0.7917407113
 40
0.8058233755
 40
0.8188267355
 40
0.8308372536
 40
0.8419371116
 40
0.8522041049
 40
0.8617049985
 40
0.8704923337
 40
0.878619326
 40
0.8861315369
 40
0.8930724257
 40
0.8994898869
 40
0.9054213576
 40
0.9108999051
 40
0.9159556357
 40
0.9206148761
 40
0.9249007738
 40
0.9288444827
 40
0.9324306369
 40
0.9357344969
 40
0.9383834342
 40
0.9406428404
 40
0.9439910123
 40
0.9477124581
 40
0.9517860936
 40
0.9562321786
 40
0.9610651456
 40
0.9663135481
 40
0.9720060247
 40
0.9781787819
 40
0.9848725502
 40
0.9921302918
 40
1.0
 40
1.0
 40
1.0
 40
1.0
 10
25.9814777977
 20
46.2190198982
 30
0.0
 10
25.8802108241
 20
46.218078106
 30
0.0
 10
25.6881104451
 20
46.2110522089
 30
0.0
 10
25.4151139062
 20
46.1875153474
 30
0.0
 10
25.1707190754
 20
46.154702821
 30
0.0
 10
24.9515300154
 20
46.1158634021
 30
0.0
 10
24.7545738503
 20
46.0731821871
 30
0.0
 10
24.5772597082
 20
46.0283321307
 30
0.0
 10
24.4173345491
 20
45.9825400726
 30
0.0
 10
24.2728411694
 20
45.9367111329
 30
0.0
 10
24.142075592
 20
45.8915089279
 30
0.0
 10
24.0235490208
 20
45.8474138216
 30
0.0
 10
23.9159546164
 20
45.8047644314
 30
0.0
 10
23.8181398404
 20
45.7637912432
 30
0.0
 10
23.7290851816
 20
45.7246434831
 30
0.0
 10
23.6478908045
 20
45.6874039658
 30
0.0
 10
23.573762821
 20
45.6521075731
 30
0.0
 10
23.5060003618
 20
45.6187538831
 30
0.0
 10
23.4439828553
 20
45.5873165715
 30
0.0
 10
23.387162745
 20
45.5577519341
 30
0.0
 10
23.335054944
 20
45.5300042343
 30
0.0
 10
23.2872211106
 20
45.5040060299
 30
0.0
 10
23.2432670062
 20
45.4796798853
 30
0.0
 10
23.2028359401
 20
45.4569496809
 30
0.0
 10
23.1656153483
 20
45.435731466
 30
0.0
 10
23.131314863
 20
45.4159469301
 30
0.0
 10
23.0996715001
 20
45.3975153261
 30
0.0
 10
23.0704612385
 20
45.3803578274
 30
0.0
 10
23.0434824289
 20
45.3644143055
 30
0.0
 10
23.0185652068
 20
45.3496196717
 30
0.0
 10
22.995546751
 20
45.3359178204
 30
0.0
 10
22.9742747153
 20
45.3232470399
 30
0.0
 10
22.9546054373
 20
45.3115502972
 30
0.0
 10
22.9364069704
 20
45.300773567
 30
0.0
 10
22.9195686478
 20
45.2908735836
 30
0.0
 10
22.9039804468
 20
45.2818156914
 30
0.0
 10
22.8895763357
 20
45.273570018
 30
0.0
 10
22.8761663936
 20
45.2661334877
 30
0.0
 10
22.864009461
 20
45.2594429082
 30
0.0
 10
22.8519136445
 20
45.2538202707
 30
0.0
 10
22.8434708655
 20
45.2487937539
 30
0.0
 10
22.829297555
 20
45.2457775414
 30
0.0
 10
22.834118893
 20
45.2588132434
 30
0.0
 10
22.8421315246
 20
45.2649162676
 30
0.0
 10
22.8511624784
 20
45.2750978123
 30
0.0
 10
22.8617814885
 20
45.2848540432
 30
0.0
 10
22.8735070132
 20
45.2955522511
 30
0.0
 10
22.886476789
 20
45.3068893695
 30
0.0
 10
22.9007275085
 20
45.3190229518
 30
0.0
 10
22.9163470744
 20
45.3319927599
 30
0.0
 10
22.9334357088
 20
45.3458771472
 30
0.0
 10
22.9521209781
 20
45.3607385264
 30
0.0
 10
22.9725225602
 20
45.3766749221
 30
0.0
 10
22.9868062146
 20
45.3875409933
 30
0.0
 10
22.9942651852
 20
45.3931560475
 30
0.0
  0
SPLINE
  5
284
100
AcDbEntity
  8
0
100
AcDbSpline
 62
7
  6
BYLAYER
 70
0
 71
3
 72
74
 73
70
 74
0
 42
0.0000001
 43
0.0000001
 44
0.0000000001
 40
0.0
 40
0.0
 40
0.0
 40
0.0
 40
0.0150079299
 40
0.0300156679
 40
0.0450236508
 40
0.0600323207
 40
0.0750417415
 40
0.0900513079
 40
0.1050602831
 40
0.1200686383
 40
0.1350765742
 40
0.1500844389
 40
0.1650925925
 40
0.1801014658
 40
0.1951109857
 40
0.2101204709
 40
0.2251292909
 40
0.2401375306
 40
0.2551453947
 40
0.2701532631
 40
0.2851614902
 40
0.3001704965
 40
0.315180066
 40
0.3301894672
 40
0.3451981682
 40
0.3602063355
 40
0.3752141692
 40
0.3902220821
 40
0.4052304196
 40
0.4202395706
 40
0.4352491667
 40
0.4502584662
 40
0.4652670465
 40
0.4802751443
 40
0.4952829535
 40
0.5102909206
 40
0.5252993773
 40
0.5403086627
 40
0.5553182553
 40
0.5703274437
 40
0.585335909
 40
0.6003439457
 40
0.6153517413
 40
0.6303597756
 40
0.6453683602
 40
0.6603777652
 40
0.6753873229
 40
0.6903963952
 40
0.7054047528
 40
0.7204127376
 40
0.7354205317
 40
0.7504286472
 40
0.765437367
 40
0.780446873
 40
0.7954563682
 40
0.8104653219
 40
0.8254735794
 40
0.8404815211
 40
0.855489326
 40
0.8704975359
 40
0.8855063944
 40
0.900515979
 40
0.9155253901
 40
0.9305342254
 40
0.9455423912
 40
0.9605502993
 40
0.9755581279
 40
0.990566445
 40
1.0
 40
1.0
 40
1.0
 40
1.0
 10
23.9315685502
 20
22.0715175065
 30
0.0
 10
24.3380554037
 20
22.0114982163
 30
0.0
 10
25.1567453678
 20
21.9271057434
 30
0.0
 10
26.3907915058
 20
21.9085281881
 30
0.0
 10
27.6218221156
 20
21.9982848142
 30
0.0
 10
28.840304386
 20
22.1954597244
 30
0.0
 10
30.0366444433
 20
22.4996734158
 30
0.0
 10
31.2012990226
 20
22.9087480375
 30
0.0
 10
32.3253626616
 20
23.4187493092
 30
0.0
 10
33.4004565912
 20
24.0251174371
 30
0.0
 10
34.4181520669
 20
24.7234946682
 30
0.0
 10
35.370835784
 20
25.5082327544
 30
0.0
 10
36.2510043902
 20
26.3735549215
 30
0.0
 10
37.0520287599
 20
27.3127024277
 30
0.0
 10
37.7666769425
 20
28.3192152092
 30
0.0
 10
38.3894276704
 20
29.3850098924
 30
0.0
 10
38.9160233283
 20
30.5013831175
 30
0.0
 10
39.3429277582
 20
31.6595020261
 30
0.0
 10
39.6665140722
 20
32.8506000794
 30
0.0
 10
39.8846497788
 20
34.0654401954
 30
0.0
 10
39.9953520643
 20
35.2947650973
 30
0.0
 10
39.9978463745
 20
36.5291332376
 30
0.0
 10
39.890701356
 20
37.7588960007
 30
0.0
 10
39.6753361502
 20
38.9743503133
 30
0.0
 10
39.3540224598
 20
40.1661263791
 30
0.0
 10
38.929700488
 20
41.3251876376
 30
0.0
 10
38.4052779477
 20
42.4425057125
 30
0.0
 10
37.7851154734
 20
43.5096634187
 30
0.0
 10
37.073682428
 20
44.5183170468
 30
0.0
 10
36.276402725
 20
45.4606811837
 30
0.0
 10
35.3984568939
 20
46.3284414171
 30
0.0
 10
34.4474557716
 20
47.1153852535
 30
0.0
 10
33.4310666103
 20
47.8157469855
 30
0.0
 10
32.3573378287
 20
48.4244868393
 30
0.0
 10
31.2343327843
 20
48.9366153659
 30
0.0
 10
30.0708233302
 20
49.3485395854
 30
0.0
 10
28.8756095975
 20
49.6567786991
 30
0.0
 10
27.6578473276
 20
49.8587445773
 30
0.0
 10
26.4269232046
 20
49.951564585
 30
0.0
 10
25.1926604309
 20
49.93570167
 30
0.0
 10
23.9646030425
 20
49.8115630044
 30
0.0
 10
22.7521528123
 20
49.5804586766
 30
0.0
 10
21.5646787366
 20
49.2438272658
 30
0.0
 10
20.4111954958
 20
48.8045972243
 30
0.0
 10
19.3006691092
 20
48.2657925826
 30
0.0
 10
18.2418682639
 20
47.6312059042
 30
0.0
 10
17.2436986018
 20
46.9049599805
 30
0.0
 10
16.3132441726
 20
46.0938590666
 30
0.0
 10
15.4575851752
 20
45.2042716913
 30
0.0
 10
14.683078134
 20
44.2432448488
 30
0.0
 10
13.9959044521
 20
43.2179598175
 30
0.0
 10
13.4010593016
 20
42.1364703749
 30
0.0
 10
12.9034450668
 20
41.0068711128
 30
0.0
 10
12.5074904738
 20
39.8376844772
 30
0.0
 10
12.2169711489
 20
38.637953422
 30
0.0
 10
12.0328677084
 20
37.4174159342
 30
0.0
 10
11.9565526173
 20
36.1854754495
 30
0.0
 10
11.9883589699
 20
34.9516144279
 30
0.0
 10
12.1283063082
 20
33.7253047037
 30
0.0
 10
12.3750247209
 20
32.515921814
 30
0.0
 10
12.7270554178
 20
31.3328219965
 30
0.0
 10
13.1824092572
 20
30.185459112
 30
0.0
 10
13.737710194
 20
29.0830194934
 30
0.0
 10
14.3875058339
 20
28.0335677231
 30
0.0
 10
15.1268219183
 20
27.0451865589
 30
0.0
 10
15.9498104083
 20
26.1253454904
 30
0.0
 10
16.8503201919
 20
25.2812431728
 30
0.0
 10
17.701039179
 20
24.6135398644
 30
0.0
 10
18.2560846361
 20
24.2388837633
 30
0.0
 10
18.4741604904
 20
24.1003452413
 30
0.0
  0
SPLINE
  5
285
100
AcDbEntity
  8
0
100
AcDbSpline
 62
7
  6
BYLAYER
 70
0
 71
3
 72
74
 73
70
 74
0
 42
0.0000001
 43
0.0000001
 44
0.0000000001
 40
0.0
 40
0.0
 40
0.0
 40
0.0
 40
0.0124875343
 40
0.0249757176
 40
0.0374631808
 40
0.0499493236
 40
0.0661793019
 40
0.0742975822
 40
0.082416211
 40
0.0986481911
 40
0.1148780806
 40
0.1311079843
 40
0.1473399884
 40
0.1635719945
 40
0.1798019075
 40
0.1960318195
 40
0.2122638238
 40
0.228495829
 40
0.2447257428
 40
0.260955656
 40
0.2771876604
 40
0.2934196641
 40
0.3096495758
 40
0.3258794879
 40
0.3421114922
 40
0.3583434967
 40
0.3745734094
 40
0.390803322
 40
0.4070353263
 40
0.4232673305
 40
0.4394972429
 40
0.4557271553
 40
0.4719591596
 40
0.4800777927
 40
0.4881960663
 40
0.5044259788
 40
0.5206558912
 40
0.5368878955
 40
0.5531198998
 40
0.5693498123
 40
0.5855797247
 40
0.601811729
 40
0.6180437333
 40
0.6342736458
 40
0.6505035582
 40
0.6667355625
 40
0.6829675668
 40
0.6991974793
 40
0.7154273917
 40
0.731659396
 40
0.7397780291
 40
0.7478963027
 40
0.7641262151
 40
0.7803561276
 40
0.7965881319
 40
0.8128201362
 40
0.8290500486
 40
0.8452799611
 40
0.8615119654
 40
0.8777439697
 40
0.8939738821
 40
0.9102037946
 40
0.9264357989
 40
0.9426678032
 40
0.9588977156
 40
0.9751276281
 40
0.9913596324
 40
0.9994782654
 40
1.0
 40
1.0
 40
1.0
 40
1.0
 10
18.4740965803
 20
24.1002318129
 30
0.0
 10
18.7739266617
 20
23.9101762897
 30
0.0
 10
19.3880100114
 20
23.5528265031
 30
0.0
 10
20.3469317069
 20
23.0878061584
 30
0.0
 10
21.3382055417
 20
22.6964831521
 30
0.0
 10
22.4579428103
 20
22.3501569534
 30
0.0
 10
23.4833980647
 20
22.1300573868
 30
0.0
 10
24.397717196
 20
22.0035623699
 30
0.0
 10
25.3172190716
 20
21.9220969039
 30
0.0
 10
26.4724162742
 20
21.9049954182
 30
0.0
 10
27.8536328177
 20
22.0209887171
 30
0.0
 10
29.216422691
 20
22.2743566084
 30
0.0
 10
30.5476394341
 20
22.66060321
 30
0.0
 10
31.8346518658
 20
23.1753227427
 30
0.0
 10
33.0647695289
 20
23.8142028744
 30
0.0
 10
34.2249236924
 20
24.5727543033
 30
0.0
 10
35.3047900887
 20
25.4417901222
 30
0.0
 10
36.2943878838
 20
26.4123729679
 30
0.0
 10
37.1836719718
 20
27.4756376332
 30
0.0
 10
37.962309325
 20
28.6224077669
 30
0.0
 10
38.6243091388
 20
29.840229971
 30
0.0
 10
39.1639009188
 20
31.1170131428
 30
0.0
 10
39.5752272108
 20
32.4407080719
 30
0.0
 10
39.8522845964
 20
33.7988674255
 30
0.0
 10
39.9943392513
 20
35.1776912464
 30
0.0
 10
40.0007211853
 20
36.5637987194
 30
0.0
 10
39.8706639234
 20
37.9438143068
 30
0.0
 10
39.6034199275
 20
39.3039384792
 30
0.0
 10
39.2036243336
 20
40.6311538363
 30
0.0
 10
38.675814931
 20
41.9128489271
 30
0.0
 10
38.0244193126
 20
43.1364004558
 30
0.0
 10
37.2541171537
 20
44.2887248618
 30
0.0
 10
36.5206352628
 20
45.1813522679
 30
0.0
 10
35.883754339
 20
45.8495579947
 30
0.0
 10
35.2148848986
 20
46.4856491459
 30
0.0
 10
34.3211700248
 20
47.2177900545
 30
0.0
 10
33.1665616056
 20
47.9846625564
 30
0.0
 10
31.9420449289
 20
48.6342249036
 30
0.0
 10
30.6598309562
 20
49.1607723447
 30
0.0
 10
29.3320115224
 20
49.5585860829
 30
0.0
 10
27.971098962
 20
49.8217857706
 30
0.0
 10
26.5908988086
 20
49.9497793731
 30
0.0
 10
25.2047983164
 20
49.9420330105
 30
0.0
 10
23.8261800408
 20
49.7979166479
 30
0.0
 10
22.4688504284
 20
49.5168234094
 30
0.0
 10
21.1457789508
 20
49.1035208793
 30
0.0
 10
19.8695301568
 20
48.5626751548
 30
0.0
 10
18.6526815616
 20
47.8988422652
 30
0.0
 10
17.5082683511
 20
47.1168349985
 30
0.0
 10
16.6231633603
 20
46.3742930619
 30
0.0
 10
15.9614837824
 20
45.7306345035
 30
0.0
 10
15.332243157
 20
45.0553164196
 30
0.0
 10
14.609249511
 20
44.1541855905
 30
0.0
 10
13.8541852452
 20
42.9918207648
 30
0.0
 10
13.2171375828
 20
41.7607470019
 30
0.0
 10
12.7036865184
 20
40.4732327749
 30
0.0
 10
12.3194273054
 20
39.1414275801
 30
0.0
 10
12.0701124539
 20
37.7779030376
 30
0.0
 10
11.9561932541
 20
36.3964699984
 30
0.0
 10
11.9780671079
 20
35.0105204629
 30
0.0
 10
12.1362276151
 20
33.6334427128
 30
0.0
 10
12.4311408972
 20
32.2790486633
 30
0.0
 10
12.8579074255
 20
30.9602585183
 30
0.0
 10
13.4117332805
 20
29.6895886146
 30
0.0
 10
14.0879344728
 20
28.4795693765
 30
0.0
 10
14.8815656025
 20
27.3431862582
 30
0.0
 10
15.6330904411
 20
26.4656956376
 30
0.0
 10
16.1312971009
 20
25.9638768368
 30
0.0
 10
16.3088106639
 20
25.7941843791
 30
0.0
 10
16.3195456886
 20
25.7839547177
 30
0.0
  0
SPLINE
  5
286
100
AcDbEntity
  8
0
100
AcDbSpline
 62
7
  6
BYLAYER
 70
0
 71
3
 72
16
 73
12
 74
0
 42
0.0000001
 43
0.0000001
 44
0.0000000001
 40
0.0
 40
0.0
 40
0.0
 40
0.0
 40
0.0357538316
 40
0.1577768384
 40
0.2797841198
 40
0.4017914012
 40
0.523814408
 40
0.6458374149
 40
0.7678446963
 40
0.8898519777
 40
1.0
 40
1.0
 40
1.0
 40
1.0
 10
16.3196056357
 20
25.7840179373
 30
0.0
 10
16.4175498855
 20
25.6907831348
 30
0.0
 10
16.8556833165
 20
25.2855683673
 30
0.0
 10
17.6774946142
 20
24.6169423058
 30
0.0
 10
18.833580534
 20
23.8522054678
 30
0.0
 10
20.0602681711
 20
23.2067635132
 30
0.0
 10
21.3445117873
 20
22.6851765937
 30
0.0
 10
22.6736506712
 20
22.2918260462
 30
0.0
 10
24.0350554317
 20
22.0311842399
 30
0.0
 10
25.3708962709
 20
21.9118267947
 30
0.0
 10
26.2497841049
 20
21.9159269387
 30
0.0
 10
26.6658791126
 20
21.9363051707
 30
0.0
  0
ENDSEC
  0
SECTION
  2
OBJECTS
  0
DICTIONARY
  5
C
100
AcDbDictionary
280
0
281
1
  3
ACAD_GROUP
350
D
  3
ACAD_MLINESTYLE
350
17
  3
ACAD_LAYOUT
350
1A
  3
ACAD_PLOTSETTINGS
350
19
  3
ACAD_PLOTSTYLENAME
350
E
  0
DICTIONARY
  5
D
102
{ACAD_REACTORS
330
C
102
}
100
AcDbDictionary
280
0
281
1
  0
ACDBDICTIONARYWDFLT
  5
E
102
{ACAD_REACTORS
330
C
102
}
100
AcDbDictionary
281
1
  3
Normal
350
F
100
AcDbDictionaryWithDefault
340
F
  0
DICTIONARY
  5
17
102
{ACAD_REACTORS
330
C
102
}
100
AcDbDictionary
280
0
281
1
  3
Standard
350
18
  0
DICTIONARY
  5
19
102
{ACAD_REACTORS
330
C
102
}
100
AcDbDictionary
281
1
  0
DICTIONARY
  5
1A
102
{ACAD_REACTORS
330
C
102
}
100
AcDbDictionary
281
1
  3
Model
350
287
  3
Layout1
350
288
  0
ACDBPLACEHOLDER
  5
F
102
{ACAD_REACTORS
330
E
102
}
  0
MLINESTYLE
  5
18
102
{ACAD_REACTORS
330
17
102
}
100
AcDbMlineStyle
  2
STANDARD
 70
0
  3

 62
256
 51
90.0
 52
90.0
 71
2
 49
0.5
 62
256
  6
BYLAYER
 49
-0.5
 62
256
  6
BYLAYER
  0
LAYOUT
  5
287
102
{ACAD_REACTORS
330
1A
102
}
100
AcDbPlotSettings
  1

  2
none_device
  4

  6

 40
0.0
 41
0.0
 42
0.0
 43
0.0
 44
210.0
 45
297.0
 46
0.0
 47
0.0
 48
0.0
 49
0.0
140
0.0
141
0.0
142
1.0
143
1.0
 70
1024
 72
1
 73
0
 74
0
  7

 75
0
147
1.0
148
0.0
149
0.0
100
AcDbLayout
  1
Model
 70
0
 71
0
 10
0.0
 20
0.0
 11
210.0
 21
297.0
 12
0.0
 22
0.0
 32
0.0
 14
0.0
 24
0.0
 34
0.0
 15
0.0
 25
0.0
 35
0.0
146
0.0
 13
0.0
 23
0.0
 33
0.0
 16
1.0
 26
0.0
 36
0.0
 17
0.0
 27
1.0
 37
0.0
 76
0
330
210
345
0
346
0
  0
LAYOUT
  5
288
102
{ACAD_REACTORS
330
1A
102
}
100
AcDbPlotSettings
  1

  2
none_device
  4

  6

 40
0.0
 41
0.0
 42
0.0
 43
0.0
 44
210.0
 45
297.0
 46
0.0
 47
0.0
 48
0.0
 49
0.0
140
0.0
141
0.0
142
1.0
143
1.0
 70
0
 72
1
 73
0
 74
0
  7

 75
0
147
1.0
148
0.0
149
0.0
100
AcDbLayout
  1
Layout1
 70
0
 71
1
 10
0.0
 20
0.0
 11
210.0
 21
297.0
 12
0.0
 22
0.0
 32
0.0
 14
0.0
 24
0.0
 34
0.0
 15
0.0
 25
0.0
 35
0.0
146
0.0
 13
0.0
 23
0.0
 33
0.0
 16
1.0
 26
0.0
 36
0.0
 17
0.0
 27
1.0
 37
0.0
 76
0
330
211
345
0
346
0
  0
ENDSEC
  0
EOF
