999
DXF file: C:\Users\sesa63760\Dev\_Creo\CAD\MCADPP0003120_3D-CAD\drw0001_7.dxf
999
Pro/ENGINEER 2019471 by Parametric Technology Corporation
  0
SECTION
  2
HEADER
  9
$ACADVER
  1
AC1024
  9
$DWGCODEPAGE
  3
ANSI_1252
  9
$EXTMAX
 10
160.5359945185
 20
227.0437636761
 30
0.0
  9
$EXTMIN
 10
0.0
 20
0.0
 30
0.0
  9
$LIMMIN
 10
0.0
 20
0.0
  9
$LIMMAX
 10
160.5359945185
 20
227.0437636761
  9
$VIEWCTR
 10
80.2679972592
 20
113.5218818381
  9
$VIEWSIZE
 40
227.0437636761
  9
$CLAYER
  8
0
  9
$LTSCALE
 40
14.7998897804
  9
$CELTYPE
  6
BYLAYER
  9
$DIMSCALE
 40
1.0
  9
$DIMASZ
 40
1.9111427919
  9
$DIMEXO
 40
1.0
  9
$DIMDLI
 40
10.2253783937
  9
$DIMEXE
 40
1.0
  9
$DIMCEN
 40
2.4218001459
  9
$DIMLFAC
 40
1.0
  9
$DIMBLK
  1
_FILLED
  9
$DIMALT
 70
0
  9
$DIMALTF
 40
0.0393700787
  9
$DIMTXT
 40
2.6755999086
  9
$DIMTOL
 70
1
  9
$DIMLIM
 70
0
  9
$DIMTFAC
 40
1.0
  9
$DIMTP
 40
0.01
  9
$DIMTM
 40
0.01
  9
$DIMGAP
 40
0.625
  9
$DIMDSEP
 70
46
  9
$AUNITS
 70
0
  9
$PDMODE
 70
3
  9
$PDSIZE
 40
0.3125
  9
$HANDSEED
  5
2C0
  9
$TILEMODE
 70
1
  9
$MEASUREMENT
 70
1
  9
$INSUNITS
 70
4
  0
ENDSEC
  0
SECTION
  2
CLASSES
  0
CLASS
  1
ACDBDICTIONARYWDFLT
  2
AcDbDictionaryWithDefault
  3
AutoCAD 2000
 90
0
 91
1
280
0
281
0
  0
CLASS
  1
ACDBPLACEHOLDER
  2
AcDbPlaceHolder
  3
AutoCAD 2000
 90
0
 91
1
280
0
281
0
  0
CLASS
  1
LAYOUT
  2
AcDbLayout
  3
AutoCAD 2000
 90
0
 91
0
280
0
281
0
  0
ENDSEC
  0
SECTION
  2
TABLES
  0
TABLE
  2
VPORT
  5
8
100
AcDbSymbolTable
 70
2
  0
VPORT
  5
1F4
100
AcDbSymbolTableRecord
100
AcDbViewportTableRecord
  2
*ACTIVE
 70
0
 10
0.0
 20
0.0
 11
1.0
 21
1.0
 12
80.2679972592
 22
113.5218818381
 13
0.0
 23
0.0
 14
1.0
 24
1.0
 15
0.0
 25
0.0
 16
0.0
 26
0.0
 36
1.0
 17
0.0
 27
0.0
 37
0.0
 40
227.0437636761
 41
0.7070707071
 42
50.0
 43
0.0
 44
0.0
 50
0.0
 51
0.0
 71
0
 72
100
 73
1
 74
1
 75
0
 76
0
 77
0
 78
0
  0
ENDTAB
  0
TABLE
  2
LTYPE
  5
5
100
AcDbSymbolTable
 70
6
  0
LTYPE
  5
14
100
AcDbSymbolTableRecord
100
AcDbLinetypeTableRecord
  2
BYBLOCK
 70
0
  3

 72
65
 73
0
 40
0.0
  0
LTYPE
  5
15
100
AcDbSymbolTableRecord
100
AcDbLinetypeTableRecord
  2
BYLAYER
 70
0
  3

 72
65
 73
0
 40
0.0
  0
LTYPE
  5
16
100
AcDbSymbolTableRecord
100
AcDbLinetypeTableRecord
  2
CONTINUOUS
 70
64
  3
Solid line
 72
65
 73
0
 40
0.0
  0
LTYPE
  5
1F5
100
AcDbSymbolTableRecord
100
AcDbLinetypeTableRecord
  2
CENTER
 70
64
  3
____ _ ____ _ ____ _ ____ _ ____ _ ____ _ ____
 72
65
 73
4
 40
0.6
 49
0.375
 74
0
 49
-0.075
 74
0
 49
0.075
 74
0
 49
-0.075
 74
0
  0
LTYPE
  5
1F6
100
AcDbSymbolTableRecord
100
AcDbLinetypeTableRecord
  2
HIDDEN
 70
64
  3
- - - - - - - - - - - - - - - - - - - -
 72
65
 73
2
 40
0.2
 49
0.1
 74
0
 49
-0.1
 74
0
  0
LTYPE
  5
1F7
100
AcDbSymbolTableRecord
100
AcDbLinetypeTableRecord
  2
PHANTOM
 70
64
  3
_____ _ _ _____ _ _ _____ _ _ _____
 72
65
 73
6
 40
0.8
 49
0.45
 74
0
 49
-0.05
 74
0
 49
0.1
 74
0
 49
-0.05
 74
0
 49
0.1
 74
0
 49
-0.05
 74
0
  0
LTYPE
  5
1F8
100
AcDbSymbolTableRecord
100
AcDbLinetypeTableRecord
  2
DOT
 70
64
  3
. . . . . . . . . . . . . . . . . . . .
 72
65
 73
2
 40
0.2
 49
0.1
 74
0
 49
-0.1
 74
0
  0
LTYPE
  5
1F9
100
AcDbSymbolTableRecord
100
AcDbLinetypeTableRecord
  2
DASHED
 70
64
  3
- - - - - - - - - - - - - - - - - - - -
 72
65
 73
2
 40
0.2
 49
0.1
 74
0
 49
-0.1
 74
0
  0
ENDTAB
  0
TABLE
  2
LAYER
  5
2
100
AcDbSymbolTable
 70
36
  0
LAYER
  5
10
100
AcDbSymbolTableRecord
100
AcDbLayerTableRecord
  2
0
 70
0
 62
7
  6
CONTINUOUS
370
-3
390
F
  0
LAYER
  5
1FA
100
AcDbSymbolTableRecord
100
AcDbLayerTableRecord
  2
DEFAULT_1
 70
0
 62
7
  6
CENTER
370
-3
390
F
  0
LAYER
  5
1FB
100
AcDbSymbolTableRecord
100
AcDbLayerTableRecord
  2
DEFAULT_2
 70
0
 62
8
  6
HIDDEN
370
-3
390
F
  0
LAYER
  5
1FC
100
AcDbSymbolTableRecord
100
AcDbLayerTableRecord
  2
DEFAULT_3
 70
0
 62
7
  6
PHANTOM
370
-3
390
F
  0
LAYER
  5
1FD
100
AcDbSymbolTableRecord
100
AcDbLayerTableRecord
  2
00_COMPONENTS
 70
0
 62
7
  6
CONTINUOUS
370
-3
390
F
  0
LAYER
  5
1FE
100
AcDbSymbolTableRecord
100
AcDbLayerTableRecord
  2
01_1_DEFAULT_DATUMS
 70
0
 62
7
  6
CONTINUOUS
370
-3
390
F
  0
LAYER
  5
1FF
100
AcDbSymbolTableRecord
100
AcDbLayerTableRecord
  2
01_PLANES
 70
0
 62
7
  6
CONTINUOUS
370
-3
390
F
  0
LAYER
  5
200
100
AcDbSymbolTableRecord
100
AcDbLayerTableRecord
  2
02_COORD_SYS
 70
0
 62
7
  6
CONTINUOUS
370
-3
390
F
  0
LAYER
  5
201
100
AcDbSymbolTableRecord
100
AcDbLayerTableRecord
  2
03_AXES
 70
0
 62
7
  6
CONTINUOUS
370
-3
390
F
  0
LAYER
  5
202
100
AcDbSymbolTableRecord
100
AcDbLayerTableRecord
  2
04_POINTS
 70
0
 62
7
  6
CONTINUOUS
370
-3
390
F
  0
LAYER
  5
203
100
AcDbSymbolTableRecord
100
AcDbLayerTableRecord
  2
05_CURVES
 70
0
 62
7
  6
CONTINUOUS
370
-3
390
F
  0
LAYER
  5
204
100
AcDbSymbolTableRecord
100
AcDbLayerTableRecord
  2
06_SURFS
 70
0
 62
7
  6
CONTINUOUS
370
-3
390
F
  0
LAYER
  5
205
100
AcDbSymbolTableRecord
100
AcDbLayerTableRecord
  2
07_COSMETICS
 70
0
 62
7
  6
CONTINUOUS
370
-3
390
F
  0
LAYER
  5
206
100
AcDbSymbolTableRecord
100
AcDbLayerTableRecord
  2
10_NOTES
 70
0
 62
7
  6
CONTINUOUS
370
-3
390
F
  0
LAYER
  5
207
100
AcDbSymbolTableRecord
100
AcDbLayerTableRecord
  2
11_NOTES_PUB
 70
0
 62
7
  6
CONTINUOUS
370
-3
390
F
  0
LAYER
  5
208
100
AcDbSymbolTableRecord
100
AcDbLayerTableRecord
  2
13_REF_GTOL
 70
0
 62
7
  6
CONTINUOUS
370
-3
390
F
  0
LAYER
  5
209
100
AcDbSymbolTableRecord
100
AcDbLayerTableRecord
  2
16_MISC
 70
0
 62
7
  6
CONTINUOUS
370
-3
390
F
  0
LAYER
  5
20A
100
AcDbSymbolTableRecord
100
AcDbLayerTableRecord
  2
17_NO_PRINT
 70
0
 62
7
  6
CONTINUOUS
370
-3
390
F
  0
LAYER
  5
20B
100
AcDbSymbolTableRecord
100
AcDbLayerTableRecord
  2
18_DATUM_CAMS_JOINTS
 70
0
 62
7
  6
CONTINUOUS
370
-3
390
F
  0
LAYER
  5
20C
100
AcDbSymbolTableRecord
100
AcDbLayerTableRecord
  2
19_DATUM_FUNCTIONAL
 70
0
 62
7
  6
CONTINUOUS
370
-3
390
F
  0
LAYER
  5
20D
100
AcDbSymbolTableRecord
100
AcDbLayerTableRecord
  2
20_DATUM_KINEMATIC_SCHEME
 70
0
 62
7
  6
CONTINUOUS
370
-3
390
F
  0
LAYER
  5
20E
100
AcDbSymbolTableRecord
100
AcDbLayerTableRecord
  2
SHELL1
 70
0
 62
7
  6
CONTINUOUS
370
-3
390
F
  0
ENDTAB
  0
TABLE
  2
STYLE
  5
3
100
AcDbSymbolTable
 70
1
  0
STYLE
  5
11
100
AcDbSymbolTableRecord
100
AcDbTextStyleTableRecord
  2
STANDARD
 70
0
 40
0.0
 41
0.8
 50
0.0
 71
0
 42
0.2
  3
txt
  4

  0
STYLE
  5
20F
100
AcDbSymbolTableRecord
100
AcDbTextStyleTableRecord
  2
TEXTSTYLE_1
 70
0
 40
0.0
 41
0.8
 50
0.0
 71
0
 42
0.2
  3
gdt
  4

  0
ENDTAB
  0
TABLE
  2
VIEW
  5
6
100
AcDbSymbolTable
 70
0
  0
ENDTAB
  0
TABLE
  2
UCS
  5
7
100
AcDbSymbolTable
 70
0
  0
ENDTAB
  0
TABLE
  2
APPID
  5
9
100
AcDbSymbolTable
 70
1
  0
APPID
  5
210
100
AcDbSymbolTableRecord
100
AcDbRegAppTableRecord
  2
ACAD
 70
0
  0
ENDTAB
  0
TABLE
  2
BLOCK_RECORD
  5
1
100
AcDbSymbolTable
 70
0
  0
BLOCK_RECORD
  5
211
100
AcDbSymbolTableRecord
100
AcDbBlockTableRecord
  2
*Model_Space
  0
BLOCK_RECORD
  5
212
100
AcDbSymbolTableRecord
100
AcDbBlockTableRecord
  2
*Paper_Space
  0
BLOCK_RECORD
  5
213
100
AcDbSymbolTableRecord
100
AcDbBlockTableRecord
  2
_FILLED
  0
ENDTAB
  0
TABLE
  2
DIMSTYLE
  5
A
100
AcDbSymbolTable
 70
1
100
AcDbDimStyleTable
 71
0
  0
DIMSTYLE
105
214
100
AcDbSymbolTableRecord
100
AcDbDimStyleTableRecord
  2
STANDARD
 70
0
  3

  4

 40
1.0
 41
1.9111427919
 42
1.0
 43
0.38
 44
1.0
 45
0.0
 46
0.0
 47
0.01
 48
0.01
140
2.6755999086
141
0.09
142
0.0
143
25.4
144
1.0
145
0.0
146
1.0
147
0.625
 71
1
 72
0
 73
0
 74
0
 75
0
 76
0
 77
1
 78
8
 79
2
170
0
171
1
172
0
173
0
174
0
175
0
176
0
177
0
178
0
270
2
179
2
271
2
272
2
273
2
274
2
275
0
280
0
281
0
282
0
283
1
284
8
285
0
286
0
287
3
288
0
340
11
278
46
341
213
342
213
343
213
344
213
  0
ENDTAB
  0
ENDSEC
  0
SECTION
  2
BLOCKS
  0
BLOCK
  5
20
100
AcDbEntity
  8
0
100
AcDbBlockBegin
  2
*Model_Space
 70
0
 10
0.0
 20
0.0
 30
0.0
  3
*Model_Space
  1

  0
ENDBLK
  5
21
100
AcDbEntity
  8
0
100
AcDbBlockEnd
  0
BLOCK
  5
1C
100
AcDbEntity
  8
0
100
AcDbBlockBegin
  2
*Paper_Space
 70
0
 10
0.0
 20
0.0
 30
0.0
  3
*Paper_Space
  1

  0
ENDBLK
  5
1D
100
AcDbEntity
  8
0
100
AcDbBlockEnd
  0
BLOCK
  5
215
100
AcDbEntity
  8
0
100
AcDbBlockBegin
  2
_FILLED
 70
64
 10
0.0
 20
0.0
  3
_FILLED
  1

  0
SOLID
  5
216
100
AcDbEntity
  8
0
  6
BYBLOCK
 62
0
100
AcDbTrace
 10
0.0
 20
0.0
 11
-1.0
 21
0.25
 12
-1.0
 22
-0.25
 13
-1.0
 23
-0.25
  0
ENDBLK
  5
217
100
AcDbEntity
  8
0
  6
BYBLOCK
 62
0
100
AcDbBlockEnd
  0
ENDSEC
  0
SECTION
  2
ENTITIES
  0
LINE
  5
218
100
AcDbEntity
  8
SHELL1
100
AcDbLine
 62
7
  6
CONTINUOUS
 10
17.0458966028
 20
164.8776805226
 11
17.0458966028
 21
63.2776805277
  0
LINE
  5
219
100
AcDbEntity
  8
SHELL1
100
AcDbLine
 62
7
  6
CONTINUOUS
 10
17.0712966028
 20
152.1776805226
 11
17.0712966028
 21
75.9776805277
  0
LINE
  5
21A
100
AcDbEntity
  8
SHELL1
100
AcDbLine
 62
7
  6
CONTINUOUS
 10
24.2848966028
 20
164.8776805252
 11
24.2848966028
 21
153.0983074613
  0
LINE
  5
21B
100
AcDbEntity
  8
SHELL1
100
AcDbLine
 62
7
  6
CONTINUOUS
 10
24.2848966028
 20
144.907053589
 11
24.2848966028
 21
118.1733074613
  0
LINE
  5
21C
100
AcDbEntity
  8
SHELL1
100
AcDbLine
 62
7
  6
CONTINUOUS
 10
24.2848966028
 20
109.982053589
 11
24.2848966028
 21
83.2483074613
  0
LINE
  5
21D
100
AcDbEntity
  8
SHELL1
100
AcDbLine
 62
7
  6
CONTINUOUS
 10
24.2848966028
 20
75.057053589
 11
24.2848966028
 21
63.2776805252
  0
LINE
  5
21E
100
AcDbEntity
  8
SHELL1
100
AcDbLine
 62
7
  6
CONTINUOUS
 10
26.8248966028
 20
149.0026805252
 11
26.8248966028
 21
79.1526805252
  0
LINE
  5
21F
100
AcDbEntity
  8
SHELL1
100
AcDbLine
 62
7
  6
CONTINUOUS
 10
31.2825966053
 20
149.0026805252
 11
31.2825966053
 21
125.5076805252
  0
LINE
  5
220
100
AcDbEntity
  8
SHELL1
100
AcDbLine
 62
7
  6
CONTINUOUS
 10
31.2825966053
 20
102.6476805252
 11
31.2825966053
 21
79.1526805252
  0
LINE
  5
221
100
AcDbEntity
  8
SHELL1
100
AcDbLine
 62
7
  6
CONTINUOUS
 10
38.0177223934
 20
143.6051805252
 11
34.3515481841
 21
137.2551805252
  0
LINE
  5
222
100
AcDbEntity
  8
SHELL1
100
AcDbLine
 62
7
  6
CONTINUOUS
 10
144.0458966028
 20
63.2776805277
 11
17.0458966028
 21
63.2776805277
  0
LINE
  5
223
100
AcDbEntity
  8
SHELL1
100
AcDbLine
 62
7
  6
CONTINUOUS
 10
34.3515481841
 20
90.9001805252
 11
38.0177223934
 21
84.5501805252
  0
LINE
  5
224
100
AcDbEntity
  8
SHELL1
100
AcDbLine
 62
7
  6
CONTINUOUS
 10
33.8225966028
 20
149.0026805252
 11
33.8225966028
 21
125.5076805252
  0
LINE
  5
225
100
AcDbEntity
  8
SHELL1
100
AcDbLine
 62
7
  6
CONTINUOUS
 10
33.8225966028
 20
102.6476805252
 11
33.8225966028
 21
79.1526805252
  0
LINE
  5
226
100
AcDbEntity
  8
SHELL1
100
AcDbLine
 62
7
  6
CONTINUOUS
 10
49.0162450215
 20
137.2551805252
 11
45.3500708121
 21
130.9051805252
  0
LINE
  5
227
100
AcDbEntity
  8
SHELL1
100
AcDbLine
 62
7
  6
CONTINUOUS
 10
17.0458966028
 20
73.4376805252
 11
24.2848966028
 21
73.4376805252
  0
LINE
  5
228
100
AcDbEntity
  8
SHELL1
100
AcDbLine
 62
7
  6
CONTINUOUS
 10
59.0828966028
 20
73.4376805252
 11
63.1468966028
 21
73.4376805252
  0
LINE
  5
229
100
AcDbEntity
  8
SHELL1
100
AcDbLine
 62
7
  6
CONTINUOUS
 10
97.9448966028
 20
73.4376805252
 11
102.0088966028
 21
73.4376805252
  0
LINE
  5
22A
100
AcDbEntity
  8
SHELL1
100
AcDbLine
 62
7
  6
CONTINUOUS
 10
136.8068966028
 20
73.4376805252
 11
144.0458966028
 21
73.4376805252
  0
LINE
  5
22B
100
AcDbEntity
  8
SHELL1
100
AcDbLine
 62
7
  6
CONTINUOUS
 10
17.0712966028
 20
75.9776805277
 11
17.0458966028
 21
75.9776805277
  0
LINE
  5
22C
100
AcDbEntity
  8
SHELL1
100
AcDbLine
 62
7
  6
CONTINUOUS
 10
45.3500708121
 20
97.2501805252
 11
49.0162450215
 21
90.9001805252
  0
LINE
  5
22D
100
AcDbEntity
  8
SHELL1
100
AcDbLine
 62
7
  6
CONTINUOUS
 10
134.2668966028
 20
79.1526805252
 11
104.5488966028
 21
79.1526805252
  0
LINE
  5
22E
100
AcDbEntity
  8
SHELL1
100
AcDbLine
 62
7
  6
CONTINUOUS
 10
95.4048966028
 20
79.1526805252
 11
65.6868966028
 21
79.1526805252
  0
LINE
  5
22F
100
AcDbEntity
  8
SHELL1
100
AcDbLine
 62
7
  6
CONTINUOUS
 10
56.5428966028
 20
79.1526805252
 11
26.8248966028
 21
79.1526805252
  0
LINE
  5
230
100
AcDbEntity
  8
SHELL1
100
AcDbLine
 62
7
  6
CONTINUOUS
 10
49.5451966028
 20
149.0026805252
 11
49.5451966028
 21
125.5076805252
  0
LINE
  5
231
100
AcDbEntity
  8
SHELL1
100
AcDbLine
 62
7
  6
CONTINUOUS
 10
49.5451966028
 20
102.6476805252
 11
49.5451966028
 21
79.1526805252
  0
LINE
  5
232
100
AcDbEntity
  8
SHELL1
100
AcDbLine
 62
7
  6
CONTINUOUS
 10
52.0851966002
 20
149.0026805252
 11
52.0851966002
 21
125.5076805252
  0
LINE
  5
233
100
AcDbEntity
  8
SHELL1
100
AcDbLine
 62
7
  6
CONTINUOUS
 10
52.0851966002
 20
102.6476805252
 11
52.0851966002
 21
79.1526805252
  0
LINE
  5
234
100
AcDbEntity
  8
SHELL1
100
AcDbLine
 62
7
  6
CONTINUOUS
 10
38.0177223934
 20
97.2501805252
 11
34.3515481841
 21
90.9001805252
  0
LINE
  5
235
100
AcDbEntity
  8
SHELL1
100
AcDbLine
 62
7
  6
CONTINUOUS
 10
17.0712966028
 20
83.0896805252
 11
17.0458966028
 21
83.0896805252
  0
LINE
  5
236
100
AcDbEntity
  8
SHELL1
100
AcDbLine
 62
7
  6
CONTINUOUS
 10
123.0740708121
 20
84.5501805252
 11
115.7417223934
 21
84.5501805252
  0
LINE
  5
237
100
AcDbEntity
  8
SHELL1
100
AcDbLine
 62
7
  6
CONTINUOUS
 10
84.2120708121
 20
84.5501805252
 11
76.8797223934
 21
84.5501805252
  0
LINE
  5
238
100
AcDbEntity
  8
SHELL1
100
AcDbLine
 62
7
  6
CONTINUOUS
 10
45.3500708121
 20
84.5501805252
 11
38.0177223934
 21
84.5501805252
  0
LINE
  5
239
100
AcDbEntity
  8
SHELL1
100
AcDbLine
 62
7
  6
CONTINUOUS
 10
134.2668966028
 20
85.5026805252
 11
104.5488966028
 21
85.5026805252
  0
LINE
  5
23A
100
AcDbEntity
  8
SHELL1
100
AcDbLine
 62
7
  6
CONTINUOUS
 10
95.4048966028
 20
85.5026805252
 11
65.6868966028
 21
85.5026805252
  0
LINE
  5
23B
100
AcDbEntity
  8
SHELL1
100
AcDbLine
 62
7
  6
CONTINUOUS
 10
56.5428966028
 20
85.5026805252
 11
26.8248966028
 21
85.5026805252
  0
LINE
  5
23C
100
AcDbEntity
  8
SHELL1
100
AcDbLine
 62
7
  6
CONTINUOUS
 10
34.3515481841
 20
137.2551805252
 11
38.0177223934
 21
130.9051805252
  0
LINE
  5
23D
100
AcDbEntity
  8
SHELL1
100
AcDbLine
 62
7
  6
CONTINUOUS
 10
56.5428966028
 20
149.0026805252
 11
56.5428966028
 21
79.1526805252
  0
LINE
  5
23E
100
AcDbEntity
  8
SHELL1
100
AcDbLine
 62
7
  6
CONTINUOUS
 10
59.0828966028
 20
164.8776805252
 11
59.0828966028
 21
153.0983074613
  0
LINE
  5
23F
100
AcDbEntity
  8
SHELL1
100
AcDbLine
 62
7
  6
CONTINUOUS
 10
59.0828966028
 20
144.907053589
 11
59.0828966028
 21
118.1733074613
  0
LINE
  5
240
100
AcDbEntity
  8
SHELL1
100
AcDbLine
 62
7
  6
CONTINUOUS
 10
59.0828966028
 20
109.982053589
 11
59.0828966028
 21
83.2483074613
  0
LINE
  5
241
100
AcDbEntity
  8
SHELL1
100
AcDbLine
 62
7
  6
CONTINUOUS
 10
59.0828966028
 20
75.057053589
 11
59.0828966028
 21
63.2776805252
  0
LINE
  5
242
100
AcDbEntity
  8
SHELL1
100
AcDbLine
 62
7
  6
CONTINUOUS
 10
63.1468966028
 20
164.8776805252
 11
63.1468966028
 21
153.0983074613
  0
LINE
  5
243
100
AcDbEntity
  8
SHELL1
100
AcDbLine
 62
7
  6
CONTINUOUS
 10
63.1468966028
 20
144.907053589
 11
63.1468966028
 21
118.1733074613
  0
LINE
  5
244
100
AcDbEntity
  8
SHELL1
100
AcDbLine
 62
7
  6
CONTINUOUS
 10
63.1468966028
 20
109.982053589
 11
63.1468966028
 21
83.2483074613
  0
LINE
  5
245
100
AcDbEntity
  8
SHELL1
100
AcDbLine
 62
7
  6
CONTINUOUS
 10
63.1468966028
 20
75.057053589
 11
63.1468966028
 21
63.2776805252
  0
LINE
  5
246
100
AcDbEntity
  8
SHELL1
100
AcDbLine
 62
7
  6
CONTINUOUS
 10
76.8797223934
 20
143.6051805252
 11
73.2135481841
 21
137.2551805252
  0
LINE
  5
247
100
AcDbEntity
  8
SHELL1
100
AcDbLine
 62
7
  6
CONTINUOUS
 10
49.0162450215
 20
90.9001805252
 11
45.3500708121
 21
84.5501805252
  0
LINE
  5
248
100
AcDbEntity
  8
SHELL1
100
AcDbLine
 62
7
  6
CONTINUOUS
 10
123.0740708121
 20
97.2501805252
 11
115.7417223934
 21
97.2501805252
  0
LINE
  5
249
100
AcDbEntity
  8
SHELL1
100
AcDbLine
 62
7
  6
CONTINUOUS
 10
84.2120708121
 20
97.2501805252
 11
76.8797223934
 21
97.2501805252
  0
LINE
  5
24A
100
AcDbEntity
  8
SHELL1
100
AcDbLine
 62
7
  6
CONTINUOUS
 10
45.3500708121
 20
97.2501805252
 11
38.0177223934
 21
97.2501805252
  0
LINE
  5
24B
100
AcDbEntity
  8
SHELL1
100
AcDbLine
 62
7
  6
CONTINUOUS
 10
73.2135481841
 20
90.9001805252
 11
76.8797223934
 21
84.5501805252
  0
LINE
  5
24C
100
AcDbEntity
  8
SHELL1
100
AcDbLine
 62
7
  6
CONTINUOUS
 10
45.3500708121
 20
143.6051805252
 11
49.0162450215
 21
137.2551805252
  0
LINE
  5
24D
100
AcDbEntity
  8
SHELL1
100
AcDbLine
 62
7
  6
CONTINUOUS
 10
65.6868966028
 20
149.0026805252
 11
65.6868966028
 21
79.1526805252
  0
LINE
  5
24E
100
AcDbEntity
  8
SHELL1
100
AcDbLine
 62
7
  6
CONTINUOUS
 10
70.1445966053
 20
149.0026805252
 11
70.1445966053
 21
125.5076805252
  0
LINE
  5
24F
100
AcDbEntity
  8
SHELL1
100
AcDbLine
 62
7
  6
CONTINUOUS
 10
70.1445966053
 20
102.6476805252
 11
70.1445966053
 21
79.1526805252
  0
LINE
  5
250
100
AcDbEntity
  8
SHELL1
100
AcDbLine
 62
7
  6
CONTINUOUS
 10
134.2668966028
 20
102.6476805252
 11
104.5488966028
 21
102.6476805252
  0
LINE
  5
251
100
AcDbEntity
  8
SHELL1
100
AcDbLine
 62
7
  6
CONTINUOUS
 10
95.4048966028
 20
102.6476805252
 11
65.6868966028
 21
102.6476805252
  0
LINE
  5
252
100
AcDbEntity
  8
SHELL1
100
AcDbLine
 62
7
  6
CONTINUOUS
 10
56.5428966028
 20
102.6476805252
 11
26.8248966028
 21
102.6476805252
  0
LINE
  5
253
100
AcDbEntity
  8
SHELL1
100
AcDbLine
 62
7
  6
CONTINUOUS
 10
72.6845966028
 20
149.0026805252
 11
72.6845966028
 21
125.5076805252
  0
LINE
  5
254
100
AcDbEntity
  8
SHELL1
100
AcDbLine
 62
7
  6
CONTINUOUS
 10
72.6845966028
 20
102.6476805252
 11
72.6845966028
 21
79.1526805252
  0
LINE
  5
255
100
AcDbEntity
  8
SHELL1
100
AcDbLine
 62
7
  6
CONTINUOUS
 10
87.8782450215
 20
137.2551805252
 11
84.2120708121
 21
130.9051805252
  0
LINE
  5
256
100
AcDbEntity
  8
SHELL1
100
AcDbLine
 62
7
  6
CONTINUOUS
 10
84.2120708121
 20
97.2501805252
 11
87.8782450215
 21
90.9001805252
  0
LINE
  5
257
100
AcDbEntity
  8
SHELL1
100
AcDbLine
 62
7
  6
CONTINUOUS
 10
76.8797223934
 20
97.2501805252
 11
73.2135481841
 21
90.9001805252
  0
LINE
  5
258
100
AcDbEntity
  8
SHELL1
100
AcDbLine
 62
7
  6
CONTINUOUS
 10
73.2135481841
 20
137.2551805252
 11
76.8797223934
 21
130.9051805252
  0
LINE
  5
259
100
AcDbEntity
  8
SHELL1
100
AcDbLine
 62
7
  6
CONTINUOUS
 10
88.4071966028
 20
149.0026805252
 11
88.4071966028
 21
125.5076805252
  0
LINE
  5
25A
100
AcDbEntity
  8
SHELL1
100
AcDbLine
 62
7
  6
CONTINUOUS
 10
88.4071966028
 20
102.6476805252
 11
88.4071966028
 21
79.1526805252
  0
LINE
  5
25B
100
AcDbEntity
  8
SHELL1
100
AcDbLine
 62
7
  6
CONTINUOUS
 10
90.9471966002
 20
149.0026805252
 11
90.9471966002
 21
125.5076805252
  0
LINE
  5
25C
100
AcDbEntity
  8
SHELL1
100
AcDbLine
 62
7
  6
CONTINUOUS
 10
90.9471966002
 20
102.6476805252
 11
90.9471966002
 21
79.1526805252
  0
LINE
  5
25D
100
AcDbEntity
  8
SHELL1
100
AcDbLine
 62
7
  6
CONTINUOUS
 10
134.2668966028
 20
125.5076805252
 11
104.5488966028
 21
125.5076805252
  0
LINE
  5
25E
100
AcDbEntity
  8
SHELL1
100
AcDbLine
 62
7
  6
CONTINUOUS
 10
95.4048966028
 20
125.5076805252
 11
65.6868966028
 21
125.5076805252
  0
LINE
  5
25F
100
AcDbEntity
  8
SHELL1
100
AcDbLine
 62
7
  6
CONTINUOUS
 10
56.5428966028
 20
125.5076805252
 11
26.8248966028
 21
125.5076805252
  0
LINE
  5
260
100
AcDbEntity
  8
SHELL1
100
AcDbLine
 62
7
  6
CONTINUOUS
 10
95.4048966028
 20
149.0026805252
 11
95.4048966028
 21
79.1526805252
  0
LINE
  5
261
100
AcDbEntity
  8
SHELL1
100
AcDbLine
 62
7
  6
CONTINUOUS
 10
115.7417223934
 20
143.6051805252
 11
112.0755481841
 21
137.2551805252
  0
LINE
  5
262
100
AcDbEntity
  8
SHELL1
100
AcDbLine
 62
7
  6
CONTINUOUS
 10
123.0740708121
 20
130.9051805252
 11
115.7417223934
 21
130.9051805252
  0
LINE
  5
263
100
AcDbEntity
  8
SHELL1
100
AcDbLine
 62
7
  6
CONTINUOUS
 10
84.2120708121
 20
130.9051805252
 11
76.8797223934
 21
130.9051805252
  0
LINE
  5
264
100
AcDbEntity
  8
SHELL1
100
AcDbLine
 62
7
  6
CONTINUOUS
 10
45.3500708121
 20
130.9051805252
 11
38.0177223934
 21
130.9051805252
  0
LINE
  5
265
100
AcDbEntity
  8
SHELL1
100
AcDbLine
 62
7
  6
CONTINUOUS
 10
115.7417223934
 20
84.5501805252
 11
112.0755481841
 21
90.9001805252
  0
LINE
  5
266
100
AcDbEntity
  8
SHELL1
100
AcDbLine
 62
7
  6
CONTINUOUS
 10
97.9448966028
 20
164.8776805226
 11
97.9448966028
 21
153.0983074613
  0
LINE
  5
267
100
AcDbEntity
  8
SHELL1
100
AcDbLine
 62
7
  6
CONTINUOUS
 10
97.9448966028
 20
144.907053589
 11
97.9448966028
 21
118.1733074613
  0
LINE
  5
268
100
AcDbEntity
  8
SHELL1
100
AcDbLine
 62
7
  6
CONTINUOUS
 10
97.9448966028
 20
109.982053589
 11
97.9448966028
 21
83.2483074613
  0
LINE
  5
269
100
AcDbEntity
  8
SHELL1
100
AcDbLine
 62
7
  6
CONTINUOUS
 10
97.9448966028
 20
75.057053589
 11
97.9448966028
 21
63.2776805252
  0
LINE
  5
26A
100
AcDbEntity
  8
SHELL1
100
AcDbLine
 62
7
  6
CONTINUOUS
 10
102.0088966028
 20
164.8776805252
 11
102.0088966028
 21
153.0983074613
  0
LINE
  5
26B
100
AcDbEntity
  8
SHELL1
100
AcDbLine
 62
7
  6
CONTINUOUS
 10
102.0088966028
 20
144.907053589
 11
102.0088966028
 21
118.1733074613
  0
LINE
  5
26C
100
AcDbEntity
  8
SHELL1
100
AcDbLine
 62
7
  6
CONTINUOUS
 10
102.0088966028
 20
109.982053589
 11
102.0088966028
 21
83.2483074613
  0
LINE
  5
26D
100
AcDbEntity
  8
SHELL1
100
AcDbLine
 62
7
  6
CONTINUOUS
 10
102.0088966028
 20
75.057053589
 11
102.0088966028
 21
63.2776805252
  0
LINE
  5
26E
100
AcDbEntity
  8
SHELL1
100
AcDbLine
 62
7
  6
CONTINUOUS
 10
87.8782450215
 20
90.9001805252
 11
84.2120708121
 21
84.5501805252
  0
LINE
  5
26F
100
AcDbEntity
  8
SHELL1
100
AcDbLine
 62
7
  6
CONTINUOUS
 10
84.2120708121
 20
143.6051805252
 11
87.8782450215
 21
137.2551805252
  0
LINE
  5
270
100
AcDbEntity
  8
SHELL1
100
AcDbLine
 62
7
  6
CONTINUOUS
 10
104.5488966028
 20
149.0026805252
 11
104.5488966028
 21
79.1526805252
  0
LINE
  5
271
100
AcDbEntity
  8
SHELL1
100
AcDbLine
 62
7
  6
CONTINUOUS
 10
109.0065966053
 20
149.0026805252
 11
109.0065966053
 21
125.5076805252
  0
LINE
  5
272
100
AcDbEntity
  8
SHELL1
100
AcDbLine
 62
7
  6
CONTINUOUS
 10
109.0065966053
 20
102.6476805252
 11
109.0065966053
 21
79.1526805252
  0
LINE
  5
273
100
AcDbEntity
  8
SHELL1
100
AcDbLine
 62
7
  6
CONTINUOUS
 10
111.5465966028
 20
149.0026805252
 11
111.5465966028
 21
125.5076805252
  0
LINE
  5
274
100
AcDbEntity
  8
SHELL1
100
AcDbLine
 62
7
  6
CONTINUOUS
 10
111.5465966028
 20
102.6476805252
 11
111.5465966028
 21
79.1526805252
  0
LINE
  5
275
100
AcDbEntity
  8
SHELL1
100
AcDbLine
 62
7
  6
CONTINUOUS
 10
126.7402450215
 20
137.2551805252
 11
123.0740708121
 21
130.9051805252
  0
LINE
  5
276
100
AcDbEntity
  8
SHELL1
100
AcDbLine
 62
7
  6
CONTINUOUS
 10
134.2668966028
 20
142.6526805252
 11
104.5488966028
 21
142.6526805252
  0
LINE
  5
277
100
AcDbEntity
  8
SHELL1
100
AcDbLine
 62
7
  6
CONTINUOUS
 10
95.4048966028
 20
142.6526805252
 11
65.6868966028
 21
142.6526805252
  0
LINE
  5
278
100
AcDbEntity
  8
SHELL1
100
AcDbLine
 62
7
  6
CONTINUOUS
 10
56.5428966028
 20
142.6526805252
 11
26.8248966028
 21
142.6526805252
  0
LINE
  5
279
100
AcDbEntity
  8
SHELL1
100
AcDbLine
 62
7
  6
CONTINUOUS
 10
123.0740708121
 20
143.6051805252
 11
115.7417223934
 21
143.6051805252
  0
LINE
  5
27A
100
AcDbEntity
  8
SHELL1
100
AcDbLine
 62
7
  6
CONTINUOUS
 10
84.2120708121
 20
143.6051805252
 11
76.8797223934
 21
143.6051805252
  0
LINE
  5
27B
100
AcDbEntity
  8
SHELL1
100
AcDbLine
 62
7
  6
CONTINUOUS
 10
45.3500708121
 20
143.6051805252
 11
38.0177223934
 21
143.6051805252
  0
LINE
  5
27C
100
AcDbEntity
  8
SHELL1
100
AcDbLine
 62
7
  6
CONTINUOUS
 10
17.0712966028
 20
145.0656805252
 11
17.0458966028
 21
145.0656805252
  0
LINE
  5
27D
100
AcDbEntity
  8
SHELL1
100
AcDbLine
 62
7
  6
CONTINUOUS
 10
126.7402450215
 20
90.9001805252
 11
123.0740708121
 21
97.2501805252
  0
LINE
  5
27E
100
AcDbEntity
  8
SHELL1
100
AcDbLine
 62
7
  6
CONTINUOUS
 10
134.2668966028
 20
149.0026805252
 11
104.5488966028
 21
149.0026805252
  0
LINE
  5
27F
100
AcDbEntity
  8
SHELL1
100
AcDbLine
 62
7
  6
CONTINUOUS
 10
95.4048966028
 20
149.0026805252
 11
65.6868966028
 21
149.0026805252
  0
LINE
  5
280
100
AcDbEntity
  8
SHELL1
100
AcDbLine
 62
7
  6
CONTINUOUS
 10
56.5428966028
 20
149.0026805252
 11
26.8248966028
 21
149.0026805252
  0
LINE
  5
281
100
AcDbEntity
  8
SHELL1
100
AcDbLine
 62
7
  6
CONTINUOUS
 10
17.0712966028
 20
152.1776805226
 11
17.0458966028
 21
152.1776805226
  0
LINE
  5
282
100
AcDbEntity
  8
SHELL1
100
AcDbLine
 62
7
  6
CONTINUOUS
 10
115.7417223934
 20
97.2501805252
 11
112.0755481841
 21
90.9001805252
  0
LINE
  5
283
100
AcDbEntity
  8
SHELL1
100
AcDbLine
 62
7
  6
CONTINUOUS
 10
144.0458966028
 20
154.7176805252
 11
136.8068966028
 21
154.7176805252
  0
LINE
  5
284
100
AcDbEntity
  8
SHELL1
100
AcDbLine
 62
7
  6
CONTINUOUS
 10
102.0088966028
 20
154.7176805252
 11
97.9448966028
 21
154.7176805252
  0
LINE
  5
285
100
AcDbEntity
  8
SHELL1
100
AcDbLine
 62
7
  6
CONTINUOUS
 10
63.1468966028
 20
154.7176805252
 11
59.0828966028
 21
154.7176805252
  0
LINE
  5
286
100
AcDbEntity
  8
SHELL1
100
AcDbLine
 62
7
  6
CONTINUOUS
 10
24.2848966028
 20
154.7176805252
 11
17.0458966028
 21
154.7176805252
  0
LINE
  5
287
100
AcDbEntity
  8
SHELL1
100
AcDbLine
 62
7
  6
CONTINUOUS
 10
112.0755481841
 20
137.2551805252
 11
115.7417223934
 21
130.9051805252
  0
LINE
  5
288
100
AcDbEntity
  8
SHELL1
100
AcDbLine
 62
7
  6
CONTINUOUS
 10
127.2691966028
 20
149.0026805252
 11
127.2691966028
 21
125.5076805252
  0
LINE
  5
289
100
AcDbEntity
  8
SHELL1
100
AcDbLine
 62
7
  6
CONTINUOUS
 10
127.2691966028
 20
102.6476805252
 11
127.2691966028
 21
79.1526805252
  0
LINE
  5
28A
100
AcDbEntity
  8
SHELL1
100
AcDbLine
 62
7
  6
CONTINUOUS
 10
129.8091966002
 20
149.0026805252
 11
129.8091966002
 21
125.5076805252
  0
LINE
  5
28B
100
AcDbEntity
  8
SHELL1
100
AcDbLine
 62
7
  6
CONTINUOUS
 10
129.8091966002
 20
102.6476805252
 11
129.8091966002
 21
79.1526805252
  0
LINE
  5
28C
100
AcDbEntity
  8
SHELL1
100
AcDbLine
 62
7
  6
CONTINUOUS
 10
134.2668966028
 20
149.0026805252
 11
134.2668966028
 21
79.1526805252
  0
LINE
  5
28D
100
AcDbEntity
  8
SHELL1
100
AcDbLine
 62
7
  6
CONTINUOUS
 10
126.7402450215
 20
90.9001805252
 11
123.0740708121
 21
84.5501805252
  0
LINE
  5
28E
100
AcDbEntity
  8
SHELL1
100
AcDbLine
 62
7
  6
CONTINUOUS
 10
144.0458966028
 20
164.8776805252
 11
17.0458966028
 21
164.8776805252
  0
LINE
  5
28F
100
AcDbEntity
  8
SHELL1
100
AcDbLine
 62
7
  6
CONTINUOUS
 10
123.0740708121
 20
143.6051805252
 11
126.7402450215
 21
137.2551805252
  0
LINE
  5
290
100
AcDbEntity
  8
SHELL1
100
AcDbLine
 62
7
  6
CONTINUOUS
 10
136.8068966028
 20
164.8776805252
 11
136.8068966028
 21
153.0983074613
  0
LINE
  5
291
100
AcDbEntity
  8
SHELL1
100
AcDbLine
 62
7
  6
CONTINUOUS
 10
136.8068966028
 20
144.907053589
 11
136.8068966028
 21
118.1733074613
  0
LINE
  5
292
100
AcDbEntity
  8
SHELL1
100
AcDbLine
 62
7
  6
CONTINUOUS
 10
136.8068966028
 20
109.982053589
 11
136.8068966028
 21
83.2483074613
  0
LINE
  5
293
100
AcDbEntity
  8
SHELL1
100
AcDbLine
 62
7
  6
CONTINUOUS
 10
136.8068966028
 20
75.057053589
 11
136.8068966028
 21
63.2776805252
  0
LINE
  5
294
100
AcDbEntity
  8
SHELL1
100
AcDbLine
 62
7
  6
CONTINUOUS
 10
144.0458966028
 20
164.8776805252
 11
144.0458966028
 21
63.2776805252
  0
CIRCLE
  5
295
100
AcDbEntity
  8
SHELL1
100
AcDbCircle
 62
7
  6
CONTINUOUS
 10
41.6838966028
 20
90.9001805252
 40
11.1125
  0
CIRCLE
  5
296
100
AcDbEntity
  8
SHELL1
100
AcDbCircle
 62
7
  6
CONTINUOUS
 10
41.6838966028
 20
71.1516805252
 40
5.1562
  0
ARC
  5
297
100
AcDbEntity
  8
SHELL1
100
AcDbCircle
 62
7
  6
CONTINUOUS
 10
22.2528966028
 20
79.1526805252
 40
4.572
100
AcDbArc
 50
296.3877999612
 51
63.6122000388
  0
ARC
  5
298
100
AcDbEntity
  8
SHELL1
100
AcDbCircle
 62
7
  6
CONTINUOUS
 10
61.1148966028
 20
79.1526805252
 40
4.572
100
AcDbArc
 50
116.3877999612
 51
243.6122000388
  0
ARC
  5
299
100
AcDbEntity
  8
SHELL1
100
AcDbCircle
 62
7
  6
CONTINUOUS
 10
61.1148966028
 20
79.1526805252
 40
4.572
100
AcDbArc
 50
296.3877999612
 51
63.6122000388
  0
CIRCLE
  5
29A
100
AcDbEntity
  8
SHELL1
100
AcDbCircle
 62
7
  6
CONTINUOUS
 10
41.6838966028
 20
71.1516805252
 40
2.5781
  0
ARC
  5
29B
100
AcDbEntity
  8
SHELL1
100
AcDbCircle
 62
7
  6
CONTINUOUS
 10
22.2528966028
 20
114.0776805252
 40
4.572
100
AcDbArc
 50
296.3877999612
 51
63.6122000388
  0
ARC
  5
29C
100
AcDbEntity
  8
SHELL1
100
AcDbCircle
 62
7
  6
CONTINUOUS
 10
22.2528966028
 20
149.0026805252
 40
4.572
100
AcDbArc
 50
296.3877999612
 51
63.6122000388
  0
CIRCLE
  5
29D
100
AcDbEntity
  8
SHELL1
100
AcDbCircle
 62
7
  6
CONTINUOUS
 10
41.6838966028
 20
114.0776805252
 40
6.35
  0
ARC
  5
29E
100
AcDbEntity
  8
SHELL1
100
AcDbCircle
 62
7
  6
CONTINUOUS
 10
61.1148966028
 20
114.0776805252
 40
4.572
100
AcDbArc
 50
116.3877999612
 51
243.6122000388
  0
ARC
  5
29F
100
AcDbEntity
  8
SHELL1
100
AcDbCircle
 62
7
  6
CONTINUOUS
 10
61.1148966028
 20
114.0776805252
 40
4.572
100
AcDbArc
 50
296.3877999612
 51
63.6122000388
  0
CIRCLE
  5
2A0
100
AcDbEntity
  8
SHELL1
100
AcDbCircle
 62
7
  6
CONTINUOUS
 10
41.6838966028
 20
137.2551805252
 40
11.1125
  0
CIRCLE
  5
2A1
100
AcDbEntity
  8
SHELL1
100
AcDbCircle
 62
7
  6
CONTINUOUS
 10
41.6838966028
 20
157.0036805252
 40
5.1562
  0
ARC
  5
2A2
100
AcDbEntity
  8
SHELL1
100
AcDbCircle
 62
7
  6
CONTINUOUS
 10
61.1148966028
 20
149.0026805252
 40
4.572
100
AcDbArc
 50
296.3877999612
 51
63.6122000388
  0
ARC
  5
2A3
100
AcDbEntity
  8
SHELL1
100
AcDbCircle
 62
7
  6
CONTINUOUS
 10
61.1148966028
 20
149.0026805252
 40
4.572
100
AcDbArc
 50
116.3877999612
 51
243.6122000388
  0
CIRCLE
  5
2A4
100
AcDbEntity
  8
SHELL1
100
AcDbCircle
 62
7
  6
CONTINUOUS
 10
41.6838966028
 20
157.0036805252
 40
2.5781
  0
CIRCLE
  5
2A5
100
AcDbEntity
  8
SHELL1
100
AcDbCircle
 62
7
  6
CONTINUOUS
 10
119.4078966028
 20
90.9001805252
 40
11.1125
  0
CIRCLE
  5
2A6
100
AcDbEntity
  8
SHELL1
100
AcDbCircle
 62
7
  6
CONTINUOUS
 10
80.5458966028
 20
90.9001805252
 40
11.1125
  0
CIRCLE
  5
2A7
100
AcDbEntity
  8
SHELL1
100
AcDbCircle
 62
7
  6
CONTINUOUS
 10
119.4078966028
 20
71.1516805252
 40
5.1562
  0
CIRCLE
  5
2A8
100
AcDbEntity
  8
SHELL1
100
AcDbCircle
 62
7
  6
CONTINUOUS
 10
80.5458966028
 20
71.1516805252
 40
5.1562
  0
ARC
  5
2A9
100
AcDbEntity
  8
SHELL1
100
AcDbCircle
 62
7
  6
CONTINUOUS
 10
99.9768966028
 20
79.1526805252
 40
4.572
100
AcDbArc
 50
296.3877999612
 51
63.6122000388
  0
ARC
  5
2AA
100
AcDbEntity
  8
SHELL1
100
AcDbCircle
 62
7
  6
CONTINUOUS
 10
99.9768966028
 20
79.1526805252
 40
4.572
100
AcDbArc
 50
116.3877999612
 51
243.6122000388
  0
ARC
  5
2AB
100
AcDbEntity
  8
SHELL1
100
AcDbCircle
 62
7
  6
CONTINUOUS
 10
138.8388966028
 20
79.1526805252
 40
4.572
100
AcDbArc
 50
116.3877999612
 51
243.6122000388
  0
CIRCLE
  5
2AC
100
AcDbEntity
  8
SHELL1
100
AcDbCircle
 62
7
  6
CONTINUOUS
 10
119.4078966028
 20
71.1516805252
 40
2.5781
  0
CIRCLE
  5
2AD
100
AcDbEntity
  8
SHELL1
100
AcDbCircle
 62
7
  6
CONTINUOUS
 10
80.5458966028
 20
71.1516805252
 40
2.5781
  0
CIRCLE
  5
2AE
100
AcDbEntity
  8
SHELL1
100
AcDbCircle
 62
7
  6
CONTINUOUS
 10
80.5458966028
 20
114.0776805252
 40
6.35
  0
ARC
  5
2AF
100
AcDbEntity
  8
SHELL1
100
AcDbCircle
 62
7
  6
CONTINUOUS
 10
99.9768966028
 20
114.0776805252
 40
4.572
100
AcDbArc
 50
296.3877999612
 51
63.6122000388
  0
ARC
  5
2B0
100
AcDbEntity
  8
SHELL1
100
AcDbCircle
 62
7
  6
CONTINUOUS
 10
99.9768966028
 20
114.0776805252
 40
4.572
100
AcDbArc
 50
116.3877999612
 51
243.6122000388
  0
CIRCLE
  5
2B1
100
AcDbEntity
  8
SHELL1
100
AcDbCircle
 62
7
  6
CONTINUOUS
 10
80.5458966028
 20
137.2551805252
 40
11.1125
  0
CIRCLE
  5
2B2
100
AcDbEntity
  8
SHELL1
100
AcDbCircle
 62
7
  6
CONTINUOUS
 10
80.5458966028
 20
157.0036805252
 40
5.1562
  0
ARC
  5
2B3
100
AcDbEntity
  8
SHELL1
100
AcDbCircle
 62
7
  6
CONTINUOUS
 10
99.9768966028
 20
149.0026805252
 40
4.572
100
AcDbArc
 50
296.3877999612
 51
63.6122000388
  0
ARC
  5
2B4
100
AcDbEntity
  8
SHELL1
100
AcDbCircle
 62
7
  6
CONTINUOUS
 10
99.9768966028
 20
149.0026805252
 40
4.572
100
AcDbArc
 50
116.3877999612
 51
243.6122000388
  0
CIRCLE
  5
2B5
100
AcDbEntity
  8
SHELL1
100
AcDbCircle
 62
7
  6
CONTINUOUS
 10
80.5458966028
 20
157.0036805252
 40
2.5781
  0
CIRCLE
  5
2B6
100
AcDbEntity
  8
SHELL1
100
AcDbCircle
 62
7
  6
CONTINUOUS
 10
119.4078966028
 20
114.0776805252
 40
6.35
  0
ARC
  5
2B7
100
AcDbEntity
  8
SHELL1
100
AcDbCircle
 62
7
  6
CONTINUOUS
 10
138.8388966028
 20
114.0776805252
 40
4.572
100
AcDbArc
 50
116.3877999612
 51
243.6122000388
  0
CIRCLE
  5
2B8
100
AcDbEntity
  8
SHELL1
100
AcDbCircle
 62
7
  6
CONTINUOUS
 10
119.4078966028
 20
137.2551805252
 40
11.1125
  0
CIRCLE
  5
2B9
100
AcDbEntity
  8
SHELL1
100
AcDbCircle
 62
7
  6
CONTINUOUS
 10
119.4078966028
 20
157.0036805252
 40
5.1562
  0
ARC
  5
2BA
100
AcDbEntity
  8
SHELL1
100
AcDbCircle
 62
7
  6
CONTINUOUS
 10
138.8388966028
 20
149.0026805252
 40
4.572
100
AcDbArc
 50
116.3877999612
 51
243.6122000388
  0
CIRCLE
  5
2BB
100
AcDbEntity
  8
SHELL1
100
AcDbCircle
 62
7
  6
CONTINUOUS
 10
119.4078966028
 20
157.0036805252
 40
2.5781
  0
SPLINE
  5
2BC
100
AcDbEntity
  8
SHELL1
100
AcDbSpline
 62
7
  6
CONTINUOUS
 70
0
 71
3
 72
12
 73
8
 74
0
 42
0.0000001
 43
0.0000001
 44
0.0000000001
 40
0.0
 40
0.0
 40
0.0
 40
0.0
 40
0.2003310331
 40
0.4001684217
 40
0.5998500309
 40
0.7996812575
 40
1.0
 40
1.0
 40
1.0
 40
1.0
 10
56.5428966028
 20
149.0026805252
 30
0.0
 10
56.5439820123
 20
148.664416671
 30
0.0
 10
56.6180202483
 20
147.9863199873
 30
0.0
 10
56.9527683564
 20
147.0217111591
 30
0.0
 10
57.4905496216
 20
146.1545842483
 30
0.0
 10
58.2058663542
 20
145.4260359811
 30
0.0
 10
58.7803775874
 20
145.0583540146
 30
0.0
 10
59.0828966028
 20
144.907053589
 30
0.0
  0
SPLINE
  5
2BD
100
AcDbEntity
  8
SHELL1
100
AcDbSpline
 62
7
  6
CONTINUOUS
 70
0
 71
3
 72
12
 73
8
 74
0
 42
0.0000001
 43
0.0000001
 44
0.0000000001
 40
0.0
 40
0.0
 40
0.0
 40
0.0
 40
0.2003310331
 40
0.4001684217
 40
0.5998500309
 40
0.7996812575
 40
1.0
 40
1.0
 40
1.0
 40
1.0
 10
59.0828966028
 20
153.0983074613
 30
0.0
 10
58.780360076
 20
152.9469956537
 30
0.0
 10
58.2058225984
 20
152.5792954231
 30
0.0
 10
57.4904967577
 20
151.8507108852
 30
0.0
 10
56.9527328027
 20
150.983573239
 30
0.0
 10
56.618013138
 20
150.0189886902
 30
0.0
 10
56.5439795991
 20
149.3409236338
 30
0.0
 10
56.5428966028
 20
149.0026805252
 30
0.0
  0
ENDSEC
  0
SECTION
  2
OBJECTS
  0
DICTIONARY
  5
C
100
AcDbDictionary
280
0
281
1
  3
ACAD_GROUP
350
D
  3
ACAD_MLINESTYLE
350
17
  3
ACAD_LAYOUT
350
1A
  3
ACAD_PLOTSETTINGS
350
19
  3
ACAD_PLOTSTYLENAME
350
E
  0
DICTIONARY
  5
D
102
{ACAD_REACTORS
330
C
102
}
100
AcDbDictionary
280
0
281
1
  0
ACDBDICTIONARYWDFLT
  5
E
102
{ACAD_REACTORS
330
C
102
}
100
AcDbDictionary
281
1
  3
Normal
350
F
100
AcDbDictionaryWithDefault
340
F
  0
DICTIONARY
  5
17
102
{ACAD_REACTORS
330
C
102
}
100
AcDbDictionary
280
0
281
1
  3
Standard
350
18
  0
DICTIONARY
  5
19
102
{ACAD_REACTORS
330
C
102
}
100
AcDbDictionary
281
1
  0
DICTIONARY
  5
1A
102
{ACAD_REACTORS
330
C
102
}
100
AcDbDictionary
281
1
  3
Model
350
2BE
  3
Layout1
350
2BF
  0
ACDBPLACEHOLDER
  5
F
102
{ACAD_REACTORS
330
E
102
}
  0
MLINESTYLE
  5
18
102
{ACAD_REACTORS
330
17
102
}
100
AcDbMlineStyle
  2
STANDARD
 70
0
  3

 62
256
 51
90.0
 52
90.0
 71
2
 49
0.5
 62
256
  6
BYLAYER
 49
-0.5
 62
256
  6
BYLAYER
  0
LAYOUT
  5
2BE
102
{ACAD_REACTORS
330
1A
102
}
100
AcDbPlotSettings
  1

  2
none_device
  4

  6

 40
0.0
 41
0.0
 42
0.0
 43
0.0
 44
210.0
 45
297.0
 46
0.0
 47
0.0
 48
0.0
 49
0.0
140
0.0
141
0.0
142
1.0
143
1.0
 70
1024
 72
1
 73
0
 74
0
  7

 75
0
147
1.0
148
0.0
149
0.0
100
AcDbLayout
  1
Model
 70
0
 71
0
 10
0.0
 20
0.0
 11
210.0
 21
297.0
 12
0.0
 22
0.0
 32
0.0
 14
0.0
 24
0.0
 34
0.0
 15
0.0
 25
0.0
 35
0.0
146
0.0
 13
0.0
 23
0.0
 33
0.0
 16
1.0
 26
0.0
 36
0.0
 17
0.0
 27
1.0
 37
0.0
 76
0
330
211
345
0
346
0
  0
LAYOUT
  5
2BF
102
{ACAD_REACTORS
330
1A
102
}
100
AcDbPlotSettings
  1

  2
none_device
  4

  6

 40
0.0
 41
0.0
 42
0.0
 43
0.0
 44
210.0
 45
297.0
 46
0.0
 47
0.0
 48
0.0
 49
0.0
140
0.0
141
0.0
142
1.0
143
1.0
 70
0
 72
1
 73
0
 74
0
  7

 75
0
147
1.0
148
0.0
149
0.0
100
AcDbLayout
  1
Layout1
 70
0
 71
1
 10
0.0
 20
0.0
 11
210.0
 21
297.0
 12
0.0
 22
0.0
 32
0.0
 14
0.0
 24
0.0
 34
0.0
 15
0.0
 25
0.0
 35
0.0
146
0.0
 13
0.0
 23
0.0
 33
0.0
 16
1.0
 26
0.0
 36
0.0
 17
0.0
 27
1.0
 37
0.0
 76
0
330
212
345
0
346
0
  0
ENDSEC
  0
EOF
