999
DXF file: C:\Users\sesa63760\Dev\_Creo\CAD\MCADUE0002648_3D-CAD\drw0001_5.dxf
999
Pro/ENGINEER 2019471 by Parametric Technology Corporation
  0
SECTION
  2
HEADER
  9
$ACADVER
  1
AC1024
  9
$DWGCODEPAGE
  3
ANSI_1252
  9
$EXTMAX
 10
1685.0309214595
 20
2383.1151603499
 30
0.0
  9
$EXTMIN
 10
0.0
 20
0.0
 30
0.0
  9
$LIMMIN
 10
0.0
 20
0.0
  9
$LIMMAX
 10
1685.0309214595
 20
2383.1151603499
  9
$VIEWCTR
 10
842.5154607297
 20
1191.5575801749
  9
$VIEWSIZE
 40
2383.1151603499
  9
$CLAYER
  8
0
  9
$LTSCALE
 40
155.343803045
  9
$CELTYPE
  6
BYLAYER
  9
$DIMSCALE
 40
1.0
  9
$DIMASZ
 40
20.0598919221
  9
$DIMEXO
 40
1.0
  9
$DIMDLI
 40
107.3284457402
  9
$DIMEXE
 40
1.0
  9
$DIMCEN
 40
25.4198950437
  9
$DIMLFAC
 40
1.0
  9
$DIMBLK
  1
_FILLED
  9
$DIMALT
 70
0
  9
$DIMALTF
 40
0.0393700787
  9
$DIMTXT
 40
28.083848691
  9
$DIMTOL
 70
1
  9
$DIMLIM
 70
0
  9
$DIMTFAC
 40
1.0
  9
$DIMTP
 40
0.01
  9
$DIMTM
 40
0.01
  9
$DIMGAP
 40
0.625
  9
$DIMDSEP
 70
46
  9
$AUNITS
 70
0
  9
$PDMODE
 70
3
  9
$PDSIZE
 40
0.3125
  9
$HANDSEED
  5
367
  9
$TILEMODE
 70
1
  9
$MEASUREMENT
 70
1
  9
$INSUNITS
 70
4
  0
ENDSEC
  0
SECTION
  2
CLASSES
  0
CLASS
  1
ACDBDICTIONARYWDFLT
  2
AcDbDictionaryWithDefault
  3
AutoCAD 2000
 90
0
 91
1
280
0
281
0
  0
CLASS
  1
ACDBPLACEHOLDER
  2
AcDbPlaceHolder
  3
AutoCAD 2000
 90
0
 91
1
280
0
281
0
  0
CLASS
  1
LAYOUT
  2
AcDbLayout
  3
AutoCAD 2000
 90
0
 91
0
280
0
281
0
  0
ENDSEC
  0
SECTION
  2
TABLES
  0
TABLE
  2
VPORT
  5
8
100
AcDbSymbolTable
 70
2
  0
VPORT
  5
1F4
100
AcDbSymbolTableRecord
100
AcDbViewportTableRecord
  2
*ACTIVE
 70
0
 10
0.0
 20
0.0
 11
1.0
 21
1.0
 12
842.5154607297
 22
1191.5575801749
 13
0.0
 23
0.0
 14
1.0
 24
1.0
 15
0.0
 25
0.0
 16
0.0
 26
0.0
 36
1.0
 17
0.0
 27
0.0
 37
0.0
 40
2383.1151603499
 41
0.7070707071
 42
50.0
 43
0.0
 44
0.0
 50
0.0
 51
0.0
 71
0
 72
100
 73
1
 74
1
 75
0
 76
0
 77
0
 78
0
  0
ENDTAB
  0
TABLE
  2
LTYPE
  5
5
100
AcDbSymbolTable
 70
6
  0
LTYPE
  5
14
100
AcDbSymbolTableRecord
100
AcDbLinetypeTableRecord
  2
BYBLOCK
 70
0
  3

 72
65
 73
0
 40
0.0
  0
LTYPE
  5
15
100
AcDbSymbolTableRecord
100
AcDbLinetypeTableRecord
  2
BYLAYER
 70
0
  3

 72
65
 73
0
 40
0.0
  0
LTYPE
  5
16
100
AcDbSymbolTableRecord
100
AcDbLinetypeTableRecord
  2
CONTINUOUS
 70
64
  3
Solid line
 72
65
 73
0
 40
0.0
  0
LTYPE
  5
1F5
100
AcDbSymbolTableRecord
100
AcDbLinetypeTableRecord
  2
CENTER
 70
64
  3
____ _ ____ _ ____ _ ____ _ ____ _ ____ _ ____
 72
65
 73
4
 40
0.6
 49
0.375
 74
0
 49
-0.075
 74
0
 49
0.075
 74
0
 49
-0.075
 74
0
  0
LTYPE
  5
1F6
100
AcDbSymbolTableRecord
100
AcDbLinetypeTableRecord
  2
HIDDEN
 70
64
  3
- - - - - - - - - - - - - - - - - - - -
 72
65
 73
2
 40
0.2
 49
0.1
 74
0
 49
-0.1
 74
0
  0
LTYPE
  5
1F7
100
AcDbSymbolTableRecord
100
AcDbLinetypeTableRecord
  2
PHANTOM
 70
64
  3
_____ _ _ _____ _ _ _____ _ _ _____
 72
65
 73
6
 40
0.8
 49
0.45
 74
0
 49
-0.05
 74
0
 49
0.1
 74
0
 49
-0.05
 74
0
 49
0.1
 74
0
 49
-0.05
 74
0
  0
LTYPE
  5
1F8
100
AcDbSymbolTableRecord
100
AcDbLinetypeTableRecord
  2
DOT
 70
64
  3
. . . . . . . . . . . . . . . . . . . .
 72
65
 73
2
 40
0.2
 49
0.1
 74
0
 49
-0.1
 74
0
  0
LTYPE
  5
1F9
100
AcDbSymbolTableRecord
100
AcDbLinetypeTableRecord
  2
DASHED
 70
64
  3
- - - - - - - - - - - - - - - - - - - -
 72
65
 73
2
 40
0.2
 49
0.1
 74
0
 49
-0.1
 74
0
  0
ENDTAB
  0
TABLE
  2
LAYER
  5
2
100
AcDbSymbolTable
 70
36
  0
LAYER
  5
10
100
AcDbSymbolTableRecord
100
AcDbLayerTableRecord
  2
0
 70
0
 62
7
  6
CONTINUOUS
370
-3
390
F
  0
LAYER
  5
1FA
100
AcDbSymbolTableRecord
100
AcDbLayerTableRecord
  2
DEFAULT_1
 70
0
 62
7
  6
CENTER
370
-3
390
F
  0
LAYER
  5
1FB
100
AcDbSymbolTableRecord
100
AcDbLayerTableRecord
  2
DEFAULT_2
 70
0
 62
8
  6
HIDDEN
370
-3
390
F
  0
LAYER
  5
1FC
100
AcDbSymbolTableRecord
100
AcDbLayerTableRecord
  2
DEFAULT_3
 70
0
 62
7
  6
PHANTOM
370
-3
390
F
  0
LAYER
  5
1FD
100
AcDbSymbolTableRecord
100
AcDbLayerTableRecord
  2
00_COMPONENTS
 70
0
 62
7
  6
CONTINUOUS
370
-3
390
F
  0
LAYER
  5
1FE
100
AcDbSymbolTableRecord
100
AcDbLayerTableRecord
  2
01_1_DEFAULT_DATUMS
 70
0
 62
7
  6
CONTINUOUS
370
-3
390
F
  0
LAYER
  5
1FF
100
AcDbSymbolTableRecord
100
AcDbLayerTableRecord
  2
01_PLANES
 70
0
 62
7
  6
CONTINUOUS
370
-3
390
F
  0
LAYER
  5
200
100
AcDbSymbolTableRecord
100
AcDbLayerTableRecord
  2
02_COORD_SYS
 70
0
 62
7
  6
CONTINUOUS
370
-3
390
F
  0
LAYER
  5
201
100
AcDbSymbolTableRecord
100
AcDbLayerTableRecord
  2
03_AXES
 70
0
 62
7
  6
CONTINUOUS
370
-3
390
F
  0
LAYER
  5
202
100
AcDbSymbolTableRecord
100
AcDbLayerTableRecord
  2
04_POINTS
 70
0
 62
7
  6
CONTINUOUS
370
-3
390
F
  0
LAYER
  5
203
100
AcDbSymbolTableRecord
100
AcDbLayerTableRecord
  2
05_CURVES
 70
0
 62
7
  6
CONTINUOUS
370
-3
390
F
  0
LAYER
  5
204
100
AcDbSymbolTableRecord
100
AcDbLayerTableRecord
  2
06_SURFS
 70
0
 62
7
  6
CONTINUOUS
370
-3
390
F
  0
LAYER
  5
205
100
AcDbSymbolTableRecord
100
AcDbLayerTableRecord
  2
07_COSMETICS
 70
0
 62
7
  6
CONTINUOUS
370
-3
390
F
  0
LAYER
  5
206
100
AcDbSymbolTableRecord
100
AcDbLayerTableRecord
  2
10_NOTES
 70
0
 62
7
  6
CONTINUOUS
370
-3
390
F
  0
LAYER
  5
207
100
AcDbSymbolTableRecord
100
AcDbLayerTableRecord
  2
11_NOTES_PUB
 70
0
 62
7
  6
CONTINUOUS
370
-3
390
F
  0
LAYER
  5
208
100
AcDbSymbolTableRecord
100
AcDbLayerTableRecord
  2
13_REF_GTOL
 70
0
 62
7
  6
CONTINUOUS
370
-3
390
F
  0
LAYER
  5
209
100
AcDbSymbolTableRecord
100
AcDbLayerTableRecord
  2
16_MISC
 70
0
 62
7
  6
CONTINUOUS
370
-3
390
F
  0
LAYER
  5
20A
100
AcDbSymbolTableRecord
100
AcDbLayerTableRecord
  2
17_NO_PRINT
 70
0
 62
7
  6
CONTINUOUS
370
-3
390
F
  0
LAYER
  5
20B
100
AcDbSymbolTableRecord
100
AcDbLayerTableRecord
  2
18_DATUM_CAMS_JOINTS
 70
0
 62
7
  6
CONTINUOUS
370
-3
390
F
  0
LAYER
  5
20C
100
AcDbSymbolTableRecord
100
AcDbLayerTableRecord
  2
19_DATUM_FUNCTIONAL
 70
0
 62
7
  6
CONTINUOUS
370
-3
390
F
  0
LAYER
  5
20D
100
AcDbSymbolTableRecord
100
AcDbLayerTableRecord
  2
20_DATUM_KINEMATIC_SCHEME
 70
0
 62
7
  6
CONTINUOUS
370
-3
390
F
  0
ENDTAB
  0
TABLE
  2
STYLE
  5
3
100
AcDbSymbolTable
 70
1
  0
STYLE
  5
11
100
AcDbSymbolTableRecord
100
AcDbTextStyleTableRecord
  2
STANDARD
 70
0
 40
0.0
 41
0.8
 50
0.0
 71
0
 42
0.2
  3
txt
  4

  0
STYLE
  5
20E
100
AcDbSymbolTableRecord
100
AcDbTextStyleTableRecord
  2
TEXTSTYLE_1
 70
0
 40
0.0
 41
0.8
 50
0.0
 71
0
 42
0.2
  3
gdt
  4

  0
ENDTAB
  0
TABLE
  2
VIEW
  5
6
100
AcDbSymbolTable
 70
0
  0
ENDTAB
  0
TABLE
  2
UCS
  5
7
100
AcDbSymbolTable
 70
0
  0
ENDTAB
  0
TABLE
  2
APPID
  5
9
100
AcDbSymbolTable
 70
1
  0
APPID
  5
20F
100
AcDbSymbolTableRecord
100
AcDbRegAppTableRecord
  2
ACAD
 70
0
  0
ENDTAB
  0
TABLE
  2
BLOCK_RECORD
  5
1
100
AcDbSymbolTable
 70
0
  0
BLOCK_RECORD
  5
210
100
AcDbSymbolTableRecord
100
AcDbBlockTableRecord
  2
*Model_Space
  0
BLOCK_RECORD
  5
211
100
AcDbSymbolTableRecord
100
AcDbBlockTableRecord
  2
*Paper_Space
  0
BLOCK_RECORD
  5
212
100
AcDbSymbolTableRecord
100
AcDbBlockTableRecord
  2
_FILLED
  0
ENDTAB
  0
TABLE
  2
DIMSTYLE
  5
A
100
AcDbSymbolTable
 70
1
100
AcDbDimStyleTable
 71
0
  0
DIMSTYLE
105
213
100
AcDbSymbolTableRecord
100
AcDbDimStyleTableRecord
  2
STANDARD
 70
0
  3

  4

 40
1.0
 41
20.0598919221
 42
1.0
 43
0.38
 44
1.0
 45
0.0
 46
0.0
 47
0.01
 48
0.01
140
28.083848691
141
0.09
142
0.0
143
25.4
144
1.0
145
0.0
146
1.0
147
0.625
 71
1
 72
0
 73
0
 74
0
 75
0
 76
0
 77
1
 78
8
 79
2
170
0
171
1
172
0
173
0
174
0
175
0
176
0
177
0
178
0
270
2
179
2
271
2
272
2
273
2
274
2
275
0
280
0
281
0
282
0
283
1
284
8
285
0
286
0
287
3
288
0
340
11
278
46
341
212
342
212
343
212
344
212
  0
ENDTAB
  0
ENDSEC
  0
SECTION
  2
BLOCKS
  0
BLOCK
  5
20
100
AcDbEntity
  8
0
100
AcDbBlockBegin
  2
*Model_Space
 70
0
 10
0.0
 20
0.0
 30
0.0
  3
*Model_Space
  1

  0
ENDBLK
  5
21
100
AcDbEntity
  8
0
100
AcDbBlockEnd
  0
BLOCK
  5
1C
100
AcDbEntity
  8
0
100
AcDbBlockBegin
  2
*Paper_Space
 70
0
 10
0.0
 20
0.0
 30
0.0
  3
*Paper_Space
  1

  0
ENDBLK
  5
1D
100
AcDbEntity
  8
0
100
AcDbBlockEnd
  0
BLOCK
  5
214
100
AcDbEntity
  8
0
100
AcDbBlockBegin
  2
_FILLED
 70
64
 10
0.0
 20
0.0
  3
_FILLED
  1

  0
SOLID
  5
215
100
AcDbEntity
  8
0
  6
BYBLOCK
 62
0
100
AcDbTrace
 10
0.0
 20
0.0
 11
-1.0
 21
0.25
 12
-1.0
 22
-0.25
 13
-1.0
 23
-0.25
  0
ENDBLK
  5
216
100
AcDbEntity
  8
0
  6
BYBLOCK
 62
0
100
AcDbBlockEnd
  0
ENDSEC
  0
SECTION
  2
ENTITIES
  0
LINE
  5
217
100
AcDbEntity
  8
0
100
AcDbLine
 62
7
  6
CONTINUOUS
 10
1261.3507376977
 20
193.9744897959
 11
1223.2507376977
 21
193.9744897959
  0
LINE
  5
218
100
AcDbEntity
  8
0
100
AcDbLine
 62
7
  6
CONTINUOUS
 10
470.3507376977
 20
193.9744897959
 11
508.4507376977
 21
193.9744897959
  0
LINE
  5
219
100
AcDbEntity
  8
0
100
AcDbLine
 62
7
  6
CONTINUOUS
 10
514.8507376977
 20
193.9744897959
 11
541.8507376977
 21
193.9744897959
  0
LINE
  5
21A
100
AcDbEntity
  8
0
100
AcDbLine
 62
7
  6
CONTINUOUS
 10
1189.8507376977
 20
193.9744897959
 11
1216.8507376977
 21
193.9744897959
  0
LINE
  5
21B
100
AcDbEntity
  8
0
100
AcDbLine
 62
7
  6
CONTINUOUS
 10
1221.9507376977
 20
194.4744897959
 11
509.7507376977
 21
194.4744897959
  0
LINE
  5
21C
100
AcDbEntity
  8
0
100
AcDbLine
 62
7
  6
CONTINUOUS
 10
1213.3507376977
 20
195.9744897959
 11
1193.3507376977
 21
195.9744897959
  0
LINE
  5
21D
100
AcDbEntity
  8
0
100
AcDbLine
 62
7
  6
CONTINUOUS
 10
875.8507376977
 20
195.9744897959
 11
855.8507376977
 21
195.9744897959
  0
LINE
  5
21E
100
AcDbEntity
  8
0
100
AcDbLine
 62
7
  6
CONTINUOUS
 10
507.7507376977
 20
195.9744897959
 11
509.7507376977
 21
195.9744897959
  0
LINE
  5
21F
100
AcDbEntity
  8
0
100
AcDbLine
 62
7
  6
CONTINUOUS
 10
518.3507376977
 20
195.9744897959
 11
538.3507376977
 21
195.9744897959
  0
LINE
  5
220
100
AcDbEntity
  8
0
100
AcDbLine
 62
7
  6
CONTINUOUS
 10
1221.9507376977
 20
195.9744897959
 11
1223.9507376977
 21
195.9744897959
  0
LINE
  5
221
100
AcDbEntity
  8
0
100
AcDbLine
 62
7
  6
CONTINUOUS
 10
509.7507376977
 20
196.9744897959
 11
1221.9507376977
 21
196.9744897959
  0
LINE
  5
222
100
AcDbEntity
  8
0
100
AcDbLine
 62
7
  6
CONTINUOUS
 10
1223.2507376977
 20
197.9744897959
 11
1221.9507376977
 21
197.9744897959
  0
LINE
  5
223
100
AcDbEntity
  8
0
100
AcDbLine
 62
7
  6
CONTINUOUS
 10
1213.3507376977
 20
197.9744897959
 11
1193.3507376977
 21
197.9744897959
  0
LINE
  5
224
100
AcDbEntity
  8
0
100
AcDbLine
 62
7
  6
CONTINUOUS
 10
538.3507376977
 20
197.9744897959
 11
518.3507376977
 21
197.9744897959
  0
LINE
  5
225
100
AcDbEntity
  8
0
100
AcDbLine
 62
7
  6
CONTINUOUS
 10
509.7507376977
 20
197.9744897959
 11
508.4507376977
 21
197.9744897959
  0
LINE
  5
226
100
AcDbEntity
  8
0
100
AcDbLine
 62
7
  6
CONTINUOUS
 10
855.8507376977
 20
197.9744897959
 11
875.8507376977
 21
197.9744897959
  0
LINE
  5
227
100
AcDbEntity
  8
0
100
AcDbLine
 62
7
  6
CONTINUOUS
 10
465.8507376977
 20
198.4744897959
 11
507.7507376977
 21
198.4744897959
  0
LINE
  5
228
100
AcDbEntity
  8
0
100
AcDbLine
 62
7
  6
CONTINUOUS
 10
1223.9507376977
 20
198.4744897959
 11
1265.8507376977
 21
198.4744897959
  0
LINE
  5
229
100
AcDbEntity
  8
0
100
AcDbLine
 62
7
  6
CONTINUOUS
 10
1223.2507376977
 20
199.4744897959
 11
1222.8507376977
 21
199.4744897959
  0
LINE
  5
22A
100
AcDbEntity
  8
0
100
AcDbLine
 62
7
  6
CONTINUOUS
 10
508.4507376977
 20
199.4744897959
 11
508.8507376977
 21
199.4744897959
  0
LINE
  5
22B
100
AcDbEntity
  8
0
100
AcDbLine
 62
7
  6
CONTINUOUS
 10
1254.8507376977
 20
203.9744897959
 11
1223.9507376977
 21
203.9744897959
  0
LINE
  5
22C
100
AcDbEntity
  8
0
100
AcDbLine
 62
7
  6
CONTINUOUS
 10
1221.9507376977
 20
203.9744897959
 11
509.7507376977
 21
203.9744897959
  0
LINE
  5
22D
100
AcDbEntity
  8
0
100
AcDbLine
 62
7
  6
CONTINUOUS
 10
507.7507376977
 20
203.9744897959
 11
476.8507376977
 21
203.9744897959
  0
LINE
  5
22E
100
AcDbEntity
  8
0
100
AcDbLine
 62
7
  6
CONTINUOUS
 10
465.8507376977
 20
206.4744897959
 11
507.7507376977
 21
206.4744897959
  0
LINE
  5
22F
100
AcDbEntity
  8
0
100
AcDbLine
 62
7
  6
CONTINUOUS
 10
509.7507376977
 20
206.4744897959
 11
1221.9507376977
 21
206.4744897959
  0
LINE
  5
230
100
AcDbEntity
  8
0
100
AcDbLine
 62
7
  6
CONTINUOUS
 10
1223.9507376977
 20
206.4744897959
 11
1265.8507376977
 21
206.4744897959
  0
LINE
  5
231
100
AcDbEntity
  8
0
100
AcDbLine
 62
7
  6
CONTINUOUS
 10
509.7507376977
 20
206.7673830147
 11
1221.9507376977
 21
206.7673830147
  0
LINE
  5
232
100
AcDbEntity
  8
0
100
AcDbLine
 62
7
  6
CONTINUOUS
 10
465.8507376977
 20
207.0994897959
 11
477.8507376977
 21
207.0994897959
  0
LINE
  5
233
100
AcDbEntity
  8
0
100
AcDbLine
 62
7
  6
CONTINUOUS
 10
478.1436309165
 20
207.0994897959
 11
505.0438265476
 21
207.0994897959
  0
LINE
  5
234
100
AcDbEntity
  8
0
100
AcDbLine
 62
7
  6
CONTINUOUS
 10
1226.6576488478
 20
207.0994897959
 11
1253.5578444789
 21
207.0994897959
  0
LINE
  5
235
100
AcDbEntity
  8
0
100
AcDbLine
 62
7
  6
CONTINUOUS
 10
1253.8507376977
 20
207.0994897959
 11
1265.8507376977
 21
207.0994897959
  0
LINE
  5
236
100
AcDbEntity
  8
0
100
AcDbLine
 62
7
  6
CONTINUOUS
 10
1221.9507376977
 20
210.8579957439
 11
509.7507376977
 21
210.8579957439
  0
LINE
  5
237
100
AcDbEntity
  8
0
100
AcDbLine
 62
7
  6
CONTINUOUS
 10
1221.9507376977
 20
211.2107924615
 11
509.7507376977
 21
211.2107924615
  0
LINE
  5
238
100
AcDbEntity
  8
0
100
AcDbLine
 62
7
  6
CONTINUOUS
 10
509.7507376977
 20
212.9744897959
 11
509.3507376977
 21
212.9744897959
  0
LINE
  5
239
100
AcDbEntity
  8
0
100
AcDbLine
 62
7
  6
CONTINUOUS
 10
1221.9507376977
 20
212.9744897959
 11
1222.3507376977
 21
212.9744897959
  0
LINE
  5
23A
100
AcDbEntity
  8
0
100
AcDbLine
 62
7
  6
CONTINUOUS
 10
509.3507376977
 20
213.9744897959
 11
509.7507376977
 21
213.9744897959
  0
LINE
  5
23B
100
AcDbEntity
  8
0
100
AcDbLine
 62
7
  6
CONTINUOUS
 10
1221.9507376977
 20
213.9744897959
 11
1222.3507376977
 21
213.9744897959
  0
LINE
  5
23C
100
AcDbEntity
  8
0
100
AcDbLine
 62
7
  6
CONTINUOUS
 10
508.4507376977
 20
214.9744897959
 11
509.7507376977
 21
214.9744897959
  0
LINE
  5
23D
100
AcDbEntity
  8
0
100
AcDbLine
 62
7
  6
CONTINUOUS
 10
1221.9507376977
 20
214.9744897959
 11
1223.2507376977
 21
214.9744897959
  0
LINE
  5
23E
100
AcDbEntity
  8
0
100
AcDbLine
 62
7
  6
CONTINUOUS
 10
1221.9507376977
 20
215.3014051907
 11
509.7507376977
 21
215.3014051907
  0
LINE
  5
23F
100
AcDbEntity
  8
0
100
AcDbLine
 62
7
  6
CONTINUOUS
 10
509.7507376977
 20
216.0085119719
 11
1221.9507376977
 21
216.0085119719
  0
LINE
  5
240
100
AcDbEntity
  8
0
100
AcDbLine
 62
7
  6
CONTINUOUS
 10
504.5207494269
 20
219.1744897959
 11
489.2042910883
 21
219.1744897959
  0
LINE
  5
241
100
AcDbEntity
  8
0
100
AcDbLine
 62
7
  6
CONTINUOUS
 10
1227.1807259684
 20
219.1744897959
 11
1242.4971843071
 21
219.1744897959
  0
LINE
  5
242
100
AcDbEntity
  8
0
100
AcDbLine
 62
7
  6
CONTINUOUS
 10
1240.316275193
 20
219.9744897959
 11
1215.5675378515
 21
219.9744897959
  0
LINE
  5
243
100
AcDbEntity
  8
0
100
AcDbLine
 62
7
  6
CONTINUOUS
 10
491.3852002023
 20
219.9744897959
 11
516.1339375439
 21
219.9744897959
  0
LINE
  5
244
100
AcDbEntity
  8
0
100
AcDbLine
 62
7
  6
CONTINUOUS
 10
1240.316275193
 20
226.3744897959
 11
1215.5675378515
 21
226.3744897959
  0
LINE
  5
245
100
AcDbEntity
  8
0
100
AcDbLine
 62
7
  6
CONTINUOUS
 10
491.3852002023
 20
226.3744897959
 11
516.1339375439
 21
226.3744897959
  0
LINE
  5
246
100
AcDbEntity
  8
0
100
AcDbLine
 62
7
  6
CONTINUOUS
 10
504.5207494269
 20
227.1744897959
 11
489.2042910883
 21
227.1744897959
  0
LINE
  5
247
100
AcDbEntity
  8
0
100
AcDbLine
 62
7
  6
CONTINUOUS
 10
1227.1807259684
 20
227.1744897959
 11
1242.4971843071
 21
227.1744897959
  0
LINE
  5
248
100
AcDbEntity
  8
0
100
AcDbLine
 62
7
  6
CONTINUOUS
 10
513.0007376977
 20
229.4744897959
 11
509.7507376977
 21
229.4744897959
  0
LINE
  5
249
100
AcDbEntity
  8
0
100
AcDbLine
 62
7
  6
CONTINUOUS
 10
1218.7007376977
 20
229.4744897959
 11
1221.9507376977
 21
229.4744897959
  0
LINE
  5
24A
100
AcDbEntity
  8
0
100
AcDbLine
 62
7
  6
CONTINUOUS
 10
503.7507376977
 20
232.2244897959
 11
510.8507376977
 21
232.2244897959
  0
LINE
  5
24B
100
AcDbEntity
  8
0
100
AcDbLine
 62
7
  6
CONTINUOUS
 10
1220.8507376977
 20
232.2244897959
 11
1227.9507376977
 21
232.2244897959
  0
LINE
  5
24C
100
AcDbEntity
  8
0
100
AcDbLine
 62
7
  6
CONTINUOUS
 10
1218.7007376977
 20
232.3744897959
 11
513.0007376977
 21
232.3744897959
  0
LINE
  5
24D
100
AcDbEntity
  8
0
100
AcDbLine
 62
7
  6
CONTINUOUS
 10
513.0007376977
 20
233.9744897959
 11
1218.7007376977
 21
233.9744897959
  0
LINE
  5
24E
100
AcDbEntity
  8
0
100
AcDbLine
 62
7
  6
CONTINUOUS
 10
510.8507376977
 20
237.0744897959
 11
513.0007376977
 21
237.0744897959
  0
LINE
  5
24F
100
AcDbEntity
  8
0
100
AcDbLine
 62
7
  6
CONTINUOUS
 10
1218.7007376977
 20
237.0744897959
 11
1220.8507376977
 21
237.0744897959
  0
LINE
  5
250
100
AcDbEntity
  8
0
100
AcDbLine
 62
7
  6
CONTINUOUS
 10
1218.7007376977
 20
237.4744897959
 11
513.0007376977
 21
237.4744897959
  0
LINE
  5
251
100
AcDbEntity
  8
0
100
AcDbLine
 62
7
  6
CONTINUOUS
 10
513.0007376977
 20
237.9744897959
 11
511.7507376977
 21
237.9744897959
  0
LINE
  5
252
100
AcDbEntity
  8
0
100
AcDbLine
 62
7
  6
CONTINUOUS
 10
1218.7007376977
 20
237.9744897959
 11
1219.9507376977
 21
237.9744897959
  0
LINE
  5
253
100
AcDbEntity
  8
0
100
AcDbLine
 62
7
  6
CONTINUOUS
 10
511.7507376977
 20
239.4744897959
 11
1219.9507376977
 21
239.4744897959
  0
LINE
  5
254
100
AcDbEntity
  8
0
100
AcDbLine
 62
7
  6
CONTINUOUS
 10
507.1507376977
 20
195.9744897959
 11
505.1507376977
 21
197.9744897959
  0
LINE
  5
255
100
AcDbEntity
  8
0
100
AcDbLine
 62
7
  6
CONTINUOUS
 10
1251.0902752185
 20
2181.8494897959
 11
1251.7152752185
 21
2182.4744897959
  0
LINE
  5
256
100
AcDbEntity
  8
0
100
AcDbLine
 62
7
  6
CONTINUOUS
 10
1253.8507376977
 20
2182.4744897959
 11
1253.3917910883
 21
2182.0155431865
  0
LINE
  5
257
100
AcDbEntity
  8
0
100
AcDbLine
 62
7
  6
CONTINUOUS
 10
1255.6791648224
 20
2182.1815965771
 11
1255.3488978695
 21
2181.8513296241
  0
LINE
  5
258
100
AcDbEntity
  8
0
100
AcDbLine
 62
7
  6
CONTINUOUS
 10
1251.7152752185
 20
206.4744897959
 11
1251.0902752185
 21
207.0994897959
  0
LINE
  5
259
100
AcDbEntity
  8
0
100
AcDbLine
 62
7
  6
CONTINUOUS
 10
1253.3917910883
 20
206.9334364053
 11
1253.8507376977
 21
206.4744897959
  0
LINE
  5
25A
100
AcDbEntity
  8
0
100
AcDbLine
 62
7
  6
CONTINUOUS
 10
1255.3470580412
 20
207.0994897959
 11
1255.6791648224
 21
206.7673830147
  0
LINE
  5
25B
100
AcDbEntity
  8
0
100
AcDbLine
 62
7
  6
CONTINUOUS
 10
465.8507376977
 20
196.9744897959
 11
465.8507376977
 21
206.4744897959
  0
LINE
  5
25C
100
AcDbEntity
  8
0
100
AcDbLine
 62
7
  6
CONTINUOUS
 10
465.8507376977
 20
207.0994897959
 11
465.8507376977
 21
2181.8494897959
  0
LINE
  5
25D
100
AcDbEntity
  8
0
100
AcDbLine
 62
7
  6
CONTINUOUS
 10
465.8507376977
 20
2182.4744897959
 11
465.8507376977
 21
2191.9744897959
  0
LINE
  5
25E
100
AcDbEntity
  8
0
100
AcDbLine
 62
7
  6
CONTINUOUS
 10
468.3507376977
 20
2181.8494897959
 11
468.3507376977
 21
207.0994897959
  0
LINE
  5
25F
100
AcDbEntity
  8
0
100
AcDbLine
 62
7
  6
CONTINUOUS
 10
470.3507376977
 20
2194.9744897959
 11
470.3507376977
 21
2182.4744897959
  0
LINE
  5
260
100
AcDbEntity
  8
0
100
AcDbLine
 62
7
  6
CONTINUOUS
 10
470.3507376977
 20
206.4744897959
 11
470.3507376977
 21
193.9744897959
  0
LINE
  5
261
100
AcDbEntity
  8
0
100
AcDbLine
 62
7
  6
CONTINUOUS
 10
475.3507376977
 20
207.0994897959
 11
475.3507376977
 21
2181.8494897959
  0
LINE
  5
262
100
AcDbEntity
  8
0
100
AcDbLine
 62
7
  6
CONTINUOUS
 10
476.8507376977
 20
206.4744897959
 11
476.8507376977
 21
203.9744897959
  0
LINE
  5
263
100
AcDbEntity
  8
0
100
AcDbLine
 62
7
  6
CONTINUOUS
 10
476.8507376977
 20
2182.4744897959
 11
476.8507376977
 21
2184.9744897959
  0
LINE
  5
264
100
AcDbEntity
  8
0
100
AcDbLine
 62
7
  6
CONTINUOUS
 10
477.8507376977
 20
2181.8494897959
 11
477.8507376977
 21
207.0994897959
  0
LINE
  5
265
100
AcDbEntity
  8
0
100
AcDbLine
 62
7
  6
CONTINUOUS
 10
478.1436309165
 20
2181.8494897959
 11
478.1436309165
 21
207.0994897959
  0
LINE
  5
266
100
AcDbEntity
  8
0
100
AcDbLine
 62
7
  6
CONTINUOUS
 10
482.2342436457
 20
207.0994897959
 11
482.2342436457
 21
2181.8494897959
  0
LINE
  5
267
100
AcDbEntity
  8
0
100
AcDbLine
 62
7
  6
CONTINUOUS
 10
482.5877970362
 20
207.0994897959
 11
482.5877970362
 21
2181.8494897959
  0
LINE
  5
268
100
AcDbEntity
  8
0
100
AcDbLine
 62
7
  6
CONTINUOUS
 10
486.3507376977
 20
206.4744897959
 11
486.3507376977
 21
207.0994897959
  0
LINE
  5
269
100
AcDbEntity
  8
0
100
AcDbLine
 62
7
  6
CONTINUOUS
 10
486.3507376977
 20
2181.8494897959
 11
486.3507376977
 21
2182.4744897959
  0
LINE
  5
26A
100
AcDbEntity
  8
0
100
AcDbLine
 62
7
  6
CONTINUOUS
 10
486.6862358902
 20
207.0994897959
 11
486.6862358902
 21
2181.8494897959
  0
LINE
  5
26B
100
AcDbEntity
  8
0
100
AcDbLine
 62
7
  6
CONTINUOUS
 10
487.3933426714
 20
2181.8494897959
 11
487.3933426714
 21
207.0994897959
  0
LINE
  5
26C
100
AcDbEntity
  8
0
100
AcDbLine
 62
7
  6
CONTINUOUS
 10
488.8507376977
 20
2182.4744897959
 11
488.8507376977
 21
2181.8494897959
  0
LINE
  5
26D
100
AcDbEntity
  8
0
100
AcDbLine
 62
7
  6
CONTINUOUS
 10
488.8507376977
 20
207.0994897959
 11
488.8507376977
 21
206.4744897959
  0
LINE
  5
26E
100
AcDbEntity
  8
0
100
AcDbLine
 62
7
  6
CONTINUOUS
 10
491.8507376977
 20
233.5994897959
 11
491.8507376977
 21
238.5994897959
  0
LINE
  5
26F
100
AcDbEntity
  8
0
100
AcDbLine
 62
7
  6
CONTINUOUS
 10
491.8507376977
 20
2150.3494897959
 11
491.8507376977
 21
2155.3494897959
  0
LINE
  5
270
100
AcDbEntity
  8
0
100
AcDbLine
 62
7
  6
CONTINUOUS
 10
497.8507376977
 20
2155.3494897959
 11
497.8507376977
 21
2150.3494897959
  0
LINE
  5
271
100
AcDbEntity
  8
0
100
AcDbLine
 62
7
  6
CONTINUOUS
 10
497.8507376977
 20
238.5994897959
 11
497.8507376977
 21
233.5994897959
  0
LINE
  5
272
100
AcDbEntity
  8
0
100
AcDbLine
 62
7
  6
CONTINUOUS
 10
503.7507376977
 20
232.2244897959
 11
503.7507376977
 21
2156.7244897959
  0
LINE
  5
273
100
AcDbEntity
  8
0
100
AcDbLine
 62
7
  6
CONTINUOUS
 10
505.3507376977
 20
2156.7244897959
 11
505.3507376977
 21
232.2244897959
  0
LINE
  5
274
100
AcDbEntity
  8
0
100
AcDbLine
 62
7
  6
CONTINUOUS
 10
507.7507376977
 20
193.9744897959
 11
507.7507376977
 21
206.4744897959
  0
LINE
  5
275
100
AcDbEntity
  8
0
100
AcDbLine
 62
7
  6
CONTINUOUS
 10
507.7507376977
 20
2182.4744897959
 11
507.7507376977
 21
2194.9744897959
  0
LINE
  5
276
100
AcDbEntity
  8
0
100
AcDbLine
 62
7
  6
CONTINUOUS
 10
508.4507376977
 20
193.9744897959
 11
508.4507376977
 21
232.2244897959
  0
LINE
  5
277
100
AcDbEntity
  8
0
100
AcDbLine
 62
7
  6
CONTINUOUS
 10
508.4507376977
 20
2156.7244897959
 11
508.4507376977
 21
2194.9744897959
  0
LINE
  5
278
100
AcDbEntity
  8
0
100
AcDbLine
 62
7
  6
CONTINUOUS
 10
508.8507376977
 20
2190.9744897959
 11
508.8507376977
 21
2189.4744897959
  0
LINE
  5
279
100
AcDbEntity
  8
0
100
AcDbLine
 62
7
  6
CONTINUOUS
 10
508.8507376977
 20
232.2244897959
 11
508.8507376977
 21
2156.7244897959
  0
LINE
  5
27A
100
AcDbEntity
  8
0
100
AcDbLine
 62
7
  6
CONTINUOUS
 10
509.3407376977
 20
202.1744897959
 11
509.3407376977
 21
212.4744897959
  0
LINE
  5
27B
100
AcDbEntity
  8
0
100
AcDbLine
 62
7
  6
CONTINUOUS
 10
509.3407376977
 20
2176.4744897959
 11
509.3407376977
 21
2186.7744897959
  0
LINE
  5
27C
100
AcDbEntity
  8
0
100
AcDbLine
 62
7
  6
CONTINUOUS
 10
509.3507376977
 20
2188.9744897959
 11
509.3507376977
 21
2186.7744897959
  0
LINE
  5
27D
100
AcDbEntity
  8
0
100
AcDbLine
 62
7
  6
CONTINUOUS
 10
509.3507376977
 20
212.9744897959
 11
509.3507376977
 21
212.4744897959
  0
LINE
  5
27E
100
AcDbEntity
  8
0
100
AcDbLine
 62
7
  6
CONTINUOUS
 10
509.3507376977
 20
199.9744897959
 11
509.3507376977
 21
202.2243364094
  0
LINE
  5
27F
100
AcDbEntity
  8
0
100
AcDbLine
 62
7
  6
CONTINUOUS
 10
509.3507376977
 20
213.1095451861
 11
509.3507376977
 21
214.9744897959
  0
LINE
  5
280
100
AcDbEntity
  8
0
100
AcDbLine
 62
7
  6
CONTINUOUS
 10
509.3507376977
 20
2173.9744897959
 11
509.3507376977
 21
2175.839535044
  0
LINE
  5
281
100
AcDbEntity
  8
0
100
AcDbLine
 62
7
  6
CONTINUOUS
 10
509.7507376977
 20
229.4744897959
 11
509.7507376977
 21
194.4744897959
  0
LINE
  5
282
100
AcDbEntity
  8
0
100
AcDbLine
 62
7
  6
CONTINUOUS
 10
509.7507376977
 20
2159.4744897959
 11
509.7507376977
 21
2182.1815965771
  0
LINE
  5
283
100
AcDbEntity
  8
0
100
AcDbLine
 62
7
  6
CONTINUOUS
 10
509.7507376977
 20
2182.4744897959
 11
509.7507376977
 21
2194.4744897959
  0
LINE
  5
284
100
AcDbEntity
  8
0
100
AcDbLine
 62
7
  6
CONTINUOUS
 10
510.8507376977
 20
229.4744897959
 11
510.8507376977
 21
2159.4744897959
  0
LINE
  5
285
100
AcDbEntity
  8
0
100
AcDbLine
 62
7
  6
CONTINUOUS
 10
511.7507376977
 20
239.4744897959
 11
511.7507376977
 21
237.9744897959
  0
LINE
  5
286
100
AcDbEntity
  8
0
100
AcDbLine
 62
7
  6
CONTINUOUS
 10
511.7507376977
 20
2149.4744897959
 11
511.7507376977
 21
2150.9744897959
  0
LINE
  5
287
100
AcDbEntity
  8
0
100
AcDbLine
 62
7
  6
CONTINUOUS
 10
511.8507376977
 20
229.4744897959
 11
511.8507376977
 21
237.0744897959
  0
LINE
  5
288
100
AcDbEntity
  8
0
100
AcDbLine
 62
7
  6
CONTINUOUS
 10
511.8507376977
 20
2151.8744897959
 11
511.8507376977
 21
2159.4744897959
  0
LINE
  5
289
100
AcDbEntity
  8
0
100
AcDbLine
 62
7
  6
CONTINUOUS
 10
512.0507376977
 20
2159.4744897959
 11
512.0507376977
 21
2151.8744897959
  0
LINE
  5
28A
100
AcDbEntity
  8
0
100
AcDbLine
 62
7
  6
CONTINUOUS
 10
512.0507376977
 20
237.0744897959
 11
512.0507376977
 21
229.4744897959
  0
LINE
  5
28B
100
AcDbEntity
  8
0
100
AcDbLine
 62
7
  6
CONTINUOUS
 10
513.0007376977
 20
229.4744897959
 11
513.0007376977
 21
239.4744897959
  0
LINE
  5
28C
100
AcDbEntity
  8
0
100
AcDbLine
 62
7
  6
CONTINUOUS
 10
513.0007376977
 20
2149.4744897959
 11
513.0007376977
 21
2159.4744897959
  0
LINE
  5
28D
100
AcDbEntity
  8
0
100
AcDbLine
 62
7
  6
CONTINUOUS
 10
505.0438265476
 20
2181.8494897959
 11
506.8007376977
 21
2156.7244897959
  0
LINE
  5
28E
100
AcDbEntity
  8
0
100
AcDbLine
 62
7
  6
CONTINUOUS
 10
518.3507376977
 20
197.9744897959
 11
518.3507376977
 21
195.9744897959
  0
LINE
  5
28F
100
AcDbEntity
  8
0
100
AcDbLine
 62
7
  6
CONTINUOUS
 10
522.5007376977
 20
222.9744897959
 11
522.5007376977
 21
224.9744897959
  0
LINE
  5
290
100
AcDbEntity
  8
0
100
AcDbLine
 62
7
  6
CONTINUOUS
 10
522.5007376977
 20
2163.9744897959
 11
522.5007376977
 21
2165.9744897959
  0
LINE
  5
291
100
AcDbEntity
  8
0
100
AcDbLine
 62
7
  6
CONTINUOUS
 10
530.5007376977
 20
2165.9744897959
 11
530.5007376977
 21
2163.9744897959
  0
LINE
  5
292
100
AcDbEntity
  8
0
100
AcDbLine
 62
7
  6
CONTINUOUS
 10
530.5007376977
 20
224.9744897959
 11
530.5007376977
 21
222.9744897959
  0
LINE
  5
293
100
AcDbEntity
  8
0
100
AcDbLine
 62
7
  6
CONTINUOUS
 10
538.3507376977
 20
195.9744897959
 11
538.3507376977
 21
197.9744897959
  0
LINE
  5
294
100
AcDbEntity
  8
0
100
AcDbLine
 62
7
  6
CONTINUOUS
 10
506.8007376977
 20
232.2244897959
 11
505.0438265476
 21
207.0994897959
  0
LINE
  5
295
100
AcDbEntity
  8
0
100
AcDbLine
 62
7
  6
CONTINUOUS
 10
855.8507376977
 20
195.9744897959
 11
855.8507376977
 21
197.9744897959
  0
LINE
  5
296
100
AcDbEntity
  8
0
100
AcDbLine
 62
7
  6
CONTINUOUS
 10
875.8507376977
 20
197.9744897959
 11
875.8507376977
 21
195.9744897959
  0
LINE
  5
297
100
AcDbEntity
  8
0
100
AcDbLine
 62
7
  6
CONTINUOUS
 10
1226.6576488478
 20
207.0994897959
 11
1224.9007376977
 21
232.2244897959
  0
LINE
  5
298
100
AcDbEntity
  8
0
100
AcDbLine
 62
7
  6
CONTINUOUS
 10
1224.9007376977
 20
2156.7244897959
 11
1226.6576488478
 21
2181.8494897959
  0
LINE
  5
299
100
AcDbEntity
  8
0
100
AcDbLine
 62
7
  6
CONTINUOUS
 10
1193.3507376977
 20
197.9744897959
 11
1193.3507376977
 21
195.9744897959
  0
LINE
  5
29A
100
AcDbEntity
  8
0
100
AcDbLine
 62
7
  6
CONTINUOUS
 10
1201.2007376977
 20
222.9744897959
 11
1201.2007376977
 21
224.9744897959
  0
LINE
  5
29B
100
AcDbEntity
  8
0
100
AcDbLine
 62
7
  6
CONTINUOUS
 10
1201.2007376977
 20
2163.9744897959
 11
1201.2007376977
 21
2165.9744897959
  0
LINE
  5
29C
100
AcDbEntity
  8
0
100
AcDbLine
 62
7
  6
CONTINUOUS
 10
1209.2007376977
 20
2165.9744897959
 11
1209.2007376977
 21
2163.9744897959
  0
LINE
  5
29D
100
AcDbEntity
  8
0
100
AcDbLine
 62
7
  6
CONTINUOUS
 10
1209.2007376977
 20
224.9744897959
 11
1209.2007376977
 21
222.9744897959
  0
LINE
  5
29E
100
AcDbEntity
  8
0
100
AcDbLine
 62
7
  6
CONTINUOUS
 10
1213.3507376977
 20
197.9744897959
 11
1213.3507376977
 21
195.9744897959
  0
LINE
  5
29F
100
AcDbEntity
  8
0
100
AcDbLine
 62
7
  6
CONTINUOUS
 10
1218.7007376977
 20
229.4744897959
 11
1218.7007376977
 21
239.4744897959
  0
LINE
  5
2A0
100
AcDbEntity
  8
0
100
AcDbLine
 62
7
  6
CONTINUOUS
 10
1218.7007376977
 20
2149.4744897959
 11
1218.7007376977
 21
2159.4744897959
  0
LINE
  5
2A1
100
AcDbEntity
  8
0
100
AcDbLine
 62
7
  6
CONTINUOUS
 10
1219.6507376977
 20
229.4744897959
 11
1219.6507376977
 21
237.0744897959
  0
LINE
  5
2A2
100
AcDbEntity
  8
0
100
AcDbLine
 62
7
  6
CONTINUOUS
 10
1219.6507376977
 20
2151.8744897959
 11
1219.6507376977
 21
2159.4744897959
  0
LINE
  5
2A3
100
AcDbEntity
  8
0
100
AcDbLine
 62
7
  6
CONTINUOUS
 10
1219.8507376977
 20
2159.4744897959
 11
1219.8507376977
 21
2151.8744897959
  0
LINE
  5
2A4
100
AcDbEntity
  8
0
100
AcDbLine
 62
7
  6
CONTINUOUS
 10
1219.8507376977
 20
237.0744897959
 11
1219.8507376977
 21
229.4744897959
  0
LINE
  5
2A5
100
AcDbEntity
  8
0
100
AcDbLine
 62
7
  6
CONTINUOUS
 10
1219.9507376977
 20
239.4744897959
 11
1219.9507376977
 21
237.9744897959
  0
LINE
  5
2A6
100
AcDbEntity
  8
0
100
AcDbLine
 62
7
  6
CONTINUOUS
 10
1219.9507376977
 20
2149.4744897959
 11
1219.9507376977
 21
2150.9744897959
  0
LINE
  5
2A7
100
AcDbEntity
  8
0
100
AcDbLine
 62
7
  6
CONTINUOUS
 10
1220.8507376977
 20
229.4744897959
 11
1220.8507376977
 21
2159.4744897959
  0
LINE
  5
2A8
100
AcDbEntity
  8
0
100
AcDbLine
 62
7
  6
CONTINUOUS
 10
1221.9507376977
 20
194.4744897959
 11
1221.9507376977
 21
206.4744897959
  0
LINE
  5
2A9
100
AcDbEntity
  8
0
100
AcDbLine
 62
7
  6
CONTINUOUS
 10
1221.9507376977
 20
206.7673830147
 11
1221.9507376977
 21
229.4744897959
  0
LINE
  5
2AA
100
AcDbEntity
  8
0
100
AcDbLine
 62
7
  6
CONTINUOUS
 10
1221.9507376977
 20
2159.4744897959
 11
1221.9507376977
 21
2194.4744897959
  0
LINE
  5
2AB
100
AcDbEntity
  8
0
100
AcDbLine
 62
7
  6
CONTINUOUS
 10
1222.3507376977
 20
2188.9744897959
 11
1222.3507376977
 21
2186.7246431824
  0
LINE
  5
2AC
100
AcDbEntity
  8
0
100
AcDbLine
 62
7
  6
CONTINUOUS
 10
1222.3507376977
 20
199.9744897959
 11
1222.3507376977
 21
202.1744897959
  0
LINE
  5
2AD
100
AcDbEntity
  8
0
100
AcDbLine
 62
7
  6
CONTINUOUS
 10
1222.3507376977
 20
213.1094445478
 11
1222.3507376977
 21
214.9744897959
  0
LINE
  5
2AE
100
AcDbEntity
  8
0
100
AcDbLine
 62
7
  6
CONTINUOUS
 10
1222.3507376977
 20
2173.9744897959
 11
1222.3507376977
 21
2175.8394344057
  0
LINE
  5
2AF
100
AcDbEntity
  8
0
100
AcDbLine
 62
7
  6
CONTINUOUS
 10
1222.3507376977
 20
2175.9744897959
 11
1222.3507376977
 21
2176.4744897959
  0
LINE
  5
2B0
100
AcDbEntity
  8
0
100
AcDbLine
 62
7
  6
CONTINUOUS
 10
1222.3607376977
 20
2186.7744897959
 11
1222.3607376977
 21
2176.4744897959
  0
LINE
  5
2B1
100
AcDbEntity
  8
0
100
AcDbLine
 62
7
  6
CONTINUOUS
 10
1222.3607376977
 20
212.4744897959
 11
1222.3607376977
 21
202.1744897959
  0
LINE
  5
2B2
100
AcDbEntity
  8
0
100
AcDbLine
 62
7
  6
CONTINUOUS
 10
1222.8507376977
 20
2156.7244897959
 11
1222.8507376977
 21
232.2244897959
  0
LINE
  5
2B3
100
AcDbEntity
  8
0
100
AcDbLine
 62
7
  6
CONTINUOUS
 10
1222.8507376977
 20
197.9744897959
 11
1222.8507376977
 21
199.4744897959
  0
LINE
  5
2B4
100
AcDbEntity
  8
0
100
AcDbLine
 62
7
  6
CONTINUOUS
 10
1223.2507376977
 20
193.9744897959
 11
1223.2507376977
 21
232.2244897959
  0
LINE
  5
2B5
100
AcDbEntity
  8
0
100
AcDbLine
 62
7
  6
CONTINUOUS
 10
1223.2507376977
 20
2156.7244897959
 11
1223.2507376977
 21
2194.9744897959
  0
LINE
  5
2B6
100
AcDbEntity
  8
0
100
AcDbLine
 62
7
  6
CONTINUOUS
 10
1223.9507376977
 20
2194.9744897959
 11
1223.9507376977
 21
2182.4744897959
  0
LINE
  5
2B7
100
AcDbEntity
  8
0
100
AcDbLine
 62
7
  6
CONTINUOUS
 10
1223.9507376977
 20
193.9744897959
 11
1223.9507376977
 21
206.4744897959
  0
LINE
  5
2B8
100
AcDbEntity
  8
0
100
AcDbLine
 62
7
  6
CONTINUOUS
 10
1226.3507376977
 20
232.2244897959
 11
1226.3507376977
 21
2156.7244897959
  0
LINE
  5
2B9
100
AcDbEntity
  8
0
100
AcDbLine
 62
7
  6
CONTINUOUS
 10
1227.9507376977
 20
2156.7244897959
 11
1227.9507376977
 21
232.2244897959
  0
LINE
  5
2BA
100
AcDbEntity
  8
0
100
AcDbLine
 62
7
  6
CONTINUOUS
 10
1233.8507376977
 20
233.5994897959
 11
1233.8507376977
 21
238.5994897959
  0
LINE
  5
2BB
100
AcDbEntity
  8
0
100
AcDbLine
 62
7
  6
CONTINUOUS
 10
1233.8507376977
 20
2150.3494897959
 11
1233.8507376977
 21
2155.3494897959
  0
LINE
  5
2BC
100
AcDbEntity
  8
0
100
AcDbLine
 62
7
  6
CONTINUOUS
 10
1239.8507376977
 20
2155.3494897959
 11
1239.8507376977
 21
2150.3494897959
  0
LINE
  5
2BD
100
AcDbEntity
  8
0
100
AcDbLine
 62
7
  6
CONTINUOUS
 10
1239.8507376977
 20
238.5994897959
 11
1239.8507376977
 21
233.5994897959
  0
LINE
  5
2BE
100
AcDbEntity
  8
0
100
AcDbLine
 62
7
  6
CONTINUOUS
 10
1242.8507376977
 20
206.4744897959
 11
1242.8507376977
 21
207.0994897959
  0
LINE
  5
2BF
100
AcDbEntity
  8
0
100
AcDbLine
 62
7
  6
CONTINUOUS
 10
1242.8507376977
 20
2181.8494897959
 11
1242.8507376977
 21
2182.4744897959
  0
LINE
  5
2C0
100
AcDbEntity
  8
0
100
AcDbLine
 62
7
  6
CONTINUOUS
 10
1244.3081327239
 20
207.0994897959
 11
1244.3081327239
 21
2181.8494897959
  0
LINE
  5
2C1
100
AcDbEntity
  8
0
100
AcDbLine
 62
7
  6
CONTINUOUS
 10
1245.0152395051
 20
2181.8494897959
 11
1245.0152395051
 21
207.0994897959
  0
LINE
  5
2C2
100
AcDbEntity
  8
0
100
AcDbLine
 62
7
  6
CONTINUOUS
 10
1245.3507376977
 20
2182.4744897959
 11
1245.3507376977
 21
2181.8494897959
  0
LINE
  5
2C3
100
AcDbEntity
  8
0
100
AcDbLine
 62
7
  6
CONTINUOUS
 10
1245.3507376977
 20
207.0994897959
 11
1245.3507376977
 21
206.4744897959
  0
LINE
  5
2C4
100
AcDbEntity
  8
0
100
AcDbLine
 62
7
  6
CONTINUOUS
 10
1249.1136783591
 20
2181.8494897959
 11
1249.1136783591
 21
207.0994897959
  0
LINE
  5
2C5
100
AcDbEntity
  8
0
100
AcDbLine
 62
7
  6
CONTINUOUS
 10
1249.4672317497
 20
2181.8494897959
 11
1249.4672317497
 21
207.0994897959
  0
LINE
  5
2C6
100
AcDbEntity
  8
0
100
AcDbLine
 62
7
  6
CONTINUOUS
 10
1253.5578444789
 20
207.0994897959
 11
1253.5578444789
 21
2181.8494897959
  0
LINE
  5
2C7
100
AcDbEntity
  8
0
100
AcDbLine
 62
7
  6
CONTINUOUS
 10
1253.8507376977
 20
207.0994897959
 11
1253.8507376977
 21
2181.8494897959
  0
LINE
  5
2C8
100
AcDbEntity
  8
0
100
AcDbLine
 62
7
  6
CONTINUOUS
 10
1254.8507376977
 20
206.4744897959
 11
1254.8507376977
 21
203.9744897959
  0
LINE
  5
2C9
100
AcDbEntity
  8
0
100
AcDbLine
 62
7
  6
CONTINUOUS
 10
1254.8507376977
 20
2182.4744897959
 11
1254.8507376977
 21
2184.9744897959
  0
LINE
  5
2CA
100
AcDbEntity
  8
0
100
AcDbLine
 62
7
  6
CONTINUOUS
 10
1256.3507376977
 20
2181.8494897959
 11
1256.3507376977
 21
207.0994897959
  0
LINE
  5
2CB
100
AcDbEntity
  8
0
100
AcDbLine
 62
7
  6
CONTINUOUS
 10
1261.3507376977
 20
193.9744897959
 11
1261.3507376977
 21
206.4744897959
  0
LINE
  5
2CC
100
AcDbEntity
  8
0
100
AcDbLine
 62
7
  6
CONTINUOUS
 10
1261.3507376977
 20
2182.4744897959
 11
1261.3507376977
 21
2194.9744897959
  0
LINE
  5
2CD
100
AcDbEntity
  8
0
100
AcDbLine
 62
7
  6
CONTINUOUS
 10
1263.3507376977
 20
207.0994897959
 11
1263.3507376977
 21
2181.8494897959
  0
LINE
  5
2CE
100
AcDbEntity
  8
0
100
AcDbLine
 62
7
  6
CONTINUOUS
 10
1265.8507376977
 20
2181.8494897959
 11
1265.8507376977
 21
207.0994897959
  0
LINE
  5
2CF
100
AcDbEntity
  8
0
100
AcDbLine
 62
7
  6
CONTINUOUS
 10
1265.8507376977
 20
206.4744897959
 11
1265.8507376977
 21
196.9744897959
  0
LINE
  5
2D0
100
AcDbEntity
  8
0
100
AcDbLine
 62
7
  6
CONTINUOUS
 10
1265.8507376977
 20
2182.4744897959
 11
1265.8507376977
 21
2191.9744897959
  0
LINE
  5
2D1
100
AcDbEntity
  8
0
100
AcDbLine
 62
7
  6
CONTINUOUS
 10
476.0223105729
 20
206.7673830147
 11
476.3525775259
 21
207.0976499677
  0
LINE
  5
2D2
100
AcDbEntity
  8
0
100
AcDbLine
 62
7
  6
CONTINUOUS
 10
477.8507376977
 20
206.4744897959
 11
478.3096843071
 21
206.9334364053
  0
LINE
  5
2D3
100
AcDbEntity
  8
0
100
AcDbLine
 62
7
  6
CONTINUOUS
 10
480.6112001769
 20
207.0994897959
 11
479.9862001769
 21
206.4744897959
  0
LINE
  5
2D4
100
AcDbEntity
  8
0
100
AcDbLine
 62
7
  6
CONTINUOUS
 10
476.3544173541
 20
2181.8494897959
 11
476.0223105729
 21
2182.1815965771
  0
LINE
  5
2D5
100
AcDbEntity
  8
0
100
AcDbLine
 62
7
  6
CONTINUOUS
 10
478.3096843071
 20
2182.0155431865
 11
477.8507376977
 21
2182.4744897959
  0
LINE
  5
2D6
100
AcDbEntity
  8
0
100
AcDbLine
 62
7
  6
CONTINUOUS
 10
479.9862001769
 20
2182.4744897959
 11
480.6112001769
 21
2181.8494897959
  0
LINE
  5
2D7
100
AcDbEntity
  8
0
100
AcDbLine
 62
7
  6
CONTINUOUS
 10
1226.5507376977
 20
197.9744897959
 11
1224.5507376977
 21
195.9744897959
  0
LINE
  5
2D8
100
AcDbEntity
  8
0
100
AcDbLine
 62
7
  6
CONTINUOUS
 10
511.7507376977
 20
2149.4744897959
 11
1219.9507376977
 21
2149.4744897959
  0
LINE
  5
2D9
100
AcDbEntity
  8
0
100
AcDbLine
 62
7
  6
CONTINUOUS
 10
513.0007376977
 20
2150.9744897959
 11
511.7507376977
 21
2150.9744897959
  0
LINE
  5
2DA
100
AcDbEntity
  8
0
100
AcDbLine
 62
7
  6
CONTINUOUS
 10
1218.7007376977
 20
2150.9744897959
 11
1219.9507376977
 21
2150.9744897959
  0
LINE
  5
2DB
100
AcDbEntity
  8
0
100
AcDbLine
 62
7
  6
CONTINUOUS
 10
513.0007376977
 20
2151.4744897959
 11
1218.7007376977
 21
2151.4744897959
  0
LINE
  5
2DC
100
AcDbEntity
  8
0
100
AcDbLine
 62
7
  6
CONTINUOUS
 10
510.8507376977
 20
2151.8744897959
 11
513.0007376977
 21
2151.8744897959
  0
LINE
  5
2DD
100
AcDbEntity
  8
0
100
AcDbLine
 62
7
  6
CONTINUOUS
 10
1218.7007376977
 20
2151.8744897959
 11
1220.8507376977
 21
2151.8744897959
  0
LINE
  5
2DE
100
AcDbEntity
  8
0
100
AcDbLine
 62
7
  6
CONTINUOUS
 10
1218.7007376977
 20
2154.9744897959
 11
513.0007376977
 21
2154.9744897959
  0
LINE
  5
2DF
100
AcDbEntity
  8
0
100
AcDbLine
 62
7
  6
CONTINUOUS
 10
513.0007376977
 20
2156.5744897959
 11
1218.7007376977
 21
2156.5744897959
  0
LINE
  5
2E0
100
AcDbEntity
  8
0
100
AcDbLine
 62
7
  6
CONTINUOUS
 10
1227.9507376977
 20
2156.7244897959
 11
1220.8507376977
 21
2156.7244897959
  0
LINE
  5
2E1
100
AcDbEntity
  8
0
100
AcDbLine
 62
7
  6
CONTINUOUS
 10
510.8507376977
 20
2156.7244897959
 11
503.7507376977
 21
2156.7244897959
  0
LINE
  5
2E2
100
AcDbEntity
  8
0
100
AcDbLine
 62
7
  6
CONTINUOUS
 10
513.0007376977
 20
2159.4744897959
 11
509.7507376977
 21
2159.4744897959
  0
LINE
  5
2E3
100
AcDbEntity
  8
0
100
AcDbLine
 62
7
  6
CONTINUOUS
 10
1218.7007376977
 20
2159.4744897959
 11
1221.9507376977
 21
2159.4744897959
  0
LINE
  5
2E4
100
AcDbEntity
  8
0
100
AcDbLine
 62
7
  6
CONTINUOUS
 10
504.5207494269
 20
2161.7744897959
 11
489.2042910883
 21
2161.7744897959
  0
LINE
  5
2E5
100
AcDbEntity
  8
0
100
AcDbLine
 62
7
  6
CONTINUOUS
 10
1227.1807259684
 20
2161.7744897959
 11
1242.4971843071
 21
2161.7744897959
  0
LINE
  5
2E6
100
AcDbEntity
  8
0
100
AcDbLine
 62
7
  6
CONTINUOUS
 10
1240.316275193
 20
2162.5744897959
 11
1215.5675378515
 21
2162.5744897959
  0
LINE
  5
2E7
100
AcDbEntity
  8
0
100
AcDbLine
 62
7
  6
CONTINUOUS
 10
491.3852002023
 20
2162.5744897959
 11
516.1339375439
 21
2162.5744897959
  0
LINE
  5
2E8
100
AcDbEntity
  8
0
100
AcDbLine
 62
7
  6
CONTINUOUS
 10
1240.316275193
 20
2168.9744897959
 11
1215.5675378515
 21
2168.9744897959
  0
LINE
  5
2E9
100
AcDbEntity
  8
0
100
AcDbLine
 62
7
  6
CONTINUOUS
 10
491.3852002023
 20
2168.9744897959
 11
516.1339375439
 21
2168.9744897959
  0
LINE
  5
2EA
100
AcDbEntity
  8
0
100
AcDbLine
 62
7
  6
CONTINUOUS
 10
504.5207494269
 20
2169.7744897959
 11
489.2042910883
 21
2169.7744897959
  0
LINE
  5
2EB
100
AcDbEntity
  8
0
100
AcDbLine
 62
7
  6
CONTINUOUS
 10
1227.1807259684
 20
2169.7744897959
 11
1242.4971843071
 21
2169.7744897959
  0
LINE
  5
2EC
100
AcDbEntity
  8
0
100
AcDbLine
 62
7
  6
CONTINUOUS
 10
1221.9507376977
 20
2172.94046762
 11
509.7507376977
 21
2172.94046762
  0
LINE
  5
2ED
100
AcDbEntity
  8
0
100
AcDbLine
 62
7
  6
CONTINUOUS
 10
509.7507376977
 20
2173.6475744012
 11
1221.9507376977
 21
2173.6475744012
  0
LINE
  5
2EE
100
AcDbEntity
  8
0
100
AcDbLine
 62
7
  6
CONTINUOUS
 10
1223.2507376977
 20
2173.9744897959
 11
1221.9507376977
 21
2173.9744897959
  0
LINE
  5
2EF
100
AcDbEntity
  8
0
100
AcDbLine
 62
7
  6
CONTINUOUS
 10
509.7507376977
 20
2173.9744897959
 11
508.4507376977
 21
2173.9744897959
  0
LINE
  5
2F0
100
AcDbEntity
  8
0
100
AcDbLine
 62
7
  6
CONTINUOUS
 10
1222.3507376977
 20
2174.9744897959
 11
1221.9507376977
 21
2174.9744897959
  0
LINE
  5
2F1
100
AcDbEntity
  8
0
100
AcDbLine
 62
7
  6
CONTINUOUS
 10
509.7507376977
 20
2174.9744897959
 11
509.3507376977
 21
2174.9744897959
  0
LINE
  5
2F2
100
AcDbEntity
  8
0
100
AcDbLine
 62
7
  6
CONTINUOUS
 10
509.7507376977
 20
2175.9744897959
 11
509.3507376977
 21
2175.9744897959
  0
LINE
  5
2F3
100
AcDbEntity
  8
0
100
AcDbLine
 62
7
  6
CONTINUOUS
 10
1221.9507376977
 20
2175.9744897959
 11
1222.3507376977
 21
2175.9744897959
  0
LINE
  5
2F4
100
AcDbEntity
  8
0
100
AcDbLine
 62
7
  6
CONTINUOUS
 10
509.7507376977
 20
2177.7381871303
 11
1221.9507376977
 21
2177.7381871303
  0
LINE
  5
2F5
100
AcDbEntity
  8
0
100
AcDbLine
 62
7
  6
CONTINUOUS
 10
509.7507376977
 20
2178.0909838479
 11
1221.9507376977
 21
2178.0909838479
  0
LINE
  5
2F6
100
AcDbEntity
  8
0
100
AcDbLine
 62
7
  6
CONTINUOUS
 10
505.0438265476
 20
2181.8494897959
 11
478.1436309165
 21
2181.8494897959
  0
LINE
  5
2F7
100
AcDbEntity
  8
0
100
AcDbLine
 62
7
  6
CONTINUOUS
 10
477.8507376977
 20
2181.8494897959
 11
465.8507376977
 21
2181.8494897959
  0
LINE
  5
2F8
100
AcDbEntity
  8
0
100
AcDbLine
 62
7
  6
CONTINUOUS
 10
1226.6576488478
 20
2181.8494897959
 11
1253.5578444789
 21
2181.8494897959
  0
LINE
  5
2F9
100
AcDbEntity
  8
0
100
AcDbLine
 62
7
  6
CONTINUOUS
 10
1253.8507376977
 20
2181.8494897959
 11
1265.8507376977
 21
2181.8494897959
  0
LINE
  5
2FA
100
AcDbEntity
  8
0
100
AcDbLine
 62
7
  6
CONTINUOUS
 10
1221.9507376977
 20
2182.1815965771
 11
509.7507376977
 21
2182.1815965771
  0
LINE
  5
2FB
100
AcDbEntity
  8
0
100
AcDbLine
 62
7
  6
CONTINUOUS
 10
1221.9507376977
 20
2182.4744897959
 11
509.7507376977
 21
2182.4744897959
  0
LINE
  5
2FC
100
AcDbEntity
  8
0
100
AcDbLine
 62
7
  6
CONTINUOUS
 10
465.8507376977
 20
2182.4744897959
 11
507.7507376977
 21
2182.4744897959
  0
LINE
  5
2FD
100
AcDbEntity
  8
0
100
AcDbLine
 62
7
  6
CONTINUOUS
 10
1223.9507376977
 20
2182.4744897959
 11
1265.8507376977
 21
2182.4744897959
  0
LINE
  5
2FE
100
AcDbEntity
  8
0
100
AcDbLine
 62
7
  6
CONTINUOUS
 10
476.8507376977
 20
2184.9744897959
 11
507.7507376977
 21
2184.9744897959
  0
LINE
  5
2FF
100
AcDbEntity
  8
0
100
AcDbLine
 62
7
  6
CONTINUOUS
 10
509.7507376977
 20
2184.9744897959
 11
1221.9507376977
 21
2184.9744897959
  0
LINE
  5
300
100
AcDbEntity
  8
0
100
AcDbLine
 62
7
  6
CONTINUOUS
 10
1223.9507376977
 20
2184.9744897959
 11
1254.8507376977
 21
2184.9744897959
  0
LINE
  5
301
100
AcDbEntity
  8
0
100
AcDbLine
 62
7
  6
CONTINUOUS
 10
1223.2507376977
 20
2189.4744897959
 11
1222.8507376977
 21
2189.4744897959
  0
LINE
  5
302
100
AcDbEntity
  8
0
100
AcDbLine
 62
7
  6
CONTINUOUS
 10
508.4507376977
 20
2189.4744897959
 11
508.8507376977
 21
2189.4744897959
  0
LINE
  5
303
100
AcDbEntity
  8
0
100
AcDbLine
 62
7
  6
CONTINUOUS
 10
1265.8507376977
 20
2190.4744897959
 11
1223.9507376977
 21
2190.4744897959
  0
LINE
  5
304
100
AcDbEntity
  8
0
100
AcDbLine
 62
7
  6
CONTINUOUS
 10
507.7507376977
 20
2190.4744897959
 11
465.8507376977
 21
2190.4744897959
  0
LINE
  5
305
100
AcDbEntity
  8
0
100
AcDbLine
 62
7
  6
CONTINUOUS
 10
1223.2507376977
 20
2190.9744897959
 11
1222.8507376977
 21
2190.9744897959
  0
LINE
  5
306
100
AcDbEntity
  8
0
100
AcDbLine
 62
7
  6
CONTINUOUS
 10
508.4507376977
 20
2190.9744897959
 11
508.8507376977
 21
2190.9744897959
  0
LINE
  5
307
100
AcDbEntity
  8
0
100
AcDbLine
 62
7
  6
CONTINUOUS
 10
1221.9507376977
 20
2191.9744897959
 11
509.7507376977
 21
2191.9744897959
  0
LINE
  5
308
100
AcDbEntity
  8
0
100
AcDbLine
 62
7
  6
CONTINUOUS
 10
1223.9507376977
 20
2192.9744897959
 11
1223.2507376977
 21
2192.9744897959
  0
LINE
  5
309
100
AcDbEntity
  8
0
100
AcDbLine
 62
7
  6
CONTINUOUS
 10
507.7507376977
 20
2192.9744897959
 11
508.4507376977
 21
2192.9744897959
  0
LINE
  5
30A
100
AcDbEntity
  8
0
100
AcDbLine
 62
7
  6
CONTINUOUS
 10
509.7507376977
 20
2194.4744897959
 11
1221.9507376977
 21
2194.4744897959
  0
LINE
  5
30B
100
AcDbEntity
  8
0
100
AcDbLine
 62
7
  6
CONTINUOUS
 10
470.3507376977
 20
2194.9744897959
 11
508.4507376977
 21
2194.9744897959
  0
LINE
  5
30C
100
AcDbEntity
  8
0
100
AcDbLine
 62
7
  6
CONTINUOUS
 10
1223.2507376977
 20
2194.9744897959
 11
1261.3507376977
 21
2194.9744897959
  0
ARC
  5
30D
100
AcDbEntity
  8
0
100
AcDbCircle
 62
7
  6
CONTINUOUS
 10
470.3507376977
 20
198.4744897959
 40
4.5
100
AcDbArc
 50
180.0
 51
270.0
  0
ARC
  5
30E
100
AcDbEntity
  8
0
100
AcDbCircle
 62
7
  6
CONTINUOUS
 10
526.5007376977
 20
224.9744897959
 40
4.0
100
AcDbArc
 50
0.0
 51
180.0
  0
ARC
  5
30F
100
AcDbEntity
  8
0
100
AcDbCircle
 62
7
  6
CONTINUOUS
 10
526.5007376977
 20
222.9744897959
 40
4.0
100
AcDbArc
 50
180.0
 51
360.0
  0
ARC
  5
310
100
AcDbEntity
  8
0
100
AcDbCircle
 62
7
  6
CONTINUOUS
 10
514.8507376977
 20
196.9744897959
 40
3.0
100
AcDbArc
 50
238.0192384923
 51
270.0
  0
ARC
  5
311
100
AcDbEntity
  8
0
100
AcDbCircle
 62
7
  6
CONTINUOUS
 10
541.8507376977
 20
196.9744897959
 40
3.0
100
AcDbArc
 50
270.0
 51
301.9807615077
  0
ARC
  5
312
100
AcDbEntity
  8
0
100
AcDbCircle
 62
7
  6
CONTINUOUS
 10
494.8507376977
 20
233.5994897959
 40
3.0
100
AcDbArc
 50
180.0
 51
360.0
  0
ARC
  5
313
100
AcDbEntity
  8
0
100
AcDbCircle
 62
7
  6
CONTINUOUS
 10
494.8507376977
 20
238.5994897959
 40
3.0
100
AcDbArc
 50
0.0
 51
180.0
  0
CIRCLE
  5
314
100
AcDbEntity
  8
0
100
AcDbCircle
 62
7
  6
CONTINUOUS
 10
494.8507376977
 20
931.9744897959
 40
2.6
  0
CIRCLE
  5
315
100
AcDbEntity
  8
0
100
AcDbCircle
 62
7
  6
CONTINUOUS
 10
494.8507376977
 20
281.9744897959
 40
2.6
  0
ARC
  5
316
100
AcDbEntity
  8
0
100
AcDbCircle
 62
7
  6
CONTINUOUS
 10
468.3507376977
 20
196.9744897959
 40
2.5
100
AcDbArc
 50
180.0
 51
270.0
  0
ARC
  5
317
100
AcDbEntity
  8
0
100
AcDbCircle
 62
7
  6
CONTINUOUS
 10
506.8407376977
 20
202.1744897959
 40
2.5
100
AcDbArc
 50
311.0747218276
 51
1.1376992854
  0
ARC
  5
318
100
AcDbEntity
  8
0
100
AcDbCircle
 62
7
  6
CONTINUOUS
 10
506.8407376977
 20
212.4744897959
 40
2.5
100
AcDbArc
 50
11.4004770402
 51
50.3575359266
  0
ARC
  5
319
100
AcDbEntity
  8
0
100
AcDbCircle
 62
7
  6
CONTINUOUS
 10
508.8507376977
 20
199.9744897959
 40
2.0
100
AcDbArc
 50
270.0
 51
298.744027205
  0
ARC
  5
31A
100
AcDbEntity
  8
0
100
AcDbCircle
 62
7
  6
CONTINUOUS
 10
475.3152037917
 20
207.4744897959
 40
1.0
100
AcDbArc
 50
270.0
 51
314.9999999991
  0
ARC
  5
31B
100
AcDbEntity
  8
0
100
AcDbCircle
 62
7
  6
CONTINUOUS
 10
508.8507376977
 20
199.9744897959
 40
0.5
100
AcDbArc
 50
270.0
 51
360.0
  0
ARC
  5
31C
100
AcDbEntity
  8
0
100
AcDbCircle
 62
7
  6
CONTINUOUS
 10
470.3507376977
 20
2190.4744897959
 40
4.5
100
AcDbArc
 50
90.0
 51
180.0
  0
ARC
  5
31D
100
AcDbEntity
  8
0
100
AcDbCircle
 62
7
  6
CONTINUOUS
 10
526.5007376977
 20
2165.9744897959
 40
4.0
100
AcDbArc
 50
0.0
 51
180.0
  0
ARC
  5
31E
100
AcDbEntity
  8
0
100
AcDbCircle
 62
7
  6
CONTINUOUS
 10
526.5007376977
 20
2163.9744897959
 40
4.0
100
AcDbArc
 50
180.0
 51
360.0
  0
ARC
  5
31F
100
AcDbEntity
  8
0
100
AcDbCircle
 62
7
  6
CONTINUOUS
 10
494.8507376977
 20
2150.3494897959
 40
3.0
100
AcDbArc
 50
180.0
 51
360.0
  0
ARC
  5
320
100
AcDbEntity
  8
0
100
AcDbCircle
 62
7
  6
CONTINUOUS
 10
494.8507376977
 20
2155.3494897959
 40
3.0
100
AcDbArc
 50
0.0
 51
180.0
  0
CIRCLE
  5
321
100
AcDbEntity
  8
0
100
AcDbCircle
 62
7
  6
CONTINUOUS
 10
494.8507376977
 20
2106.9744897959
 40
2.6
  0
CIRCLE
  5
322
100
AcDbEntity
  8
0
100
AcDbCircle
 62
7
  6
CONTINUOUS
 10
494.8507376977
 20
1456.9744897959
 40
2.6
  0
ARC
  5
323
100
AcDbEntity
  8
0
100
AcDbCircle
 62
7
  6
CONTINUOUS
 10
468.3507376977
 20
2191.9744897959
 40
2.5
100
AcDbArc
 50
90.0
 51
180.0
  0
ARC
  5
324
100
AcDbEntity
  8
0
100
AcDbCircle
 62
7
  6
CONTINUOUS
 10
506.8407376977
 20
2186.7744897959
 40
2.5
100
AcDbArc
 50
0.0
 51
48.9252781724
  0
ARC
  5
325
100
AcDbEntity
  8
0
100
AcDbCircle
 62
7
  6
CONTINUOUS
 10
506.8407376977
 20
2176.4744897959
 40
2.5
100
AcDbArc
 50
311.0747218276
 51
360.0
  0
ARC
  5
326
100
AcDbEntity
  8
0
100
AcDbCircle
 62
7
  6
CONTINUOUS
 10
508.8507376977
 20
2188.9744897959
 40
2.0
100
AcDbArc
 50
61.255972795
 51
90.0
  0
ARC
  5
327
100
AcDbEntity
  8
0
100
AcDbCircle
 62
7
  6
CONTINUOUS
 10
475.3152037917
 20
2181.4744897959
 40
1.0
100
AcDbArc
 50
45.0000000009
 51
83.2230549658
  0
ARC
  5
328
100
AcDbEntity
  8
0
100
AcDbCircle
 62
7
  6
CONTINUOUS
 10
508.8507376977
 20
2188.9744897959
 40
0.5
100
AcDbArc
 50
0.0
 51
90.0
  0
ARC
  5
329
100
AcDbEntity
  8
0
100
AcDbCircle
 62
7
  6
CONTINUOUS
 10
1261.3507376977
 20
198.4744897959
 40
4.5
100
AcDbArc
 50
270.0
 51
360.0
  0
ARC
  5
32A
100
AcDbEntity
  8
0
100
AcDbCircle
 62
7
  6
CONTINUOUS
 10
1205.2007376977
 20
222.9744897959
 40
4.0
100
AcDbArc
 50
180.0
 51
360.0
  0
ARC
  5
32B
100
AcDbEntity
  8
0
100
AcDbCircle
 62
7
  6
CONTINUOUS
 10
1205.2007376977
 20
224.9744897959
 40
4.0
100
AcDbArc
 50
0.0
 51
180.0
  0
ARC
  5
32C
100
AcDbEntity
  8
0
100
AcDbCircle
 62
7
  6
CONTINUOUS
 10
1189.8507376977
 20
196.9744897959
 40
3.0
100
AcDbArc
 50
238.0192384923
 51
270.0
  0
ARC
  5
32D
100
AcDbEntity
  8
0
100
AcDbCircle
 62
7
  6
CONTINUOUS
 10
1216.8507376977
 20
196.9744897959
 40
3.0
100
AcDbArc
 50
270.0
 51
301.9807615077
  0
ARC
  5
32E
100
AcDbEntity
  8
0
100
AcDbCircle
 62
7
  6
CONTINUOUS
 10
1236.8507376977
 20
238.5994897959
 40
3.0
100
AcDbArc
 50
0.0
 51
180.0
  0
ARC
  5
32F
100
AcDbEntity
  8
0
100
AcDbCircle
 62
7
  6
CONTINUOUS
 10
1236.8507376977
 20
233.5994897959
 40
3.0
100
AcDbArc
 50
180.0
 51
360.0
  0
CIRCLE
  5
330
100
AcDbEntity
  8
0
100
AcDbCircle
 62
7
  6
CONTINUOUS
 10
1236.8507376977
 20
281.9744897959
 40
2.6
  0
CIRCLE
  5
331
100
AcDbEntity
  8
0
100
AcDbCircle
 62
7
  6
CONTINUOUS
 10
1236.8507376977
 20
931.9744897959
 40
2.6
  0
ARC
  5
332
100
AcDbEntity
  8
0
100
AcDbCircle
 62
7
  6
CONTINUOUS
 10
1263.3507376977
 20
196.9744897959
 40
2.5
100
AcDbArc
 50
270.0
 51
360.0
  0
ARC
  5
333
100
AcDbEntity
  8
0
100
AcDbCircle
 62
7
  6
CONTINUOUS
 10
1224.8607376977
 20
202.1744897959
 40
2.5
100
AcDbArc
 50
180.0
 51
228.9252781724
  0
ARC
  5
334
100
AcDbEntity
  8
0
100
AcDbCircle
 62
7
  6
CONTINUOUS
 10
1224.8607376977
 20
212.4744897959
 40
2.5
100
AcDbArc
 50
131.0747218276
 51
180.0
  0
ARC
  5
335
100
AcDbEntity
  8
0
100
AcDbCircle
 62
7
  6
CONTINUOUS
 10
1222.8507376977
 20
199.9744897959
 40
2.0
100
AcDbArc
 50
241.2559727949
 51
270.0
  0
ARC
  5
336
100
AcDbEntity
  8
0
100
AcDbCircle
 62
7
  6
CONTINUOUS
 10
1256.3862716036
 20
207.4744897959
 40
1.0
100
AcDbArc
 50
225.000000001
 51
263.2230549658
  0
ARC
  5
337
100
AcDbEntity
  8
0
100
AcDbCircle
 62
7
  6
CONTINUOUS
 10
1222.8507376977
 20
199.9744897959
 40
0.5
100
AcDbArc
 50
180.0
 51
270.0
  0
ARC
  5
338
100
AcDbEntity
  8
0
100
AcDbCircle
 62
7
  6
CONTINUOUS
 10
1261.3507376977
 20
2190.4744897959
 40
4.5
100
AcDbArc
 50
0.0
 51
90.0
  0
ARC
  5
339
100
AcDbEntity
  8
0
100
AcDbCircle
 62
7
  6
CONTINUOUS
 10
1205.2007376977
 20
2163.9744897959
 40
4.0
100
AcDbArc
 50
180.0
 51
360.0
  0
ARC
  5
33A
100
AcDbEntity
  8
0
100
AcDbCircle
 62
7
  6
CONTINUOUS
 10
1205.2007376977
 20
2165.9744897959
 40
4.0
100
AcDbArc
 50
0.0
 51
180.0
  0
ARC
  5
33B
100
AcDbEntity
  8
0
100
AcDbCircle
 62
7
  6
CONTINUOUS
 10
1236.8507376977
 20
2155.3494897959
 40
3.0
100
AcDbArc
 50
0.0
 51
180.0
  0
ARC
  5
33C
100
AcDbEntity
  8
0
100
AcDbCircle
 62
7
  6
CONTINUOUS
 10
1236.8507376977
 20
2150.3494897959
 40
3.0
100
AcDbArc
 50
180.0
 51
360.0
  0
CIRCLE
  5
33D
100
AcDbEntity
  8
0
100
AcDbCircle
 62
7
  6
CONTINUOUS
 10
1236.8507376977
 20
1456.9744897959
 40
2.6
  0
CIRCLE
  5
33E
100
AcDbEntity
  8
0
100
AcDbCircle
 62
7
  6
CONTINUOUS
 10
1236.8507376977
 20
2106.9744897959
 40
2.6
  0
ARC
  5
33F
100
AcDbEntity
  8
0
100
AcDbCircle
 62
7
  6
CONTINUOUS
 10
1263.3507376977
 20
2191.9744897959
 40
2.5
100
AcDbArc
 50
0.0
 51
90.0
  0
ARC
  5
340
100
AcDbEntity
  8
0
100
AcDbCircle
 62
7
  6
CONTINUOUS
 10
1224.8607376977
 20
2186.7744897959
 40
2.5
100
AcDbArc
 50
131.0747218276
 51
181.1376992854
  0
ARC
  5
341
100
AcDbEntity
  8
0
100
AcDbCircle
 62
7
  6
CONTINUOUS
 10
1224.8607376977
 20
2176.4744897959
 40
2.5
100
AcDbArc
 50
191.4004770403
 51
230.3575359266
  0
ARC
  5
342
100
AcDbEntity
  8
0
100
AcDbCircle
 62
7
  6
CONTINUOUS
 10
1222.8507376977
 20
2188.9744897959
 40
2.0
100
AcDbArc
 50
90.0
 51
118.7440272051
  0
ARC
  5
343
100
AcDbEntity
  8
0
100
AcDbCircle
 62
7
  6
CONTINUOUS
 10
1256.3862716036
 20
2181.4744897959
 40
1.0
100
AcDbArc
 50
90.0
 51
134.999999999
  0
ARC
  5
344
100
AcDbEntity
  8
0
100
AcDbCircle
 62
7
  6
CONTINUOUS
 10
1222.8507376977
 20
2188.9744897959
 40
0.5
100
AcDbArc
 50
90.0
 51
180.0
  0
SPLINE
  5
345
100
AcDbEntity
  8
0
100
AcDbSpline
 62
7
  6
CONTINUOUS
 70
0
 71
3
 72
21
 73
17
 74
0
 42
0.0000001
 43
0.0000001
 44
0.0000000001
 40
0.0
 40
0.0
 40
0.0
 40
0.0
 40
0.0828105404
 40
0.1635846309
 40
0.2405532658
 40
0.3124951184
 40
0.3790314963
 40
0.4408926847
 40
0.5
 40
0.5591073153
 40
0.6209685037
 40
0.6875048816
 40
0.7594467342
 40
0.8364153691
 40
0.9171894596
 40
1.0
 40
1.0
 40
1.0
 40
1.0
 10
1230.0091530932
 20
223.1744897959
 30
0.0
 10
1230.0091530932
 20
223.4721245336
 30
0.0
 10
1229.9628499846
 20
224.0611811736
 30
0.0
 10
1229.7568406317
 20
224.9047832161
 30
0.0
 10
1229.423916216
 20
225.665267627
 30
0.0
 10
1228.9786754284
 20
226.3057062207
 30
0.0
 10
1228.4398525411
 20
226.7942520469
 30
0.0
 10
1227.8303538914
 20
227.1031053851
 30
0.0
 10
1227.1807259684
 20
227.2093694609
 30
0.0
 10
1226.5310980454
 20
227.1031053851
 30
0.0
 10
1225.9215993958
 20
226.7942520469
 30
0.0
 10
1225.3827765085
 20
226.3057062207
 30
0.0
 10
1224.9375357209
 20
225.665267627
 30
0.0
 10
1224.6046113052
 20
224.9047832161
 30
0.0
 10
1224.3986019523
 20
224.0611811736
 30
0.0
 10
1224.3522988437
 20
223.4721245336
 30
0.0
 10
1224.3522988437
 20
223.1744897959
 30
0.0
  0
SPLINE
  5
346
100
AcDbEntity
  8
0
100
AcDbSpline
 62
7
  6
CONTINUOUS
 70
0
 71
3
 72
21
 73
17
 74
0
 42
0.0000001
 43
0.0000001
 44
0.0000000001
 40
0.0
 40
0.0
 40
0.0
 40
0.0
 40
0.0828105404
 40
0.1635846309
 40
0.2405532658
 40
0.3124951184
 40
0.3790314963
 40
0.4408926847
 40
0.5
 40
0.5591073153
 40
0.6209685037
 40
0.6875048816
 40
0.7594467342
 40
0.8364153691
 40
0.9171894596
 40
1.0
 40
1.0
 40
1.0
 40
1.0
 10
1239.6687571823
 20
223.1744897959
 30
0.0
 10
1239.6687571823
 20
223.4721245336
 30
0.0
 10
1239.7150602909
 20
224.0611811736
 30
0.0
 10
1239.9210696438
 20
224.9047832161
 30
0.0
 10
1240.2539940596
 20
225.665267627
 30
0.0
 10
1240.6992348471
 20
226.3057062207
 30
0.0
 10
1241.2380577344
 20
226.7942520469
 30
0.0
 10
1241.8475563841
 20
227.1031053851
 30
0.0
 10
1242.4971843071
 20
227.2093694609
 30
0.0
 10
1243.1468122301
 20
227.1031053851
 30
0.0
 10
1243.7563108798
 20
226.7942520469
 30
0.0
 10
1244.295133767
 20
226.3057062207
 30
0.0
 10
1244.7403745546
 20
225.665267627
 30
0.0
 10
1245.0732989704
 20
224.9047832161
 30
0.0
 10
1245.2793083233
 20
224.0611811736
 30
0.0
 10
1245.3256114318
 20
223.4721245336
 30
0.0
 10
1245.3256114318
 20
223.1744897959
 30
0.0
  0
SPLINE
  5
347
100
AcDbEntity
  8
0
100
AcDbSpline
 62
7
  6
CONTINUOUS
 70
0
 71
3
 72
21
 73
17
 74
0
 42
0.0000001
 43
0.0000001
 44
0.0000000001
 40
0.0
 40
0.0
 40
0.0
 40
0.0
 40
0.0828105404
 40
0.1635846309
 40
0.2405532658
 40
0.3124951184
 40
0.3790314963
 40
0.4408926847
 40
0.5
 40
0.5591073153
 40
0.6209685037
 40
0.6875048816
 40
0.7594467342
 40
0.8364153691
 40
0.9171894596
 40
1.0
 40
1.0
 40
1.0
 40
1.0
 10
1224.3522988437
 20
223.1744897959
 30
0.0
 10
1224.3522988437
 20
222.8768550583
 30
0.0
 10
1224.3986019523
 20
222.2877984183
 30
0.0
 10
1224.6046113052
 20
221.4441963757
 30
0.0
 10
1224.9375357209
 20
220.6837119648
 30
0.0
 10
1225.3827765085
 20
220.0432733711
 30
0.0
 10
1225.9215993958
 20
219.5547275449
 30
0.0
 10
1226.5310980454
 20
219.2458742068
 30
0.0
 10
1227.1807259684
 20
219.1396101309
 30
0.0
 10
1227.8303538914
 20
219.2458742068
 30
0.0
 10
1228.4398525411
 20
219.5547275449
 30
0.0
 10
1228.9786754284
 20
220.0432733711
 30
0.0
 10
1229.423916216
 20
220.6837119648
 30
0.0
 10
1229.7568406317
 20
221.4441963757
 30
0.0
 10
1229.9628499846
 20
222.2877984183
 30
0.0
 10
1230.0091530932
 20
222.8768550583
 30
0.0
 10
1230.0091530932
 20
223.1744897959
 30
0.0
  0
SPLINE
  5
348
100
AcDbEntity
  8
0
100
AcDbSpline
 62
7
  6
CONTINUOUS
 70
0
 71
3
 72
21
 73
17
 74
0
 42
0.0000001
 43
0.0000001
 44
0.0000000001
 40
0.0
 40
0.0
 40
0.0
 40
0.0
 40
0.0828105404
 40
0.1635846309
 40
0.2405532658
 40
0.3124951184
 40
0.3790314963
 40
0.4408926847
 40
0.5
 40
0.5591073153
 40
0.6209685037
 40
0.6875048816
 40
0.7594467342
 40
0.8364153691
 40
0.9171894596
 40
1.0
 40
1.0
 40
1.0
 40
1.0
 10
1245.3256114318
 20
223.1744897959
 30
0.0
 10
1245.3256114318
 20
222.8768550583
 30
0.0
 10
1245.2793083233
 20
222.2877984183
 30
0.0
 10
1245.0732989704
 20
221.4441963757
 30
0.0
 10
1244.7403745546
 20
220.6837119648
 30
0.0
 10
1244.295133767
 20
220.0432733711
 30
0.0
 10
1243.7563108798
 20
219.5547275449
 30
0.0
 10
1243.1468122301
 20
219.2458742068
 30
0.0
 10
1242.4971843071
 20
219.1396101309
 30
0.0
 10
1241.8475563841
 20
219.2458742068
 30
0.0
 10
1241.2380577344
 20
219.5547275449
 30
0.0
 10
1240.6992348471
 20
220.0432733711
 30
0.0
 10
1240.2539940596
 20
220.6837119648
 30
0.0
 10
1239.9210696438
 20
221.4441963757
 30
0.0
 10
1239.7150602909
 20
222.2877984183
 30
0.0
 10
1239.6687571823
 20
222.8768550583
 30
0.0
 10
1239.6687571823
 20
223.1744897959
 30
0.0
  0
SPLINE
  5
349
100
AcDbEntity
  8
0
100
AcDbSpline
 62
7
  6
CONTINUOUS
 70
0
 71
3
 72
21
 73
17
 74
0
 42
0.0000001
 43
0.0000001
 44
0.0000000001
 40
0.0
 40
0.0
 40
0.0
 40
0.0
 40
0.0828105404
 40
0.1635846309
 40
0.2405532658
 40
0.3124951184
 40
0.3790314963
 40
0.4408926847
 40
0.5
 40
0.5591073153
 40
0.6209685037
 40
0.6875048816
 40
0.7594467342
 40
0.8364153691
 40
0.9171894596
 40
1.0
 40
1.0
 40
1.0
 40
1.0
 10
1224.3522988437
 20
2165.7744897959
 30
0.0
 10
1224.3522988437
 20
2165.4768550583
 30
0.0
 10
1224.3986019523
 20
2164.8877984183
 30
0.0
 10
1224.6046113052
 20
2164.0441963757
 30
0.0
 10
1224.9375357209
 20
2163.2837119648
 30
0.0
 10
1225.3827765085
 20
2162.6432733711
 30
0.0
 10
1225.9215993958
 20
2162.1547275449
 30
0.0
 10
1226.5310980454
 20
2161.8458742068
 30
0.0
 10
1227.1807259684
 20
2161.7396101309
 30
0.0
 10
1227.8303538914
 20
2161.8458742068
 30
0.0
 10
1228.4398525411
 20
2162.1547275449
 30
0.0
 10
1228.9786754284
 20
2162.6432733711
 30
0.0
 10
1229.423916216
 20
2163.2837119648
 30
0.0
 10
1229.7568406317
 20
2164.0441963757
 30
0.0
 10
1229.9628499846
 20
2164.8877984183
 30
0.0
 10
1230.0091530932
 20
2165.4768550583
 30
0.0
 10
1230.0091530932
 20
2165.7744897959
 30
0.0
  0
SPLINE
  5
34A
100
AcDbEntity
  8
0
100
AcDbSpline
 62
7
  6
CONTINUOUS
 70
0
 71
3
 72
21
 73
17
 74
0
 42
0.0000001
 43
0.0000001
 44
0.0000000001
 40
0.0
 40
0.0
 40
0.0
 40
0.0
 40
0.0828105404
 40
0.1635846309
 40
0.2405532658
 40
0.3124951184
 40
0.3790314963
 40
0.4408926847
 40
0.5
 40
0.5591073153
 40
0.6209685037
 40
0.6875048816
 40
0.7594467342
 40
0.8364153691
 40
0.9171894596
 40
1.0
 40
1.0
 40
1.0
 40
1.0
 10
1245.3256114318
 20
2165.7744897959
 30
0.0
 10
1245.3256114318
 20
2165.4768550583
 30
0.0
 10
1245.2793083233
 20
2164.8877984183
 30
0.0
 10
1245.0732989704
 20
2164.0441963757
 30
0.0
 10
1244.7403745546
 20
2163.2837119648
 30
0.0
 10
1244.295133767
 20
2162.6432733711
 30
0.0
 10
1243.7563108798
 20
2162.1547275449
 30
0.0
 10
1243.1468122301
 20
2161.8458742068
 30
0.0
 10
1242.4971843071
 20
2161.7396101309
 30
0.0
 10
1241.8475563841
 20
2161.8458742068
 30
0.0
 10
1241.2380577344
 20
2162.1547275449
 30
0.0
 10
1240.6992348471
 20
2162.6432733711
 30
0.0
 10
1240.2539940596
 20
2163.2837119648
 30
0.0
 10
1239.9210696438
 20
2164.0441963757
 30
0.0
 10
1239.7150602909
 20
2164.8877984183
 30
0.0
 10
1239.6687571823
 20
2165.4768550583
 30
0.0
 10
1239.6687571823
 20
2165.7744897959
 30
0.0
  0
SPLINE
  5
34B
100
AcDbEntity
  8
0
100
AcDbSpline
 62
7
  6
CONTINUOUS
 70
0
 71
3
 72
21
 73
17
 74
0
 42
0.0000001
 43
0.0000001
 44
0.0000000001
 40
0.0
 40
0.0
 40
0.0
 40
0.0
 40
0.0828105404
 40
0.1635846309
 40
0.2405532658
 40
0.3124951184
 40
0.3790314963
 40
0.4408926847
 40
0.5
 40
0.5591073153
 40
0.6209685037
 40
0.6875048816
 40
0.7594467342
 40
0.8364153691
 40
0.9171894596
 40
1.0
 40
1.0
 40
1.0
 40
1.0
 10
1230.0091530932
 20
2165.7744897959
 30
0.0
 10
1230.0091530932
 20
2166.0721245336
 30
0.0
 10
1229.9628499846
 20
2166.6611811736
 30
0.0
 10
1229.7568406317
 20
2167.5047832161
 30
0.0
 10
1229.423916216
 20
2168.265267627
 30
0.0
 10
1228.9786754284
 20
2168.9057062207
 30
0.0
 10
1228.4398525411
 20
2169.3942520469
 30
0.0
 10
1227.8303538914
 20
2169.7031053851
 30
0.0
 10
1227.1807259684
 20
2169.8093694609
 30
0.0
 10
1226.5310980454
 20
2169.7031053851
 30
0.0
 10
1225.9215993958
 20
2169.3942520469
 30
0.0
 10
1225.3827765085
 20
2168.9057062207
 30
0.0
 10
1224.9375357209
 20
2168.265267627
 30
0.0
 10
1224.6046113052
 20
2167.5047832161
 30
0.0
 10
1224.3986019523
 20
2166.6611811736
 30
0.0
 10
1224.3522988437
 20
2166.0721245336
 30
0.0
 10
1224.3522988437
 20
2165.7744897959
 30
0.0
  0
SPLINE
  5
34C
100
AcDbEntity
  8
0
100
AcDbSpline
 62
7
  6
CONTINUOUS
 70
0
 71
3
 72
21
 73
17
 74
0
 42
0.0000001
 43
0.0000001
 44
0.0000000001
 40
0.0
 40
0.0
 40
0.0
 40
0.0
 40
0.0828105404
 40
0.1635846309
 40
0.2405532658
 40
0.3124951184
 40
0.3790314963
 40
0.4408926847
 40
0.5
 40
0.5591073153
 40
0.6209685037
 40
0.6875048816
 40
0.7594467342
 40
0.8364153691
 40
0.9171894596
 40
1.0
 40
1.0
 40
1.0
 40
1.0
 10
1239.6687571823
 20
2165.7744897959
 30
0.0
 10
1239.6687571823
 20
2166.0721245336
 30
0.0
 10
1239.7150602909
 20
2166.6611811736
 30
0.0
 10
1239.9210696438
 20
2167.5047832161
 30
0.0
 10
1240.2539940596
 20
2168.265267627
 30
0.0
 10
1240.6992348471
 20
2168.9057062207
 30
0.0
 10
1241.2380577344
 20
2169.3942520469
 30
0.0
 10
1241.8475563841
 20
2169.7031053851
 30
0.0
 10
1242.4971843071
 20
2169.8093694609
 30
0.0
 10
1243.1468122301
 20
2169.7031053851
 30
0.0
 10
1243.7563108798
 20
2169.3942520469
 30
0.0
 10
1244.295133767
 20
2168.9057062207
 30
0.0
 10
1244.7403745546
 20
2168.265267627
 30
0.0
 10
1245.0732989704
 20
2167.5047832161
 30
0.0
 10
1245.2793083233
 20
2166.6611811736
 30
0.0
 10
1245.3256114318
 20
2166.0721245336
 30
0.0
 10
1245.3256114318
 20
2165.7744897959
 30
0.0
  0
SPLINE
  5
34D
100
AcDbEntity
  8
0
100
AcDbSpline
 62
7
  6
CONTINUOUS
 70
0
 71
3
 72
21
 73
17
 74
0
 42
0.0000001
 43
0.0000001
 44
0.0000000001
 40
0.0
 40
0.0
 40
0.0
 40
0.0
 40
0.0828105404
 40
0.1635846309
 40
0.2405532658
 40
0.3124951184
 40
0.3790314963
 40
0.4408926847
 40
0.5
 40
0.5591073153
 40
0.6209685037
 40
0.6875048816
 40
0.7594467342
 40
0.8364153691
 40
0.9171894596
 40
1.0
 40
1.0
 40
1.0
 40
1.0
 10
507.3491765517
 20
2165.7744897959
 30
0.0
 10
507.3491765517
 20
2165.4768550583
 30
0.0
 10
507.3028734431
 20
2164.8877984183
 30
0.0
 10
507.0968640902
 20
2164.0441963757
 30
0.0
 10
506.7639396744
 20
2163.2837119648
 30
0.0
 10
506.3186988869
 20
2162.6432733711
 30
0.0
 10
505.7798759996
 20
2162.1547275449
 30
0.0
 10
505.1703773499
 20
2161.8458742068
 30
0.0
 10
504.5207494269
 20
2161.7396101309
 30
0.0
 10
503.8711215039
 20
2161.8458742068
 30
0.0
 10
503.2616228542
 20
2162.1547275449
 30
0.0
 10
502.722799967
 20
2162.6432733711
 30
0.0
 10
502.2775591794
 20
2163.2837119648
 30
0.0
 10
501.9446347636
 20
2164.0441963757
 30
0.0
 10
501.7386254107
 20
2164.8877984183
 30
0.0
 10
501.6923223022
 20
2165.4768550583
 30
0.0
 10
501.6923223022
 20
2165.7744897959
 30
0.0
  0
SPLINE
  5
34E
100
AcDbEntity
  8
0
100
AcDbSpline
 62
7
  6
CONTINUOUS
 70
0
 71
3
 72
21
 73
17
 74
0
 42
0.0000001
 43
0.0000001
 44
0.0000000001
 40
0.0
 40
0.0
 40
0.0
 40
0.0
 40
0.0828105404
 40
0.1635846309
 40
0.2405532658
 40
0.3124951184
 40
0.3790314963
 40
0.4408926847
 40
0.5
 40
0.5591073153
 40
0.6209685037
 40
0.6875048816
 40
0.7594467342
 40
0.8364153691
 40
0.9171894596
 40
1.0
 40
1.0
 40
1.0
 40
1.0
 10
486.3758639635
 20
2165.7744897959
 30
0.0
 10
486.3758639635
 20
2165.4768550583
 30
0.0
 10
486.4221670721
 20
2164.8877984183
 30
0.0
 10
486.628176425
 20
2164.0441963757
 30
0.0
 10
486.9611008407
 20
2163.2837119648
 30
0.0
 10
487.4063416283
 20
2162.6432733711
 30
0.0
 10
487.9451645156
 20
2162.1547275449
 30
0.0
 10
488.5546631653
 20
2161.8458742068
 30
0.0
 10
489.2042910883
 20
2161.7396101309
 30
0.0
 10
489.8539190113
 20
2161.8458742068
 30
0.0
 10
490.4634176609
 20
2162.1547275449
 30
0.0
 10
491.0022405482
 20
2162.6432733711
 30
0.0
 10
491.4474813358
 20
2163.2837119648
 30
0.0
 10
491.7804057515
 20
2164.0441963757
 30
0.0
 10
491.9864151045
 20
2164.8877984183
 30
0.0
 10
492.032718213
 20
2165.4768550583
 30
0.0
 10
492.032718213
 20
2165.7744897959
 30
0.0
  0
SPLINE
  5
34F
100
AcDbEntity
  8
0
100
AcDbSpline
 62
7
  6
CONTINUOUS
 70
0
 71
3
 72
21
 73
17
 74
0
 42
0.0000001
 43
0.0000001
 44
0.0000000001
 40
0.0
 40
0.0
 40
0.0
 40
0.0
 40
0.0828105404
 40
0.1635846309
 40
0.2405532658
 40
0.3124951184
 40
0.3790314963
 40
0.4408926847
 40
0.5
 40
0.5591073153
 40
0.6209685037
 40
0.6875048816
 40
0.7594467342
 40
0.8364153691
 40
0.9171894596
 40
1.0
 40
1.0
 40
1.0
 40
1.0
 10
501.6923223022
 20
2165.7744897959
 30
0.0
 10
501.6923223022
 20
2166.0721245336
 30
0.0
 10
501.7386254107
 20
2166.6611811736
 30
0.0
 10
501.9446347636
 20
2167.5047832161
 30
0.0
 10
502.2775591794
 20
2168.265267627
 30
0.0
 10
502.722799967
 20
2168.9057062207
 30
0.0
 10
503.2616228542
 20
2169.3942520469
 30
0.0
 10
503.8711215039
 20
2169.7031053851
 30
0.0
 10
504.5207494269
 20
2169.8093694609
 30
0.0
 10
505.1703773499
 20
2169.7031053851
 30
0.0
 10
505.7798759996
 20
2169.3942520469
 30
0.0
 10
506.3186988869
 20
2168.9057062207
 30
0.0
 10
506.7639396744
 20
2168.265267627
 30
0.0
 10
507.0968640902
 20
2167.5047832161
 30
0.0
 10
507.3028734431
 20
2166.6611811736
 30
0.0
 10
507.3491765517
 20
2166.0721245336
 30
0.0
 10
507.3491765517
 20
2165.7744897959
 30
0.0
  0
SPLINE
  5
350
100
AcDbEntity
  8
0
100
AcDbSpline
 62
7
  6
CONTINUOUS
 70
0
 71
3
 72
21
 73
17
 74
0
 42
0.0000001
 43
0.0000001
 44
0.0000000001
 40
0.0
 40
0.0
 40
0.0
 40
0.0
 40
0.0828105404
 40
0.1635846309
 40
0.2405532658
 40
0.3124951184
 40
0.3790314963
 40
0.4408926847
 40
0.5
 40
0.5591073153
 40
0.6209685037
 40
0.6875048816
 40
0.7594467342
 40
0.8364153691
 40
0.9171894596
 40
1.0
 40
1.0
 40
1.0
 40
1.0
 10
492.032718213
 20
2165.7744897959
 30
0.0
 10
492.032718213
 20
2166.0721245336
 30
0.0
 10
491.9864151045
 20
2166.6611811736
 30
0.0
 10
491.7804057515
 20
2167.5047832161
 30
0.0
 10
491.4474813358
 20
2168.265267627
 30
0.0
 10
491.0022405482
 20
2168.9057062207
 30
0.0
 10
490.4634176609
 20
2169.3942520469
 30
0.0
 10
489.8539190113
 20
2169.7031053851
 30
0.0
 10
489.2042910883
 20
2169.8093694609
 30
0.0
 10
488.5546631653
 20
2169.7031053851
 30
0.0
 10
487.9451645156
 20
2169.3942520469
 30
0.0
 10
487.4063416283
 20
2168.9057062207
 30
0.0
 10
486.9611008407
 20
2168.265267627
 30
0.0
 10
486.628176425
 20
2167.5047832161
 30
0.0
 10
486.4221670721
 20
2166.6611811736
 30
0.0
 10
486.3758639635
 20
2166.0721245336
 30
0.0
 10
486.3758639635
 20
2165.7744897959
 30
0.0
  0
SPLINE
  5
351
100
AcDbEntity
  8
0
100
AcDbSpline
 62
7
  6
CONTINUOUS
 70
0
 71
3
 72
21
 73
17
 74
0
 42
0.0000001
 43
0.0000001
 44
0.0000000001
 40
0.0
 40
0.0
 40
0.0
 40
0.0
 40
0.0828105404
 40
0.1635846309
 40
0.2405532658
 40
0.3124951184
 40
0.3790314963
 40
0.4408926847
 40
0.5
 40
0.5591073153
 40
0.6209685037
 40
0.6875048816
 40
0.7594467342
 40
0.8364153691
 40
0.9171894596
 40
1.0
 40
1.0
 40
1.0
 40
1.0
 10
501.6923223022
 20
223.1744897959
 30
0.0
 10
501.6923223022
 20
223.4721245336
 30
0.0
 10
501.7386254107
 20
224.0611811736
 30
0.0
 10
501.9446347636
 20
224.9047832161
 30
0.0
 10
502.2775591794
 20
225.665267627
 30
0.0
 10
502.722799967
 20
226.3057062207
 30
0.0
 10
503.2616228542
 20
226.7942520469
 30
0.0
 10
503.8711215039
 20
227.1031053851
 30
0.0
 10
504.5207494269
 20
227.2093694609
 30
0.0
 10
505.1703773499
 20
227.1031053851
 30
0.0
 10
505.7798759996
 20
226.7942520469
 30
0.0
 10
506.3186988869
 20
226.3057062207
 30
0.0
 10
506.7639396744
 20
225.665267627
 30
0.0
 10
507.0968640902
 20
224.9047832161
 30
0.0
 10
507.3028734431
 20
224.0611811736
 30
0.0
 10
507.3491765517
 20
223.4721245336
 30
0.0
 10
507.3491765517
 20
223.1744897959
 30
0.0
  0
SPLINE
  5
352
100
AcDbEntity
  8
0
100
AcDbSpline
 62
7
  6
CONTINUOUS
 70
0
 71
3
 72
21
 73
17
 74
0
 42
0.0000001
 43
0.0000001
 44
0.0000000001
 40
0.0
 40
0.0
 40
0.0
 40
0.0
 40
0.0828105404
 40
0.1635846309
 40
0.2405532658
 40
0.3124951184
 40
0.3790314963
 40
0.4408926847
 40
0.5
 40
0.5591073153
 40
0.6209685037
 40
0.6875048816
 40
0.7594467342
 40
0.8364153691
 40
0.9171894596
 40
1.0
 40
1.0
 40
1.0
 40
1.0
 10
492.032718213
 20
223.1744897959
 30
0.0
 10
492.032718213
 20
223.4721245336
 30
0.0
 10
491.9864151045
 20
224.0611811736
 30
0.0
 10
491.7804057515
 20
224.9047832161
 30
0.0
 10
491.4474813358
 20
225.665267627
 30
0.0
 10
491.0022405482
 20
226.3057062207
 30
0.0
 10
490.4634176609
 20
226.7942520469
 30
0.0
 10
489.8539190113
 20
227.1031053851
 30
0.0
 10
489.2042910883
 20
227.2093694609
 30
0.0
 10
488.5546631653
 20
227.1031053851
 30
0.0
 10
487.9451645156
 20
226.7942520469
 30
0.0
 10
487.4063416283
 20
226.3057062207
 30
0.0
 10
486.9611008407
 20
225.665267627
 30
0.0
 10
486.628176425
 20
224.9047832161
 30
0.0
 10
486.4221670721
 20
224.0611811736
 30
0.0
 10
486.3758639635
 20
223.4721245336
 30
0.0
 10
486.3758639635
 20
223.1744897959
 30
0.0
  0
SPLINE
  5
353
100
AcDbEntity
  8
0
100
AcDbSpline
 62
7
  6
CONTINUOUS
 70
0
 71
3
 72
21
 73
17
 74
0
 42
0.0000001
 43
0.0000001
 44
0.0000000001
 40
0.0
 40
0.0
 40
0.0
 40
0.0
 40
0.0828105404
 40
0.1635846309
 40
0.2405532658
 40
0.3124951184
 40
0.3790314963
 40
0.4408926847
 40
0.5
 40
0.5591073153
 40
0.6209685037
 40
0.6875048816
 40
0.7594467342
 40
0.8364153691
 40
0.9171894596
 40
1.0
 40
1.0
 40
1.0
 40
1.0
 10
507.3491765517
 20
223.1744897959
 30
0.0
 10
507.3491765517
 20
222.8768550583
 30
0.0
 10
507.3028734431
 20
222.2877984183
 30
0.0
 10
507.0968640902
 20
221.4441963757
 30
0.0
 10
506.7639396744
 20
220.6837119648
 30
0.0
 10
506.3186988869
 20
220.0432733711
 30
0.0
 10
505.7798759996
 20
219.5547275449
 30
0.0
 10
505.1703773499
 20
219.2458742068
 30
0.0
 10
504.5207494269
 20
219.1396101309
 30
0.0
 10
503.8711215039
 20
219.2458742068
 30
0.0
 10
503.2616228542
 20
219.5547275449
 30
0.0
 10
502.722799967
 20
220.0432733711
 30
0.0
 10
502.2775591794
 20
220.6837119648
 30
0.0
 10
501.9446347636
 20
221.4441963757
 30
0.0
 10
501.7386254107
 20
222.2877984183
 30
0.0
 10
501.6923223022
 20
222.8768550583
 30
0.0
 10
501.6923223022
 20
223.1744897959
 30
0.0
  0
SPLINE
  5
354
100
AcDbEntity
  8
0
100
AcDbSpline
 62
7
  6
CONTINUOUS
 70
0
 71
3
 72
21
 73
17
 74
0
 42
0.0000001
 43
0.0000001
 44
0.0000000001
 40
0.0
 40
0.0
 40
0.0
 40
0.0
 40
0.0828105404
 40
0.1635846309
 40
0.2405532658
 40
0.3124951184
 40
0.3790314963
 40
0.4408926847
 40
0.5
 40
0.5591073153
 40
0.6209685037
 40
0.6875048816
 40
0.7594467342
 40
0.8364153691
 40
0.9171894596
 40
1.0
 40
1.0
 40
1.0
 40
1.0
 10
486.3758639635
 20
223.1744897959
 30
0.0
 10
486.3758639635
 20
222.8768550583
 30
0.0
 10
486.4221670721
 20
222.2877984183
 30
0.0
 10
486.628176425
 20
221.4441963757
 30
0.0
 10
486.9611008407
 20
220.6837119648
 30
0.0
 10
487.4063416283
 20
220.0432733711
 30
0.0
 10
487.9451645156
 20
219.5547275449
 30
0.0
 10
488.5546631653
 20
219.2458742068
 30
0.0
 10
489.2042910883
 20
219.1396101309
 30
0.0
 10
489.8539190113
 20
219.2458742068
 30
0.0
 10
490.4634176609
 20
219.5547275449
 30
0.0
 10
491.0022405482
 20
220.0432733711
 30
0.0
 10
491.4474813358
 20
220.6837119648
 30
0.0
 10
491.7804057515
 20
221.4441963757
 30
0.0
 10
491.9864151045
 20
222.2877984183
 30
0.0
 10
492.032718213
 20
222.8768550583
 30
0.0
 10
492.032718213
 20
223.1744897959
 30
0.0
  0
SPLINE
  5
355
100
AcDbEntity
  8
0
100
AcDbSpline
 62
7
  6
CONTINUOUS
 70
0
 71
3
 72
23
 73
19
 74
0
 42
0.0000001
 43
0.0000001
 44
0.0000000001
 40
0.0
 40
0.0
 40
0.0
 40
0.0
 40
0.0725125904
 40
0.1436522423
 40
0.2121827066
 40
0.2771463858
 40
0.338014309
 40
0.3948364803
 40
0.4483559497
 40
0.5
 40
0.5516440503
 40
0.6051635197
 40
0.661985691
 40
0.7228536142
 40
0.7878172934
 40
0.8563477577
 40
0.9274874096
 40
1.0
 40
1.0
 40
1.0
 40
1.0
 10
493.6479419021
 20
223.1744897959
 30
0.0
 10
493.6479419021
 20
223.3830901915
 30
0.0
 10
493.6194155086
 20
223.7969321693
 30
0.0
 10
493.4921882083
 20
224.3959775547
 30
0.0
 10
493.2852108066
 20
224.9496115445
 30
0.0
 10
493.0057416339
 20
225.4370762207
 30
0.0
 10
492.6633116219
 20
225.8400792179
 30
0.0
 10
492.2693787114
 20
226.1427073094
 30
0.0
 10
491.8376260748
 20
226.3313752808
 30
0.0
 10
491.3852002023
 20
226.3956626151
 30
0.0
 10
490.9327743299
 20
226.3313752808
 30
0.0
 10
490.5010216933
 20
226.1427073094
 30
0.0
 10
490.1070887828
 20
225.8400792179
 30
0.0
 10
489.7646587708
 20
225.4370762207
 30
0.0
 10
489.4851895981
 20
224.9496115445
 30
0.0
 10
489.2782121964
 20
224.3959775547
 30
0.0
 10
489.1509848961
 20
223.7969321693
 30
0.0
 10
489.1224585026
 20
223.3830901915
 30
0.0
 10
489.1224585026
 20
223.1744897959
 30
0.0
  0
SPLINE
  5
356
100
AcDbEntity
  8
0
100
AcDbSpline
 62
7
  6
CONTINUOUS
 70
0
 71
3
 72
23
 73
19
 74
0
 42
0.0000001
 43
0.0000001
 44
0.0000000001
 40
0.0
 40
0.0
 40
0.0
 40
0.0
 40
0.0725125904
 40
0.1436522423
 40
0.2121827066
 40
0.2771463858
 40
0.338014309
 40
0.3948364803
 40
0.4483559497
 40
0.5
 40
0.5516440503
 40
0.6051635197
 40
0.661985691
 40
0.7228536142
 40
0.7878172934
 40
0.8563477577
 40
0.9274874096
 40
1.0
 40
1.0
 40
1.0
 40
1.0
 10
513.8711958441
 20
223.1744897959
 30
0.0
 10
513.8711958441
 20
223.3830901915
 30
0.0
 10
513.8997222377
 20
223.7969321693
 30
0.0
 10
514.026949538
 20
224.3959775547
 30
0.0
 10
514.2339269396
 20
224.9496115445
 30
0.0
 10
514.5133961124
 20
225.4370762207
 30
0.0
 10
514.8558261244
 20
225.8400792179
 30
0.0
 10
515.2497590348
 20
226.1427073094
 30
0.0
 10
515.6815116714
 20
226.3313752808
 30
0.0
 10
516.1339375439
 20
226.3956626151
 30
0.0
 10
516.5863634163
 20
226.3313752808
 30
0.0
 10
517.0181160529
 20
226.1427073094
 30
0.0
 10
517.4120489634
 20
225.8400792179
 30
0.0
 10
517.7544789754
 20
225.4370762207
 30
0.0
 10
518.0339481481
 20
224.9496115445
 30
0.0
 10
518.2409255498
 20
224.3959775547
 30
0.0
 10
518.3681528501
 20
223.7969321693
 30
0.0
 10
518.3966792437
 20
223.3830901915
 30
0.0
 10
518.3966792437
 20
223.1744897959
 30
0.0
  0
SPLINE
  5
357
100
AcDbEntity
  8
0
100
AcDbSpline
 62
7
  6
CONTINUOUS
 70
0
 71
3
 72
23
 73
19
 74
0
 42
0.0000001
 43
0.0000001
 44
0.0000000001
 40
0.0
 40
0.0
 40
0.0
 40
0.0
 40
0.0725125904
 40
0.1436522423
 40
0.2121827066
 40
0.2771463858
 40
0.338014309
 40
0.3948364803
 40
0.4483559497
 40
0.5
 40
0.5516440503
 40
0.6051635197
 40
0.661985691
 40
0.7228536142
 40
0.7878172934
 40
0.8563477577
 40
0.9274874096
 40
1.0
 40
1.0
 40
1.0
 40
1.0
 10
489.1224585026
 20
223.1744897959
 30
0.0
 10
489.1224585026
 20
222.9658894003
 30
0.0
 10
489.1509848961
 20
222.5520474225
 30
0.0
 10
489.2782121964
 20
221.9530020372
 30
0.0
 10
489.4851895981
 20
221.3993680474
 30
0.0
 10
489.7646587708
 20
220.9119033711
 30
0.0
 10
490.1070887828
 20
220.5089003739
 30
0.0
 10
490.5010216933
 20
220.2062722824
 30
0.0
 10
490.9327743299
 20
220.0176043111
 30
0.0
 10
491.3852002023
 20
219.9533169767
 30
0.0
 10
491.8376260748
 20
220.0176043111
 30
0.0
 10
492.2693787114
 20
220.2062722824
 30
0.0
 10
492.6633116219
 20
220.5089003739
 30
0.0
 10
493.0057416339
 20
220.9119033711
 30
0.0
 10
493.2852108066
 20
221.3993680474
 30
0.0
 10
493.4921882083
 20
221.9530020372
 30
0.0
 10
493.6194155086
 20
222.5520474225
 30
0.0
 10
493.6479419021
 20
222.9658894003
 30
0.0
 10
493.6479419021
 20
223.1744897959
 30
0.0
  0
SPLINE
  5
358
100
AcDbEntity
  8
0
100
AcDbSpline
 62
7
  6
CONTINUOUS
 70
0
 71
3
 72
23
 73
19
 74
0
 42
0.0000001
 43
0.0000001
 44
0.0000000001
 40
0.0
 40
0.0
 40
0.0
 40
0.0
 40
0.0725125904
 40
0.1436522423
 40
0.2121827066
 40
0.2771463858
 40
0.338014309
 40
0.3948364803
 40
0.4483559497
 40
0.5
 40
0.5516440503
 40
0.6051635197
 40
0.661985691
 40
0.7228536142
 40
0.7878172934
 40
0.8563477577
 40
0.9274874096
 40
1.0
 40
1.0
 40
1.0
 40
1.0
 10
518.3966792437
 20
223.1744897959
 30
0.0
 10
518.3966792437
 20
222.9658894003
 30
0.0
 10
518.3681528501
 20
222.5520474225
 30
0.0
 10
518.2409255498
 20
221.9530020372
 30
0.0
 10
518.0339481481
 20
221.3993680474
 30
0.0
 10
517.7544789754
 20
220.9119033711
 30
0.0
 10
517.4120489634
 20
220.5089003739
 30
0.0
 10
517.0181160529
 20
220.2062722824
 30
0.0
 10
516.5863634163
 20
220.0176043111
 30
0.0
 10
516.1339375439
 20
219.9533169767
 30
0.0
 10
515.6815116714
 20
220.0176043111
 30
0.0
 10
515.2497590348
 20
220.2062722824
 30
0.0
 10
514.8558261244
 20
220.5089003739
 30
0.0
 10
514.5133961124
 20
220.9119033711
 30
0.0
 10
514.2339269396
 20
221.3993680474
 30
0.0
 10
514.026949538
 20
221.9530020372
 30
0.0
 10
513.8997222377
 20
222.5520474225
 30
0.0
 10
513.8711958441
 20
222.9658894003
 30
0.0
 10
513.8711958441
 20
223.1744897959
 30
0.0
  0
SPLINE
  5
359
100
AcDbEntity
  8
0
100
AcDbSpline
 62
7
  6
CONTINUOUS
 70
0
 71
3
 72
23
 73
19
 74
0
 42
0.0000001
 43
0.0000001
 44
0.0000000001
 40
0.0
 40
0.0
 40
0.0
 40
0.0
 40
0.0725125904
 40
0.1436522423
 40
0.2121827066
 40
0.2771463858
 40
0.338014309
 40
0.3948364803
 40
0.4483559497
 40
0.5
 40
0.5516440503
 40
0.6051635197
 40
0.661985691
 40
0.7228536142
 40
0.7878172934
 40
0.8563477577
 40
0.9274874096
 40
1.0
 40
1.0
 40
1.0
 40
1.0
 10
1238.0535334932
 20
223.1744897959
 30
0.0
 10
1238.0535334932
 20
223.3830901915
 30
0.0
 10
1238.0820598868
 20
223.7969321693
 30
0.0
 10
1238.2092871871
 20
224.3959775547
 30
0.0
 10
1238.4162645888
 20
224.9496115445
 30
0.0
 10
1238.6957337615
 20
225.4370762207
 30
0.0
 10
1239.0381637735
 20
225.8400792179
 30
0.0
 10
1239.432096684
 20
226.1427073094
 30
0.0
 10
1239.8638493206
 20
226.3313752808
 30
0.0
 10
1240.316275193
 20
226.3956626151
 30
0.0
 10
1240.7687010655
 20
226.3313752808
 30
0.0
 10
1241.2004537021
 20
226.1427073094
 30
0.0
 10
1241.5943866125
 20
225.8400792179
 30
0.0
 10
1241.9368166245
 20
225.4370762207
 30
0.0
 10
1242.2162857972
 20
224.9496115445
 30
0.0
 10
1242.4232631989
 20
224.3959775547
 30
0.0
 10
1242.5504904992
 20
223.7969321693
 30
0.0
 10
1242.5790168928
 20
223.3830901915
 30
0.0
 10
1242.5790168928
 20
223.1744897959
 30
0.0
  0
SPLINE
  5
35A
100
AcDbEntity
  8
0
100
AcDbSpline
 62
7
  6
CONTINUOUS
 70
0
 71
3
 72
23
 73
19
 74
0
 42
0.0000001
 43
0.0000001
 44
0.0000000001
 40
0.0
 40
0.0
 40
0.0
 40
0.0
 40
0.0725125904
 40
0.1436522423
 40
0.2121827066
 40
0.2771463858
 40
0.338014309
 40
0.3948364803
 40
0.4483559497
 40
0.5
 40
0.5516440503
 40
0.6051635197
 40
0.661985691
 40
0.7228536142
 40
0.7878172934
 40
0.8563477577
 40
0.9274874096
 40
1.0
 40
1.0
 40
1.0
 40
1.0
 10
1217.8302795513
 20
223.1744897959
 30
0.0
 10
1217.8302795513
 20
223.3830901915
 30
0.0
 10
1217.8017531577
 20
223.7969321693
 30
0.0
 10
1217.6745258574
 20
224.3959775547
 30
0.0
 10
1217.4675484557
 20
224.9496115445
 30
0.0
 10
1217.188079283
 20
225.4370762207
 30
0.0
 10
1216.845649271
 20
225.8400792179
 30
0.0
 10
1216.4517163605
 20
226.1427073094
 30
0.0
 10
1216.0199637239
 20
226.3313752808
 30
0.0
 10
1215.5675378515
 20
226.3956626151
 30
0.0
 10
1215.115111979
 20
226.3313752808
 30
0.0
 10
1214.6833593424
 20
226.1427073094
 30
0.0
 10
1214.289426432
 20
225.8400792179
 30
0.0
 10
1213.94699642
 20
225.4370762207
 30
0.0
 10
1213.6675272472
 20
224.9496115445
 30
0.0
 10
1213.4605498456
 20
224.3959775547
 30
0.0
 10
1213.3333225453
 20
223.7969321693
 30
0.0
 10
1213.3047961517
 20
223.3830901915
 30
0.0
 10
1213.3047961517
 20
223.1744897959
 30
0.0
  0
SPLINE
  5
35B
100
AcDbEntity
  8
0
100
AcDbSpline
 62
7
  6
CONTINUOUS
 70
0
 71
3
 72
23
 73
19
 74
0
 42
0.0000001
 43
0.0000001
 44
0.0000000001
 40
0.0
 40
0.0
 40
0.0
 40
0.0
 40
0.0725125904
 40
0.1436522423
 40
0.2121827066
 40
0.2771463858
 40
0.338014309
 40
0.3948364803
 40
0.4483559497
 40
0.5
 40
0.5516440503
 40
0.6051635197
 40
0.661985691
 40
0.7228536142
 40
0.7878172934
 40
0.8563477577
 40
0.9274874096
 40
1.0
 40
1.0
 40
1.0
 40
1.0
 10
1242.5790168928
 20
223.1744897959
 30
0.0
 10
1242.5790168928
 20
222.9658894003
 30
0.0
 10
1242.5504904992
 20
222.5520474225
 30
0.0
 10
1242.4232631989
 20
221.9530020372
 30
0.0
 10
1242.2162857972
 20
221.3993680474
 30
0.0
 10
1241.9368166245
 20
220.9119033711
 30
0.0
 10
1241.5943866125
 20
220.5089003739
 30
0.0
 10
1241.2004537021
 20
220.2062722824
 30
0.0
 10
1240.7687010655
 20
220.0176043111
 30
0.0
 10
1240.316275193
 20
219.9533169767
 30
0.0
 10
1239.8638493206
 20
220.0176043111
 30
0.0
 10
1239.432096684
 20
220.2062722824
 30
0.0
 10
1239.0381637735
 20
220.5089003739
 30
0.0
 10
1238.6957337615
 20
220.9119033711
 30
0.0
 10
1238.4162645888
 20
221.3993680474
 30
0.0
 10
1238.2092871871
 20
221.9530020372
 30
0.0
 10
1238.0820598868
 20
222.5520474225
 30
0.0
 10
1238.0535334932
 20
222.9658894003
 30
0.0
 10
1238.0535334932
 20
223.1744897959
 30
0.0
  0
SPLINE
  5
35C
100
AcDbEntity
  8
0
100
AcDbSpline
 62
7
  6
CONTINUOUS
 70
0
 71
3
 72
23
 73
19
 74
0
 42
0.0000001
 43
0.0000001
 44
0.0000000001
 40
0.0
 40
0.0
 40
0.0
 40
0.0
 40
0.0725125904
 40
0.1436522423
 40
0.2121827066
 40
0.2771463858
 40
0.338014309
 40
0.3948364803
 40
0.4483559497
 40
0.5
 40
0.5516440503
 40
0.6051635197
 40
0.661985691
 40
0.7228536142
 40
0.7878172934
 40
0.8563477577
 40
0.9274874096
 40
1.0
 40
1.0
 40
1.0
 40
1.0
 10
1213.3047961517
 20
223.1744897959
 30
0.0
 10
1213.3047961517
 20
222.9658894003
 30
0.0
 10
1213.3333225453
 20
222.5520474225
 30
0.0
 10
1213.4605498456
 20
221.9530020372
 30
0.0
 10
1213.6675272472
 20
221.3993680474
 30
0.0
 10
1213.94699642
 20
220.9119033711
 30
0.0
 10
1214.289426432
 20
220.5089003739
 30
0.0
 10
1214.6833593424
 20
220.2062722824
 30
0.0
 10
1215.115111979
 20
220.0176043111
 30
0.0
 10
1215.5675378515
 20
219.9533169767
 30
0.0
 10
1216.0199637239
 20
220.0176043111
 30
0.0
 10
1216.4517163605
 20
220.2062722824
 30
0.0
 10
1216.845649271
 20
220.5089003739
 30
0.0
 10
1217.188079283
 20
220.9119033711
 30
0.0
 10
1217.4675484557
 20
221.3993680474
 30
0.0
 10
1217.6745258574
 20
221.9530020372
 30
0.0
 10
1217.8017531577
 20
222.5520474225
 30
0.0
 10
1217.8302795513
 20
222.9658894003
 30
0.0
 10
1217.8302795513
 20
223.1744897959
 30
0.0
  0
SPLINE
  5
35D
100
AcDbEntity
  8
0
100
AcDbSpline
 62
7
  6
CONTINUOUS
 70
0
 71
3
 72
23
 73
19
 74
0
 42
0.0000001
 43
0.0000001
 44
0.0000000001
 40
0.0
 40
0.0
 40
0.0
 40
0.0
 40
0.0725125904
 40
0.1436522423
 40
0.2121827066
 40
0.2771463858
 40
0.338014309
 40
0.3948364803
 40
0.4483559497
 40
0.5
 40
0.5516440503
 40
0.6051635197
 40
0.661985691
 40
0.7228536142
 40
0.7878172934
 40
0.8563477577
 40
0.9274874096
 40
1.0
 40
1.0
 40
1.0
 40
1.0
 10
1238.0535334932
 20
2165.7744897959
 30
0.0
 10
1238.0535334932
 20
2165.9830901915
 30
0.0
 10
1238.0820598868
 20
2166.3969321693
 30
0.0
 10
1238.2092871871
 20
2166.9959775547
 30
0.0
 10
1238.4162645888
 20
2167.5496115445
 30
0.0
 10
1238.6957337615
 20
2168.0370762207
 30
0.0
 10
1239.0381637735
 20
2168.4400792179
 30
0.0
 10
1239.432096684
 20
2168.7427073094
 30
0.0
 10
1239.8638493206
 20
2168.9313752808
 30
0.0
 10
1240.316275193
 20
2168.9956626151
 30
0.0
 10
1240.7687010655
 20
2168.9313752808
 30
0.0
 10
1241.2004537021
 20
2168.7427073094
 30
0.0
 10
1241.5943866125
 20
2168.4400792179
 30
0.0
 10
1241.9368166245
 20
2168.0370762207
 30
0.0
 10
1242.2162857972
 20
2167.5496115445
 30
0.0
 10
1242.4232631989
 20
2166.9959775547
 30
0.0
 10
1242.5504904992
 20
2166.3969321693
 30
0.0
 10
1242.5790168928
 20
2165.9830901915
 30
0.0
 10
1242.5790168928
 20
2165.7744897959
 30
0.0
  0
SPLINE
  5
35E
100
AcDbEntity
  8
0
100
AcDbSpline
 62
7
  6
CONTINUOUS
 70
0
 71
3
 72
23
 73
19
 74
0
 42
0.0000001
 43
0.0000001
 44
0.0000000001
 40
0.0
 40
0.0
 40
0.0
 40
0.0
 40
0.0725125904
 40
0.1436522423
 40
0.2121827066
 40
0.2771463858
 40
0.338014309
 40
0.3948364803
 40
0.4483559497
 40
0.5
 40
0.5516440503
 40
0.6051635197
 40
0.661985691
 40
0.7228536142
 40
0.7878172934
 40
0.8563477577
 40
0.9274874096
 40
1.0
 40
1.0
 40
1.0
 40
1.0
 10
1217.8302795513
 20
2165.7744897959
 30
0.0
 10
1217.8302795513
 20
2165.9830901915
 30
0.0
 10
1217.8017531577
 20
2166.3969321693
 30
0.0
 10
1217.6745258574
 20
2166.9959775547
 30
0.0
 10
1217.4675484557
 20
2167.5496115445
 30
0.0
 10
1217.188079283
 20
2168.0370762207
 30
0.0
 10
1216.845649271
 20
2168.4400792179
 30
0.0
 10
1216.4517163605
 20
2168.7427073094
 30
0.0
 10
1216.0199637239
 20
2168.9313752808
 30
0.0
 10
1215.5675378515
 20
2168.9956626151
 30
0.0
 10
1215.115111979
 20
2168.9313752808
 30
0.0
 10
1214.6833593424
 20
2168.7427073094
 30
0.0
 10
1214.289426432
 20
2168.4400792179
 30
0.0
 10
1213.94699642
 20
2168.0370762207
 30
0.0
 10
1213.6675272472
 20
2167.5496115445
 30
0.0
 10
1213.4605498456
 20
2166.9959775547
 30
0.0
 10
1213.3333225453
 20
2166.3969321693
 30
0.0
 10
1213.3047961517
 20
2165.9830901915
 30
0.0
 10
1213.3047961517
 20
2165.7744897959
 30
0.0
  0
SPLINE
  5
35F
100
AcDbEntity
  8
0
100
AcDbSpline
 62
7
  6
CONTINUOUS
 70
0
 71
3
 72
23
 73
19
 74
0
 42
0.0000001
 43
0.0000001
 44
0.0000000001
 40
0.0
 40
0.0
 40
0.0
 40
0.0
 40
0.0725125904
 40
0.1436522423
 40
0.2121827066
 40
0.2771463858
 40
0.338014309
 40
0.3948364803
 40
0.4483559497
 40
0.5
 40
0.5516440503
 40
0.6051635197
 40
0.661985691
 40
0.7228536142
 40
0.7878172934
 40
0.8563477577
 40
0.9274874096
 40
1.0
 40
1.0
 40
1.0
 40
1.0
 10
1242.5790168928
 20
2165.7744897959
 30
0.0
 10
1242.5790168928
 20
2165.5658894003
 30
0.0
 10
1242.5504904992
 20
2165.1520474225
 30
0.0
 10
1242.4232631989
 20
2164.5530020372
 30
0.0
 10
1242.2162857972
 20
2163.9993680474
 30
0.0
 10
1241.9368166245
 20
2163.5119033711
 30
0.0
 10
1241.5943866125
 20
2163.1089003739
 30
0.0
 10
1241.2004537021
 20
2162.8062722824
 30
0.0
 10
1240.7687010655
 20
2162.6176043111
 30
0.0
 10
1240.316275193
 20
2162.5533169767
 30
0.0
 10
1239.8638493206
 20
2162.6176043111
 30
0.0
 10
1239.432096684
 20
2162.8062722824
 30
0.0
 10
1239.0381637735
 20
2163.1089003739
 30
0.0
 10
1238.6957337615
 20
2163.5119033711
 30
0.0
 10
1238.4162645888
 20
2163.9993680474
 30
0.0
 10
1238.2092871871
 20
2164.5530020372
 30
0.0
 10
1238.0820598868
 20
2165.1520474225
 30
0.0
 10
1238.0535334932
 20
2165.5658894003
 30
0.0
 10
1238.0535334932
 20
2165.7744897959
 30
0.0
  0
SPLINE
  5
360
100
AcDbEntity
  8
0
100
AcDbSpline
 62
7
  6
CONTINUOUS
 70
0
 71
3
 72
23
 73
19
 74
0
 42
0.0000001
 43
0.0000001
 44
0.0000000001
 40
0.0
 40
0.0
 40
0.0
 40
0.0
 40
0.0725125904
 40
0.1436522423
 40
0.2121827066
 40
0.2771463858
 40
0.338014309
 40
0.3948364803
 40
0.4483559497
 40
0.5
 40
0.5516440503
 40
0.6051635197
 40
0.661985691
 40
0.7228536142
 40
0.7878172934
 40
0.8563477577
 40
0.9274874096
 40
1.0
 40
1.0
 40
1.0
 40
1.0
 10
1213.3047961517
 20
2165.7744897959
 30
0.0
 10
1213.3047961517
 20
2165.5658894003
 30
0.0
 10
1213.3333225453
 20
2165.1520474225
 30
0.0
 10
1213.4605498456
 20
2164.5530020372
 30
0.0
 10
1213.6675272472
 20
2163.9993680474
 30
0.0
 10
1213.94699642
 20
2163.5119033711
 30
0.0
 10
1214.289426432
 20
2163.1089003739
 30
0.0
 10
1214.6833593424
 20
2162.8062722824
 30
0.0
 10
1215.115111979
 20
2162.6176043111
 30
0.0
 10
1215.5675378515
 20
2162.5533169767
 30
0.0
 10
1216.0199637239
 20
2162.6176043111
 30
0.0
 10
1216.4517163605
 20
2162.8062722824
 30
0.0
 10
1216.845649271
 20
2163.1089003739
 30
0.0
 10
1217.188079283
 20
2163.5119033711
 30
0.0
 10
1217.4675484557
 20
2163.9993680474
 30
0.0
 10
1217.6745258574
 20
2164.5530020372
 30
0.0
 10
1217.8017531577
 20
2165.1520474225
 30
0.0
 10
1217.8302795513
 20
2165.5658894003
 30
0.0
 10
1217.8302795513
 20
2165.7744897959
 30
0.0
  0
SPLINE
  5
361
100
AcDbEntity
  8
0
100
AcDbSpline
 62
7
  6
CONTINUOUS
 70
0
 71
3
 72
23
 73
19
 74
0
 42
0.0000001
 43
0.0000001
 44
0.0000000001
 40
0.0
 40
0.0
 40
0.0
 40
0.0
 40
0.0725125904
 40
0.1436522423
 40
0.2121827066
 40
0.2771463858
 40
0.338014309
 40
0.3948364803
 40
0.4483559497
 40
0.5
 40
0.5516440503
 40
0.6051635197
 40
0.661985691
 40
0.7228536142
 40
0.7878172934
 40
0.8563477577
 40
0.9274874096
 40
1.0
 40
1.0
 40
1.0
 40
1.0
 10
493.6479419021
 20
2165.7744897959
 30
0.0
 10
493.6479419021
 20
2165.9830901915
 30
0.0
 10
493.6194155086
 20
2166.3969321693
 30
0.0
 10
493.4921882083
 20
2166.9959775547
 30
0.0
 10
493.2852108066
 20
2167.5496115445
 30
0.0
 10
493.0057416339
 20
2168.0370762207
 30
0.0
 10
492.6633116219
 20
2168.4400792179
 30
0.0
 10
492.2693787114
 20
2168.7427073094
 30
0.0
 10
491.8376260748
 20
2168.9313752808
 30
0.0
 10
491.3852002023
 20
2168.9956626151
 30
0.0
 10
490.9327743299
 20
2168.9313752808
 30
0.0
 10
490.5010216933
 20
2168.7427073094
 30
0.0
 10
490.1070887828
 20
2168.4400792179
 30
0.0
 10
489.7646587708
 20
2168.0370762207
 30
0.0
 10
489.4851895981
 20
2167.5496115445
 30
0.0
 10
489.2782121964
 20
2166.9959775547
 30
0.0
 10
489.1509848961
 20
2166.3969321693
 30
0.0
 10
489.1224585026
 20
2165.9830901915
 30
0.0
 10
489.1224585026
 20
2165.7744897959
 30
0.0
  0
SPLINE
  5
362
100
AcDbEntity
  8
0
100
AcDbSpline
 62
7
  6
CONTINUOUS
 70
0
 71
3
 72
23
 73
19
 74
0
 42
0.0000001
 43
0.0000001
 44
0.0000000001
 40
0.0
 40
0.0
 40
0.0
 40
0.0
 40
0.0725125904
 40
0.1436522423
 40
0.2121827066
 40
0.2771463858
 40
0.338014309
 40
0.3948364803
 40
0.4483559497
 40
0.5
 40
0.5516440503
 40
0.6051635197
 40
0.661985691
 40
0.7228536142
 40
0.7878172934
 40
0.8563477577
 40
0.9274874096
 40
1.0
 40
1.0
 40
1.0
 40
1.0
 10
513.8711958441
 20
2165.7744897959
 30
0.0
 10
513.8711958441
 20
2165.9830901915
 30
0.0
 10
513.8997222377
 20
2166.3969321693
 30
0.0
 10
514.026949538
 20
2166.9959775547
 30
0.0
 10
514.2339269396
 20
2167.5496115445
 30
0.0
 10
514.5133961124
 20
2168.0370762207
 30
0.0
 10
514.8558261244
 20
2168.4400792179
 30
0.0
 10
515.2497590348
 20
2168.7427073094
 30
0.0
 10
515.6815116714
 20
2168.9313752808
 30
0.0
 10
516.1339375439
 20
2168.9956626151
 30
0.0
 10
516.5863634163
 20
2168.9313752808
 30
0.0
 10
517.0181160529
 20
2168.7427073094
 30
0.0
 10
517.4120489634
 20
2168.4400792179
 30
0.0
 10
517.7544789754
 20
2168.0370762207
 30
0.0
 10
518.0339481481
 20
2167.5496115445
 30
0.0
 10
518.2409255498
 20
2166.9959775547
 30
0.0
 10
518.3681528501
 20
2166.3969321693
 30
0.0
 10
518.3966792437
 20
2165.9830901915
 30
0.0
 10
518.3966792437
 20
2165.7744897959
 30
0.0
  0
SPLINE
  5
363
100
AcDbEntity
  8
0
100
AcDbSpline
 62
7
  6
CONTINUOUS
 70
0
 71
3
 72
23
 73
19
 74
0
 42
0.0000001
 43
0.0000001
 44
0.0000000001
 40
0.0
 40
0.0
 40
0.0
 40
0.0
 40
0.0725125904
 40
0.1436522423
 40
0.2121827066
 40
0.2771463858
 40
0.338014309
 40
0.3948364803
 40
0.4483559497
 40
0.5
 40
0.5516440503
 40
0.6051635197
 40
0.661985691
 40
0.7228536142
 40
0.7878172934
 40
0.8563477577
 40
0.9274874096
 40
1.0
 40
1.0
 40
1.0
 40
1.0
 10
489.1224585026
 20
2165.7744897959
 30
0.0
 10
489.1224585026
 20
2165.5658894003
 30
0.0
 10
489.1509848961
 20
2165.1520474225
 30
0.0
 10
489.2782121964
 20
2164.5530020372
 30
0.0
 10
489.4851895981
 20
2163.9993680474
 30
0.0
 10
489.7646587708
 20
2163.5119033711
 30
0.0
 10
490.1070887828
 20
2163.1089003739
 30
0.0
 10
490.5010216933
 20
2162.8062722824
 30
0.0
 10
490.9327743299
 20
2162.6176043111
 30
0.0
 10
491.3852002023
 20
2162.5533169767
 30
0.0
 10
491.8376260748
 20
2162.6176043111
 30
0.0
 10
492.2693787114
 20
2162.8062722824
 30
0.0
 10
492.6633116219
 20
2163.1089003739
 30
0.0
 10
493.0057416339
 20
2163.5119033711
 30
0.0
 10
493.2852108066
 20
2163.9993680474
 30
0.0
 10
493.4921882083
 20
2164.5530020372
 30
0.0
 10
493.6194155086
 20
2165.1520474225
 30
0.0
 10
493.6479419021
 20
2165.5658894003
 30
0.0
 10
493.6479419021
 20
2165.7744897959
 30
0.0
  0
SPLINE
  5
364
100
AcDbEntity
  8
0
100
AcDbSpline
 62
7
  6
CONTINUOUS
 70
0
 71
3
 72
23
 73
19
 74
0
 42
0.0000001
 43
0.0000001
 44
0.0000000001
 40
0.0
 40
0.0
 40
0.0
 40
0.0
 40
0.0725125904
 40
0.1436522423
 40
0.2121827066
 40
0.2771463858
 40
0.338014309
 40
0.3948364803
 40
0.4483559497
 40
0.5
 40
0.5516440503
 40
0.6051635197
 40
0.661985691
 40
0.7228536142
 40
0.7878172934
 40
0.8563477577
 40
0.9274874096
 40
1.0
 40
1.0
 40
1.0
 40
1.0
 10
518.3966792437
 20
2165.7744897959
 30
0.0
 10
518.3966792437
 20
2165.5658894003
 30
0.0
 10
518.3681528501
 20
2165.1520474225
 30
0.0
 10
518.2409255498
 20
2164.5530020372
 30
0.0
 10
518.0339481481
 20
2163.9993680474
 30
0.0
 10
517.7544789754
 20
2163.5119033711
 30
0.0
 10
517.4120489634
 20
2163.1089003739
 30
0.0
 10
517.0181160529
 20
2162.8062722824
 30
0.0
 10
516.5863634163
 20
2162.6176043111
 30
0.0
 10
516.1339375439
 20
2162.5533169767
 30
0.0
 10
515.6815116714
 20
2162.6176043111
 30
0.0
 10
515.2497590348
 20
2162.8062722824
 30
0.0
 10
514.8558261244
 20
2163.1089003739
 30
0.0
 10
514.5133961124
 20
2163.5119033711
 30
0.0
 10
514.2339269396
 20
2163.9993680474
 30
0.0
 10
514.026949538
 20
2164.5530020372
 30
0.0
 10
513.8997222377
 20
2165.1520474225
 30
0.0
 10
513.8711958441
 20
2165.5658894003
 30
0.0
 10
513.8711958441
 20
2165.7744897959
 30
0.0
  0
ENDSEC
  0
SECTION
  2
OBJECTS
  0
DICTIONARY
  5
C
100
AcDbDictionary
280
0
281
1
  3
ACAD_GROUP
350
D
  3
ACAD_MLINESTYLE
350
17
  3
ACAD_LAYOUT
350
1A
  3
ACAD_PLOTSETTINGS
350
19
  3
ACAD_PLOTSTYLENAME
350
E
  0
DICTIONARY
  5
D
102
{ACAD_REACTORS
330
C
102
}
100
AcDbDictionary
280
0
281
1
  0
ACDBDICTIONARYWDFLT
  5
E
102
{ACAD_REACTORS
330
C
102
}
100
AcDbDictionary
281
1
  3
Normal
350
F
100
AcDbDictionaryWithDefault
340
F
  0
DICTIONARY
  5
17
102
{ACAD_REACTORS
330
C
102
}
100
AcDbDictionary
280
0
281
1
  3
Standard
350
18
  0
DICTIONARY
  5
19
102
{ACAD_REACTORS
330
C
102
}
100
AcDbDictionary
281
1
  0
DICTIONARY
  5
1A
102
{ACAD_REACTORS
330
C
102
}
100
AcDbDictionary
281
1
  3
Model
350
365
  3
Layout1
350
366
  0
ACDBPLACEHOLDER
  5
F
102
{ACAD_REACTORS
330
E
102
}
  0
MLINESTYLE
  5
18
102
{ACAD_REACTORS
330
17
102
}
100
AcDbMlineStyle
  2
STANDARD
 70
0
  3

 62
256
 51
90.0
 52
90.0
 71
2
 49
0.5
 62
256
  6
BYLAYER
 49
-0.5
 62
256
  6
BYLAYER
  0
LAYOUT
  5
365
102
{ACAD_REACTORS
330
1A
102
}
100
AcDbPlotSettings
  1

  2
none_device
  4

  6

 40
0.0
 41
0.0
 42
0.0
 43
0.0
 44
210.0
 45
297.0
 46
0.0
 47
0.0
 48
0.0
 49
0.0
140
0.0
141
0.0
142
1.0
143
1.0
 70
1024
 72
1
 73
0
 74
0
  7

 75
0
147
1.0
148
0.0
149
0.0
100
AcDbLayout
  1
Model
 70
0
 71
0
 10
0.0
 20
0.0
 11
210.0
 21
297.0
 12
0.0
 22
0.0
 32
0.0
 14
0.0
 24
0.0
 34
0.0
 15
0.0
 25
0.0
 35
0.0
146
0.0
 13
0.0
 23
0.0
 33
0.0
 16
1.0
 26
0.0
 36
0.0
 17
0.0
 27
1.0
 37
0.0
 76
0
330
210
345
0
346
0
  0
LAYOUT
  5
366
102
{ACAD_REACTORS
330
1A
102
}
100
AcDbPlotSettings
  1

  2
none_device
  4

  6

 40
0.0
 41
0.0
 42
0.0
 43
0.0
 44
210.0
 45
297.0
 46
0.0
 47
0.0
 48
0.0
 49
0.0
140
0.0
141
0.0
142
1.0
143
1.0
 70
0
 72
1
 73
0
 74
0
  7

 75
0
147
1.0
148
0.0
149
0.0
100
AcDbLayout
  1
Layout1
 70
0
 71
1
 10
0.0
 20
0.0
 11
210.0
 21
297.0
 12
0.0
 22
0.0
 32
0.0
 14
0.0
 24
0.0
 34
0.0
 15
0.0
 25
0.0
 35
0.0
146
0.0
 13
0.0
 23
0.0
 33
0.0
 16
1.0
 26
0.0
 36
0.0
 17
0.0
 27
1.0
 37
0.0
 76
0
330
211
345
0
346
0
  0
ENDSEC
  0
EOF
