999
DXF file: C:\Users\sesa63760\Dev\_Creo\CAD\MCADID0003713_3D-CAD\drw0001_1.dxf
999
Pro/ENGINEER 2019471 by Parametric Technology Corporation
  0
SECTION
  2
HEADER
  9
$ACADVER
  1
AC1024
  9
$DWGCODEPAGE
  3
ANSI_1252
  9
$EXTMAX
 10
28.1911636181
 20
39.8703599742
 30
0.0
  9
$EXTMIN
 10
0.0
 20
0.0
 30
0.0
  9
$LIMMIN
 10
0.0
 20
0.0
  9
$LIMMAX
 10
28.1911636181
 20
39.8703599742
  9
$VIEWCTR
 10
14.095581809
 20
19.9351799871
  9
$VIEWSIZE
 40
39.8703599742
  9
$CLAYER
  8
0
  9
$LTSCALE
 40
2.5989567983
  9
$CELTYPE
  6
BYLAYER
  9
$DIMSCALE
 40
1.0
  9
$DIMASZ
 40
0.3356090907
  9
$DIMEXO
 40
1.0
  9
$DIMDLI
 40
1.7956428788
  9
$DIMEXE
 40
1.0
  9
$DIMCEN
 40
0.4252838397
  9
$DIMLFAC
 40
1.0
  9
$DIMBLK
  1
_FILLED
  9
$DIMALT
 70
0
  9
$DIMALTF
 40
0.0393700787
  9
$DIMTXT
 40
0.469852727
  9
$DIMTOL
 70
1
  9
$DIMLIM
 70
0
  9
$DIMTFAC
 40
1.0
  9
$DIMTP
 40
0.01
  9
$DIMTM
 40
0.01
  9
$DIMGAP
 40
0.625
  9
$DIMDSEP
 70
46
  9
$AUNITS
 70
0
  9
$PDMODE
 70
3
  9
$PDSIZE
 40
0.3125
  9
$HANDSEED
  5
38F
  9
$TILEMODE
 70
1
  9
$MEASUREMENT
 70
1
  9
$INSUNITS
 70
4
  0
ENDSEC
  0
SECTION
  2
CLASSES
  0
CLASS
  1
ACDBDICTIONARYWDFLT
  2
AcDbDictionaryWithDefault
  3
AutoCAD 2000
 90
0
 91
1
280
0
281
0
  0
CLASS
  1
ACDBPLACEHOLDER
  2
AcDbPlaceHolder
  3
AutoCAD 2000
 90
0
 91
1
280
0
281
0
  0
CLASS
  1
LAYOUT
  2
AcDbLayout
  3
AutoCAD 2000
 90
0
 91
0
280
0
281
0
  0
ENDSEC
  0
SECTION
  2
TABLES
  0
TABLE
  2
VPORT
  5
8
100
AcDbSymbolTable
 70
2
  0
VPORT
  5
1F4
100
AcDbSymbolTableRecord
100
AcDbViewportTableRecord
  2
*ACTIVE
 70
0
 10
0.0
 20
0.0
 11
1.0
 21
1.0
 12
14.095581809
 22
19.9351799871
 13
0.0
 23
0.0
 14
1.0
 24
1.0
 15
0.0
 25
0.0
 16
0.0
 26
0.0
 36
1.0
 17
0.0
 27
0.0
 37
0.0
 40
39.8703599742
 41
0.7070707071
 42
50.0
 43
0.0
 44
0.0
 50
0.0
 51
0.0
 71
0
 72
100
 73
1
 74
1
 75
0
 76
0
 77
0
 78
0
  0
ENDTAB
  0
TABLE
  2
LTYPE
  5
5
100
AcDbSymbolTable
 70
6
  0
LTYPE
  5
14
100
AcDbSymbolTableRecord
100
AcDbLinetypeTableRecord
  2
BYBLOCK
 70
0
  3

 72
65
 73
0
 40
0.0
  0
LTYPE
  5
15
100
AcDbSymbolTableRecord
100
AcDbLinetypeTableRecord
  2
BYLAYER
 70
0
  3

 72
65
 73
0
 40
0.0
  0
LTYPE
  5
16
100
AcDbSymbolTableRecord
100
AcDbLinetypeTableRecord
  2
CONTINUOUS
 70
64
  3
Solid line
 72
65
 73
0
 40
0.0
  0
LTYPE
  5
1F5
100
AcDbSymbolTableRecord
100
AcDbLinetypeTableRecord
  2
CENTER
 70
64
  3
____ _ ____ _ ____ _ ____ _ ____ _ ____ _ ____
 72
65
 73
4
 40
0.6
 49
0.375
 74
0
 49
-0.075
 74
0
 49
0.075
 74
0
 49
-0.075
 74
0
  0
LTYPE
  5
1F6
100
AcDbSymbolTableRecord
100
AcDbLinetypeTableRecord
  2
HIDDEN
 70
64
  3
- - - - - - - - - - - - - - - - - - - -
 72
65
 73
2
 40
0.2
 49
0.1
 74
0
 49
-0.1
 74
0
  0
LTYPE
  5
1F7
100
AcDbSymbolTableRecord
100
AcDbLinetypeTableRecord
  2
PHANTOM
 70
64
  3
_____ _ _ _____ _ _ _____ _ _ _____
 72
65
 73
6
 40
0.8
 49
0.45
 74
0
 49
-0.05
 74
0
 49
0.1
 74
0
 49
-0.05
 74
0
 49
0.1
 74
0
 49
-0.05
 74
0
  0
LTYPE
  5
1F8
100
AcDbSymbolTableRecord
100
AcDbLinetypeTableRecord
  2
DOT
 70
64
  3
. . . . . . . . . . . . . . . . . . . .
 72
65
 73
2
 40
0.2
 49
0.1
 74
0
 49
-0.1
 74
0
  0
LTYPE
  5
1F9
100
AcDbSymbolTableRecord
100
AcDbLinetypeTableRecord
  2
DASHED
 70
64
  3
- - - - - - - - - - - - - - - - - - - -
 72
65
 73
2
 40
0.2
 49
0.1
 74
0
 49
-0.1
 74
0
  0
ENDTAB
  0
TABLE
  2
LAYER
  5
2
100
AcDbSymbolTable
 70
36
  0
LAYER
  5
10
100
AcDbSymbolTableRecord
100
AcDbLayerTableRecord
  2
0
 70
0
 62
7
  6
CONTINUOUS
370
-3
390
F
  0
LAYER
  5
1FA
100
AcDbSymbolTableRecord
100
AcDbLayerTableRecord
  2
DEFAULT_1
 70
0
 62
7
  6
CENTER
370
-3
390
F
  0
LAYER
  5
1FB
100
AcDbSymbolTableRecord
100
AcDbLayerTableRecord
  2
DEFAULT_2
 70
0
 62
7
  6
HIDDEN
370
-3
390
F
  0
LAYER
  5
1FC
100
AcDbSymbolTableRecord
100
AcDbLayerTableRecord
  2
DEFAULT_3
 70
0
 62
7
  6
PHANTOM
370
-3
390
F
  0
LAYER
  5
1FD
100
AcDbSymbolTableRecord
100
AcDbLayerTableRecord
  2
00_COMPONENTS
 70
0
 62
7
  6
CONTINUOUS
370
-3
390
F
  0
LAYER
  5
1FE
100
AcDbSymbolTableRecord
100
AcDbLayerTableRecord
  2
01_1_DEFAULT_DATUMS
 70
0
 62
7
  6
CONTINUOUS
370
-3
390
F
  0
LAYER
  5
1FF
100
AcDbSymbolTableRecord
100
AcDbLayerTableRecord
  2
01_PLANES
 70
0
 62
7
  6
CONTINUOUS
370
-3
390
F
  0
LAYER
  5
200
100
AcDbSymbolTableRecord
100
AcDbLayerTableRecord
  2
02_COORD_SYS
 70
0
 62
7
  6
CONTINUOUS
370
-3
390
F
  0
LAYER
  5
201
100
AcDbSymbolTableRecord
100
AcDbLayerTableRecord
  2
03_AXES
 70
0
 62
7
  6
CONTINUOUS
370
-3
390
F
  0
LAYER
  5
202
100
AcDbSymbolTableRecord
100
AcDbLayerTableRecord
  2
04_POINTS
 70
0
 62
7
  6
CONTINUOUS
370
-3
390
F
  0
LAYER
  5
203
100
AcDbSymbolTableRecord
100
AcDbLayerTableRecord
  2
05_CURVES
 70
0
 62
7
  6
CONTINUOUS
370
-3
390
F
  0
LAYER
  5
204
100
AcDbSymbolTableRecord
100
AcDbLayerTableRecord
  2
06_SURFS
 70
0
 62
7
  6
CONTINUOUS
370
-3
390
F
  0
LAYER
  5
205
100
AcDbSymbolTableRecord
100
AcDbLayerTableRecord
  2
07_COSMETICS
 70
0
 62
7
  6
CONTINUOUS
370
-3
390
F
  0
LAYER
  5
206
100
AcDbSymbolTableRecord
100
AcDbLayerTableRecord
  2
10_NOTES
 70
0
 62
7
  6
CONTINUOUS
370
-3
390
F
  0
LAYER
  5
207
100
AcDbSymbolTableRecord
100
AcDbLayerTableRecord
  2
11_NOTES_PUB
 70
0
 62
7
  6
CONTINUOUS
370
-3
390
F
  0
LAYER
  5
208
100
AcDbSymbolTableRecord
100
AcDbLayerTableRecord
  2
13_REF_GTOL
 70
0
 62
7
  6
CONTINUOUS
370
-3
390
F
  0
LAYER
  5
209
100
AcDbSymbolTableRecord
100
AcDbLayerTableRecord
  2
16_MISC
 70
0
 62
7
  6
CONTINUOUS
370
-3
390
F
  0
LAYER
  5
20A
100
AcDbSymbolTableRecord
100
AcDbLayerTableRecord
  2
17_NO_PRINT
 70
0
 62
7
  6
CONTINUOUS
370
-3
390
F
  0
LAYER
  5
20B
100
AcDbSymbolTableRecord
100
AcDbLayerTableRecord
  2
18_DATUM_CAMS_JOINTS
 70
0
 62
7
  6
CONTINUOUS
370
-3
390
F
  0
LAYER
  5
20C
100
AcDbSymbolTableRecord
100
AcDbLayerTableRecord
  2
19_DATUM_FUNCTIONAL
 70
0
 62
7
  6
CONTINUOUS
370
-3
390
F
  0
LAYER
  5
20D
100
AcDbSymbolTableRecord
100
AcDbLayerTableRecord
  2
20_DATUM_KINEMATIC_SCHEME
 70
0
 62
7
  6
CONTINUOUS
370
-3
390
F
  0
ENDTAB
  0
TABLE
  2
STYLE
  5
3
100
AcDbSymbolTable
 70
1
  0
STYLE
  5
11
100
AcDbSymbolTableRecord
100
AcDbTextStyleTableRecord
  2
STANDARD
 70
0
 40
0.0
 41
1.0
 50
0.0
 71
0
 42
0.2
  3
ARIAL.TTF
  4

  0
STYLE
  5
20E
100
AcDbSymbolTableRecord
100
AcDbTextStyleTableRecord
  2
TEXTSTYLE_1
 70
0
 40
0.0
 41
0.8
 50
0.0
 71
0
 42
0.2
  3
gdt
  4

  0
ENDTAB
  0
TABLE
  2
VIEW
  5
6
100
AcDbSymbolTable
 70
0
  0
ENDTAB
  0
TABLE
  2
UCS
  5
7
100
AcDbSymbolTable
 70
0
  0
ENDTAB
  0
TABLE
  2
APPID
  5
9
100
AcDbSymbolTable
 70
1
  0
APPID
  5
20F
100
AcDbSymbolTableRecord
100
AcDbRegAppTableRecord
  2
ACAD
 70
0
  0
ENDTAB
  0
TABLE
  2
BLOCK_RECORD
  5
1
100
AcDbSymbolTable
 70
0
  0
BLOCK_RECORD
  5
210
100
AcDbSymbolTableRecord
100
AcDbBlockTableRecord
  2
*Model_Space
  0
BLOCK_RECORD
  5
211
100
AcDbSymbolTableRecord
100
AcDbBlockTableRecord
  2
*Paper_Space
  0
BLOCK_RECORD
  5
212
100
AcDbSymbolTableRecord
100
AcDbBlockTableRecord
  2
_FILLED
  0
ENDTAB
  0
TABLE
  2
DIMSTYLE
  5
A
100
AcDbSymbolTable
 70
1
100
AcDbDimStyleTable
 71
0
  0
DIMSTYLE
105
213
100
AcDbSymbolTableRecord
100
AcDbDimStyleTableRecord
  2
STANDARD
 70
0
  3

  4

 40
1.0
 41
0.3356090907
 42
1.0
 43
0.38
 44
1.0
 45
0.0
 46
0.0
 47
0.01
 48
0.01
140
0.469852727
141
0.09
142
0.0
143
25.4
144
1.0
145
0.0
146
1.0
147
0.625
 71
1
 72
0
 73
0
 74
0
 75
0
 76
0
 77
1
 78
8
 79
2
170
0
171
1
172
0
173
0
174
0
175
0
176
0
177
0
178
0
270
2
179
2
271
2
272
2
273
2
274
2
275
0
280
0
281
0
282
0
283
1
284
8
285
0
286
0
287
3
288
0
340
11
278
46
341
212
342
212
343
212
344
212
  0
ENDTAB
  0
ENDSEC
  0
SECTION
  2
BLOCKS
  0
BLOCK
  5
20
100
AcDbEntity
  8
0
100
AcDbBlockBegin
  2
*Model_Space
 70
0
 10
0.0
 20
0.0
 30
0.0
  3
*Model_Space
  1

  0
ENDBLK
  5
21
100
AcDbEntity
  8
0
100
AcDbBlockEnd
  0
BLOCK
  5
1C
100
AcDbEntity
  8
0
100
AcDbBlockBegin
  2
*Paper_Space
 70
0
 10
0.0
 20
0.0
 30
0.0
  3
*Paper_Space
  1

  0
ENDBLK
  5
1D
100
AcDbEntity
  8
0
100
AcDbBlockEnd
  0
BLOCK
  5
214
100
AcDbEntity
  8
0
100
AcDbBlockBegin
  2
_FILLED
 70
64
 10
0.0
 20
0.0
  3
_FILLED
  1

  0
SOLID
  5
215
100
AcDbEntity
  8
0
  6
BYBLOCK
 62
0
100
AcDbTrace
 10
0.0
 20
0.0
 11
-1.0
 21
0.25
 12
-1.0
 22
-0.25
 13
-1.0
 23
-0.25
  0
ENDBLK
  5
216
100
AcDbEntity
  8
0
  6
BYBLOCK
 62
0
100
AcDbBlockEnd
  0
ENDSEC
  0
SECTION
  2
ENTITIES
  0
LINE
  5
217
100
AcDbEntity
  8
0
100
AcDbLine
 62
7
  6
BYLAYER
 10
6.3938906122
 20
30.8326598017
 11
3.6715408389
 21
29.2609198093
  0
LINE
  5
218
100
AcDbEntity
  8
0
100
AcDbLine
 62
7
  6
BYLAYER
 10
6.4646009959
 20
30.8734842171
 11
7.5606119436
 21
31.5062626556
  0
LINE
  5
219
100
AcDbEntity
  8
0
100
AcDbLine
 62
7
  6
BYLAYER
 10
3.8715399435
 20
29.2411100977
 11
6.5938897168
 21
30.8128500901
  0
LINE
  5
21A
100
AcDbEntity
  8
0
100
AcDbLine
 62
7
  6
BYLAYER
 10
6.6646001005
 20
30.8536745055
 11
7.7606110482
 21
31.486452944
  0
LINE
  5
21B
100
AcDbEntity
  8
0
100
AcDbLine
 62
7
  6
BYLAYER
 10
3.9561655933
 20
28.4413530035
 11
4.2390071282
 21
28.604650665
  0
LINE
  5
21C
100
AcDbEntity
  8
0
100
AcDbLine
 62
7
  6
BYLAYER
 10
3.5886960535
 20
27.775494335
 11
3.3765649023
 21
27.6530210888
  0
LINE
  5
21D
100
AcDbEntity
  8
0
100
AcDbLine
 62
7
  6
BYLAYER
 10
3.2704993267
 20
17.7896626905
 11
3.2704993267
 21
24.5666327527
  0
LINE
  5
21E
100
AcDbEntity
  8
0
100
AcDbLine
 62
7
  6
BYLAYER
 10
3.3058545186
 20
27.4724090576
 11
3.3058545186
 21
24.5870449604
  0
LINE
  5
21F
100
AcDbEntity
  8
0
100
AcDbLine
 62
7
  6
BYLAYER
 10
3.5886960535
 20
29.0778054327
 11
3.5886960535
 21
27.775494335
  0
LINE
  5
220
100
AcDbEntity
  8
0
100
AcDbLine
 62
7
  6
BYLAYER
 10
4.4054755636
 20
26.673873838
 11
4.193786401
 21
26.5510473699
  0
LINE
  5
221
100
AcDbEntity
  8
0
100
AcDbLine
 62
7
  6
BYLAYER
 10
4.7061622356
 20
27.1423129593
 11
4.9890037705
 21
27.3056106208
  0
LINE
  5
222
100
AcDbEntity
  8
0
100
AcDbLine
 62
7
  6
BYLAYER
 10
6.1342838605
 20
27.689788723
 11
6.3110688346
 21
27.7918552235
  0
LINE
  5
223
100
AcDbEntity
  8
0
100
AcDbLine
 62
7
  6
BYLAYER
 10
10.4829814281
 20
30.2004957798
 11
10.2708502729
 21
30.0780225089
  0
LINE
  5
224
100
AcDbEntity
  8
0
100
AcDbLine
 62
7
  6
BYLAYER
 10
4.2414627397
 20
26.4842125687
 11
4.4535932917
 21
26.6066873591
  0
LINE
  5
225
100
AcDbEntity
  8
0
100
AcDbLine
 62
7
  6
BYLAYER
 10
5.7834240812
 20
25.6302114366
 11
5.7851422454
 21
25.6313689168
  0
LINE
  5
226
100
AcDbEntity
  8
0
100
AcDbLine
 62
7
  6
BYLAYER
 10
9.4930407675
 20
28.9757660149
 11
7.8667019419
 21
28.036804461
  0
LINE
  5
227
100
AcDbEntity
  8
0
100
AcDbLine
 62
7
  6
BYLAYER
 10
11.119388425
 20
29.9091781165
 11
8.7505905703
 21
28.541560201
  0
LINE
  5
228
100
AcDbEntity
  8
0
100
AcDbLine
 62
7
  6
BYLAYER
 10
8.6627234879
 20
28.4147403736
 11
6.6646260074
 21
27.2611409086
  0
LINE
  5
229
100
AcDbEntity
  8
0
100
AcDbLine
 62
7
  6
BYLAYER
 10
9.379121432
 20
28.605413934
 11
11.3393892335
 21
29.7371683212
  0
LINE
  5
22A
100
AcDbEntity
  8
0
100
AcDbLine
 62
7
  6
BYLAYER
 10
4.7380411684
 20
25.8735675647
 11
4.5259100173
 21
25.7510943184
  0
LINE
  5
22B
100
AcDbEntity
  8
0
100
AcDbLine
 62
7
  6
BYLAYER
 10
4.628819537
 20
25.6311099927
 11
4.8409506881
 21
25.7535832388
  0
LINE
  5
22C
100
AcDbEntity
  8
0
100
AcDbLine
 62
7
  6
BYLAYER
 10
3.2704993267
 20
24.5666327527
 11
3.3058545186
 21
24.5870449604
  0
LINE
  5
22D
100
AcDbEntity
  8
0
100
AcDbLine
 62
7
  6
BYLAYER
 10
5.7395253511
 20
25.6141556654
 11
5.7875692171
 21
25.6418936388
  0
LINE
  5
22E
100
AcDbEntity
  8
0
100
AcDbLine
 62
7
  6
BYLAYER
 10
12.1879209037
 20
29.2472794158
 11
10.2276531022
 21
28.1155250285
  0
LINE
  5
22F
100
AcDbEntity
  8
0
100
AcDbLine
 62
7
  6
BYLAYER
 10
5.9575162823
 20
25.5464753786
 11
5.9928714742
 21
25.5668875863
  0
LINE
  5
230
100
AcDbEntity
  8
0
100
AcDbLine
 62
7
  6
BYLAYER
 10
10.4476539107
 20
27.5617823902
 11
12.8164517654
 21
28.9294003057
  0
LINE
  5
231
100
AcDbEntity
  8
0
100
AcDbLine
 62
7
  6
BYLAYER
 10
5.9575162823
 20
23.423569094
 11
5.9575162823
 21
25.5464753786
  0
LINE
  5
232
100
AcDbEntity
  8
0
100
AcDbLine
 62
7
  6
BYLAYER
 10
10.4476539107
 20
26.5875552051
 11
12.8164517654
 21
27.9551731205
  0
LINE
  5
233
100
AcDbEntity
  8
0
100
AcDbLine
 62
7
  6
BYLAYER
 10
17.3419828572
 20
9.6656716755
 11
3.2704993267
 21
17.7896626905
  0
LINE
  5
234
100
AcDbEntity
  8
0
100
AcDbLine
 62
7
  6
BYLAYER
 10
7.7960015677
 20
24.4850494168
 11
7.7960015677
 21
22.3621431323
  0
LINE
  5
235
100
AcDbEntity
  8
0
100
AcDbLine
 62
7
  6
BYLAYER
 10
7.8313567595
 20
22.38255534
 11
7.8313567595
 21
24.5054616245
  0
LINE
  5
236
100
AcDbEntity
  8
0
100
AcDbLine
 62
7
  6
BYLAYER
 10
7.8313567595
 20
24.5054616245
 11
7.7960015677
 21
24.4850494168
  0
LINE
  5
237
100
AcDbEntity
  8
0
100
AcDbLine
 62
7
  6
BYLAYER
 10
14.5135062738
 20
28.2001226723
 11
9.9880417156
 21
25.5873600875
  0
LINE
  5
238
100
AcDbEntity
  8
0
100
AcDbLine
 62
7
  6
BYLAYER
 10
14.7256391915
 20
27.8326997208
 11
13.3114315169
 21
27.016211413
  0
LINE
  5
239
100
AcDbEntity
  8
0
100
AcDbLine
 62
7
  6
BYLAYER
 10
11.4729615402
 20
25.954776613
 11
10.2355298251
 21
25.2403493437
  0
LINE
  5
23A
100
AcDbEntity
  8
0
100
AcDbLine
 62
7
  6
BYLAYER
 10
13.1700113383
 20
26.8529140914
 11
11.5436725127
 21
25.9139525375
  0
LINE
  5
23B
100
AcDbEntity
  8
0
100
AcDbLine
 62
7
  6
BYLAYER
 10
19.6089174096
 20
8.6931363289
 11
17.4875882341
 21
9.9178585924
  0
LINE
  5
23C
100
AcDbEntity
  8
0
100
AcDbLine
 62
7
  6
BYLAYER
 10
19.6724307402
 20
9.6035864823
 11
17.5511015647
 21
10.8283087459
  0
LINE
  5
23D
100
AcDbEntity
  8
0
100
AcDbLine
 62
7
  6
BYLAYER
 10
4.3939621352
 20
25.7047994683
 11
4.1095148574
 21
26.4379177188
  0
LINE
  5
23E
100
AcDbEntity
  8
0
100
AcDbLine
 62
7
  6
BYLAYER
 10
4.5259100173
 20
25.7510943184
 11
4.2414627397
 21
26.4842125687
  0
LINE
  5
23F
100
AcDbEntity
  8
0
100
AcDbLine
 62
7
  6
BYLAYER
 10
4.4535931719
 20
26.6066876679
 11
4.7380411684
 21
25.8735675648
  0
LWPOLYLINE
  5
240
100
AcDbEntity
  8
0
100
AcDbPolyline
 62
7
  6
BYLAYER
 90
4
 70
0
 10
6.1076916786
 20
27.6405213767
 10
6.2253381731
 20
26.914906315
 10
6.2138691347
 20
26.554240918
 10
6.0283969626
 20
25.9448428766
  0
LINE
  5
241
100
AcDbEntity
  8
0
100
AcDbLine
 62
7
  6
BYLAYER
 10
8.6627234879
 20
27.4448607896
 11
8.6627234879
 21
28.4565144636
  0
LINE
  5
242
100
AcDbEntity
  8
0
100
AcDbLine
 62
7
  6
BYLAYER
 10
8.7505923367
 20
27.3223875434
 11
8.7505923367
 21
28.4102796528
  0
LINE
  5
243
100
AcDbEntity
  8
0
100
AcDbLine
 62
7
  6
BYLAYER
 10
7.8313567595
 20
22.38255534
 11
7.7960015677
 21
22.3621431323
  0
LINE
  5
244
100
AcDbEntity
  8
0
100
AcDbLine
 62
7
  6
BYLAYER
 10
23.7796578832
 20
11.9748810242
 11
22.3405174292
 21
12.3251338482
  0
LINE
  5
245
100
AcDbEntity
  8
0
100
AcDbLine
 62
7
  6
BYLAYER
 10
21.6831667621
 20
9.264798123
 11
20.976057037
 21
9.6730388775
  0
LINE
  5
246
100
AcDbEntity
  8
0
100
AcDbLine
 62
7
  6
BYLAYER
 10
9.4930407675
 20
28.9702114635
 11
9.4930395899
 21
29.1390629966
  0
LINE
  5
247
100
AcDbEntity
  8
0
100
AcDbLine
 62
7
  6
BYLAYER
 10
10.023389842
 20
27.6754462947
 11
10.023389842
 21
26.5875541853
  0
LINE
  5
248
100
AcDbEntity
  8
0
100
AcDbLine
 62
7
  6
BYLAYER
 10
6.6690687041
 20
20.3999556707
 11
7.8635984841
 21
21.089613644
  0
LINE
  5
249
100
AcDbEntity
  8
0
100
AcDbLine
 62
7
  6
BYLAYER
 10
20.2191882537
 20
13.5498561117
 11
21.6583287078
 21
13.1996032878
  0
LINE
  5
24A
100
AcDbEntity
  8
0
100
AcDbLine
 62
7
  6
BYLAYER
 10
22.3405174292
 20
12.3251338482
 11
22.476019153
 21
12.2711082303
  0
LINE
  5
24B
100
AcDbEntity
  8
0
100
AcDbLine
 62
7
  6
BYLAYER
 10
24.3407487502
 20
8.4642405148
 11
22.2194195748
 21
9.6889627784
  0
LINE
  5
24C
100
AcDbEntity
  8
0
100
AcDbLine
 62
7
  6
BYLAYER
 10
23.8360809842
 20
9.1822191325
 11
21.7147518087
 21
10.406941396
  0
LINE
  5
24D
100
AcDbEntity
  8
0
100
AcDbLine
 62
7
  6
BYLAYER
 10
5.3589246626
 20
26.2026590597
 11
5.7395253511
 21
25.6141556654
  0
LINE
  5
24E
100
AcDbEntity
  8
0
100
AcDbLine
 62
7
  6
BYLAYER
 10
10.4476539107
 20
26.5875552051
 11
10.4476539107
 21
27.5617823902
  0
LINE
  5
24F
100
AcDbEntity
  8
0
100
AcDbLine
 62
7
  6
BYLAYER
 10
9.0433355225
 20
21.2745836962
 11
9.0079803307
 21
21.2541714885
  0
LINE
  5
250
100
AcDbEntity
  8
0
100
AcDbLine
 62
7
  6
BYLAYER
 10
7.8543490109
 20
20.1147473424
 11
7.508714981
 21
19.9151966333
  0
LINE
  5
251
100
AcDbEntity
  8
0
100
AcDbLine
 62
7
  6
BYLAYER
 10
21.6583287078
 20
13.1996032878
 11
21.7218305985
 21
13.1742726048
  0
LINE
  5
252
100
AcDbEntity
  8
0
100
AcDbLine
 62
7
  6
BYLAYER
 10
23.8431350345
 20
11.9495073884
 11
23.7796578832
 21
11.9748810242
  0
LINE
  5
253
100
AcDbEntity
  8
0
100
AcDbLine
 62
7
  6
BYLAYER
 10
24.7682176743
 20
9.2046551601
 11
24.2868335466
 21
9.4825761285
  0
LINE
  5
254
100
AcDbEntity
  8
0
100
AcDbLine
 62
7
  6
BYLAYER
 10
18.9902420188
 20
12.8403279075
 11
21.1115711942
 21
11.6156056439
  0
LINE
  5
255
100
AcDbEntity
  8
0
100
AcDbLine
 62
7
  6
BYLAYER
 10
24.2635499083
 20
9.9226337778
 11
22.1422207329
 21
11.1473560413
  0
LINE
  5
256
100
AcDbEntity
  8
0
100
AcDbLine
 62
7
  6
BYLAYER
 10
24.8454165162
 20
9.7649557951
 11
22.7240873408
 21
10.9896780587
  0
LINE
  5
257
100
AcDbEntity
  8
0
100
AcDbLine
 62
7
  6
BYLAYER
 10
6.6690687041
 20
20.3999556707
 11
7.508714981
 21
19.9151966333
  0
LINE
  5
258
100
AcDbEntity
  8
0
100
AcDbLine
 62
7
  6
BYLAYER
 10
11.3838577553
 20
28.7830561116
 11
11.3393892335
 21
29.7371683212
  0
LINE
  5
259
100
AcDbEntity
  8
0
100
AcDbLine
 62
7
  6
BYLAYER
 10
14.9378074368
 20
22.8113180442
 11
14.7610314756
 21
22.7092570039
  0
LINE
  5
25A
100
AcDbEntity
  8
0
100
AcDbLine
 62
7
  6
BYLAYER
 10
18.8975889018
 20
25.0974853122
 11
19.1097246326
 21
25.2199612533
  0
LINE
  5
25B
100
AcDbEntity
  8
0
100
AcDbLine
 62
7
  6
BYLAYER
 10
25.2728854404
 20
10.5053704404
 11
23.1515562649
 21
11.730092704
  0
LINE
  5
25C
100
AcDbEntity
  8
0
100
AcDbLine
 62
7
  6
BYLAYER
 10
22.3405174292
 20
12.3251338482
 11
20.2191882537
 21
13.5498561117
  0
LINE
  5
25D
100
AcDbEntity
  8
0
100
AcDbLine
 62
7
  6
BYLAYER
 10
23.1831413116
 20
11.8628890281
 11
22.4760315864
 21
12.2711297826
  0
LINE
  5
25E
100
AcDbEntity
  8
0
100
AcDbLine
 62
7
  6
BYLAYER
 10
21.6583287078
 20
13.1996032878
 11
23.7796578832
 21
11.9748810242
  0
LINE
  5
25F
100
AcDbEntity
  8
0
100
AcDbLine
 62
7
  6
BYLAYER
 10
23.8431712138
 20
11.9495701775
 11
21.7218420384
 21
13.174292441
  0
LINE
  5
260
100
AcDbEntity
  8
0
100
AcDbLine
 62
7
  6
BYLAYER
 10
5.9233388761
 20
25.811157992
 11
5.4334388877
 21
26.42059645
  0
LINE
  5
261
100
AcDbEntity
  8
0
100
AcDbLine
 62
7
  6
BYLAYER
 10
6.6845687859
 20
27.2496272006
 11
9.5079824123
 21
22.3593584957
  0
LINE
  5
262
100
AcDbEntity
  8
0
100
AcDbLine
 62
7
  6
BYLAYER
 10
12.8164517654
 20
28.9294003057
 11
12.8164517654
 21
27.9551731205
  0
LINE
  5
263
100
AcDbEntity
  8
0
100
AcDbLine
 62
7
  6
BYLAYER
 10
12.9043188478
 20
28.0776453469
 11
12.9043188478
 21
29.089299021
  0
LINE
  5
264
100
AcDbEntity
  8
0
100
AcDbLine
 62
7
  6
BYLAYER
 10
12.9982830272
 20
20.4551469925
 11
12.9629278353
 21
20.4347347848
  0
LINE
  5
265
100
AcDbEntity
  8
0
100
AcDbLine
 62
7
  6
BYLAYER
 10
7.508714981
 20
21.711501951
 11
6.6690687041
 21
22.1962609883
  0
LINE
  5
266
100
AcDbEntity
  8
0
100
AcDbLine
 62
7
  6
BYLAYER
 10
3.2704993267
 20
24.5666327527
 11
9.0079803307
 21
21.2541714885
  0
LINE
  5
267
100
AcDbEntity
  8
0
100
AcDbLine
 62
7
  6
BYLAYER
 10
3.3058545186
 20
24.5870449604
 11
9.0433355225
 21
21.2745836962
  0
LINE
  5
268
100
AcDbEntity
  8
0
100
AcDbLine
 62
7
  6
BYLAYER
 10
7.7960015677
 20
22.3621431323
 11
5.9575162823
 21
23.423569094
  0
LINE
  5
269
100
AcDbEntity
  8
0
100
AcDbLine
 62
7
  6
BYLAYER
 10
6.138566925
 20
27.6056784658
 11
6.1077891341
 21
27.640530597
  0
LINE
  5
26A
100
AcDbEntity
  8
0
100
AcDbLine
 62
7
  6
BYLAYER
 10
12.9629278353
 20
20.4347347848
 11
9.9880417156
 21
25.5873600875
  0
LINE
  5
26B
100
AcDbEntity
  8
0
100
AcDbLine
 62
7
  6
BYLAYER
 10
19.1345845138
 20
25.245739587
 11
19.1097246326
 21
25.2199612533
  0
LINE
  5
26C
100
AcDbEntity
  8
0
100
AcDbLine
 62
7
  6
BYLAYER
 10
18.8975889018
 20
25.0974853122
 11
18.8854349657
 21
25.0851893258
  0
LINE
  5
26D
100
AcDbEntity
  8
0
100
AcDbLine
 62
7
  6
BYLAYER
 10
15.9770309208
 20
21.5012601767
 11
16.2598724557
 21
21.6645578382
  0
LINE
  5
26E
100
AcDbEntity
  8
0
100
AcDbLine
 62
7
  6
BYLAYER
 10
13.462929917
 20
19.9069169578
 11
13.4982851089
 21
19.9273291655
  0
LINE
  5
26F
100
AcDbEntity
  8
0
100
AcDbLine
 62
7
  6
BYLAYER
 10
16.3520292575
 20
21.1566256933
 11
16.3873844494
 21
21.177037901
  0
LINE
  5
270
100
AcDbEntity
  8
0
100
AcDbLine
 62
7
  6
BYLAYER
 10
17.3419828572
 20
17.6673953634
 11
13.462929917
 21
19.9069169578
  0
LINE
  5
271
100
AcDbEntity
  8
0
100
AcDbLine
 62
7
  6
BYLAYER
 10
17.377338049
 20
17.6878075711
 11
13.4982851089
 21
19.9273291655
  0
LINE
  5
272
100
AcDbEntity
  8
0
100
AcDbLine
 62
7
  6
BYLAYER
 10
6.3240702811
 20
27.8167715323
 11
6.3080567885
 21
27.834418265
  0
LINE
  5
273
100
AcDbEntity
  8
0
100
AcDbLine
 62
7
  6
BYLAYER
 10
10.2355298251
 20
25.2403493437
 11
12.9982830272
 21
20.4551469925
  0
LINE
  5
274
100
AcDbEntity
  8
0
100
AcDbLine
 62
7
  6
BYLAYER
 10
15.9770327249
 20
21.5012570545
 11
15.8397675828
 21
21.3059826526
  0
LINE
  5
275
100
AcDbEntity
  8
0
100
AcDbLine
 62
7
  6
BYLAYER
 10
15.1218424682
 20
19.9843459316
 11
15.4542925914
 21
20.2187536837
  0
LINE
  5
276
100
AcDbEntity
  8
0
100
AcDbLine
 62
7
  6
BYLAYER
 10
15.7724893181
 20
20.4024635529
 11
15.4883007472
 21
20.2020846105
  0
LINE
  5
277
100
AcDbEntity
  8
0
100
AcDbLine
 62
7
  6
BYLAYER
 10
15.7699591755
 20
20.5162734568
 11
15.4517624488
 21
20.3325635875
  0
LINE
  5
278
100
AcDbEntity
  8
0
100
AcDbLine
 62
7
  6
BYLAYER
 10
21.2664067985
 20
23.6890545327
 11
20.1703958508
 21
23.0562760942
  0
LINE
  5
279
100
AcDbEntity
  8
0
100
AcDbLine
 62
7
  6
BYLAYER
 10
20.0996854671
 20
23.0154516788
 11
17.3773356939
 21
21.4437116864
  0
LINE
  5
27A
100
AcDbEntity
  8
0
100
AcDbLine
 62
7
  6
BYLAYER
 10
16.2459627313
 20
20.7331721607
 11
16.2813179232
 21
20.7535843684
  0
LINE
  5
27B
100
AcDbEntity
  8
0
100
AcDbLine
 62
7
  6
BYLAYER
 10
15.4542925914
 20
20.2187536837
 11
15.7724893181
 21
20.4024635529
  0
LINE
  5
27C
100
AcDbEntity
  8
0
100
AcDbLine
 62
7
  6
BYLAYER
 10
16.1398963737
 20
20.606786289
 11
16.1752515656
 21
20.6271984967
  0
LINE
  5
27D
100
AcDbEntity
  8
0
100
AcDbLine
 62
7
  6
BYLAYER
 10
15.4883007472
 20
20.2020846105
 11
15.276169596
 21
20.0796113644
  0
LINE
  5
27E
100
AcDbEntity
  8
0
100
AcDbLine
 62
7
  6
BYLAYER
 10
16.4828442555
 20
20.6997763605
 11
16.4474890637
 21
20.6793641528
  0
LINE
  5
27F
100
AcDbEntity
  8
0
100
AcDbLine
 62
7
  6
BYLAYER
 10
15.4956741714
 20
20.0803782028
 11
15.2835430202
 21
19.9579049566
  0
LINE
  5
280
100
AcDbEntity
  8
0
100
AcDbLine
 62
7
  6
BYLAYER
 10
16.4580957837
 20
20.6106998565
 11
16.4934509756
 21
20.6311120642
  0
LINE
  5
281
100
AcDbEntity
  8
0
100
AcDbLine
 62
7
  6
BYLAYER
 10
16.5005223268
 20
20.3985835081
 11
16.5358775186
 21
20.4189957158
  0
LINE
  5
282
100
AcDbEntity
  8
0
100
AcDbLine
 62
7
  6
BYLAYER
 10
17.6601795839
 20
20.9538144177
 11
20.3825293572
 21
22.5255544101
  0
LINE
  5
283
100
AcDbEntity
  8
0
100
AcDbLine
 62
7
  6
BYLAYER
 10
20.4532397409
 20
22.5663788255
 11
21.5492506886
 21
23.199157264
  0
LINE
  5
284
100
AcDbEntity
  8
0
100
AcDbLine
 62
7
  6
BYLAYER
 10
16.7270275631
 20
20.2022201324
 11
17.009869098
 21
20.365517794
  0
LINE
  5
285
100
AcDbEntity
  8
0
100
AcDbLine
 62
7
  6
BYLAYER
 10
15.2497542685
 20
20.7532723348
 11
14.759854284
 21
20.7095088501
  0
LINE
  5
286
100
AcDbEntity
  8
0
100
AcDbLine
 62
7
  6
BYLAYER
 10
7.7960015677
 20
24.4850494168
 11
5.9575162823
 21
25.5464753786
  0
LINE
  5
287
100
AcDbEntity
  8
0
100
AcDbLine
 62
7
  6
BYLAYER
 10
7.8313567595
 20
24.5054616245
 11
5.9928714742
 21
25.5668875863
  0
LINE
  5
288
100
AcDbEntity
  8
0
100
AcDbLine
 62
7
  6
BYLAYER
 10
16.3520292575
 20
21.1566256933
 11
16.2565694514
 21
20.7895891487
  0
LINE
  5
289
100
AcDbEntity
  8
0
100
AcDbLine
 62
7
  6
BYLAYER
 10
16.2459627313
 20
20.7331721607
 11
16.2035361883
 21
20.5700446562
  0
LINE
  5
28A
100
AcDbEntity
  8
0
100
AcDbLine
 62
7
  6
BYLAYER
 10
16.1398963737
 20
20.606786289
 11
16.3096027145
 21
21.2436607574
  0
LINE
  5
28B
100
AcDbEntity
  8
0
100
AcDbLine
 62
7
  6
BYLAYER
 10
16.3355300187
 20
21.2286919599
 11
16.1752515656
 21
20.6271984967
  0
LINE
  5
28C
100
AcDbEntity
  8
0
100
AcDbLine
 62
7
  6
BYLAYER
 10
16.727025759
 20
20.2022232546
 11
16.8642909011
 21
20.3974976565
  0
LINE
  5
28D
100
AcDbEntity
  8
0
100
AcDbLine
 62
7
  6
BYLAYER
 10
17.1395953789
 20
20.5356501187
 11
17.009869098
 21
20.365517794
  0
LINE
  5
28E
100
AcDbEntity
  8
0
100
AcDbLine
 62
7
  6
BYLAYER
 10
16.6650992903
 20
19.328495746
 11
16.8772304414
 21
19.4509689921
  0
LINE
  5
28F
100
AcDbEntity
  8
0
100
AcDbLine
 62
7
  6
BYLAYER
 10
16.2665047707
 20
18.9122412914
 11
16.4257969525
 21
19.0042081264
  0
LINE
  5
290
100
AcDbEntity
  8
0
100
AcDbLine
 62
7
  6
BYLAYER
 10
17.4480484327
 20
19.4176726877
 11
17.6601795839
 21
19.5401459338
  0
LINE
  5
291
100
AcDbEntity
  8
0
100
AcDbLine
 62
7
  6
BYLAYER
 10
21.5846058804
 20
21.8059009878
 11
21.7967370316
 21
21.928374234
  0
LINE
  5
292
100
AcDbEntity
  8
0
100
AcDbLine
 62
7
  6
BYLAYER
 10
16.701572527
 20
19.3298448501
 11
16.9137718075
 21
19.4522940546
  0
LINE
  5
293
100
AcDbEntity
  8
0
100
AcDbLine
 62
7
  6
BYLAYER
 10
7.7138677109
 20
19.9732323659
 11
7.508714981
 21
19.9151966333
  0
LINE
  5
294
100
AcDbEntity
  8
0
100
AcDbLine
 62
7
  6
BYLAYER
 10
16.5641621414
 20
20.3618418753
 11
16.5005223268
 21
20.3985835081
  0
LINE
  5
295
100
AcDbEntity
  8
0
100
AcDbLine
 62
7
  6
BYLAYER
 10
16.2035361883
 20
20.5700446562
 11
16.1398963737
 21
20.606786289
  0
LINE
  5
296
100
AcDbEntity
  8
0
100
AcDbLine
 62
7
  6
BYLAYER
 10
16.1752515656
 20
20.6271984967
 11
16.2127676487
 21
20.605539066
  0
LINE
  5
297
100
AcDbEntity
  8
0
100
AcDbLine
 62
7
  6
BYLAYER
 10
16.5358775186
 20
20.4189957158
 11
16.5547342537
 21
20.408109021
  0
LINE
  5
298
100
AcDbEntity
  8
0
100
AcDbLine
 62
7
  6
BYLAYER
 10
16.4580957837
 20
20.6106998565
 11
16.2459627313
 21
20.7331721607
  0
LINE
  5
299
100
AcDbEntity
  8
0
100
AcDbLine
 62
7
  6
BYLAYER
 10
16.2813179232
 20
20.7535843684
 11
16.4934509756
 21
20.6311120642
  0
LINE
  5
29A
100
AcDbEntity
  8
0
100
AcDbLine
 62
7
  6
BYLAYER
 10
16.2565694514
 20
20.7895891487
 11
16.4474890637
 21
20.6793641528
  0
LINE
  5
29B
100
AcDbEntity
  8
0
100
AcDbLine
 62
7
  6
BYLAYER
 10
16.3096027145
 20
21.2436607574
 11
16.3944558006
 21
21.1946719135
  0
LINE
  5
29C
100
AcDbEntity
  8
0
100
AcDbLine
 62
7
  6
BYLAYER
 10
16.5005223268
 20
20.3985835081
 11
16.4580957837
 21
20.6106998565
  0
LINE
  5
29D
100
AcDbEntity
  8
0
100
AcDbLine
 62
7
  6
BYLAYER
 10
16.4474890637
 20
20.6793641528
 11
16.3520292575
 21
21.1566256933
  0
LINE
  5
29E
100
AcDbEntity
  8
0
100
AcDbLine
 62
7
  6
BYLAYER
 10
16.4934509756
 20
20.6311120642
 11
16.5358775186
 21
20.4189957158
  0
LINE
  5
29F
100
AcDbEntity
  8
0
100
AcDbLine
 62
7
  6
BYLAYER
 10
16.3873844494
 20
21.177037901
 11
16.4828442555
 21
20.6997763605
  0
LINE
  5
2A0
100
AcDbEntity
  8
0
100
AcDbLine
 62
7
  6
BYLAYER
 10
17.3419828572
 20
17.6673953634
 11
17.3419828572
 21
9.6656716755
  0
LINE
  5
2A1
100
AcDbEntity
  8
0
100
AcDbLine
 62
7
  6
BYLAYER
 10
17.377338049
 20
17.6878075711
 11
17.377338049
 21
19.251798961
  0
LINE
  5
2A2
100
AcDbEntity
  8
0
100
AcDbLine
 62
7
  6
BYLAYER
 10
16.6332876563
 20
19.2993986689
 11
16.3488403787
 21
18.894724413
  0
LINE
  5
2A3
100
AcDbEntity
  8
0
100
AcDbLine
 62
7
  6
BYLAYER
 10
16.6443886827
 20
19.201068661
 11
16.3599414051
 21
18.796394405
  0
LINE
  5
2A4
100
AcDbEntity
  8
0
100
AcDbLine
 62
7
  6
BYLAYER
 10
17.4376807637
 20
19.4102908778
 11
17.4480484327
 21
19.4176726877
  0
LINE
  5
2A5
100
AcDbEntity
  8
0
100
AcDbLine
 62
7
  6
BYLAYER
 10
6.6845687859
 20
27.2496272006
 11
6.6646260074
 21
27.2611409086
  0
LINE
  5
2A6
100
AcDbEntity
  8
0
100
AcDbLine
 62
7
  6
BYLAYER
 10
6.6999811993
 20
27.2815531163
 11
6.1385669251
 21
27.6056784659
  0
LINE
  5
2A7
100
AcDbEntity
  8
0
100
AcDbLine
 62
7
  6
BYLAYER
 10
10.2355298251
 20
25.2403493437
 11
14.6153366148
 21
22.7117239195
  0
LINE
  5
2A8
100
AcDbEntity
  8
0
100
AcDbLine
 62
7
  6
BYLAYER
 10
20.3825293572
 20
19.504493376
 11
20.4532397409
 21
19.4636696404
  0
LINE
  5
2A9
100
AcDbEntity
  8
0
100
AcDbLine
 62
7
  6
BYLAYER
 10
9.9880417156
 20
25.5873600875
 11
6.876758925
 21
27.3836194074
  0
LINE
  5
2AA
100
AcDbEntity
  8
0
100
AcDbLine
 62
7
  6
BYLAYER
 10
17.3773356939
 20
21.4437116864
 11
15.0115298214
 21
22.8095794437
  0
LINE
  5
2AB
100
AcDbEntity
  8
0
100
AcDbLine
 62
7
  6
BYLAYER
 10
6.3080567885
 20
27.834418265
 11
3.8715399435
 21
29.2411100977
  0
LINE
  5
2AC
100
AcDbEntity
  8
0
100
AcDbLine
 62
7
  6
BYLAYER
 10
14.928536347
 20
22.5798745824
 11
15.4407979916
 21
22.1256320373
  0
LINE
  5
2AD
100
AcDbEntity
  8
0
100
AcDbLine
 62
7
  6
BYLAYER
 10
13.3114315169
 20
27.016211413
 11
13.4057114658
 21
26.852914658
  0
LINE
  5
2AE
100
AcDbEntity
  8
0
100
AcDbLine
 62
7
  6
BYLAYER
 10
16.3944558006
 20
21.1946719135
 11
16.5641621414
 21
20.3618418753
  0
LINE
  5
2AF
100
AcDbEntity
  8
0
100
AcDbLine
 62
7
  6
BYLAYER
 10
17.6601795839
 20
19.5401459338
 11
17.6601795839
 21
20.9538144177
  0
LINE
  5
2B0
100
AcDbEntity
  8
0
100
AcDbLine
 62
7
  6
BYLAYER
 10
19.0788708261
 20
24.9520004436
 11
19.1346847658
 21
25.2457255142
  0
LINE
  5
2B1
100
AcDbEntity
  8
0
100
AcDbLine
 62
7
  6
BYLAYER
 10
20.4532397409
 20
19.4636696404
 11
20.3825293572
 21
19.422845225
  0
LINE
  5
2B2
100
AcDbEntity
  8
0
100
AcDbLine
 62
7
  6
BYLAYER
 10
17.3419828572
 20
17.6673953634
 11
17.377338049
 21
17.6878075711
  0
LINE
  5
2B3
100
AcDbEntity
  8
0
100
AcDbLine
 62
7
  6
BYLAYER
 10
6.4639159742
 20
22.1382252557
 11
6.6690687041
 21
22.1962609883
  0
LINE
  5
2B4
100
AcDbEntity
  8
0
100
AcDbLine
 62
7
  6
BYLAYER
 10
10.023389842
 20
26.5875541853
 11
8.7505923367
 21
27.3223875434
  0
LINE
  5
2B5
100
AcDbEntity
  8
0
100
AcDbLine
 62
7
  6
BYLAYER
 10
11.5436725127
 20
25.9139525375
 11
11.4729615402
 21
25.954776613
  0
LINE
  5
2B6
100
AcDbEntity
  8
0
100
AcDbLine
 62
7
  6
BYLAYER
 10
7.9374129144
 20
27.9959803856
 11
7.8667019419
 21
28.036804461
  0
LINE
  5
2B7
100
AcDbEntity
  8
0
100
AcDbLine
 62
7
  6
BYLAYER
 10
14.5135062738
 20
28.2001226723
 11
14.7256391914
 21
27.8326997207
  0
LINE
  5
2B8
100
AcDbEntity
  8
0
100
AcDbLine
 62
7
  6
BYLAYER
 10
5.8787886232
 20
27.6461358087
 11
6.1171354743
 21
27.5822743339
  0
LINE
  5
2B9
100
AcDbEntity
  8
0
100
AcDbLine
 62
7
  6
BYLAYER
 10
20.3825293572
 20
19.422845225
 11
20.3825293572
 21
22.5255544101
  0
LINE
  5
2BA
100
AcDbEntity
  8
0
100
AcDbLine
 62
7
  6
BYLAYER
 10
20.4532397409
 20
22.5663788255
 11
20.4532397409
 21
19.4636696404
  0
LINE
  5
2BB
100
AcDbEntity
  8
0
100
AcDbLine
 62
7
  6
BYLAYER
 10
20.0996854671
 20
23.0154516788
 11
13.4528540507
 21
26.8529147713
  0
LINE
  5
2BC
100
AcDbEntity
  8
0
100
AcDbLine
 62
7
  6
BYLAYER
 10
6.5938897168
 20
30.8128500901
 11
9.4930395899
 21
29.1390629966
  0
LINE
  5
2BD
100
AcDbEntity
  8
0
100
AcDbLine
 62
7
  6
BYLAYER
 10
9.70998237
 20
29.0954620085
 11
6.6646001005
 21
30.8536745055
  0
LINE
  5
2BE
100
AcDbEntity
  8
0
100
AcDbLine
 62
7
  6
BYLAYER
 10
13.3114315169
 20
27.016211413
 11
20.1703958508
 21
23.0562760942
  0
LINE
  5
2BF
100
AcDbEntity
  8
0
100
AcDbLine
 62
7
  6
BYLAYER
 10
21.5492506886
 20
23.199157264
 11
21.5492506886
 21
21.8519282758
  0
LINE
  5
2C0
100
AcDbEntity
  8
0
100
AcDbLine
 62
7
  6
BYLAYER
 10
21.8674474153
 20
13.0902290392
 11
21.8674474153
 21
21.8441493381
  0
LINE
  5
2C1
100
AcDbEntity
  8
0
100
AcDbLine
 62
7
  6
BYLAYER
 10
13.4528540507
 20
26.8529147713
 11
13.1700113383
 21
26.8529140914
  0
LINE
  5
2C2
100
AcDbEntity
  8
0
100
AcDbLine
 62
7
  6
BYLAYER
 10
21.2664067985
 20
23.6890545327
 11
18.9006009261
 21
25.0549222899
  0
LINE
  5
2C3
100
AcDbEntity
  8
0
100
AcDbLine
 62
7
  6
BYLAYER
 10
10.1971278932
 20
30.0797611113
 11
7.7606110482
 21
31.486452944
  0
LINE
  5
2C4
100
AcDbEntity
  8
0
100
AcDbLine
 62
7
  6
BYLAYER
 10
19.1053266426
 20
25.304143196
 11
14.7256391915
 21
27.8326997208
  0
LINE
  5
2C5
100
AcDbEntity
  8
0
100
AcDbLine
 62
7
  6
BYLAYER
 10
11.1247896706
 20
29.9116041299
 11
10.6287956266
 21
30.1979599464
  0
LINE
  5
2C6
100
AcDbEntity
  8
0
100
AcDbLine
 62
7
  6
BYLAYER
 10
12.8961489518
 20
29.133883233
 11
14.5135062738
 21
28.2001226723
  0
LINE
  5
2C7
100
AcDbEntity
  8
0
100
AcDbLine
 62
7
  6
BYLAYER
 10
17.5511015647
 20
10.8283087459
 11
18.9902420188
 21
12.8403279075
  0
LINE
  5
2C8
100
AcDbEntity
  8
0
100
AcDbLine
 62
7
  6
BYLAYER
 10
21.1115711942
 20
11.6156056439
 11
19.6724307402
 21
9.6035864823
  0
LINE
  5
2C9
100
AcDbEntity
  8
0
100
AcDbLine
 62
7
  6
BYLAYER
 10
17.6331883382
 20
9.8337982348
 11
17.3419828572
 21
9.6656716755
  0
LINE
  5
2CA
100
AcDbEntity
  8
0
100
AcDbLine
 62
7
  6
BYLAYER
 10
21.2867142677
 20
9.4936848993
 11
19.9604245192
 21
8.7279557267
  0
ARC
  5
2CB
100
AcDbEntity
  8
0
100
AcDbCircle
 62
7
  6
BYLAYER
 10
20.3228350961
 20
21.7037796043
 40
5.6511352729
100
AcDbArc
 50
187.9500937135
 51
190.1334748883
  0
ARC
  5
2CC
100
AcDbEntity
  8
0
100
AcDbCircle
 62
7
  6
BYLAYER
 10
18.8930678596
 20
22.3198037171
 40
4.4358205577
100
AcDbArc
 50
201.2858263963
 51
211.7692511024
  0
ARC
  5
2CD
100
AcDbEntity
  8
0
100
AcDbCircle
 62
7
  6
BYLAYER
 10
2.6704452775
 20
26.7273943004
 40
3.8023308066
100
AcDbArc
 50
16.602537304
 51
16.926429132
  0
ARC
  5
2CE
100
AcDbEntity
  8
0
100
AcDbCircle
 62
7
  6
BYLAYER
 10
2.6897253014
 20
26.7331503307
 40
3.7822098933
100
AcDbArc
 50
16.4051721763
 51
16.6024287766
  0
ARC
  5
2CF
100
AcDbEntity
  8
0
100
AcDbCircle
 62
7
  6
BYLAYER
 10
18.3978675173
 20
22.0369430684
 40
3.0361716729
100
AcDbArc
 50
201.2253115155
 51
210.0566167822
  0
ARC
  5
2D0
100
AcDbEntity
  8
0
100
AcDbCircle
 62
7
  6
BYLAYER
 10
21.1329423
 20
11.3427365738
 40
2.3799425848
100
AcDbArc
 50
338.2937815759
 51
342.1990030997
  0
ARC
  5
2D1
100
AcDbEntity
  8
0
100
AcDbCircle
 62
7
  6
BYLAYER
 10
4.6616178148
 20
26.9123347526
 40
1.6746675269
100
AcDbArc
 50
318.8869612248
 51
324.6709824541
  0
ARC
  5
2D2
100
AcDbEntity
  8
0
100
AcDbCircle
 62
7
  6
BYLAYER
 10
20.0702776205
 20
24.5630723973
 40
1.2887187178
100
AcDbArc
 50
155.5004941397
 51
156.6854386614
  0
ARC
  5
2D3
100
AcDbEntity
  8
0
100
AcDbCircle
 62
7
  6
BYLAYER
 10
5.0973998232
 20
26.5261869011
 40
1.0976401941
100
AcDbArc
 50
327.9633657451
 51
328.2401251325
  0
ARC
  5
2D4
100
AcDbEntity
  8
0
100
AcDbCircle
 62
7
  6
BYLAYER
 10
4.1858439073
 20
27.6223901154
 40
1.0308745455
100
AcDbArc
 50
9.5490803234
 51
11.5695610819
  0
ARC
  5
2D5
100
AcDbEntity
  8
0
100
AcDbCircle
 62
7
  6
BYLAYER
 10
4.179458649
 20
27.6240499793
 40
0.9664447463
100
AcDbArc
 50
9.5490801769
 51
11.5695612294
  0
ARC
  5
2D6
100
AcDbEntity
  8
0
100
AcDbCircle
 62
7
  6
BYLAYER
 10
5.1779841515
 20
26.3169292258
 40
0.8995661155
100
AcDbArc
 50
308.6261049634
 51
314.2644578233
  0
ARC
  5
2D7
100
AcDbEntity
  8
0
100
AcDbCircle
 62
7
  6
BYLAYER
 10
5.3353740292
 20
26.2971462165
 40
0.8034617911
100
AcDbArc
 50
303.1258831861
 51
303.8933991528
  0
ARC
  5
2D8
100
AcDbEntity
  8
0
100
AcDbCircle
 62
7
  6
BYLAYER
 10
5.3363927022
 20
26.2955808525
 40
0.8015941579
100
AcDbArc
 50
301.5642043027
 51
303.1260497732
  0
ARC
  5
2D9
100
AcDbEntity
  8
0
100
AcDbCircle
 62
7
  6
BYLAYER
 10
5.3370758782
 20
26.2944761836
 40
0.8002953093
100
AcDbArc
 50
300.0000113507
 51
301.5639279628
  0
ARC
  5
2DA
100
AcDbEntity
  8
0
100
AcDbCircle
 62
7
  6
BYLAYER
 10
11.5480604101
 20
29.2650238027
 40
0.7634891809
100
AcDbArc
 50
100.921416888
 51
103.3528968118
  0
ARC
  5
2DB
100
AcDbEntity
  8
0
100
AcDbCircle
 62
7
  6
BYLAYER
 10
21.3945421933
 20
22.4164603399
 40
0.6343263067
100
AcDbArc
 50
285.6765481073
 51
287.4457134895
  0
ARC
  5
2DC
100
AcDbEntity
  8
0
100
AcDbCircle
 62
7
  6
BYLAYER
 10
17.2585035381
 20
20.0265502579
 40
0.6325648384
100
AcDbArc
 50
286.3352583727
 51
287.4464941038
  0
ARC
  5
2DD
100
AcDbEntity
  8
0
100
AcDbCircle
 62
7
  6
BYLAYER
 10
21.4243871062
 20
22.3699997034
 40
0.5794556004
100
AcDbArc
 50
284.1474662434
 51
285.9353873209
  0
ARC
  5
2DE
100
AcDbEntity
  8
0
100
AcDbCircle
 62
7
  6
BYLAYER
 10
17.0890344526
 20
19.8199498643
 40
0.5379411176
100
AcDbArc
 50
300.0105499654
 51
310.3996351213
  0
ARC
  5
2DF
100
AcDbEntity
  8
0
100
AcDbCircle
 62
7
  6
BYLAYER
 10
16.7602303079
 20
20.6731134293
 40
0.4724811516
100
AcDbArc
 50
341.6163495793
 51
345.012351083
  0
ARC
  5
2E0
100
AcDbEntity
  8
0
100
AcDbCircle
 62
7
  6
BYLAYER
 10
16.7192499062
 20
20.6753472404
 40
0.4429510156
100
AcDbArc
 50
341.6163493338
 51
345.0123513302
  0
ARC
  5
2E1
100
AcDbEntity
  8
0
100
AcDbCircle
 62
7
  6
BYLAYER
 10
9.3740043598
 20
21.5192693484
 40
0.3394686023
100
AcDbArc
 50
288.9874701285
 51
296.4695867772
  0
ARC
  5
2E2
100
AcDbEntity
  8
0
100
AcDbCircle
 62
7
  6
BYLAYER
 10
5.5478885164
 20
25.5935417626
 40
0.2682804888
100
AcDbArc
 50
9.563658377
 51
14.7370150868
  0
ARC
  5
2E3
100
AcDbEntity
  8
0
100
AcDbCircle
 62
7
  6
BYLAYER
 10
16.7150990664
 20
19.2418930764
 40
0.1
100
AcDbArc
 50
119.9998519329
 51
144.8964511424
  0
ARC
  5
2E4
100
AcDbEntity
  8
0
100
AcDbCircle
 62
7
  6
BYLAYER
 10
5.830994933
 20
25.5811745096
 40
0.0673128706
100
AcDbArc
 50
124.7797208583
 51
133.6458598793
  0
ARC
  5
2E5
100
AcDbEntity
  8
0
100
AcDbCircle
 62
7
  6
BYLAYER
 10
16.3270522406
 20
18.9419007094
 40
0.0509585544
100
AcDbArc
 50
288.0812057584
 51
297.2059644133
  0
SPLINE
  5
2E6
100
AcDbEntity
  8
0
100
AcDbSpline
 62
7
  6
BYLAYER
 70
0
 71
3
 72
25
 73
21
 74
0
 42
0.0000001
 43
0.0000001
 44
0.0000000001
 40
0.0
 40
0.0
 40
0.0
 40
0.0
 40
0.0213316061
 40
0.0428908915
 40
0.064895551
 40
0.0875410111
 40
0.1353143386
 40
0.18721613
 40
0.2436519121
 40
0.3045971595
 40
0.3696841675
 40
0.4382785951
 40
0.5095650163
 40
0.5825867135
 40
0.6563182291
 40
0.7296998595
 40
0.8016733372
 40
0.8712649161
 40
0.9376451972
 40
1.0
 40
1.0
 40
1.0
 40
1.0
 10
13.2389400912
 20
18.160376193
 30
0.0
 10
13.2528853589
 20
18.1684242605
 30
0.0
 10
13.2819947878
 20
18.1828259592
 30
0.0
 10
13.3283997921
 20
18.19887981
 30
0.0
 10
13.3773974238
 20
18.2093265165
 30
0.0
 10
13.446988387
 20
18.2158442531
 30
0.0
 10
13.539777109
 20
18.209055879
 30
0.0
 10
13.6541768436
 20
18.1786344353
 30
0.0
 10
13.7714556018
 20
18.1268111929
 30
0.0
 10
13.8892399235
 20
18.0547625493
 30
0.0
 10
14.0051302428
 20
17.964019451
 30
0.0
 10
14.116749005
 20
17.8565401998
 30
0.0
 10
14.2217176034
 20
17.7345730397
 30
0.0
 10
14.3178243398
 20
17.6007243731
 30
0.0
 10
14.4030336608
 20
17.4578485645
 30
0.0
 10
14.4754838723
 20
17.3089746824
 30
0.0
 10
14.5336918177
 20
17.1573103145
 30
0.0
 10
14.5763862684
 20
17.0060201857
 30
0.0
 10
14.6025990973
 20
16.8583845603
 30
0.0
 10
14.6090037695
 20
16.7611534812
 30
0.0
 10
14.6090037695
 20
16.7140883865
 30
0.0
  0
SPLINE
  5
2E7
100
AcDbEntity
  8
0
100
AcDbSpline
 62
7
  6
BYLAYER
 70
0
 71
3
 72
11
 73
7
 74
0
 42
0.0000001
 43
0.0000001
 44
0.0000000001
 40
0.0
 40
0.0
 40
0.0
 40
0.0
 40
0.2359973533
 40
0.4810559089
 40
0.7360994427
 40
1.0
 40
1.0
 40
1.0
 40
1.0
 10
12.9043051854
 20
29.0893005025
 30
0.0
 10
12.9043077708
 20
29.1067914771
 30
0.0
 10
12.9001369262
 20
29.1425385128
 30
0.0
 10
12.8827042107
 20
29.1945903874
 30
0.0
 10
12.8547415362
 20
29.2441827948
 30
0.0
 10
12.8301228435
 20
29.2740246824
 30
0.0
 10
12.816449999
 20
29.2880107024
 30
0.0
  0
SPLINE
  5
2E8
100
AcDbEntity
  8
0
100
AcDbSpline
 62
7
  6
BYLAYER
 70
0
 71
3
 72
15
 73
11
 74
0
 42
0.0000001
 43
0.0000001
 44
0.0000000001
 40
0.0
 40
0.0
 40
0.0
 40
0.0
 40
0.1008071314
 40
0.2049357908
 40
0.3152172653
 40
0.4336050452
 40
0.5612415963
 40
0.6985294371
 40
0.8452011821
 40
1.0
 40
1.0
 40
1.0
 40
1.0
 10
3.9561675558
 20
28.4413496074
 30
0.0
 10
3.9397478505
 20
28.431869164
 30
0.0
 10
3.9084919918
 20
28.4086558056
 30
0.0
 10
3.8695423946
 20
28.3633966952
 30
0.0
 10
3.8388615613
 20
28.3084080758
 30
0.0
 10
3.8167604093
 20
28.2448348206
 30
0.0
 10
3.8035533786
 20
28.1737226761
 30
0.0
 10
3.7993209194
 20
28.0962360501
 30
0.0
 10
3.8041610263
 20
28.0137070996
 30
0.0
 10
3.8130652651
 20
27.957609834
 30
0.0
 10
3.8189022553
 20
27.9290859155
 30
0.0
  0
SPLINE
  5
2E9
100
AcDbEntity
  8
0
100
AcDbSpline
 62
7
  6
BYLAYER
 70
0
 71
3
 72
12
 73
8
 74
0
 42
0.0000001
 43
0.0000001
 44
0.0000000001
 40
0.0
 40
0.0
 40
0.0
 40
0.0
 40
0.1081660482
 40
0.2183370456
 40
0.4512985564
 40
0.7106788764
 40
1.0
 40
1.0
 40
1.0
 40
1.0
 10
3.6715520296
 20
29.2609004267
 30
0.0
 10
3.6649938403
 20
29.2571140738
 30
0.0
 10
3.6523809115
 20
29.2483243142
 30
0.0
 10
3.6297546093
 20
29.226090566
 30
0.0
 10
3.607339689
 20
29.1895542613
 30
0.0
 10
3.5917990588
 20
29.1366080317
 30
0.0
 10
3.5886960535
 20
29.0980608848
 30
0.0
 10
3.5886960535
 20
29.0778054327
 30
0.0
  0
SPLINE
  5
2EA
100
AcDbEntity
  8
0
100
AcDbSpline
 62
7
  6
BYLAYER
 70
0
 71
3
 72
9
 73
5
 74
0
 42
0.0000001
 43
0.0000001
 44
0.0000000001
 40
0.0
 40
0.0
 40
0.0
 40
0.0
 40
0.4916264789
 40
1.0
 40
1.0
 40
1.0
 40
1.0
 10
6.3939018026
 20
30.832640419
 30
0.0
 10
6.4028561149
 20
30.8378101606
 30
0.0
 10
6.4223637346
 20
30.8462245734
 30
0.0
 10
6.4432384465
 20
30.8500046623
 30
0.0
 10
6.4538958191
 20
30.8508612882
 30
0.0
  0
SPLINE
  5
2EB
100
AcDbEntity
  8
0
100
AcDbSpline
 62
7
  6
BYLAYER
 70
0
 71
3
 72
11
 73
7
 74
0
 42
0.0000001
 43
0.0000001
 44
0.0000000001
 40
0.0
 40
0.0
 40
0.0
 40
0.0
 40
0.2236079713
 40
0.4638662227
 40
0.7227630557
 40
1.0
 40
1.0
 40
1.0
 40
1.0
 10
6.4538958191
 20
30.8508612882
 30
0.0
 10
6.4648251019
 20
30.85173977
 30
0.0
 10
6.4877213272
 20
30.8512623405
 30
0.0
 10
6.5226334701
 20
30.8443861622
 30
0.0
 10
6.558602101
 20
30.8315609621
 30
0.0
 10
6.5821167209
 20
30.8196470787
 30
0.0
 10
6.5938897168
 20
30.8128500901
 30
0.0
  0
LINE
  5
2EC
100
AcDbEntity
  8
0
100
AcDbLine
 62
7
  6
BYLAYER
 10
5.786088138
 20
25.6372522589
 11
5.7852183749
 21
25.6306480707
  0
LINE
  5
2ED
100
AcDbEntity
  8
0
100
AcDbLine
 62
7
  6
BYLAYER
 10
5.7852183749
 20
25.6306480707
 11
5.7846626334
 21
25.6283916638
  0
SPLINE
  5
2EE
100
AcDbEntity
  8
0
100
AcDbSpline
 62
7
  6
BYLAYER
 70
0
 71
3
 72
11
 73
7
 74
0
 42
0.0000001
 43
0.0000001
 44
0.0000000001
 40
0.0
 40
0.0
 40
0.0
 40
0.0
 40
0.2221932352
 40
0.450960701
 40
0.7069024838
 40
1.0
 40
1.0
 40
1.0
 40
1.0
 10
6.1076932562
 20
27.6405218385
 30
0.0
 10
6.1065139534
 20
27.6448249429
 30
0.0
 10
6.105704395
 20
27.6541131466
 30
0.0
 10
6.1102246246
 20
27.6679351371
 30
0.0
 10
6.1201481768
 20
27.680328087
 30
0.0
 10
6.1291871502
 20
27.6868453244
 30
0.0
 10
6.1342838605
 20
27.689788723
 30
0.0
  0
SPLINE
  5
2EF
100
AcDbEntity
  8
0
100
AcDbSpline
 62
7
  6
BYLAYER
 70
0
 71
3
 72
15
 73
11
 74
0
 42
0.0000001
 43
0.0000001
 44
0.0000000001
 40
0.0
 40
0.0
 40
0.0
 40
0.0
 40
0.1484803481
 40
0.2894747676
 40
0.4227556535
 40
0.5486625662
 40
0.6679988372
 40
0.7819347831
 40
0.8919889139
 40
1.0
 40
1.0
 40
1.0
 40
1.0
 10
9.7150900558
 20
21.6624331511
 30
0.0
 10
9.7150900558
 20
21.6364084568
 30
0.0
 10
9.7129768113
 20
21.5856369997
 30
0.0
 10
9.7029960121
 20
21.5120972328
 30
0.0
 10
9.6862982288
 20
21.4438228331
 30
0.0
 10
9.6630264319
 20
21.38151095
 30
0.0
 10
9.6333646277
 20
21.3257540144
 30
0.0
 10
9.5975373664
 20
21.2771126955
 30
0.0
 10
9.5558990032
 20
21.2361075361
 30
0.0
 10
9.5243695997
 20
21.2141192827
 30
0.0
 10
9.5079744168
 20
21.2046535754
 30
0.0
  0
SPLINE
  5
2F0
100
AcDbEntity
  8
0
100
AcDbSpline
 62
7
  6
BYLAYER
 70
0
 71
3
 72
11
 73
7
 74
0
 42
0.0000001
 43
0.0000001
 44
0.0000000001
 40
0.0
 40
0.0
 40
0.0
 40
0.0
 40
0.2660480131
 40
0.5253472442
 40
0.771690471
 40
1.0
 40
1.0
 40
1.0
 40
1.0
 10
9.5079824123
 20
22.3593584957
 30
0.0
 10
9.5405501114
 20
22.3029498994
 30
0.0
 10
9.5986643077
 20
22.1878473034
 30
0.0
 10
9.6640355444
 20
22.010122201
 30
0.0
 10
9.7048521585
 20
21.8346433113
 30
0.0
 10
9.7150900558
 20
21.7183289647
 30
0.0
 10
9.7150900558
 20
21.6624331511
 30
0.0
  0
SPLINE
  5
2F1
100
AcDbEntity
  8
0
100
AcDbSpline
 62
7
  6
BYLAYER
 70
0
 71
3
 72
15
 73
11
 74
0
 42
0.0000001
 43
0.0000001
 44
0.0000000001
 40
0.0
 40
0.0
 40
0.0
 40
0.0
 40
0.148499081
 40
0.2894895473
 40
0.4227558001
 40
0.5486623148
 40
0.6680073173
 40
0.7819518884
 40
0.8919961801
 40
1.0
 40
1.0
 40
1.0
 40
1.0
 10
7.972778999
 20
20.5454278677
 30
0.0
 10
7.972778999
 20
20.5128928191
 30
0.0
 10
7.9701389782
 20
20.4494251128
 30
0.0
 10
7.9576630138
 20
20.3574997945
 30
0.0
 10
7.9367861059
 20
20.2721624214
 30
0.0
 10
7.9077016198
 20
20.1942714013
 30
0.0
 10
7.8706130129
 20
20.1245773155
 30
0.0
 10
7.8258369034
 20
20.063767408
 30
0.0
 10
7.7737846672
 20
20.0125177528
 30
0.0
 10
7.7343811269
 20
19.985027762
 30
0.0
 10
7.713889068
 20
19.9731953755
 30
0.0
  0
SPLINE
  5
2F2
100
AcDbEntity
  8
0
100
AcDbSpline
 62
7
  6
BYLAYER
 70
0
 71
3
 72
15
 73
11
 74
0
 42
0.0000001
 43
0.0000001
 44
0.0000000001
 40
0.0
 40
0.0
 40
0.0
 40
0.0
 40
0.1292188458
 40
0.2603707386
 40
0.3916994253
 40
0.521710105
 40
0.6488731594
 40
0.7717570749
 40
0.8891856881
 40
1.0
 40
1.0
 40
1.0
 40
1.0
 10
7.508714981
 20
21.711501951
 30
0.0
 10
7.5439466263
 20
21.6692035284
 30
0.0
 10
7.6114244427
 20
21.5809894382
 30
0.0
 10
7.7022252965
 20
21.4407977987
 30
0.0
 10
7.7820763146
 20
21.2936951067
 30
0.0
 10
7.8495319643
 20
21.1423694703
 30
0.0
 10
7.9034484294
 20
20.9895068043
 30
0.0
 10
7.9428314029
 20
20.8377747244
 30
0.0
 10
7.9669426639
 20
20.6899275013
 30
0.0
 10
7.972778999
 20
20.5926365409
 30
0.0
 10
7.972778999
 20
20.5454278677
 30
0.0
  0
SPLINE
  5
2F3
100
AcDbEntity
  8
0
100
AcDbSpline
 62
7
  6
BYLAYER
 70
0
 71
3
 72
15
 73
11
 74
0
 42
0.0000001
 43
0.0000001
 44
0.0000000001
 40
0.0
 40
0.0
 40
0.0
 40
0.0
 40
0.1484458456
 40
0.2894434668
 40
0.4227539222
 40
0.548669918
 40
0.6680042225
 40
0.7819309347
 40
0.89198767
 40
1.0
 40
1.0
 40
1.0
 40
1.0
 10
14.6090037695
 20
16.7140883865
 30
0.0
 10
14.6090037695
 20
16.6845572675
 30
0.0
 10
14.6066030645
 20
16.6269378931
 30
0.0
 10
14.5952726808
 20
16.5434716989
 30
0.0
 10
14.5763316035
 20
16.465968602
 30
0.0
 10
14.5499074465
 20
16.3952412166
 30
0.0
 10
14.5162529759
 20
16.3319512531
 30
0.0
 10
14.4755768233
 20
16.2767535201
 30
0.0
 10
14.4283186896
 20
16.2302156358
 30
0.0
 10
14.3925389326
 20
16.2052475858
 30
0.0
 10
14.3739283716
 20
16.1945070928
 30
0.0
  0
SPLINE
  5
2F4
100
AcDbEntity
  8
0
100
AcDbSpline
 62
7
  6
BYLAYER
 70
0
 71
3
 72
16
 73
12
 74
0
 42
0.0000001
 43
0.0000001
 44
0.0000000001
 40
0.0
 40
0.0
 40
0.0
 40
0.0
 40
0.1570711415
 40
0.30723067
 40
0.4482605545
 40
0.5785747144
 40
0.6975209813
 40
0.80567272
 40
0.9051359022
 40
0.9528762683
 40
1.0
 40
1.0
 40
1.0
 40
1.0
 10
23.9169178096
 20
11.288972878
 30
0.0
 10
23.9309418441
 20
11.3238236566
 30
0.0
 10
23.9550691031
 20
11.3933894111
 30
0.0
 10
23.9793076321
 20
11.4980423229
 30
0.0
 10
23.9903631557
 20
11.5985159073
 30
0.0
 10
23.987874579
 20
11.692165793
 30
0.0
 10
23.9717813873
 20
11.7765786408
 30
0.0
 10
23.9423177053
 20
11.849541703
 30
0.0
 10
23.9062469972
 20
11.8997595834
 30
0.0
 10
23.8717888183
 20
11.9311464234
 30
0.0
 10
23.8529255519
 20
11.9439239649
 30
0.0
 10
23.8431633093
 20
11.9495563737
 30
0.0
  0
SPLINE
  5
2F5
100
AcDbEntity
  8
0
100
AcDbSpline
 62
7
  6
BYLAYER
 70
0
 71
3
 72
12
 73
8
 74
0
 42
0.0000001
 43
0.0000001
 44
0.0000000001
 40
0.0
 40
0.0
 40
0.0
 40
0.0
 40
0.1081665502
 40
0.2183379719
 40
0.4512998972
 40
0.7106798711
 40
1.0
 40
1.0
 40
1.0
 40
1.0
 10
7.560623134
 20
31.5062432729
 30
0.0
 10
7.5671811803
 20
31.5100295385
 30
0.0
 10
7.5810995033
 20
31.5165575841
 30
0.0
 10
7.6116669111
 20
31.525035465
 30
0.0
 10
7.6545145992
 20
31.5261793956
 30
0.0
 10
7.7081362961
 20
31.5131656654
 30
0.0
 10
7.7430697427
 20
31.4965801924
 30
0.0
 10
7.7606110482
 20
31.486452944
 30
0.0
  0
SPLINE
  5
2F6
100
AcDbEntity
  8
0
100
AcDbSpline
 62
7
  6
BYLAYER
 70
0
 71
3
 72
9
 73
5
 74
0
 42
0.0000001
 43
0.0000001
 44
0.0000000001
 40
0.0
 40
0.0
 40
0.0
 40
0.0
 40
0.2430595238
 40
1.0
 40
1.0
 40
1.0
 40
1.0
 10
22.4331540368
 20
9.3390899498
 30
0.0
 10
22.4469384041
 20
9.3470483105
 30
0.0
 10
22.503090598
 20
9.3807556567
 30
0.0
 10
22.5570185263
 20
9.418128524
 30
0.0
 10
22.5965361207
 20
9.4480514767
 30
0.0
  0
SPLINE
  5
2F7
100
AcDbEntity
  8
0
100
AcDbSpline
 62
7
  6
BYLAYER
 70
0
 71
3
 72
11
 73
7
 74
0
 42
0.0000001
 43
0.0000001
 44
0.0000000001
 40
0.0
 40
0.0
 40
0.0
 40
0.0
 40
0.2623998675
 40
0.514447392
 40
0.7591371431
 40
1.0
 40
1.0
 40
1.0
 40
1.0
 10
23.3991250591
 20
11.6273593122
 30
0.0
 10
23.3863012548
 20
11.652615061
 30
0.0
 10
23.3580837991
 20
11.7006584571
 30
0.0
 10
23.3071861685
 20
11.7652225731
 30
0.0
 10
23.249067074
 20
11.8200695623
 30
0.0
 10
23.2056523632
 20
11.8498790731
 30
0.0
 10
23.1831357704
 20
11.8628794333
 30
0.0
  0
SPLINE
  5
2F8
100
AcDbEntity
  8
0
100
AcDbSpline
 62
7
  6
BYLAYER
 70
0
 71
3
 72
9
 73
5
 74
0
 42
0.0000001
 43
0.0000001
 44
0.0000000001
 40
0.0
 40
0.0
 40
0.0
 40
0.0
 40
0.2479655602
 40
1.0
 40
1.0
 40
1.0
 40
1.0
 10
6.4646121866
 20
30.8734648345
 30
0.0
 10
6.4616276757
 20
30.8717417352
 30
0.0
 10
6.4498607991
 20
30.8643335502
 30
0.0
 10
6.4392683792
 20
30.8550850066
 30
0.0
 10
6.4321922129
 20
30.847393023
 30
0.0
  0
SPLINE
  5
2F9
100
AcDbEntity
  8
0
100
AcDbSpline
 62
7
  6
BYLAYER
 70
0
 71
3
 72
23
 73
19
 74
0
 42
0.0000001
 43
0.0000001
 44
0.0000000001
 40
0.0
 40
0.0
 40
0.0
 40
0.0
 40
0.0623375599
 40
0.1287493798
 40
0.1983695673
 40
0.2703391878
 40
0.3437246652
 40
0.4174678781
 40
0.4905015775
 40
0.5617975621
 40
0.6304063721
 40
0.6955060039
 40
0.7564631102
 40
0.8129096337
 40
0.8648196185
 40
0.9126022362
 40
0.9571849032
 40
1.0
 40
1.0
 40
1.0
 40
1.0
 10
24.0498154463
 20
9.2033911232
 30
0.0
 10
24.0651600834
 20
9.2122503007
 30
0.0
 10
24.0956608656
 20
9.2326563628
 30
0.0
 10
24.1388914054
 20
9.2689984667
 30
0.0
 10
24.1801973709
 20
9.3114244935
 30
0.0
 10
24.2187117571
 20
9.35896334
 30
0.0
 10
24.2536070969
 20
9.4106349112
 30
0.0
 10
24.2841778791
 20
9.4653223994
 30
0.0
 10
24.3097280095
 20
9.5218795392
 30
0.0
 10
24.3297490421
 20
9.5790838651
 30
0.0
 10
24.3437833982
 20
9.6357327161
 30
0.0
 10
24.3515612706
 20
9.6906227795
 30
0.0
 10
24.3528782379
 20
9.742610706
 30
0.0
 10
24.3477040186
 20
9.7906229978
 30
0.0
 10
24.3360676598
 20
9.8336708812
 30
0.0
 10
24.3181066165
 20
9.8708518019
 30
0.0
 10
24.2940643224
 20
9.9012517919
 30
0.0
 10
24.274087018
 20
9.9165455458
 30
0.0
 10
24.2635454526
 20
9.9226260024
 30
0.0
  0
SPLINE
  5
2FA
100
AcDbEntity
  8
0
100
AcDbSpline
 62
7
  6
BYLAYER
 70
0
 71
3
 72
23
 73
19
 74
0
 42
0.0000001
 43
0.0000001
 44
0.0000000001
 40
0.0
 40
0.0
 40
0.0
 40
0.0
 40
0.0623375599
 40
0.1287493798
 40
0.1983695673
 40
0.2703391878
 40
0.3437246652
 40
0.4174678781
 40
0.4905015775
 40
0.5617975621
 40
0.6304063721
 40
0.6955060039
 40
0.7564631102
 40
0.8129096337
 40
0.8648196185
 40
0.9126022362
 40
0.9571849032
 40
1.0
 40
1.0
 40
1.0
 40
1.0
 10
25.0591509783
 20
9.7861277859
 30
0.0
 10
25.0744956154
 20
9.7949869634
 30
0.0
 10
25.1049963976
 20
9.8153930255
 30
0.0
 10
25.1482269374
 20
9.8517351294
 30
0.0
 10
25.189532903
 20
9.8941611561
 30
0.0
 10
25.2280472891
 20
9.9417000027
 30
0.0
 10
25.262942629
 20
9.9933715739
 30
0.0
 10
25.2935134111
 20
10.0480590621
 30
0.0
 10
25.3190635415
 20
10.1046162018
 30
0.0
 10
25.3390845742
 20
10.1618205277
 30
0.0
 10
25.3531189303
 20
10.2184693787
 30
0.0
 10
25.3608968027
 20
10.2733594422
 30
0.0
 10
25.3622137699
 20
10.3253473687
 30
0.0
 10
25.3570395506
 20
10.3733596605
 30
0.0
 10
25.3454031918
 20
10.4164075438
 30
0.0
 10
25.3274421486
 20
10.4535884645
 30
0.0
 10
25.3033998545
 20
10.4839884545
 30
0.0
 10
25.28342255
 20
10.4992822084
 30
0.0
 10
25.2728809847
 20
10.505362665
 30
0.0
  0
SPLINE
  5
2FB
100
AcDbEntity
  8
0
100
AcDbSpline
 62
7
  6
BYLAYER
 70
0
 71
3
 72
23
 73
19
 74
0
 42
0.0000001
 43
0.0000001
 44
0.0000000001
 40
0.0
 40
0.0
 40
0.0
 40
0.0
 40
0.0623375599
 40
0.1287493798
 40
0.1983695673
 40
0.2703391878
 40
0.3437246652
 40
0.4174678781
 40
0.4905015775
 40
0.5617975621
 40
0.6304063721
 40
0.6955060039
 40
0.7564631102
 40
0.8129096337
 40
0.8648196185
 40
0.9126022362
 40
0.9571849032
 40
1.0
 40
1.0
 40
1.0
 40
1.0
 10
24.5544832123
 20
8.4854125056
 30
0.0
 10
24.5698278494
 20
8.4942716831
 30
0.0
 10
24.6003286316
 20
8.5146777452
 30
0.0
 10
24.6435591714
 20
8.5510198491
 30
0.0
 10
24.6848651369
 20
8.5934458758
 30
0.0
 10
24.7233795231
 20
8.6409847224
 30
0.0
 10
24.758274863
 20
8.6926562936
 30
0.0
 10
24.7888456451
 20
8.7473437818
 30
0.0
 10
24.8143957755
 20
8.8039009216
 30
0.0
 10
24.8344168082
 20
8.8611052474
 30
0.0
 10
24.8484511643
 20
8.9177540984
 30
0.0
 10
24.8562290366
 20
8.9726441619
 30
0.0
 10
24.8575460039
 20
9.0246320884
 30
0.0
 10
24.8523717846
 20
9.0726443802
 30
0.0
 10
24.8407354258
 20
9.1156922636
 30
0.0
 10
24.8227743825
 20
9.1528731843
 30
0.0
 10
24.7987320885
 20
9.1832731742
 30
0.0
 10
24.778754784
 20
9.1985669281
 30
0.0
 10
24.7682132186
 20
9.2046473848
 30
0.0
  0
SPLINE
  5
2FC
100
AcDbEntity
  8
0
100
AcDbSpline
 62
7
  6
BYLAYER
 70
0
 71
3
 72
16
 73
12
 74
0
 42
0.0000001
 43
0.0000001
 44
0.0000000001
 40
0.0
 40
0.0
 40
0.0
 40
0.0
 40
0.045519006
 40
0.0920977415
 40
0.1906481353
 40
0.2994978056
 40
0.4201838681
 40
0.5525012507
 40
0.6949416221
 40
0.8451057808
 40
1.0
 40
1.0
 40
1.0
 40
1.0
 10
20.5189296452
 20
24.122708868
 30
0.0
 10
20.5308296952
 20
24.1284450078
 30
0.0
 10
20.5558706611
 20
24.1381535243
 30
0.0
 10
20.6100686789
 20
24.1501474749
 30
0.0
 10
20.6847496124
 20
24.1499393605
 30
0.0
 10
20.7778465151
 20
24.1269093194
 30
0.0
 10
20.8735820995
 20
24.0824628765
 30
0.0
 10
20.9691092245
 20
24.0181499222
 30
0.0
 10
21.0615730875
 20
23.9360661532
 30
0.0
 10
21.1480703553
 20
23.8388386301
 30
0.0
 10
21.1995046571
 20
23.7665373616
 30
0.0
 10
21.223634169
 20
23.7286093472
 30
0.0
  0
SPLINE
  5
2FD
100
AcDbEntity
  8
0
100
AcDbSpline
 62
7
  6
BYLAYER
 70
0
 71
3
 72
11
 73
7
 74
0
 42
0.0000001
 43
0.0000001
 44
0.0000000001
 40
0.0
 40
0.0
 40
0.0
 40
0.0
 40
0.2241805517
 40
0.4509471179
 40
0.706597453
 40
1.0
 40
1.0
 40
1.0
 40
1.0
 10
18.8854188731
 20
25.085191774
 30
0.0
 10
18.8842666966
 20
25.0826673768
 30
0.0
 10
18.8830688202
 20
25.0769449308
 30
0.0
 10
18.8857059168
 20
25.0682997361
 30
0.0
 10
18.8918673184
 20
25.0607238738
 30
0.0
 10
18.8974557353
 20
25.0567381256
 30
0.0
 10
18.9006009261
 20
25.0549222899
 30
0.0
  0
SPLINE
  5
2FE
100
AcDbEntity
  8
0
100
AcDbSpline
 62
7
  6
BYLAYER
 70
0
 71
3
 72
12
 73
8
 74
0
 42
0.0000001
 43
0.0000001
 44
0.0000000001
 40
0.0
 40
0.0
 40
0.0
 40
0.0
 40
0.1081685848
 40
0.2183551812
 40
0.4513108057
 40
0.7105884283
 40
1.0
 40
1.0
 40
1.0
 40
1.0
 10
24.3407532059
 20
8.4642482902
 30
0.0
 10
24.3477634961
 20
8.4602047005
 30
0.0
 10
24.3626450503
 20
8.4532412784
 30
0.0
 10
24.3953112796
 20
8.4441777504
 30
0.0
 10
24.4410950784
 20
8.4429629006
 30
0.0
 10
24.498403751
 20
8.4568478213
 30
0.0
 10
24.5357311348
 20
8.4745860532
 30
0.0
 10
24.5544832123
 20
8.4854125056
 30
0.0
  0
SPLINE
  5
2FF
100
AcDbEntity
  8
0
100
AcDbSpline
 62
7
  6
BYLAYER
 70
0
 71
3
 72
12
 73
8
 74
0
 42
0.0000001
 43
0.0000001
 44
0.0000000001
 40
0.0
 40
0.0
 40
0.0
 40
0.0
 40
0.1081685848
 40
0.2183551812
 40
0.4513108057
 40
0.7105884283
 40
1.0
 40
1.0
 40
1.0
 40
1.0
 10
24.8454209719
 20
9.7649635705
 30
0.0
 10
24.8524312621
 20
9.7609199808
 30
0.0
 10
24.8673128163
 20
9.7539565587
 30
0.0
 10
24.8999790456
 20
9.7448930307
 30
0.0
 10
24.9457628445
 20
9.7436781809
 30
0.0
 10
25.0030715171
 20
9.7575631016
 30
0.0
 10
25.0403989008
 20
9.7753013335
 30
0.0
 10
25.0591509783
 20
9.7861277859
 30
0.0
  0
SPLINE
  5
300
100
AcDbEntity
  8
0
100
AcDbSpline
 62
7
  6
BYLAYER
 70
0
 71
3
 72
12
 73
8
 74
0
 42
0.0000001
 43
0.0000001
 44
0.0000000001
 40
0.0
 40
0.0
 40
0.0
 40
0.0
 40
0.1081685848
 40
0.2183551812
 40
0.4513108057
 40
0.7105884283
 40
1.0
 40
1.0
 40
1.0
 40
1.0
 10
23.8360854399
 20
9.1822269079
 30
0.0
 10
23.8430957301
 20
9.1781833181
 30
0.0
 10
23.8579772843
 20
9.171219896
 30
0.0
 10
23.8906435135
 20
9.162156368
 30
0.0
 10
23.9364273124
 20
9.1609415182
 30
0.0
 10
23.993735985
 20
9.1748264389
 30
0.0
 10
24.0310633688
 20
9.1925646709
 30
0.0
 10
24.0498154463
 20
9.2033911232
 30
0.0
  0
SPLINE
  5
301
100
AcDbEntity
  8
0
100
AcDbSpline
 62
7
  6
BYLAYER
 70
0
 71
3
 72
15
 73
11
 74
0
 42
0.0000001
 43
0.0000001
 44
0.0000000001
 40
0.0
 40
0.0
 40
0.0
 40
0.0
 40
0.1140738571
 40
0.2373573965
 40
0.3669860904
 40
0.4999990849
 40
0.6330122274
 40
0.7626412732
 40
0.8859253446
 40
1.0
 40
1.0
 40
1.0
 40
1.0
 10
20.0996854671
 20
23.0154516788
 30
0.0
 10
20.1190345023
 20
23.0042807608
 30
0.0
 10
20.1572692749
 20
22.9774480983
 30
0.0
 10
20.2099185315
 20
22.9282427747
 30
0.0
 10
20.2584190105
 20
22.8700272133
 30
0.0
 10
20.3009357265
 20
22.8050457608
 30
0.0
 10
20.3359533002
 20
22.7357345739
 30
0.0
 10
20.3621196301
 20
22.6646240872
 30
0.0
 10
20.3784085939
 20
22.5944256192
 30
0.0
 10
20.3825293572
 20
22.5478967815
 30
0.0
 10
20.3825293572
 20
22.5255544101
 30
0.0
  0
SPLINE
  5
302
100
AcDbEntity
  8
0
100
AcDbSpline
 62
7
  6
BYLAYER
 70
0
 71
3
 72
14
 73
10
 74
0
 42
0.0000001
 43
0.0000001
 44
0.0000000001
 40
0.0
 40
0.0
 40
0.0
 40
0.0
 40
0.1080640863
 40
0.218166784
 40
0.3321356644
 40
0.4515213672
 40
0.710445817
 40
0.8515106089
 40
1.0
 40
1.0
 40
1.0
 40
1.0
 10
19.6089189817
 20
8.6931390466
 30
0.0
 10
19.6204443183
 20
8.6864829596
 30
0.0
 10
19.6449219159
 20
8.6750324516
 30
0.0
 10
19.6845148078
 20
8.6640861611
 30
0.0
 10
19.7267217409
 20
8.6593630715
 30
0.0
 10
19.7874909502
 20
8.6614817668
 30
0.0
 10
19.850376981
 20
8.67663289
 30
0.0
 10
19.9129263518
 20
8.7022550265
 30
0.0
 10
19.9445865384
 20
8.7188117188
 30
0.0
 10
19.9604245192
 20
8.7279557267
 30
0.0
  0
SPLINE
  5
303
100
AcDbEntity
  8
0
100
AcDbSpline
 62
7
  6
BYLAYER
 70
0
 71
3
 72
15
 73
11
 74
0
 42
0.0000001
 43
0.0000001
 44
0.0000000001
 40
0.0
 40
0.0
 40
0.0
 40
0.0
 40
0.1080104936
 40
0.2180657879
 40
0.3320031869
 40
0.451341722
 40
0.5772507162
 40
0.7105314838
 40
0.851523177
 40
1.0
 40
1.0
 40
1.0
 40
1.0
 10
21.6831723033
 20
9.2648077178
 30
0.0
 10
21.7077637991
 20
9.250609375
 30
0.0
 10
21.7599724407
 20
9.2261428969
 30
0.0
 10
21.8444662901
 20
9.202809421
 30
0.0
 10
21.9345214411
 20
9.1927486061
 30
0.0
 10
22.0291961938
 20
9.1960364852
 30
0.0
 10
22.1275927819
 20
9.2125396438
 30
0.0
 10
22.2288031151
 20
9.2420535622
 30
0.0
 10
22.3318140684
 20
9.2842412359
 30
0.0
 10
22.399348982
 20
9.3195727089
 30
0.0
 10
22.4331540368
 20
9.3390899498
 30
0.0
  0
SPLINE
  5
304
100
AcDbEntity
  8
0
100
AcDbSpline
 62
7
  6
BYLAYER
 70
0
 71
3
 72
16
 73
12
 74
0
 42
0.0000001
 43
0.0000001
 44
0.0000000001
 40
0.0
 40
0.0
 40
0.0
 40
0.0
 40
0.045519006
 40
0.0920977415
 40
0.1906481353
 40
0.2994978056
 40
0.4201838681
 40
0.5525012507
 40
0.6949416221
 40
0.8451057808
 40
1.0
 40
1.0
 40
1.0
 40
1.0
 10
8.4980643177
 20
31.0628016949
 30
0.0
 10
8.5099643677
 20
31.0685378347
 30
0.0
 10
8.5350053336
 20
31.0782463512
 30
0.0
 10
8.5892033514
 20
31.0902403017
 30
0.0
 10
8.6638842849
 20
31.0900321873
 30
0.0
 10
8.7569811876
 20
31.0670021463
 30
0.0
 10
8.852716772
 20
31.0225557033
 30
0.0
 10
8.948243897
 20
30.958242749
 30
0.0
 10
9.04070776
 20
30.8761589801
 30
0.0
 10
9.1272050278
 20
30.7789314569
 30
0.0
 10
9.1786393296
 20
30.7066301884
 30
0.0
 10
9.2027688415
 20
30.668702174
 30
0.0
  0
SPLINE
  5
305
100
AcDbEntity
  8
0
100
AcDbSpline
 62
7
  6
BYLAYER
 70
0
 71
3
 72
25
 73
21
 74
0
 42
0.0000001
 43
0.0000001
 44
0.0000000001
 40
0.0
 40
0.0
 40
0.0
 40
0.0
 40
0.0551813074
 40
0.115544452
 40
0.1806272472
 40
0.2497394099
 40
0.3218716012
 40
0.3958258622
 40
0.4703085471
 40
0.5440013124
 40
0.6156182884
 40
0.6839988981
 40
0.7481822719
 40
0.8074934838
 40
0.8616804285
 40
0.9110268413
 40
0.9342038999
 40
0.9565974355
 40
0.9784421901
 40
1.0
 40
1.0
 40
1.0
 40
1.0
 10
15.8397675828
 20
21.3059826526
 30
0.0
 10
15.8319338082
 20
21.2767464046
 30
0.0
 10
15.8215643274
 20
21.213842794
 30
0.0
 10
15.8207081101
 20
21.1144686913
 30
0.0
 10
15.8338661637
 20
21.0082864292
 30
0.0
 10
15.8606280235
 20
20.8980978387
 30
0.0
 10
15.9002514252
 20
20.7866988211
 30
0.0
 10
15.9517501663
 20
20.6770193977
 30
0.0
 10
16.0137517852
 20
20.5719268261
 30
0.0
 10
16.0846168422
 20
20.4741661391
 30
0.0
 10
16.162521472
 20
20.3863219876
 30
0.0
 10
16.2454118222
 20
20.310667235
 30
0.0
 10
16.331161765
 20
20.2491702428
 30
0.0
 10
16.4176447331
 20
20.2034661167
 30
0.0
 10
16.5026869258
 20
20.1747469656
 30
0.0
 10
16.5722023828
 20
20.1656575091
 30
0.0
 10
16.6243221278
 20
20.1682386021
 30
0.0
 10
16.6608296342
 20
20.1747739796
 30
0.0
 10
16.6952832341
 20
20.1858737279
 30
0.0
 10
16.7167853982
 20
20.1963106704
 30
0.0
 10
16.7270268121
 20
20.2022214303
 30
0.0
  0
SPLINE
  5
306
100
AcDbEntity
  8
0
100
AcDbSpline
 62
7
  6
BYLAYER
 70
0
 71
3
 72
15
 73
11
 74
0
 42
0.0000001
 43
0.0000001
 44
0.0000000001
 40
0.0
 40
0.0
 40
0.0
 40
0.0
 40
0.1140738571
 40
0.2373573965
 40
0.3669860904
 40
0.4999990849
 40
0.6330122274
 40
0.7626412732
 40
0.8859253446
 40
1.0
 40
1.0
 40
1.0
 40
1.0
 10
21.2664067985
 20
23.6890545327
 30
0.0
 10
21.2857558337
 20
23.6778836147
 30
0.0
 10
21.3239906063
 20
23.6510509521
 30
0.0
 10
21.3766398629
 20
23.6018456286
 30
0.0
 10
21.4251403419
 20
23.5436300672
 30
0.0
 10
21.4676570579
 20
23.4786486147
 30
0.0
 10
21.5026746316
 20
23.4093374278
 30
0.0
 10
21.5288409615
 20
23.338226941
 30
0.0
 10
21.5451299253
 20
23.2680284731
 30
0.0
 10
21.5492506886
 20
23.2214996354
 30
0.0
 10
21.5492506886
 20
23.199157264
 30
0.0
  0
SPLINE
  5
307
100
AcDbEntity
  8
0
100
AcDbSpline
 62
7
  6
BYLAYER
 70
0
 71
3
 72
10
 73
6
 74
0
 42
0.0000001
 43
0.0000001
 44
0.0000000001
 40
0.0
 40
0.0
 40
0.0
 40
0.0
 40
0.2187315024
 40
0.4602105529
 40
1.0
 40
1.0
 40
1.0
 40
1.0
 10
11.5436524937
 20
30.0228440606
 30
0.0
 10
11.533461923
 20
30.0241868668
 30
0.0
 10
11.5118383087
 20
30.0256812276
 30
0.0
 10
11.464817485
 20
30.0246179985
 30
0.0
 10
11.4283154453
 20
30.0194845096
 30
0.0
 10
11.4034078555
 20
30.0146846379
 30
0.0
  0
SPLINE
  5
308
100
AcDbEntity
  8
0
100
AcDbSpline
 62
7
  6
BYLAYER
 70
0
 71
3
 72
11
 73
7
 74
0
 42
0.0000001
 43
0.0000001
 44
0.0000000001
 40
0.0
 40
0.0
 40
0.0
 40
0.0
 40
0.254960371
 40
0.5157812597
 40
0.769553314
 40
1.0
 40
1.0
 40
1.0
 40
1.0
 10
11.3717340339
 20
30.0078728711
 30
0.0
 10
11.3492589884
 20
30.0025539231
 30
0.0
 10
11.3042265227
 20
29.9899074202
 30
0.0
 10
11.2385200014
 20
29.9664766866
 30
0.0
 10
11.1765133278
 20
29.9397214005
 30
0.0
 10
11.1374669609
 20
29.9196157018
 30
0.0
 10
11.119388425
 20
29.9091781165
 30
0.0
  0
SPLINE
  5
309
100
AcDbEntity
  8
0
100
AcDbSpline
 62
7
  6
BYLAYER
 70
0
 71
3
 72
15
 73
11
 74
0
 42
0.0000001
 43
0.0000001
 44
0.0000000001
 40
0.0
 40
0.0
 40
0.0
 40
0.0
 40
0.2846757652
 40
0.4149386947
 40
0.5361695107
 40
0.6484111672
 40
0.7546106638
 40
0.8087344766
 40
0.8662676151
 40
1.0
 40
1.0
 40
1.0
 40
1.0
 10
21.5492506886
 20
21.8519282758
 30
0.0
 10
21.5492506886
 20
21.845166003
 30
0.0
 10
21.5499798382
 20
21.8352534301
 30
0.0
 10
21.5531047697
 20
21.8228742512
 30
0.0
 10
21.5564764103
 20
21.8148702503
 30
0.0
 10
21.5611381062
 20
21.8081841122
 30
0.0
 10
21.5665125067
 20
21.8042395187
 30
0.0
 10
21.5715357447
 20
21.8027920579
 30
0.0
 10
21.5774205337
 20
21.8026298086
 30
0.0
 10
21.5818547571
 20
21.8043126355
 30
0.0
 10
21.5846058804
 20
21.8059009878
 30
0.0
  0
SPLINE
  5
30A
100
AcDbEntity
  8
0
100
AcDbSpline
 62
7
  6
BYLAYER
 70
0
 71
3
 72
14
 73
10
 74
0
 42
0.0000001
 43
0.0000001
 44
0.0000000001
 40
0.0
 40
0.0
 40
0.0
 40
0.0
 40
0.357126342
 40
0.5091978918
 40
0.6417129132
 40
0.7551438651
 40
0.8508010932
 40
0.9310200966
 40
1.0
 40
1.0
 40
1.0
 40
1.0
 10
8.7505905703
 20
28.541560201
 30
0.0
 10
8.7375933808
 20
28.534056315
 30
0.0
 10
8.7193998322
 20
28.5227078078
 30
0.0
 10
8.6978312044
 20
28.506493589
 30
0.0
 10
8.6852240148
 20
28.4954711553
 30
0.0
 10
8.6753604196
 20
28.4850012916
 30
0.0
 10
8.6682330093
 20
28.4750902274
 30
0.0
 10
8.6638409054
 20
28.4657005591
 30
0.0
 10
8.6627384246
 20
28.4594155922
 30
0.0
 10
8.6627371503
 20
28.4565167883
 30
0.0
  0
SPLINE
  5
30B
100
AcDbEntity
  8
0
100
AcDbSpline
 62
7
  6
BYLAYER
 70
0
 71
3
 72
15
 73
11
 74
0
 42
0.0000001
 43
0.0000001
 44
0.0000000001
 40
0.0
 40
0.0
 40
0.0
 40
0.0
 40
0.1050477056
 40
0.2159057932
 40
0.3326878925
 40
0.4553915714
 40
0.5838723197
 40
0.7178255354
 40
0.8567901606
 40
1.0
 40
1.0
 40
1.0
 40
1.0
 10
11.5436524937
 20
30.0228440606
 30
0.0
 10
11.5955601597
 20
30.0160042142
 30
0.0
 10
11.7014502416
 20
29.9953431774
 30
0.0
 10
11.8601047067
 20
29.9462328965
 30
0.0
 10
12.0213432326
 20
29.8785555711
 30
0.0
 10
12.1837972323
 20
29.7929989351
 30
0.0
 10
12.3461509358
 20
29.6902431154
 30
0.0
 10
12.5071119745
 20
29.5711584302
 30
0.0
 10
12.6652434498
 20
29.4367429948
 30
0.0
 10
12.7665537973
 20
29.3390497732
 30
0.0
 10
12.816449999
 20
29.2880107024
 30
0.0
  0
SPLINE
  5
30C
100
AcDbEntity
  8
0
100
AcDbSpline
 62
7
  6
BYLAYER
 70
0
 71
3
 72
15
 73
11
 74
0
 42
0.0000001
 43
0.0000001
 44
0.0000000001
 40
0.0
 40
0.0
 40
0.0
 40
0.0
 40
0.1354992958
 40
0.1940694468
 40
0.2490574085
 40
0.3558622687
 40
0.4672450862
 40
0.5869112624
 40
0.7156879332
 40
1.0
 40
1.0
 40
1.0
 40
1.0
 10
21.7967370316
 20
21.928374234
 30
0.0
 10
21.802027976
 20
21.9314289439
 30
0.0
 10
21.8105098244
 20
21.9347055538
 30
0.0
 10
21.8218366548
 20
21.9347373879
 30
0.0
 10
21.8315868004
 20
21.9324079988
 30
0.0
 10
21.8422488424
 20
21.9255791446
 30
0.0
 10
21.8518377522
 20
21.9135272191
 30
0.0
 10
21.8589551607
 20
21.8988406173
 30
0.0
 10
21.8657705111
 20
21.8757323525
 30
0.0
 10
21.8674474153
 20
21.8569685159
 30
0.0
 10
21.8674474153
 20
21.8441493381
 30
0.0
  0
SPLINE
  5
30D
100
AcDbEntity
  8
0
100
AcDbSpline
 62
7
  6
BYLAYER
 70
0
 71
3
 72
13
 73
9
 74
0
 42
0.0000001
 43
0.0000001
 44
0.0000000001
 40
0.0
 40
0.0
 40
0.0
 40
0.0
 40
0.2925047751
 40
0.5471703672
 40
0.6632881415
 40
0.7750163709
 40
0.8859707096
 40
1.0
 40
1.0
 40
1.0
 40
1.0
 10
19.1053266426
 20
25.304143196
 30
0.0
 10
19.1113771247
 20
25.3006500316
 30
0.0
 10
19.1221068851
 20
25.2929683945
 30
0.0
 10
19.1321859885
 20
25.2803350991
 30
0.0
 10
19.1365007446
 20
25.2695654955
 30
0.0
 10
19.1378602684
 20
25.2615183246
 30
0.0
 10
19.137333789
 20
25.2534224671
 30
0.0
 10
19.135750326
 20
25.2482319636
 30
0.0
 10
19.1346850883
 20
25.2457253404
 30
0.0
  0
SPLINE
  5
30E
100
AcDbEntity
  8
0
100
AcDbSpline
 62
7
  6
BYLAYER
 70
0
 71
3
 72
23
 73
19
 74
0
 42
0.0000001
 43
0.0000001
 44
0.0000000001
 40
0.0
 40
0.0
 40
0.0
 40
0.0
 40
0.0689265358
 40
0.140369894
 40
0.2134201188
 40
0.2872757757
 40
0.3611419216
 40
0.4341770065
 40
0.5055562438
 40
0.5745377839
 40
0.6404604921
 40
0.7028033054
 40
0.7611960198
 40
0.81551319
 40
0.8658861097
 40
0.9128031467
 40
0.9571072993
 40
1.0
 40
1.0
 40
1.0
 40
1.0
 10
3.8189022553
 20
27.9290859155
 30
0.0
 10
3.825010762
 20
27.8992351635
 30
0.0
 10
3.8402818022
 20
27.8389969074
 30
0.0
 10
3.8709625061
 20
27.7496803626
 30
0.0
 10
3.9094795261
 20
27.661068754
 30
0.0
 10
3.9551022563
 20
27.5746913146
 30
0.0
 10
4.0071046166
 20
27.4920051796
 30
0.0
 10
4.0645602893
 20
27.4143644771
 30
0.0
 10
4.1265561016
 20
27.3431286685
 30
0.0
 10
4.1919952138
 20
27.2794587649
 30
0.0
 10
4.2598298287
 20
27.22446932
 30
0.0
 10
4.3288887672
 20
27.1790303203
 30
0.0
 10
4.3980846182
 20
27.1439757381
 30
0.0
 10
4.4662664638
 20
27.1198475472
 30
0.0
 10
4.532376006
 20
27.1071933259
 30
0.0
 10
4.5953373413
 20
27.1062751535
 30
0.0
 10
4.6540050443
 20
27.1173789567
 30
0.0
 10
4.6897398338
 20
27.1328354881
 30
0.0
 10
4.7061602731
 20
27.1423163554
 30
0.0
  0
SPLINE
  5
30F
100
AcDbEntity
  8
0
100
AcDbSpline
 62
7
  6
BYLAYER
 70
0
 71
3
 72
14
 73
10
 74
0
 42
0.0000001
 43
0.0000001
 44
0.0000000001
 40
0.0
 40
0.0
 40
0.0
 40
0.0
 40
0.2683299643
 40
0.3976312933
 40
0.5229886956
 40
0.6452434819
 40
0.765390161
 40
0.8833381076
 40
1.0
 40
1.0
 40
1.0
 40
1.0
 10
5.8787808611
 20
27.6461379304
 30
0.0
 10
5.8711245878
 20
27.5274223626
 30
0.0
 10
5.8517974101
 20
27.3516675928
 30
0.0
 10
5.8029246893
 20
27.1248324966
 30
0.0
 10
5.7551917183
 20
26.9644880129
 30
0.0
 10
5.6949212964
 20
26.8127435053
 30
0.0
 10
5.6217535378
 20
26.6704146554
 30
0.0
 10
5.5353552636
 20
26.5386320493
 30
0.0
 10
5.4687029626
 20
26.4584341918
 30
0.0
 10
5.4334319262
 20
26.4206051107
 30
0.0
  0
SPLINE
  5
310
100
AcDbEntity
  8
0
100
AcDbSpline
 62
7
  6
BYLAYER
 70
0
 71
3
 72
11
 73
7
 74
0
 42
0.0000001
 43
0.0000001
 44
0.0000000001
 40
0.0
 40
0.0
 40
0.0
 40
0.0
 40
0.2933971807
 40
0.5488367897
 40
0.7771156097
 40
1.0
 40
1.0
 40
1.0
 40
1.0
 10
6.3110688346
 20
27.7918552235
 30
0.0
 10
6.3136413473
 20
27.7933404555
 30
0.0
 10
6.3181950574
 20
27.7966312466
 30
0.0
 10
6.3231503517
 20
27.8029200077
 30
0.0
 10
6.3252902645
 20
27.8099407134
 30
0.0
 10
6.3247517165
 20
27.8146138161
 30
0.0
 10
6.3241013966
 20
27.8167746537
 30
0.0
  0
SPLINE
  5
311
100
AcDbEntity
  8
0
100
AcDbSpline
 62
7
  6
BYLAYER
 70
0
 71
3
 72
9
 73
5
 74
0
 42
0.0000001
 43
0.0000001
 44
0.0000000001
 40
0.0
 40
0.0
 40
0.0
 40
0.0
 40
0.2544566035
 40
1.0
 40
1.0
 40
1.0
 40
1.0
 10
5.4334388877
 20
26.42059645
 30
0.0
 10
5.4270180539
 20
26.4114617303
 30
0.0
 10
5.4009619443
 20
26.3761510019
 30
0.0
 10
5.3715395343
 20
26.3433013939
 30
0.0
 10
5.3478919109
 20
26.3206954278
 30
0.0
  0
SPLINE
  5
312
100
AcDbEntity
  8
0
100
AcDbSpline
 62
7
  6
BYLAYER
 70
0
 71
3
 72
14
 73
10
 74
0
 42
0.0000001
 43
0.0000001
 44
0.0000000001
 40
0.0
 40
0.0
 40
0.0
 40
0.0
 40
0.0909020821
 40
0.1911416029
 40
0.3027887393
 40
0.4261597989
 40
0.5602029813
 40
0.7027651732
 40
1.0
 40
1.0
 40
1.0
 40
1.0
 10
5.3478919109
 20
26.3206954278
 30
0.0
 10
5.3451214639
 20
26.3180470165
 30
0.0
 10
5.3402195941
 20
26.3114732579
 30
0.0
 10
5.3355466077
 20
26.2994680138
 30
0.0
 10
5.3334076631
 20
26.2854011664
 30
0.0
 10
5.333770109
 20
26.2697821761
 30
0.0
 10
5.3366201792
 20
26.2531053414
 30
0.0
 10
5.3436711625
 20
26.2299174106
 30
0.0
 10
5.3521189722
 20
26.2131823508
 30
0.0
 10
5.3589246626
 20
26.2026590597
 30
0.0
  0
SPLINE
  5
313
100
AcDbEntity
  8
0
100
AcDbSpline
 62
7
  6
BYLAYER
 70
0
 71
3
 72
12
 73
8
 74
0
 42
0.0000001
 43
0.0000001
 44
0.0000000001
 40
0.0
 40
0.0
 40
0.0
 40
0.0
 40
0.2347904959
 40
0.495912024
 40
0.7602809261
 40
0.8854587878
 40
1.0
 40
1.0
 40
1.0
 40
1.0
 10
10.1971278932
 20
30.0797611113
 30
0.0
 10
10.2023115276
 20
30.0767684063
 30
0.0
 10
10.2142685653
 20
30.0721640192
 30
0.0
 10
10.2335702245
 20
30.0693638548
 30
0.0
 10
10.2502982592
 20
30.0705956562
 30
0.0
 10
10.262706621
 20
30.0740575839
 30
0.0
 10
10.2683214767
 20
30.0765625165
 30
0.0
 10
10.2708502729
 20
30.0780225089
 30
0.0
  0
SPLINE
  5
314
100
AcDbEntity
  8
0
100
AcDbSpline
 62
7
  6
BYLAYER
 70
0
 71
3
 72
14
 73
10
 74
0
 42
0.0000001
 43
0.0000001
 44
0.0000000001
 40
0.0
 40
0.0
 40
0.0
 40
0.0
 40
0.1145170521
 40
0.2390495534
 40
0.369696428
 40
0.5029660943
 40
0.7639000013
 40
0.8864198695
 40
1.0
 40
1.0
 40
1.0
 40
1.0
 10
10.4829814281
 20
30.2004957798
 30
0.0
 10
10.487984882
 20
30.2033845069
 30
0.0
 10
10.4990408943
 20
30.2083734296
 30
0.0
 10
10.5170355522
 20
30.2134727667
 30
0.0
 10
10.536482616
 20
30.2163095851
 30
0.0
 10
10.5629856397
 20
30.217087707
 30
0.0
 10
10.5890964427
 20
30.2136124019
 30
0.0
 10
10.6130157382
 20
30.2059331535
 30
0.0
 10
10.6238330901
 20
30.2008250074
 30
0.0
 10
10.6287956266
 20
30.1979599464
 30
0.0
  0
SPLINE
  5
315
100
AcDbEntity
  8
0
100
AcDbSpline
 62
7
  6
BYLAYER
 70
0
 71
3
 72
13
 73
9
 74
0
 42
0.0000001
 43
0.0000001
 44
0.0000000001
 40
0.0
 40
0.0
 40
0.0
 40
0.0
 40
0.1211001414
 40
0.2543395269
 40
0.3885332896
 40
0.5197958544
 40
0.7694904783
 40
1.0
 40
1.0
 40
1.0
 40
1.0
 10
3.3765649023
 20
27.6530210888
 30
0.0
 10
3.3695684667
 20
27.648981719
 30
0.0
 10
3.3568147007
 20
27.6372427179
 30
0.0
 10
3.3421141938
 20
27.6158098435
 30
0.0
 10
3.3302635565
 20
27.5919131813
 30
0.0
 10
3.3182458785
 20
27.5596748663
 30
0.0
 10
3.3087284899
 20
27.5198428825
 30
0.0
 10
3.3058545186
 20
27.4877867009
 30
0.0
 10
3.3058545186
 20
27.4724090576
 30
0.0
  0
SPLINE
  5
316
100
AcDbEntity
  8
0
100
AcDbSpline
 62
7
  6
BYLAYER
 70
0
 71
3
 72
12
 73
8
 74
0
 42
0.0000001
 43
0.0000001
 44
0.0000000001
 40
0.0
 40
0.0
 40
0.0
 40
0.0
 40
0.1081654116
 40
0.2183358501
 40
0.4512967434
 40
0.7106774094
 40
1.0
 40
1.0
 40
1.0
 40
1.0
 10
12.9043020619
 20
28.077645347
 30
0.0
 10
12.9043020607
 20
28.0719660332
 30
0.0
 10
12.9033227956
 20
28.0604780134
 30
0.0
 10
12.897366538
 20
28.0374450914
 30
0.0
 10
12.882041493
 20
28.0091862111
 30
0.0
 10
12.8534804437
 20
27.9792386508
 30
0.0
 10
12.8296076811
 20
27.9627686467
 30
0.0
 10
12.8164517654
 20
27.9551731205
 30
0.0
  0
SPLINE
  5
317
100
AcDbEntity
  8
0
100
AcDbSpline
 62
7
  6
BYLAYER
 70
0
 71
3
 72
15
 73
11
 74
0
 42
0.0000001
 43
0.0000001
 44
0.0000000001
 40
0.0
 40
0.0
 40
0.0
 40
0.0
 40
0.1140747376
 40
0.2373589707
 40
0.366988104
 40
0.5000012485
 40
0.6330142409
 40
0.7626428473
 40
0.8859262251
 40
1.0
 40
1.0
 40
1.0
 40
1.0
 10
20.4532397409
 20
22.5663788255
 30
0.0
 10
20.4532397409
 20
22.588721213
 30
0.0
 10
20.4491189511
 20
22.6352500964
 30
0.0
 10
20.4328299847
 20
22.7054486299
 30
0.0
 10
20.4066636096
 20
22.7765591541
 30
0.0
 10
20.3716460117
 20
22.8458703469
 30
0.0
 10
20.3291292886
 20
22.9108517754
 30
0.0
 10
20.2806288195
 20
22.969067279
 30
0.0
 10
20.2279796183
 20
23.0182725675
 30
0.0
 10
20.1897448721
 20
23.0451051843
 30
0.0
 10
20.1703958508
 20
23.0562760942
 30
0.0
  0
SPLINE
  5
318
100
AcDbEntity
  8
0
100
AcDbSpline
 62
7
  6
BYLAYER
 70
0
 71
3
 72
15
 73
11
 74
0
 42
0.0000001
 43
0.0000001
 44
0.0000000001
 40
0.0
 40
0.0
 40
0.0
 40
0.0
 40
0.1111371664
 40
0.2238799066
 40
0.3396410562
 40
0.4597147463
 40
0.5851597553
 40
0.7167655022
 40
0.8550224487
 40
1.0
 40
1.0
 40
1.0
 40
1.0
 10
5.7372192408
 20
25.6014078673
 30
0.0
 10
5.7002680254
 20
25.5800824953
 30
0.0
 10
5.6225311118
 20
25.5425811819
 30
0.0
 10
5.497695605
 20
25.5035051896
 30
0.0
 10
5.3652480689
 20
25.4817064574
 30
0.0
 10
5.2262677174
 20
25.4772281248
 30
0.0
 10
5.0817447881
 20
25.4900475156
 30
0.0
 10
4.9326926209
 20
25.5199894563
 30
0.0
 10
4.7802453914
 20
25.5668197656
 30
0.0
 10
4.6794507122
 20
25.6080046687
 30
0.0
 10
4.628819537
 20
25.6311099927
 30
0.0
  0
SPLINE
  5
319
100
AcDbEntity
  8
0
100
AcDbSpline
 62
7
  6
BYLAYER
 70
0
 71
3
 72
15
 73
11
 74
0
 42
0.0000001
 43
0.0000001
 44
0.0000000001
 40
0.0
 40
0.0
 40
0.0
 40
0.0
 40
0.1080115942
 40
0.2180661562
 40
0.332002388
 40
0.4513387659
 40
0.5772455935
 40
0.7105262128
 40
0.8515201999
 40
1.0
 40
1.0
 40
1.0
 40
1.0
 10
9.5079744168
 20
21.2046535754
 30
0.0
 10
9.4915795961
 20
21.1951880772
 30
0.0
 10
9.4567732463
 20
21.1788774237
 30
0.0
 10
9.4004438711
 20
21.1633204684
 30
0.0
 10
9.3404071185
 20
21.1566137662
 30
0.0
 10
9.2772909239
 20
21.1588039468
 30
0.0
 10
9.211693075
 20
21.1698051381
 30
0.0
 10
9.1442185968
 20
21.1894805041
 30
0.0
 10
9.0755426782
 20
21.2176052977
 30
0.0
 10
9.0305178174
 20
21.2411597588
 30
0.0
 10
9.0079803307
 20
21.2541714885
 30
0.0
  0
SPLINE
  5
31A
100
AcDbEntity
  8
0
100
AcDbSpline
 62
7
  6
BYLAYER
 70
0
 71
3
 72
16
 73
12
 74
0
 42
0.0000001
 43
0.0000001
 44
0.0000000001
 40
0.0
 40
0.0
 40
0.0
 40
0.0
 40
0.0461521225
 40
0.0930320032
 40
0.1913234856
 40
0.2992336596
 40
0.4187946746
 40
0.550260295
 40
0.6924903049
 40
0.8433327033
 40
1.0
 40
1.0
 40
1.0
 40
1.0
 10
22.2194233866
 20
9.6889694081
 30
0.0
 10
22.2130329349
 20
9.6926554317
 30
0.0
 10
22.2007109462
 20
9.7011093638
 30
0.0
 10
22.1783742944
 20
9.7221464621
 30
0.0
 10
22.155481919
 20
9.7561811054
 30
0.0
 10
22.1379215556
 20
9.8056473705
 30
0.0
 10
22.1298437582
 20
9.8627689583
 30
0.0
 10
22.1313596296
 20
9.9258461825
 30
0.0
 10
22.1423504923
 20
9.993001076
 30
0.0
 10
22.1624191154
 20
10.0621888521
 30
0.0
 10
22.1812434991
 20
10.1077145983
 30
0.0
 10
22.191984356
 20
10.1303371617
 30
0.0
  0
SPLINE
  5
31B
100
AcDbEntity
  8
0
100
AcDbSpline
 62
7
  6
BYLAYER
 70
0
 71
3
 72
12
 73
8
 74
0
 42
0.0000001
 43
0.0000001
 44
0.0000000001
 40
0.0
 40
0.0
 40
0.0
 40
0.0
 40
0.1081685848
 40
0.2183551812
 40
0.4513108057
 40
0.7105884283
 40
1.0
 40
1.0
 40
1.0
 40
1.0
 10
24.7682132186
 20
9.2046473848
 30
0.0
 10
24.7612029285
 20
9.2086909745
 30
0.0
 10
24.7463213743
 20
9.2156543966
 30
0.0
 10
24.713655145
 20
9.2247179246
 30
0.0
 10
24.6678713461
 20
9.2259327744
 30
0.0
 10
24.6105626735
 20
9.2120478537
 30
0.0
 10
24.5732352898
 20
9.1943096217
 30
0.0
 10
24.5544832123
 20
9.1834831694
 30
0.0
  0
SPLINE
  5
31C
100
AcDbEntity
  8
0
100
AcDbSpline
 62
7
  6
BYLAYER
 70
0
 71
3
 72
23
 73
19
 74
0
 42
0.0000001
 43
0.0000001
 44
0.0000000001
 40
0.0
 40
0.0
 40
0.0
 40
0.0
 40
0.0428120637
 40
0.0873918563
 40
0.135173414
 40
0.1870815303
 40
0.2435272413
 40
0.3044818036
 40
0.3695795254
 40
0.4381854794
 40
0.5094811652
 40
0.5825159169
 40
0.656262344
 40
0.7296512963
 40
0.8016249755
 40
0.8712494326
 40
0.9376630036
 40
1.0
 40
1.0
 40
1.0
 40
1.0
 10
22.7240911526
 20
10.9896846884
 30
0.0
 10
22.7135503029
 20
10.9957646687
 30
0.0
 10
22.6935758226
 20
11.0110590154
 30
0.0
 10
22.6695314855
 20
11.0414547598
 30
0.0
 10
22.6515732561
 20
11.0786353724
 30
0.0
 10
22.6399330627
 20
11.1216809481
 30
0.0
 10
22.6347605475
 20
11.1696921069
 30
0.0
 10
22.6360740981
 20
11.2216785228
 30
0.0
 10
22.6438524744
 20
11.2765665048
 30
0.0
 10
22.6578834145
 20
11.3332146905
 30
0.0
 10
22.6779048019
 20
11.3904183195
 30
0.0
 10
22.7034529232
 20
11.4469776067
 30
0.0
 10
22.7340251469
 20
11.5016668593
 30
0.0
 10
22.768920275
 20
11.5533422718
 30
0.0
 10
22.8074370457
 20
11.6008835867
 30
0.0
 10
22.8487444769
 20
11.6433122013
 30
0.0
 10
22.8919763317
 20
11.6796552102
 30
0.0
 10
22.9224772992
 20
11.7000616128
 30
0.0
 10
22.9378218029
 20
11.7089207132
 30
0.0
  0
SPLINE
  5
31D
100
AcDbEntity
  8
0
100
AcDbSpline
 62
7
  6
BYLAYER
 70
0
 71
3
 72
11
 73
7
 74
0
 42
0.0000001
 43
0.0000001
 44
0.0000000001
 40
0.0
 40
0.0
 40
0.0
 40
0.0
 40
0.2283087543
 40
0.4746516623
 40
0.7339511364
 40
1.0
 40
1.0
 40
1.0
 40
1.0
 10
13.462929917
 20
19.9069169578
 30
0.0
 10
13.4145228225
 20
19.9348641747
 30
0.0
 10
13.3189106613
 20
20.0018864072
 30
0.0
 10
13.1873497256
 20
20.124972573
 30
0.0
 10
13.0661205251
 20
20.2704471603
 30
0.0
 10
12.9954954976
 20
20.3783262523
 30
0.0
 10
12.9629278353
 20
20.4347347848
 30
0.0
  0
SPLINE
  5
31E
100
AcDbEntity
  8
0
100
AcDbSpline
 62
7
  6
BYLAYER
 70
0
 71
3
 72
12
 73
8
 74
0
 42
0.0000001
 43
0.0000001
 44
0.0000000001
 40
0.0
 40
0.0
 40
0.0
 40
0.0
 40
0.1081685848
 40
0.2183551812
 40
0.4513108057
 40
0.7105884283
 40
1.0
 40
1.0
 40
1.0
 40
1.0
 10
25.2728809847
 20
10.505362665
 30
0.0
 10
25.2658706945
 20
10.5094062548
 30
0.0
 10
25.2509891403
 20
10.5163696769
 30
0.0
 10
25.218322911
 20
10.5254332049
 30
0.0
 10
25.1725391121
 20
10.5266480547
 30
0.0
 10
25.1152304395
 20
10.512763134
 30
0.0
 10
25.0779030558
 20
10.495024902
 30
0.0
 10
25.0591509783
 20
10.4841984497
 30
0.0
  0
SPLINE
  5
31F
100
AcDbEntity
  8
0
100
AcDbSpline
 62
7
  6
BYLAYER
 70
0
 71
3
 72
23
 73
19
 74
0
 42
0.0000001
 43
0.0000001
 44
0.0000000001
 40
0.0
 40
0.0
 40
0.0
 40
0.0
 40
0.0428120637
 40
0.0873918563
 40
0.135173414
 40
0.1870815303
 40
0.2435272413
 40
0.3044818036
 40
0.3695795254
 40
0.4381854794
 40
0.5094811652
 40
0.5825159169
 40
0.656262344
 40
0.7296512963
 40
0.8016249755
 40
0.8712494326
 40
0.9376630036
 40
1.0
 40
1.0
 40
1.0
 40
1.0
 10
21.7147556205
 20
10.4069480258
 30
0.0
 10
21.7042147709
 20
10.4130280061
 30
0.0
 10
21.6842402906
 20
10.4283223527
 30
0.0
 10
21.6601959535
 20
10.4587180972
 30
0.0
 10
21.6422377241
 20
10.4958987098
 30
0.0
 10
21.6305975306
 20
10.5389442854
 30
0.0
 10
21.6254250154
 20
10.5869554443
 30
0.0
 10
21.626738566
 20
10.6389418601
 30
0.0
 10
21.6345169423
 20
10.6938298422
 30
0.0
 10
21.6485478825
 20
10.7504780279
 30
0.0
 10
21.6685692698
 20
10.8076816569
 30
0.0
 10
21.6941173911
 20
10.864240944
 30
0.0
 10
21.7246896148
 20
10.9189301966
 30
0.0
 10
21.759584743
 20
10.9706056091
 30
0.0
 10
21.7981015137
 20
11.0181469241
 30
0.0
 10
21.8394089448
 20
11.0605755386
 30
0.0
 10
21.8826407997
 20
11.0969185475
 30
0.0
 10
21.9131417672
 20
11.1173249501
 30
0.0
 10
21.9284862708
 20
11.1261840506
 30
0.0
  0
SPLINE
  5
320
100
AcDbEntity
  8
0
100
AcDbSpline
 62
7
  6
BYLAYER
 70
0
 71
3
 72
12
 73
8
 74
0
 42
0.0000001
 43
0.0000001
 44
0.0000000001
 40
0.0
 40
0.0
 40
0.0
 40
0.0
 40
0.1081685848
 40
0.2183551812
 40
0.4513108057
 40
0.7105884283
 40
1.0
 40
1.0
 40
1.0
 40
1.0
 10
24.2635454526
 20
9.9226260024
 30
0.0
 10
24.2565351624
 20
9.9266695921
 30
0.0
 10
24.2416536083
 20
9.9336330142
 30
0.0
 10
24.208987379
 20
9.9426965422
 30
0.0
 10
24.1632035801
 20
9.943911392
 30
0.0
 10
24.1058949075
 20
9.9300264713
 30
0.0
 10
24.0685675237
 20
9.9122882394
 30
0.0
 10
24.0498154463
 20
9.901461787
 30
0.0
  0
SPLINE
  5
321
100
AcDbEntity
  8
0
100
AcDbSpline
 62
7
  6
BYLAYER
 70
0
 71
3
 72
14
 73
10
 74
0
 42
0.0000001
 43
0.0000001
 44
0.0000000001
 40
0.0
 40
0.0
 40
0.0
 40
0.0
 40
0.1080687983
 40
0.2181680344
 40
0.3321321733
 40
0.4515184218
 40
0.7104662324
 40
0.8515299366
 40
1.0
 40
1.0
 40
1.0
 40
1.0
 10
17.4875899881
 20
9.9178616305
 30
0.0
 10
17.4760628339
 20
9.9245166868
 30
0.0
 10
17.4539086649
 20
9.9399923116
 30
0.0
 10
17.4246260394
 20
9.9688026874
 30
0.0
 10
17.3994351524
 20
10.0029966553
 30
0.0
 10
17.3708815652
 20
10.0566865064
 30
0.0
 10
17.3525619252
 20
10.1187293801
 30
0.0
 10
17.3434752479
 20
10.1857121929
 30
0.0
 10
17.3419828572
 20
10.2214078499
 30
0.0
 10
17.3419828572
 20
10.2396942243
 30
0.0
  0
SPLINE
  5
322
100
AcDbEntity
  8
0
100
AcDbSpline
 62
7
  6
BYLAYER
 70
0
 71
3
 72
9
 73
5
 74
0
 42
0.0000001
 43
0.0000001
 44
0.0000000001
 40
0.0
 40
0.0
 40
0.0
 40
0.0
 40
0.2426934485
 40
1.0
 40
1.0
 40
1.0
 40
1.0
 10
15.0115298214
 20
22.8095794437
 30
0.0
 10
15.0031308807
 20
22.7916787892
 30
0.0
 10
14.9703052203
 20
22.7170898964
 30
0.0
 10
14.9445055045
 20
22.6394726917
 30
0.0
 10
14.928536347
 20
22.5798745824
 30
0.0
  0
SPLINE
  5
323
100
AcDbEntity
  8
0
100
AcDbSpline
 62
7
  6
BYLAYER
 70
0
 71
3
 72
15
 73
11
 74
0
 42
0.0000001
 43
0.0000001
 44
0.0000000001
 40
0.0
 40
0.0
 40
0.0
 40
0.0
 40
0.1140747376
 40
0.2373589707
 40
0.366988104
 40
0.5000012485
 40
0.6330142409
 40
0.7626428473
 40
0.8859262251
 40
1.0
 40
1.0
 40
1.0
 40
1.0
 10
17.6601795839
 20
20.9538144177
 30
0.0
 10
17.6601795839
 20
20.9761568052
 30
0.0
 10
17.6560587941
 20
21.0226856886
 30
0.0
 10
17.6397698277
 20
21.0928842221
 30
0.0
 10
17.6136034526
 20
21.1639947463
 30
0.0
 10
17.5785858547
 20
21.2333059391
 30
0.0
 10
17.5360691316
 20
21.2982873676
 30
0.0
 10
17.4875686625
 20
21.3565028712
 30
0.0
 10
17.4349194613
 20
21.4057081597
 30
0.0
 10
17.3966847151
 20
21.4325407765
 30
0.0
 10
17.3773356939
 20
21.4437116864
 30
0.0
  0
SPLINE
  5
324
100
AcDbEntity
  8
0
100
AcDbSpline
 62
7
  6
BYLAYER
 70
0
 71
3
 72
11
 73
7
 74
0
 42
0.0000001
 43
0.0000001
 44
0.0000000001
 40
0.0
 40
0.0
 40
0.0
 40
0.0
 40
0.2731224173
 40
0.52923675
 40
0.7703239754
 40
1.0
 40
1.0
 40
1.0
 40
1.0
 10
16.9140029597
 20
19.4522409841
 30
0.0
 10
16.959641438
 20
19.4361657997
 30
0.0
 10
17.0500286147
 20
19.4101421498
 30
0.0
 10
17.1855827298
 20
19.39061443
 30
0.0
 10
17.3149058437
 20
19.3923283008
 30
0.0
 10
17.3973699635
 20
19.4080756797
 30
0.0
 10
17.4364170139
 20
19.4195205469
 30
0.0
  0
SPLINE
  5
325
100
AcDbEntity
  8
0
100
AcDbSpline
 62
7
  6
BYLAYER
 70
0
 71
3
 72
23
 73
19
 74
0
 42
0.0000001
 43
0.0000001
 44
0.0000000001
 40
0.0
 40
0.0
 40
0.0
 40
0.0
 40
0.0440473195
 40
0.0891073623
 40
0.1360804737
 40
0.1856812635
 40
0.2384043852
 40
0.2945277701
 40
0.3541382213
 40
0.4171542317
 40
0.4833624183
 40
0.5524362255
 40
0.6239659515
 40
0.6974594016
 40
0.7723786296
 40
0.848182403
 40
0.9242955932
 40
1.0
 40
1.0
 40
1.0
 40
1.0
 10
20.976060418
 20
9.6730447632
 30
0.0
 10
20.9488316054
 20
9.688761186
 30
0.0
 10
20.8966557527
 20
9.725901636
 30
0.0
 10
20.8289266524
 20
9.7962130965
 30
0.0
 10
20.7721156469
 20
9.8803939967
 30
0.0
 10
20.7268234999
 20
9.9772749921
 30
0.0
 10
20.6934662694
 20
10.0856703115
 30
0.0
 10
20.6723127551
 20
10.2042992461
 30
0.0
 10
20.6635733066
 20
10.3318032096
 30
0.0
 10
20.6672753374
 20
10.4667197484
 30
0.0
 10
20.6833937752
 20
10.6074965369
 30
0.0
 10
20.7116924819
 20
10.7525155365
 30
0.0
 10
20.7518835981
 20
10.9000804791
 30
0.0
 10
20.8034413551
 20
11.048481897
 30
0.0
 10
20.8658089431
 20
11.1959849054
 30
0.0
 10
20.9382450829
 20
11.3409048114
 30
0.0
 10
21.0199173462
 20
11.4814662357
 30
0.0
 10
21.0801355891
 20
11.571656466
 30
0.0
 10
21.1115711942
 20
11.6156056439
 30
0.0
  0
SPLINE
  5
326
100
AcDbEntity
  8
0
100
AcDbSpline
 62
7
  6
BYLAYER
 70
0
 71
3
 72
11
 73
7
 74
0
 42
0.0000001
 43
0.0000001
 44
0.0000000001
 40
0.0
 40
0.0
 40
0.0
 40
0.0
 40
0.2620004672
 40
0.5181933291
 40
0.765153035
 40
1.0
 40
1.0
 40
1.0
 40
1.0
 10
15.495514467
 20
20.0807009615
 30
0.0
 10
15.5631160136
 20
19.9768482049
 30
0.0
 10
15.7053914014
 20
19.7768681086
 30
0.0
 10
15.9400117248
 20
19.5007286083
 30
0.0
 10
16.1897464455
 20
19.2561669235
 30
0.0
 10
16.3679417933
 20
19.1133223583
 30
0.0
 10
16.4584533188
 20
19.048939693
 30
0.0
  0
SPLINE
  5
327
100
AcDbEntity
  8
0
100
AcDbSpline
 62
7
  6
BYLAYER
 70
0
 71
3
 72
15
 73
11
 74
0
 42
0.0000001
 43
0.0000001
 44
0.0000000001
 40
0.0
 40
0.0
 40
0.0
 40
0.0
 40
0.0897317016
 40
0.1877553877
 40
0.2974038749
 40
0.4197337167
 40
0.5539449049
 40
0.6978013471
 40
0.8481006584
 40
1.0
 40
1.0
 40
1.0
 40
1.0
 10
15.4883007472
 20
20.2020846105
 30
0.0
 10
15.4850800779
 20
20.1998137441
 30
0.0
 10
15.4791895871
 20
20.193787306
 30
0.0
 10
15.4732606116
 20
20.1819700618
 30
0.0
 10
15.4701782309
 20
20.1676840185
 30
0.0
 10
15.4698954853
 20
20.1515243633
 30
0.0
 10
15.4724088599
 20
20.1340567068
 30
0.0
 10
15.4775954717
 20
20.1159183082
 30
0.0
 10
15.4852959104
 20
20.0978581041
 30
0.0
 10
15.4918751832
 20
20.0862918048
 30
0.0
 10
15.495514467
 20
20.0807009615
 30
0.0
  0
SPLINE
  5
328
100
AcDbEntity
  8
0
100
AcDbSpline
 62
7
  6
BYLAYER
 70
0
 71
3
 72
14
 73
10
 74
0
 42
0.0000001
 43
0.0000001
 44
0.0000000001
 40
0.0
 40
0.0
 40
0.0
 40
0.0
 40
0.3035014163
 40
0.4466783557
 40
0.5798830217
 40
0.7013633515
 40
0.8107114596
 40
0.9091852137
 40
1.0
 40
1.0
 40
1.0
 40
1.0
 10
15.7699670972
 20
20.516259732
 30
0.0
 10
15.7761766314
 20
20.5054993567
 30
0.0
 10
15.7836928278
 20
20.4886025559
 30
0.0
 10
15.7893160619
 20
20.465492926
 30
0.0
 10
15.7910289172
 20
20.449236838
 30
0.0
 10
15.7902307618
 20
20.4342849678
 30
0.0
 10
15.7869314958
 20
20.4211034614
 30
0.0
 10
15.7811124468
 20
20.4101951204
 30
0.0
 10
15.7755274559
 20
20.404605718
 30
0.0
 10
15.7724893181
 20
20.4024635529
 30
0.0
  0
SPLINE
  5
329
100
AcDbEntity
  8
0
100
AcDbSpline
 62
7
  6
BYLAYER
 70
0
 71
3
 72
9
 73
5
 74
0
 42
0.0000001
 43
0.0000001
 44
0.0000000001
 40
0.0
 40
0.0
 40
0.0
 40
0.0
 40
0.2613250866
 40
1.0
 40
1.0
 40
1.0
 40
1.0
 10
16.1318530599
 20
21.546796901
 30
0.0
 10
16.1350401483
 20
21.5563659903
 30
0.0
 10
16.1484671939
 20
21.5925463601
 30
0.0
 10
16.1671113969
 20
21.6269102242
 30
0.0
 10
16.1839445198
 20
21.6499194498
 30
0.0
  0
SPLINE
  5
32A
100
AcDbEntity
  8
0
100
AcDbSpline
 62
7
  6
BYLAYER
 70
0
 71
3
 72
9
 73
5
 74
0
 42
0.0000001
 43
0.0000001
 44
0.0000000001
 40
0.0
 40
0.0
 40
0.0
 40
0.0
 40
0.2548547334
 40
1.0
 40
1.0
 40
1.0
 40
1.0
 10
16.1839445198
 20
21.6499194498
 30
0.0
 10
16.1872601823
 20
21.6544516347
 30
0.0
 10
16.2007379931
 20
21.6718862452
 30
0.0
 10
16.2161483939
 20
21.6878410058
 30
0.0
 10
16.228564042
 20
21.6985846958
 30
0.0
  0
SPLINE
  5
32B
100
AcDbEntity
  8
0
100
AcDbSpline
 62
7
  6
BYLAYER
 70
0
 71
3
 72
26
 73
22
 74
0
 42
0.0000001
 43
0.0000001
 44
0.0000000001
 40
0.0
 40
0.0
 40
0.0
 40
0.0
 40
0.0218921295
 40
0.0436892998
 40
0.0657117307
 40
0.0882554729
 40
0.1115828304
 40
0.1359146158
 40
0.1881176688
 40
0.2456615911
 40
0.3085291725
 40
0.3761690368
 40
0.4476420742
 40
0.52173315
 40
0.5970694945
 40
0.6722007916
 40
0.7456908317
 40
0.8161980961
 40
0.8825685922
 40
0.944008711
 40
1.0
 40
1.0
 40
1.0
 40
1.0
 10
16.228564042
 20
21.6985846958
 30
0.0
 10
16.2385320157
 20
21.7072103285
 30
0.0
 10
16.2596950718
 20
21.7230221437
 30
0.0
 10
16.2946690214
 20
21.7418223788
 30
0.0
 10
16.3324034055
 20
21.7553970596
 30
0.0
 10
16.3725660851
 20
21.7636871162
 30
0.0
 10
16.414855032
 20
21.7666328916
 30
0.0
 10
16.4750251474
 20
21.7633205262
 30
0.0
 10
16.5542992508
 20
21.7449580069
 30
0.0
 10
16.6499226167
 20
21.7030828077
 30
0.0
 10
16.7458767738
 20
21.6422619186
 30
0.0
 10
16.8395469628
 20
21.564231605
 30
0.0
 10
16.9283470576
 20
21.4711717668
 30
0.0
 10
17.0097940837
 20
21.3657274085
 30
0.0
 10
17.0815865556
 20
21.2508922031
 30
0.0
 10
17.1416623645
 20
21.1299179783
 30
0.0
 10
17.1883220695
 20
21.0062506012
 30
0.0
 10
17.2202579606
 20
20.8834065914
 30
0.0
 10
17.2365427307
 20
20.764779871
 30
0.0
 10
17.2366444462
 20
20.6537504235
 30
0.0
 10
17.2253641664
 20
20.5834899031
 30
0.0
 10
17.2166384051
 20
20.5509246925
 30
0.0
  0
SPLINE
  5
32C
100
AcDbEntity
  8
0
100
AcDbSpline
 62
7
  6
BYLAYER
 70
0
 71
3
 72
12
 73
8
 74
0
 42
0.0000001
 43
0.0000001
 44
0.0000000001
 40
0.0
 40
0.0
 40
0.0
 40
0.0
 40
0.270499735
 40
0.5220159527
 40
0.7616310474
 40
0.880359993
 40
1.0
 40
1.0
 40
1.0
 40
1.0
 10
17.2085988775
 20
20.5241031465
 30
0.0
 10
17.2003062572
 20
20.4992049278
 30
0.0
 10
17.1799932694
 20
20.4523907707
 30
0.0
 10
17.1364495489
 20
20.391913175
 30
0.0
 10
17.0905465528
 20
20.3534512395
 30
0.0
 10
17.0497713099
 20
20.3311438453
 30
0.0
 10
17.0281462108
 20
20.3227330598
 30
0.0
 10
17.0170872792
 20
20.3192084063
 30
0.0
  0
SPLINE
  5
32D
100
AcDbEntity
  8
0
100
AcDbSpline
 62
7
  6
BYLAYER
 70
0
 71
3
 72
9
 73
5
 74
0
 42
0.0000001
 43
0.0000001
 44
0.0000000001
 40
0.0
 40
0.0
 40
0.0
 40
0.0
 40
0.24628146
 40
1.0
 40
1.0
 40
1.0
 40
1.0
 10
17.0170872792
 20
20.3192084063
 30
0.0
 10
17.0123365426
 20
20.3176942727
 30
0.0
 10
16.9928849156
 20
20.3120611388
 30
0.0
 10
16.9728457689
 20
20.3084969698
 30
0.0
 10
16.9576682109
 20
20.306915647
 30
0.0
  0
SPLINE
  5
32E
100
AcDbEntity
  8
0
100
AcDbSpline
 62
7
  6
BYLAYER
 70
0
 71
3
 72
15
 73
11
 74
0
 42
0.0000001
 43
0.0000001
 44
0.0000000001
 40
0.0
 40
0.0
 40
0.0
 40
0.0
 40
0.1148816864
 40
0.2323982018
 40
0.3528768372
 40
0.4764976117
 40
0.6032702926
 40
0.7330421063
 40
0.8654899266
 40
1.0
 40
1.0
 40
1.0
 40
1.0
 10
14.928541116
 20
22.5798703801
 30
0.0
 10
14.8998341447
 20
22.521743204
 30
0.0
 10
14.8478086274
 20
22.4010825279
 30
0.0
 10
14.7865202668
 20
22.2113441704
 30
0.0
 10
14.740885661
 20
22.0122023534
 30
0.0
 10
14.7102769625
 20
21.8049691395
 30
0.0
 10
14.6940557916
 20
21.5908873164
 30
0.0
 10
14.6915411994
 20
21.3712493506
 30
0.0
 10
14.7020348894
 20
21.1475061434
 30
0.0
 10
14.7168361919
 20
20.9975174396
 30
0.0
 10
14.7260178636
 20
20.9221687452
 30
0.0
  0
SPLINE
  5
32F
100
AcDbEntity
  8
0
100
AcDbSpline
 62
7
  6
BYLAYER
 70
0
 71
3
 72
15
 73
11
 74
0
 42
0.0000001
 43
0.0000001
 44
0.0000000001
 40
0.0
 40
0.0
 40
0.0
 40
0.0
 40
0.148499081
 40
0.2894895473
 40
0.4227558001
 40
0.5486623148
 40
0.6680073173
 40
0.7819518884
 40
0.8919961801
 40
1.0
 40
1.0
 40
1.0
 40
1.0
 10
6.2050046861
 20
21.566029754
 30
0.0
 10
6.2050046861
 20
21.5985648026
 30
0.0
 10
6.2076447069
 20
21.6620325089
 30
0.0
 10
6.2201206713
 20
21.7539578272
 30
0.0
 10
6.2409975792
 20
21.8392952003
 30
0.0
 10
6.2700820653
 20
21.9171862204
 30
0.0
 10
6.3071706721
 20
21.9868803062
 30
0.0
 10
6.3519467817
 20
22.0476902137
 30
0.0
 10
6.4039990178
 20
22.0989398689
 30
0.0
 10
6.4434025581
 20
22.1264298597
 30
0.0
 10
6.4638946171
 20
22.1382622462
 30
0.0
  0
SPLINE
  5
330
100
AcDbEntity
  8
0
100
AcDbSpline
 62
7
  6
BYLAYER
 70
0
 71
3
 72
15
 73
11
 74
0
 42
0.0000001
 43
0.0000001
 44
0.0000000001
 40
0.0
 40
0.0
 40
0.0
 40
0.0
 40
0.1292188458
 40
0.2603707386
 40
0.3916994253
 40
0.521710105
 40
0.6488731594
 40
0.7717570749
 40
0.8891856881
 40
1.0
 40
1.0
 40
1.0
 40
1.0
 10
6.6690687041
 20
20.3999556707
 30
0.0
 10
6.6338370588
 20
20.4422540933
 30
0.0
 10
6.5663592424
 20
20.5304681835
 30
0.0
 10
6.4755583885
 20
20.670659823
 30
0.0
 10
6.3957073705
 20
20.817762515
 30
0.0
 10
6.3282517208
 20
20.9690881514
 30
0.0
 10
6.2743352557
 20
21.1219508174
 30
0.0
 10
6.2349522822
 20
21.2736828973
 30
0.0
 10
6.2108410212
 20
21.4215301204
 30
0.0
 10
6.2050046861
 20
21.5188210808
 30
0.0
 10
6.2050046861
 20
21.566029754
 30
0.0
  0
SPLINE
  5
331
100
AcDbEntity
  8
0
100
AcDbSpline
 62
7
  6
BYLAYER
 70
0
 71
3
 72
9
 73
5
 74
0
 42
0.0000001
 43
0.0000001
 44
0.0000000001
 40
0.0
 40
0.0
 40
0.0
 40
0.0
 40
0.2569555286
 40
1.0
 40
1.0
 40
1.0
 40
1.0
 10
15.276169596
 20
20.0796113644
 30
0.0
 10
15.267038226
 20
20.0738717679
 30
0.0
 10
15.2315037708
 20
20.0515317767
 30
0.0
 10
15.1960286153
 20
20.029092659
 30
0.0
 10
15.1698863342
 20
20.012083905
 30
0.0
  0
SPLINE
  5
332
100
AcDbEntity
  8
0
100
AcDbSpline
 62
7
  6
BYLAYER
 70
0
 71
3
 72
15
 73
11
 74
0
 42
0.0000001
 43
0.0000001
 44
0.0000000001
 40
0.0
 40
0.0
 40
0.0
 40
0.0
 40
0.1518240923
 40
0.3020774411
 40
0.4459716464
 40
0.5802569585
 40
0.7026437648
 40
0.8123153966
 40
0.9103132099
 40
1.0
 40
1.0
 40
1.0
 40
1.0
 10
15.2835430202
 20
19.9579049566
 30
0.0
 10
15.2798955496
 20
19.9635083769
 30
0.0
 10
15.2732942111
 20
19.9750973623
 30
0.0
 10
15.2655524413
 20
19.993194238
 30
0.0
 10
15.2603225908
 20
20.0113768297
 30
0.0
 10
15.257770169
 20
20.028895499
 30
0.0
 10
15.2580317445
 20
20.0451070466
 30
0.0
 10
15.2611052944
 20
20.0594385678
 30
0.0
 10
15.2670380815
 20
20.0712929076
 30
0.0
 10
15.2729416982
 20
20.0773354011
 30
0.0
 10
15.276169596
 20
20.0796113644
 30
0.0
  0
SPLINE
  5
333
100
AcDbEntity
  8
0
100
AcDbSpline
 62
7
  6
BYLAYER
 70
0
 71
3
 72
15
 73
11
 74
0
 42
0.0000001
 43
0.0000001
 44
0.0000000001
 40
0.0
 40
0.0
 40
0.0
 40
0.0
 40
0.1080104936
 40
0.2180657879
 40
0.3320031869
 40
0.451341722
 40
0.5772507162
 40
0.7105314838
 40
0.851523177
 40
1.0
 40
1.0
 40
1.0
 40
1.0
 10
23.1831357704
 20
11.8628794333
 30
0.0
 10
23.1585442746
 20
11.8770777761
 30
0.0
 10
23.1063356329
 20
11.9015442541
 30
0.0
 10
23.0218417835
 20
11.9248777301
 30
0.0
 10
22.9317866326
 20
11.9349385449
 30
0.0
 10
22.8371118799
 20
11.9316506659
 30
0.0
 10
22.7387152917
 20
11.9151475073
 30
0.0
 10
22.6375049586
 20
11.8856335889
 30
0.0
 10
22.5344940053
 20
11.8434459151
 30
0.0
 10
22.4669590916
 20
11.8081144422
 30
0.0
 10
22.4331540368
 20
11.7885972012
 30
0.0
  0
SPLINE
  5
334
100
AcDbEntity
  8
0
100
AcDbSpline
 62
7
  6
BYLAYER
 70
0
 71
3
 72
12
 73
8
 74
0
 42
0.0000001
 43
0.0000001
 44
0.0000000001
 40
0.0
 40
0.0
 40
0.0
 40
0.0
 40
0.2289042621
 40
0.4773856138
 40
0.7404903726
 40
0.8733367128
 40
1.0
 40
1.0
 40
1.0
 40
1.0
 10
17.377338049
 20
19.251798961
 30
0.0
 10
17.377338049
 20
19.2650536746
 30
0.0
 10
17.3799378177
 20
19.2927286447
 30
0.0
 10
17.3904051851
 20
19.334439898
 30
0.0
 10
17.4052669576
 20
19.3689674997
 30
0.0
 10
17.4218686692
 20
19.3943493903
 30
0.0
 10
17.4320901704
 20
19.4055385206
 30
0.0
 10
17.4376822817
 20
19.4102842942
 30
0.0
  0
SPLINE
  5
335
100
AcDbEntity
  8
0
100
AcDbSpline
 62
7
  6
BYLAYER
 70
0
 71
3
 72
11
 73
7
 74
0
 42
0.0000001
 43
0.0000001
 44
0.0000000001
 40
0.0
 40
0.0
 40
0.0
 40
0.0
 40
0.2774078867
 40
0.5331730941
 40
0.7713456916
 40
1.0
 40
1.0
 40
1.0
 40
1.0
 10
16.701572527
 20
19.3298448501
 30
0.0
 10
16.6982930705
 20
19.3310001833
 30
0.0
 10
16.6918038501
 20
19.3327458336
 30
0.0
 10
16.6821000463
 20
19.3335030489
 30
0.0
 10
16.6730556744
 20
19.3322001087
 30
0.0
 10
16.6675805838
 20
19.3299298977
 30
0.0
 10
16.6650997951
 20
19.3284948721
 30
0.0
  0
SPLINE
  5
336
100
AcDbEntity
  8
0
100
AcDbSpline
 62
7
  6
BYLAYER
 70
0
 71
3
 72
9
 73
5
 74
0
 42
0.0000001
 43
0.0000001
 44
0.0000000001
 40
0.0
 40
0.0
 40
0.0
 40
0.0
 40
0.4855698587
 40
1.0
 40
1.0
 40
1.0
 40
1.0
 10
16.6443886827
 20
19.2010686609
 30
0.0
 10
16.6425257852
 20
19.2131815253
 30
0.0
 10
16.6430146482
 20
19.2388500646
 30
0.0
 10
16.6502652427
 20
19.2633508016
 30
0.0
 10
16.6555345668
 20
19.2752171509
 30
0.0
  0
SPLINE
  5
337
100
AcDbEntity
  8
0
100
AcDbSpline
 62
7
  6
BYLAYER
 70
0
 71
3
 72
9
 73
5
 74
0
 42
0.0000001
 43
0.0000001
 44
0.0000000001
 40
0.0
 40
0.0
 40
0.0
 40
0.0
 40
0.25903819
 40
1.0
 40
1.0
 40
1.0
 40
1.0
 10
16.6555345668
 20
19.2752171509
 30
0.0
 10
16.6572800537
 20
19.2791479316
 30
0.0
 10
16.6646829761
 20
19.2940073385
 30
0.0
 10
16.6747471972
 20
19.3076283025
 30
0.0
 10
16.6836142094
 20
19.3161562783
 30
0.0
  0
SPLINE
  5
338
100
AcDbEntity
  8
0
100
AcDbSpline
 62
7
  6
BYLAYER
 70
0
 71
3
 72
9
 73
5
 74
0
 42
0.0000001
 43
0.0000001
 44
0.0000000001
 40
0.0
 40
0.0
 40
0.0
 40
0.0
 40
0.259827999
 40
1.0
 40
1.0
 40
1.0
 40
1.0
 10
16.6836142094
 20
19.3161562783
 30
0.0
 10
16.6850256394
 20
19.3175137412
 30
0.0
 10
16.6905973424
 20
19.322588515
 30
0.0
 10
16.6967413646
 20
19.3270555938
 30
0.0
 10
16.701572527
 20
19.3298448501
 30
0.0
  0
SPLINE
  5
339
100
AcDbEntity
  8
0
100
AcDbSpline
 62
7
  6
BYLAYER
 70
0
 71
3
 72
11
 73
7
 74
0
 42
0.0000001
 43
0.0000001
 44
0.0000000001
 40
0.0
 40
0.0
 40
0.0
 40
0.0
 40
0.2743294606
 40
0.532014554
 40
0.7716178766
 40
1.0
 40
1.0
 40
1.0
 40
1.0
 10
16.644390499
 20
19.201071245
 30
0.0
 10
16.6383355184
 20
19.2086036763
 30
0.0
 10
16.6283233495
 20
19.2247409042
 30
0.0
 10
16.6207264416
 20
19.2512518021
 30
0.0
 10
16.6218238872
 20
19.2772883083
 30
0.0
 10
16.6286572767
 20
19.292822801
 30
0.0
 10
16.633292214
 20
19.2993993229
 30
0.0
  0
SPLINE
  5
33A
100
AcDbEntity
  8
0
100
AcDbSpline
 62
7
  6
BYLAYER
 70
0
 71
3
 72
11
 73
7
 74
0
 42
0.0000001
 43
0.0000001
 44
0.0000000001
 40
0.0
 40
0.0
 40
0.0
 40
0.0
 40
0.2743292643
 40
0.5320142717
 40
0.7716177553
 40
1.0
 40
1.0
 40
1.0
 40
1.0
 10
16.359941405
 20
18.796394405
 30
0.0
 10
16.3538864288
 20
18.8039268309
 30
0.0
 10
16.3438742517
 20
18.8200640435
 30
0.0
 10
16.3362773604
 20
18.846574941
 30
0.0
 10
16.3373747839
 20
18.8726114541
 30
0.0
 10
16.3442081802
 20
18.8881459577
 30
0.0
 10
16.3488431214
 20
18.894722482
 30
0.0
  0
SPLINE
  5
33B
100
AcDbEntity
  8
0
100
AcDbSpline
 62
7
  6
BYLAYER
 70
0
 71
3
 72
12
 73
8
 74
0
 42
0.0000001
 43
0.0000001
 44
0.0000000001
 40
0.0
 40
0.0
 40
0.0
 40
0.0
 40
0.2553258442
 40
0.5348272123
 40
0.7962042747
 40
0.9076143426
 40
1.0
 40
1.0
 40
1.0
 40
1.0
 10
15.2835430202
 20
19.9579049567
 30
0.0
 10
15.2732578439
 20
19.9519668428
 30
0.0
 10
15.2519957818
 20
19.9390393056
 30
0.0
 10
15.2209155335
 20
19.9188944056
 30
0.0
 10
15.1959215089
 20
19.9016812235
 30
0.0
 10
15.1784847927
 20
19.888868058
 30
0.0
 10
15.1709916802
 20
19.8830581011
 30
0.0
 10
15.1676575673
 20
19.8803470097
 30
0.0
  0
SPLINE
  5
33C
100
AcDbEntity
  8
0
100
AcDbSpline
 62
7
  6
BYLAYER
 70
0
 71
3
 72
11
 73
7
 74
0
 42
0.0000001
 43
0.0000001
 44
0.0000000001
 40
0.0
 40
0.0
 40
0.0
 40
0.0
 40
0.2343184412
 40
0.4811898299
 40
0.7375925449
 40
1.0
 40
1.0
 40
1.0
 40
1.0
 10
16.2665047707
 20
18.9122412914
 30
0.0
 10
16.1740864259
 20
18.9767796665
 30
0.0
 10
15.9920494175
 20
19.1206479558
 30
0.0
 10
15.7370549041
 20
19.368142005
 30
0.0
 10
15.4975092748
 20
19.6485966894
 30
0.0
 10
15.3524093151
 20
19.8521092327
 30
0.0
 10
15.2835430202
 20
19.9579049566
 30
0.0
  0
SPLINE
  5
33D
100
AcDbEntity
  8
0
100
AcDbSpline
 62
7
  6
BYLAYER
 70
0
 71
3
 72
13
 73
9
 74
0
 42
0.0000001
 43
0.0000001
 44
0.0000000001
 40
0.0
 40
0.0
 40
0.0
 40
0.0
 40
0.110001647
 40
0.2311421644
 40
0.4933662546
 40
0.75918631
 40
0.8845720885
 40
1.0
 40
1.0
 40
1.0
 40
1.0
 10
16.1884255394
 20
18.7944655108
 30
0.0
 10
16.1889343911
 20
18.7997793447
 30
0.0
 10
16.1909983645
 20
18.8108569063
 30
0.0
 10
16.1984574479
 20
18.8336595919
 30
0.0
 10
16.2134201102
 20
18.8616659813
 30
0.0
 10
16.2335460359
 20
18.8864668552
 30
0.0
 10
16.2519911012
 20
18.9027897923
 30
0.0
 10
16.2616537512
 20
18.9094405702
 30
0.0
 10
16.2665047711
 20
18.9122412911
 30
0.0
  0
SPLINE
  5
33E
100
AcDbEntity
  8
0
100
AcDbSpline
 62
7
  6
BYLAYER
 70
0
 71
3
 72
15
 73
11
 74
0
 42
0.0000001
 43
0.0000001
 44
0.0000000001
 40
0.0
 40
0.0
 40
0.0
 40
0.0
 40
0.1431204253
 40
0.2823889374
 40
0.4168527792
 40
0.5458629733
 40
0.6688932611
 40
0.7855996273
 40
0.895913839
 40
1.0
 40
1.0
 40
1.0
 40
1.0
 10
14.72602414
 20
20.9221685561
 30
0.0
 10
14.6962644769
 20
21.0040888115
 30
0.0
 10
14.6426559546
 20
21.1676416164
 30
0.0
 10
14.5797714225
 20
21.4137830192
 30
0.0
 10
14.5359802331
 20
21.6553320796
 30
0.0
 10
14.5117308622
 20
21.889703429
 30
0.0
 10
14.5071660453
 20
22.1144973389
 30
0.0
 10
14.5222905312
 20
22.3274735131
 30
0.0
 10
14.5569800869
 20
22.5264707331
 30
0.0
 10
14.5937444487
 20
22.6521278886
 30
0.0
 10
14.615336615
 20
22.7117239196
 30
0.0
  0
SPLINE
  5
33F
100
AcDbEntity
  8
0
100
AcDbSpline
 62
7
  6
BYLAYER
 70
0
 71
3
 72
9
 73
5
 74
0
 42
0.0000001
 43
0.0000001
 44
0.0000000001
 40
0.0
 40
0.0
 40
0.0
 40
0.0
 40
0.5099186236
 40
1.0
 40
1.0
 40
1.0
 40
1.0
 10
15.1676575674
 20
19.8803470097
 30
0.0
 10
15.1569332587
 20
19.8968222099
 30
0.0
 10
15.1386274243
 20
19.9309773398
 30
0.0
 10
15.1263728956
 20
19.9677959382
 30
0.0
 10
15.1222900295
 20
19.9862429072
 30
0.0
  0
SPLINE
  5
340
100
AcDbEntity
  8
0
100
AcDbSpline
 62
7
  6
BYLAYER
 70
0
 71
3
 72
11
 73
7
 74
0
 42
0.0000001
 43
0.0000001
 44
0.0000000001
 40
0.0
 40
0.0
 40
0.0
 40
0.0
 40
0.2343049516
 40
0.4811668339
 40
0.7375824466
 40
1.0
 40
1.0
 40
1.0
 40
1.0
 10
16.1887531424
 20
18.7942915891
 30
0.0
 10
16.0927624849
 20
18.8613246124
 30
0.0
 10
15.9036401727
 20
19.0106926421
 30
0.0
 10
15.6387455839
 20
19.2677372457
 30
0.0
 10
15.3899256285
 20
19.5590571675
 30
0.0
 10
15.2391926715
 20
19.7704513322
 30
0.0
 10
15.1676575674
 20
19.8803470097
 30
0.0
  0
SPLINE
  5
341
100
AcDbEntity
  8
0
100
AcDbSpline
 62
7
  6
BYLAYER
 70
0
 71
3
 72
15
 73
11
 74
0
 42
0.0000001
 43
0.0000001
 44
0.0000000001
 40
0.0
 40
0.0
 40
0.0
 40
0.0
 40
0.1119849052
 40
0.2206559903
 40
0.330030898
 40
0.4443202355
 40
0.5669157775
 40
0.7000016712
 40
0.8445708343
 40
1.0
 40
1.0
 40
1.0
 40
1.0
 10
16.3599414051
 20
18.796394405
 30
0.0
 10
16.3558340477
 20
18.790550996
 30
0.0
 10
16.3464470797
 20
18.7798665638
 30
0.0
 10
16.3289736656
 20
18.7677475583
 30
0.0
 10
16.3088672924
 20
18.7603678378
 30
0.0
 10
16.2867426601
 20
18.7578318488
 30
0.0
 10
16.2631072783
 20
18.760108142
 30
0.0
 10
16.238421678
 20
18.7670525015
 30
0.0
 10
16.2131941158
 20
18.7785140444
 30
0.0
 10
16.1968809456
 20
18.7886157115
 30
0.0
 10
16.1887531424
 20
18.7942915891
 30
0.0
  0
SPLINE
  5
342
100
AcDbEntity
  8
0
100
AcDbSpline
 62
7
  6
BYLAYER
 70
0
 71
3
 72
15
 73
11
 74
0
 42
0.0000001
 43
0.0000001
 44
0.0000000001
 40
0.0
 40
0.0
 40
0.0
 40
0.0
 40
0.1142212671
 40
0.229246363
 40
0.3463240615
 40
0.4666768809
 40
0.5914555074
 40
0.7216121019
 40
0.8577128661
 40
1.0
 40
1.0
 40
1.0
 40
1.0
 10
17.377338049
 20
19.251798961
 30
0.0
 10
17.3533418547
 20
19.2354534023
 30
0.0
 10
17.3028403475
 20
19.2059423138
 30
0.0
 10
17.2212231898
 20
19.1722648281
 30
0.0
 10
17.1343172393
 20
19.1494281415
 30
0.0
 10
17.0427640586
 20
19.1376399269
 30
0.0
 10
16.9471584681
 20
19.136877426
 30
0.0
 10
16.8481022339
 20
19.1471561149
 30
0.0
 10
16.7462699496
 20
19.1683023494
 30
0.0
 10
16.678502195
 20
19.1890506714
 30
0.0
 10
16.6443886827
 20
19.201068661
 30
0.0
  0
SPLINE
  5
343
100
AcDbEntity
  8
0
100
AcDbSpline
 62
7
  6
BYLAYER
 70
0
 71
3
 72
11
 73
7
 74
0
 42
0.0000001
 43
0.0000001
 44
0.0000000001
 40
0.0
 40
0.0
 40
0.0
 40
0.0
 40
0.2660488636
 40
0.5253483377
 40
0.7716912457
 40
1.0
 40
1.0
 40
1.0
 40
1.0
 10
12.9982830272
 20
20.4551469925
 30
0.0
 10
13.0308506894
 20
20.39873846
 30
0.0
 10
13.1014757169
 20
20.290859368
 30
0.0
 10
13.2227049175
 20
20.1453847807
 30
0.0
 10
13.3542658532
 20
20.0222986149
 30
0.0
 10
13.4498780143
 20
19.9552763824
 30
0.0
 10
13.4982851089
 20
19.9273291655
 30
0.0
  0
SPLINE
  5
344
100
AcDbEntity
  8
0
100
AcDbSpline
 62
7
  6
BYLAYER
 70
0
 71
3
 72
14
 73
10
 74
0
 42
0.0000001
 43
0.0000001
 44
0.0000000001
 40
0.0
 40
0.0
 40
0.0
 40
0.0
 40
0.1135906735
 40
0.2361387646
 40
0.4971242123
 40
0.6303963158
 40
0.7610142561
 40
0.885504318
 40
1.0
 40
1.0
 40
1.0
 40
1.0
 10
14.6153366148
 20
22.7117239195
 30
0.0
 10
14.6202953513
 20
22.7088610548
 30
0.0
 10
14.6311060786
 20
22.7037580222
 30
0.0
 10
14.6550138344
 20
22.6960956409
 30
0.0
 10
14.6811115003
 20
22.6926615438
 30
0.0
 10
14.707591689
 20
22.6934495956
 30
0.0
 10
14.7270186257
 20
22.6962839222
 30
0.0
 10
14.7449918957
 20
22.7013838367
 30
0.0
 10
14.7560332516
 20
22.7063712952
 30
0.0
 10
14.7610314756
 20
22.7092570039
 30
0.0
  0
SPLINE
  5
345
100
AcDbEntity
  8
0
100
AcDbSpline
 62
7
  6
BYLAYER
 70
0
 71
3
 72
15
 73
11
 74
0
 42
0.0000001
 43
0.0000001
 44
0.0000000001
 40
0.0
 40
0.0
 40
0.0
 40
0.0
 40
0.1484458456
 40
0.2894434668
 40
0.4227539222
 40
0.548669918
 40
0.6680042225
 40
0.7819309347
 40
0.89198767
 40
1.0
 40
1.0
 40
1.0
 40
1.0
 10
13.0038646934
 20
17.6407948993
 30
0.0
 10
13.0038646934
 20
17.6703260183
 30
0.0
 10
13.0062653983
 20
17.7279453927
 30
0.0
 10
13.0175957821
 20
17.8114115869
 30
0.0
 10
13.0365368594
 20
17.8889146838
 30
0.0
 10
13.0629610163
 20
17.9596420692
 30
0.0
 10
13.096615487
 20
18.0229320327
 30
0.0
 10
13.1372916396
 20
18.0781297657
 30
0.0
 10
13.1845497733
 20
18.12466765
 30
0.0
 10
13.2203295303
 20
18.1496357
 30
0.0
 10
13.2389400912
 20
18.160376193
 30
0.0
  0
SPLINE
  5
346
100
AcDbEntity
  8
0
100
AcDbSpline
 62
7
  6
BYLAYER
 70
0
 71
3
 72
12
 73
8
 74
0
 42
0.0000001
 43
0.0000001
 44
0.0000000001
 40
0.0
 40
0.0
 40
0.0
 40
0.0
 40
0.234790497
 40
0.4959120253
 40
0.7602809268
 40
0.8854587879
 40
1.0
 40
1.0
 40
1.0
 40
1.0
 10
15.0115298214
 20
22.8095794437
 30
0.0
 10
15.0063461866
 20
22.8125721489
 30
0.0
 10
14.994389148
 20
22.8171765362
 30
0.0
 10
14.9750874874
 20
22.8199767004
 30
0.0
 10
14.9583594516
 20
22.8187448981
 30
0.0
 10
14.9459510891
 20
22.8152829696
 30
0.0
 10
14.9403362331
 20
22.8127780367
 30
0.0
 10
14.9378074368
 20
22.8113180442
 30
0.0
  0
SPLINE
  5
347
100
AcDbEntity
  8
0
100
AcDbSpline
 62
7
  6
BYLAYER
 70
0
 71
3
 72
9
 73
5
 74
0
 42
0.0000001
 43
0.0000001
 44
0.0000000001
 40
0.0
 40
0.0
 40
0.0
 40
0.0
 40
0.2431993953
 40
1.0
 40
1.0
 40
1.0
 40
1.0
 10
14.9378074365
 20
22.8113180441
 30
0.0
 10
14.9300265055
 20
22.7942470523
 30
0.0
 10
14.8995892627
 20
22.7233486488
 30
0.0
 10
14.8752914327
 20
22.6498620494
 30
0.0
 10
14.8600435764
 20
22.5935081012
 30
0.0
  0
SPLINE
  5
348
100
AcDbEntity
  8
0
100
AcDbSpline
 62
7
  6
BYLAYER
 70
0
 71
3
 72
11
 73
7
 74
0
 42
0.0000001
 43
0.0000001
 44
0.0000000001
 40
0.0
 40
0.0
 40
0.0
 40
0.0
 40
0.2570937308
 40
0.5244430551
 40
0.7780392523
 40
1.0
 40
1.0
 40
1.0
 40
1.0
 10
14.9285363477
 20
22.5798745922
 30
0.0
 10
14.9238484836
 20
22.5840449655
 30
0.0
 10
14.9129355056
 20
22.59107718
 30
0.0
 10
14.8947839167
 20
22.5972554945
 30
0.0
 10
14.8765081585
 20
22.5985882267
 30
0.0
 10
14.864897929
 20
22.5958936417
 30
0.0
 10
14.8600403607
 20
22.5934962164
 30
0.0
  0
SPLINE
  5
349
100
AcDbEntity
  8
0
100
AcDbSpline
 62
7
  6
BYLAYER
 70
0
 71
3
 72
13
 73
9
 74
0
 42
0.0000001
 43
0.0000001
 44
0.0000000001
 40
0.0
 40
0.0
 40
0.0
 40
0.0
 40
0.259715631
 40
0.3876255661
 40
0.5138686911
 40
0.6383378663
 40
0.7609651374
 40
1.0
 40
1.0
 40
1.0
 40
1.0
 10
14.72602414
 20
20.9221685562
 30
0.0
 10
14.7106585556
 20
21.0164455591
 30
0.0
 10
14.6921751463
 20
21.1579404241
 30
0.0
 10
14.6769801759
 20
21.3463496053
 30
0.0
 10
14.6705619876
 20
21.4854858321
 30
0.0
 10
14.6693992182
 20
21.6228316149
 30
0.0
 10
14.6752661818
 20
21.8015617449
 30
0.0
 10
14.6881235705
 20
21.9341850226
 30
0.0
 10
14.7006661018
 20
22.0212004923
 30
0.0
  0
SPLINE
  5
34A
100
AcDbEntity
  8
0
100
AcDbSpline
 62
7
  6
BYLAYER
 70
0
 71
3
 72
11
 73
7
 74
0
 42
0.0000001
 43
0.0000001
 44
0.0000000001
 40
0.0
 40
0.0
 40
0.0
 40
0.0
 40
0.234193385
 40
0.4797901894
 40
0.7355352892
 40
1.0
 40
1.0
 40
1.0
 40
1.0
 10
14.5862469782
 20
21.9551426128
 30
0.0
 10
14.5830746261
 20
21.8735097902
 30
0.0
 10
14.5848225356
 20
21.7058770459
 30
0.0
 10
14.6094354415
 20
21.4502138986
 30
0.0
 10
14.655777776
 20
21.1868727771
 30
0.0
 10
14.7003065172
 20
21.0107655094
 30
0.0
 10
14.7260241399
 20
20.9221685562
 30
0.0
  0
SPLINE
  5
34B
100
AcDbEntity
  8
0
100
AcDbSpline
 62
7
  6
BYLAYER
 70
0
 71
3
 72
10
 73
6
 74
0
 42
0.0000001
 43
0.0000001
 44
0.0000000001
 40
0.0
 40
0.0
 40
0.0
 40
0.0
 40
0.4732188897
 40
0.7298158467
 40
1.0
 40
1.0
 40
1.0
 40
1.0
 10
14.7610324875
 20
22.709257557
 30
0.0
 10
14.7065653582
 20
22.5991527696
 30
0.0
 10
14.645315929
 20
22.4175487781
 30
0.0
 10
14.6001029565
 20
22.1617966893
 30
0.0
 10
14.5889972168
 20
22.0252383507
 30
0.0
 10
14.5862719715
 20
21.9551557093
 30
0.0
  0
SPLINE
  5
34C
100
AcDbEntity
  8
0
100
AcDbSpline
 62
7
  6
BYLAYER
 70
0
 71
3
 72
9
 73
5
 74
0
 42
0.0000001
 43
0.0000001
 44
0.0000000001
 40
0.0
 40
0.0
 40
0.0
 40
0.0
 40
0.5089637728
 40
1.0
 40
1.0
 40
1.0
 40
1.0
 10
14.7006456343
 20
22.021193008
 30
0.0
 10
14.7152791173
 20
22.1211426272
 30
0.0
 10
14.7552510871
 20
22.3161098602
 30
0.0
 10
14.8209210158
 20
22.5042354222
 30
0.0
 10
14.8600281448
 20
22.5935019315
 30
0.0
  0
SPLINE
  5
34D
100
AcDbEntity
  8
0
100
AcDbSpline
 62
7
  6
BYLAYER
 70
0
 71
3
 72
9
 73
5
 74
0
 42
0.0000001
 43
0.0000001
 44
0.0000000001
 40
0.0
 40
0.0
 40
0.0
 40
0.0
 40
0.2518713008
 40
1.0
 40
1.0
 40
1.0
 40
1.0
 10
15.4517588768
 20
20.3325699041
 30
0.0
 10
15.4321630194
 20
20.3665239689
 30
0.0
 10
15.3569149162
 20
20.5027846362
 30
0.0
 10
15.291874788
 20
20.6447133014
 30
0.0
 10
15.2497542685
 20
20.7532723348
 30
0.0
  0
SPLINE
  5
34E
100
AcDbEntity
  8
0
100
AcDbSpline
 62
7
  6
BYLAYER
 70
0
 71
3
 72
14
 73
10
 74
0
 42
0.0000001
 43
0.0000001
 44
0.0000000001
 40
0.0
 40
0.0
 40
0.0
 40
0.0
 40
0.090811951
 40
0.189284332
 40
0.2986327914
 40
0.420115529
 40
0.5533236148
 40
0.6965021076
 40
1.0
 40
1.0
 40
1.0
 40
1.0
 10
15.4542925914
 20
20.2187536837
 30
0.0
 10
15.4573312042
 20
20.2208961838
 30
0.0
 10
15.4629169932
 20
20.2264866964
 30
0.0
 10
15.4687363659
 20
20.2373973489
 30
0.0
 10
15.4720350724
 20
20.2505816982
 30
0.0
 10
15.4728319866
 20
20.2655366949
 30
0.0
 10
15.4711174459
 20
20.2817959844
 30
0.0
 10
15.4654904927
 20
20.3049094943
 30
0.0
 10
15.4579695037
 20
20.3218076352
 30
0.0
 10
15.4517588768
 20
20.3325699041
 30
0.0
  0
SPLINE
  5
34F
100
AcDbEntity
  8
0
100
AcDbSpline
 62
7
  6
BYLAYER
 70
0
 71
3
 72
15
 73
11
 74
0
 42
0.0000001
 43
0.0000001
 44
0.0000000001
 40
0.0
 40
0.0
 40
0.0
 40
0.0
 40
0.117066151
 40
0.2360543342
 40
0.3574363176
 40
0.4809872909
 40
0.607353081
 40
0.7368097386
 40
0.8679790144
 40
1.0
 40
1.0
 40
1.0
 40
1.0
 10
15.4408027307
 20
22.1256278406
 30
0.0
 10
15.4153797214
 20
22.0770522001
 30
0.0
 10
15.36929012
 20
21.9763096287
 30
0.0
 10
15.3150320884
 20
21.817695902
 30
0.0
 10
15.2745425405
 20
21.6519221592
 30
0.0
 10
15.2470050776
 20
21.4800513403
 30
0.0
 10
15.2318024105
 20
21.3028891075
 30
0.0
 10
15.2278035043
 20
21.1215850328
 30
0.0
 10
15.2338983135
 20
20.9377173577
 30
0.0
 10
15.24372174
 20
20.8148074842
 30
0.0
 10
15.2497585132
 20
20.7532727105
 30
0.0
  0
SPLINE
  5
350
100
AcDbEntity
  8
0
100
AcDbSpline
 62
7
  6
BYLAYER
 70
0
 71
3
 72
14
 73
10
 74
0
 42
0.0000001
 43
0.0000001
 44
0.0000000001
 40
0.0
 40
0.0
 40
0.0
 40
0.0
 40
0.1408811123
 40
0.2786880221
 40
0.5408916846
 40
0.6643965003
 40
0.7822417717
 40
0.8941667761
 40
1.0
 40
1.0
 40
1.0
 40
1.0
 10
15.5671150404
 20
20.9376926333
 30
0.0
 10
15.5467050254
 20
20.9908753877
 30
0.0
 10
15.5090287118
 20
21.0971568763
 30
0.0
 10
15.448192955
 20
21.3073242517
 30
0.0
 10
15.4099332202
 20
21.5163982719
 30
0.0
 10
15.3959859828
 20
21.7196935484
 30
0.0
 10
15.397807158
 20
21.8627141157
 30
0.0
 10
15.4118592668
 20
21.997874618
 30
0.0
 10
15.4297223642
 20
22.0842969512
 30
0.0
 10
15.4407979916
 20
22.1256320373
 30
0.0
  0
SPLINE
  5
351
100
AcDbEntity
  8
0
100
AcDbSpline
 62
7
  6
BYLAYER
 70
0
 71
3
 72
11
 73
7
 74
0
 42
0.0000001
 43
0.0000001
 44
0.0000000001
 40
0.0
 40
0.0
 40
0.0
 40
0.0
 40
0.2500632123
 40
0.4375249515
 40
0.624953364
 40
1.0
 40
1.0
 40
1.0
 40
1.0
 10
15.2497542685
 20
20.7532723348
 30
0.0
 10
15.2762106224
 20
20.7687211324
 30
0.0
 10
15.3225175572
 20
20.7957216753
 30
0.0
 10
15.3888019102
 20
20.8340470275
 30
0.0
 10
15.4684214607
 20
20.8798998119
 30
0.0
 10
15.5279772074
 20
20.914570032
 30
0.0
 10
15.567657702
 20
20.9377384339
 30
0.0
  0
SPLINE
  5
352
100
AcDbEntity
  8
0
100
AcDbSpline
 62
7
  6
BYLAYER
 70
0
 71
3
 72
25
 73
21
 74
0
 42
0.0000001
 43
0.0000001
 44
0.0000000001
 40
0.0
 40
0.0
 40
0.0
 40
0.0
 40
0.0551813074
 40
0.115544452
 40
0.1806272472
 40
0.2497394099
 40
0.3218716012
 40
0.3958258622
 40
0.4703085471
 40
0.5440013124
 40
0.6156182884
 40
0.6839988981
 40
0.7481822719
 40
0.8074934838
 40
0.8616804285
 40
0.9110268413
 40
0.9342038999
 40
0.9565974355
 40
0.9784421901
 40
1.0
 40
1.0
 40
1.0
 40
1.0
 10
16.8642909011
 20
20.3974976565
 30
0.0
 10
16.8721246757
 20
20.4267339045
 30
0.0
 10
16.8824941566
 20
20.4896375151
 30
0.0
 10
16.8833503738
 20
20.5890116178
 30
0.0
 10
16.8701923203
 20
20.6951938799
 30
0.0
 10
16.8434304605
 20
20.8053824704
 30
0.0
 10
16.8038070588
 20
20.916781488
 30
0.0
 10
16.7523083177
 20
21.0264609114
 30
0.0
 10
16.6903066987
 20
21.1315534829
 30
0.0
 10
16.6194416418
 20
21.22931417
 30
0.0
 10
16.5415370119
 20
21.3171583215
 30
0.0
 10
16.4586466617
 20
21.3928130741
 30
0.0
 10
16.372896719
 20
21.4543100663
 30
0.0
 10
16.2864137508
 20
21.5000141923
 30
0.0
 10
16.2013715581
 20
21.5287333435
 30
0.0
 10
16.1318561011
 20
21.5378228
 30
0.0
 10
16.0797363561
 20
21.535241707
 30
0.0
 10
16.0432288497
 20
21.5287063295
 30
0.0
 10
16.0087752498
 20
21.5176065812
 30
0.0
 10
15.9872730858
 20
21.5071696387
 30
0.0
 10
15.9770316718
 20
21.5012588788
 30
0.0
  0
SPLINE
  5
353
100
AcDbEntity
  8
0
100
AcDbSpline
 62
7
  6
BYLAYER
 70
0
 71
3
 72
11
 73
7
 74
0
 42
0.0000001
 43
0.0000001
 44
0.0000000001
 40
0.0
 40
0.0
 40
0.0
 40
0.0
 40
0.2828283587
 40
0.5423423301
 40
0.779951193
 40
1.0
 40
1.0
 40
1.0
 40
1.0
 10
19.6047151362
 20
13.4215602193
 30
0.0
 10
19.6571251832
 20
13.4518189934
 30
0.0
 10
19.7615269281
 20
13.5035252907
 30
0.0
 10
19.9215417777
 20
13.553692749
 30
0.0
 10
20.0749602615
 20
13.5716110744
 30
0.0
 10
20.1734390254
 20
13.5609903942
 30
0.0
 10
20.2191882537
 20
13.5498561117
 30
0.0
  0
SPLINE
  5
354
100
AcDbEntity
  8
0
100
AcDbSpline
 62
7
  6
BYLAYER
 70
0
 71
3
 72
11
 73
7
 74
0
 42
0.0000001
 43
0.0000001
 44
0.0000000001
 40
0.0
 40
0.0
 40
0.0
 40
0.0
 40
0.2663914555
 40
0.5242034909
 40
0.7697234088
 40
1.0
 40
1.0
 40
1.0
 40
1.0
 10
18.9902420188
 20
12.8403279075
 30
0.0
 10
19.0342369997
 20
12.9018359725
 30
0.0
 10
19.1262995002
 20
13.0190635429
 30
0.0
 10
19.2771287713
 20
13.1776458899
 30
0.0
 10
19.435714279
 20
13.3132142889
 30
0.0
 10
19.5481025167
 20
13.3888751033
 30
0.0
 10
19.6047151362
 20
13.4215602193
 30
0.0
  0
SPLINE
  5
355
100
AcDbEntity
  8
0
100
AcDbSpline
 62
7
  6
BYLAYER
 70
0
 71
3
 72
13
 73
9
 74
0
 42
0.0000001
 43
0.0000001
 44
0.0000000001
 40
0.0
 40
0.0
 40
0.0
 40
0.0
 40
0.1109015717
 40
0.2278498333
 40
0.3498896334
 40
0.4760734944
 40
0.7365656757
 40
1.0
 40
1.0
 40
1.0
 40
1.0
 10
17.3419828572
 20
10.2396942243
 30
0.0
 10
17.3419828572
 20
10.2631219096
 30
0.0
 10
17.344542006
 20
10.3112773856
 30
0.0
 10
17.3551800865
 20
10.3845083474
 30
0.0
 10
17.3726458964
 20
10.4597362702
 30
0.0
 10
17.4049790995
 20
10.5623148003
 30
0.0
 10
17.4605710582
 20
10.6884133005
 30
0.0
 10
17.5187261975
 20
10.7830457146
 30
0.0
 10
17.5511015647
 20
10.8283087459
 30
0.0
  0
SPLINE
  5
356
100
AcDbEntity
  8
0
100
AcDbSpline
 62
7
  6
BYLAYER
 70
0
 71
3
 72
23
 73
19
 74
0
 42
0.0000001
 43
0.0000001
 44
0.0000000001
 40
0.0
 40
0.0
 40
0.0
 40
0.0
 40
0.0428920992
 40
0.0871972444
 40
0.1341141002
 40
0.1844890673
 40
0.2388063939
 40
0.2972008384
 40
0.3595431672
 40
0.4254676537
 40
0.4944510729
 40
0.5658325985
 40
0.6388675414
 40
0.7127341846
 40
0.786588189
 40
0.8596330544
 40
0.9310719059
 40
1.0
 40
1.0
 40
1.0
 40
1.0
 10
4.2390078451
 20
28.6046494235
 30
0.0
 10
4.2554266312
 20
28.6141327689
 30
0.0
 10
4.2911618031
 20
28.6295912861
 30
0.0
 10
4.3498305725
 20
28.6406890529
 30
0.0
 10
4.4127934142
 20
28.6397770784
 30
0.0
 10
4.4789033104
 20
28.6271171117
 30
0.0
 10
4.5470881991
 20
28.6029921551
 30
0.0
 10
4.6162830467
 20
28.5679331515
 30
0.0
 10
4.6853448817
 20
28.5224957832
 30
0.0
 10
4.7531785769
 20
28.4675022274
 30
0.0
 10
4.8186202895
 20
28.4038308501
 30
0.0
 10
4.8806161137
 20
28.3325921678
 30
0.0
 10
4.9380732571
 20
28.2549506106
 30
0.0
 10
4.9900723863
 20
28.1722626474
 30
0.0
 10
5.0356940144
 20
28.08588752
 30
0.0
 10
5.0742084222
 20
27.997279942
 30
0.0
 10
5.104889068
 20
27.9079668474
 30
0.0
 10
5.12015844
 20
27.8477292516
 30
0.0
 10
5.1262671085
 20
27.8178777088
 30
0.0
  0
SPLINE
  5
357
100
AcDbEntity
  8
0
100
AcDbSpline
 62
7
  6
BYLAYER
 70
0
 71
3
 72
12
 73
8
 74
0
 42
0.0000001
 43
0.0000001
 44
0.0000000001
 40
0.0
 40
0.0
 40
0.0
 40
0.0
 40
0.2519934348
 40
0.3760893332
 40
0.4994835818
 40
0.747012914
 40
1.0
 40
1.0
 40
1.0
 40
1.0
 10
12.8164517654
 20
28.9294003057
 30
0.0
 10
12.8303443576
 20
28.9374211497
 30
0.0
 10
12.8495878911
 20
28.952333862
 30
0.0
 10
12.8701348044
 20
28.9767028825
 30
0.0
 10
12.8868978559
 20
29.0035033949
 30
0.0
 10
12.9008613006
 20
29.0411929197
 30
0.0
 10
12.9043028048
 20
29.0731954876
 30
0.0
 10
12.9043051854
 20
29.0893005025
 30
0.0
  0
SPLINE
  5
358
100
AcDbEntity
  8
0
100
AcDbSpline
 62
7
  6
BYLAYER
 70
0
 71
3
 72
15
 73
11
 74
0
 42
0.0000001
 43
0.0000001
 44
0.0000000001
 40
0.0
 40
0.0
 40
0.0
 40
0.0
 40
0.1270609603
 40
0.2579199809
 40
0.3899164285
 40
0.5210483756
 40
0.6491897712
 40
0.7724528092
 40
0.8895168723
 40
1.0
 40
1.0
 40
1.0
 40
1.0
 10
10.023389842
 20
27.6754462947
 30
0.0
 10
10.0372337052
 20
27.6612853387
 30
0.0
 10
10.0673216786
 20
27.6344334341
 30
0.0
 10
10.1173134004
 20
27.5996430394
 30
0.0
 10
10.1716702673
 20
27.5707478497
 30
0.0
 10
10.2288279201
 20
27.548997025
 30
0.0
 10
10.2871651143
 20
27.5356623067
 30
0.0
 10
10.3448105849
 20
27.5321648508
 30
0.0
 10
10.3993613263
 20
27.5398291355
 30
0.0
 10
10.4327410583
 20
27.5531725022
 30
0.0
 10
10.4476539107
 20
27.5617823902
 30
0.0
  0
SPLINE
  5
359
100
AcDbEntity
  8
0
100
AcDbSpline
 62
7
  6
BYLAYER
 70
0
 71
3
 72
15
 73
11
 74
0
 42
0.0000001
 43
0.0000001
 44
0.0000000001
 40
0.0
 40
0.0
 40
0.0
 40
0.0
 40
0.1432098394
 40
0.2821744646
 40
0.4161276803
 40
0.5446084286
 40
0.6673121075
 40
0.7840942068
 40
0.8949522944
 40
1.0
 40
1.0
 40
1.0
 40
1.0
 10
10.023389842
 20
27.6754462947
 30
0.0
 10
9.9734936403
 20
27.7264853654
 30
0.0
 10
9.8721832928
 20
27.824178587
 30
0.0
 10
9.7140518175
 20
27.9585940224
 30
0.0
 10
9.5530907788
 20
28.0776787076
 30
0.0
 10
9.3907370753
 20
28.1804345273
 30
0.0
 10
9.2282830756
 20
28.2659911633
 30
0.0
 10
9.0670445497
 20
28.3336684887
 30
0.0
 10
8.9083900846
 20
28.3827787696
 30
0.0
 10
8.8025000027
 20
28.4034398064
 30
0.0
 10
8.7505923367
 20
28.4102796528
 30
0.0
  0
SPLINE
  5
35A
100
AcDbEntity
  8
0
100
AcDbSpline
 62
7
  6
BYLAYER
 70
0
 71
3
 72
9
 73
5
 74
0
 42
0.0000001
 43
0.0000001
 44
0.0000000001
 40
0.0
 40
0.0
 40
0.0
 40
0.0
 40
0.2594646137
 40
1.0
 40
1.0
 40
1.0
 40
1.0
 10
19.0354091277
 20
24.977588643
 30
0.0
 10
19.0399478589
 20
24.9990581984
 30
0.0
 10
19.0591713302
 20
25.0814174271
 30
0.0
 10
19.0855739612
 20
25.1621858231
 30
0.0
 10
19.1097359117
 20
25.2199678156
 30
0.0
  0
SPLINE
  5
35B
100
AcDbEntity
  8
0
100
AcDbSpline
 62
7
  6
BYLAYER
 70
0
 71
3
 72
17
 73
13
 74
0
 42
0.0000001
 43
0.0000001
 44
0.0000000001
 40
0.0
 40
0.0
 40
0.0
 40
0.0
 40
0.1518303849
 40
0.3026199826
 40
0.4476384522
 40
0.5829112013
 40
0.7054759847
 40
0.8141926058
 40
0.863825745
 40
0.9108323283
 40
0.9559211988
 40
1.0
 40
1.0
 40
1.0
 40
1.0
 10
19.6724307402
 20
9.6035864823
 30
0.0
 10
19.6429025423
 20
9.5623039933
 30
0.0
 10
19.5892561371
 20
9.4761672136
 30
0.0
 10
19.526295312
 20
9.3399985205
 30
0.0
 10
19.4831250048
 20
9.2020448476
 30
0.0
 10
19.4616982143
 20
9.068524171
 30
0.0
 10
19.4630541399
 20
8.9453303508
 30
0.0
 10
19.484161545
 20
8.8527252058
 30
0.0
 10
19.5133407725
 20
8.7903260828
 30
0.0
 10
19.539955924
 20
8.7508628466
 30
0.0
 10
19.5717095792
 20
8.7179193451
 30
0.0
 10
19.5961588109
 20
8.7005082723
 30
0.0
 10
19.6089189817
 20
8.6931390466
 30
0.0
  0
SPLINE
  5
35C
100
AcDbEntity
  8
0
100
AcDbSpline
 62
7
  6
BYLAYER
 70
0
 71
3
 72
15
 73
11
 74
0
 42
0.0000001
 43
0.0000001
 44
0.0000000001
 40
0.0
 40
0.0
 40
0.0
 40
0.0
 40
0.1140737599
 40
0.2373574309
 40
0.3669863783
 40
0.4999996454
 40
0.6330129828
 40
0.7626420545
 40
0.885925898
 40
1.0
 40
1.0
 40
1.0
 40
1.0
 10
10.4476539107
 20
26.5875552051
 30
0.0
 10
10.4331422337
 20
26.5791769345
 30
0.0
 10
10.4013757673
 20
26.564405344
 30
0.0
 10
10.3496724418
 20
26.5486610595
 30
0.0
 10
10.2936726174
 20
26.5389901628
 30
0.0
 10
10.2355221601
 20
26.5357428737
 30
0.0
 10
10.1773716694
 20
26.5389899004
 30
0.0
 10
10.1213717488
 20
26.5486605465
 30
0.0
 10
10.0696682441
 20
26.5644045622
 30
0.0
 10
10.0379016228
 20
26.5791759942
 30
0.0
 10
10.023389842
 20
26.5875541853
 30
0.0
  0
SPLINE
  5
35D
100
AcDbEntity
  8
0
100
AcDbSpline
 62
7
  6
BYLAYER
 70
0
 71
3
 72
12
 73
8
 74
0
 42
0.0000001
 43
0.0000001
 44
0.0000000001
 40
0.0
 40
0.0
 40
0.0
 40
0.0
 40
0.2893230325
 40
0.548704062
 40
0.7816647308
 40
0.8918349034
 40
1.0
 40
1.0
 40
1.0
 40
1.0
 10
8.7505923367
 20
27.3223875434
 30
0.0
 10
8.7374361766
 20
27.3299830841
 30
0.0
 10
8.7135629656
 20
27.3464531698
 30
0.0
 10
8.6850013141
 20
27.3764009412
 30
0.0
 10
8.6696759496
 20
27.4046601198
 30
0.0
 10
8.6637195517
 20
27.42769328
 30
0.0
 10
8.6627402725
 20
27.439181419
 30
0.0
 10
8.6627402738
 20
27.4448607894
 30
0.0
  0
SPLINE
  5
35E
100
AcDbEntity
  8
0
100
AcDbSpline
 62
7
  6
BYLAYER
 70
0
 71
3
 72
23
 73
19
 74
0
 42
0.0000001
 43
0.0000001
 44
0.0000000001
 40
0.0
 40
0.0
 40
0.0
 40
0.0
 40
0.0689265358
 40
0.140369894
 40
0.2134201188
 40
0.2872757757
 40
0.3611419216
 40
0.4341770065
 40
0.5055562438
 40
0.5745377839
 40
0.6404604921
 40
0.7028033054
 40
0.7611960198
 40
0.81551319
 40
0.8658861097
 40
0.9128031467
 40
0.9571072993
 40
1.0
 40
1.0
 40
1.0
 40
1.0
 10
4.8434255736
 20
27.6545800472
 30
0.0
 10
4.8373170669
 20
27.6844307992
 30
0.0
 10
4.8220460267
 20
27.7446690554
 30
0.0
 10
4.7913653228
 20
27.8339856002
 30
0.0
 10
4.7528483029
 20
27.9225972088
 30
0.0
 10
4.7072255727
 20
28.0089746482
 30
0.0
 10
4.6552232124
 20
28.0916607832
 30
0.0
 10
4.5977675396
 20
28.1693014857
 30
0.0
 10
4.5357717273
 20
28.2405372943
 30
0.0
 10
4.4703326151
 20
28.3042071979
 30
0.0
 10
4.4024980002
 20
28.3591966428
 30
0.0
 10
4.3334390617
 20
28.4046356425
 30
0.0
 10
4.2642432107
 20
28.4396902247
 30
0.0
 10
4.1960613651
 20
28.4638184156
 30
0.0
 10
4.1299518229
 20
28.4764726368
 30
0.0
 10
4.0669904876
 20
28.4773908093
 30
0.0
 10
4.0083227846
 20
28.466287006
 30
0.0
 10
3.9725879951
 20
28.4508304747
 30
0.0
 10
3.9561675558
 20
28.4413496074
 30
0.0
  0
SPLINE
  5
35F
100
AcDbEntity
  8
0
100
AcDbSpline
 62
7
  6
BYLAYER
 70
0
 71
3
 72
15
 73
11
 74
0
 42
0.0000001
 43
0.0000001
 44
0.0000000001
 40
0.0
 40
0.0
 40
0.0
 40
0.0
 40
0.1538970611
 40
0.2996333824
 40
0.4361776842
 40
0.5634172563
 40
0.6818745946
 40
0.7927386906
 40
0.8978988947
 40
1.0
 40
1.0
 40
1.0
 40
1.0
 10
5.1325121998
 20
27.7843758255
 30
0.0
 10
5.137018029
 20
27.7575510581
 30
0.0
 10
5.1435042693
 20
27.7049007077
 30
0.0
 10
5.1454110622
 20
27.6276966577
 30
0.0
 10
5.1390884167
 20
27.5554200814
 30
0.0
 10
5.1246507073
 20
27.4892044532
 30
0.0
 10
5.1021971931
 20
27.4300402211
 30
0.0
 10
5.0720227534
 20
27.3788181299
 30
0.0
 10
5.034435337
 20
27.3365045657
 30
0.0
 10
5.0046296122
 20
27.3146376241
 30
0.0
 10
4.9890030536
 20
27.3056118624
 30
0.0
  0
SPLINE
  5
360
100
AcDbEntity
  8
0
100
AcDbSpline
 62
7
  6
BYLAYER
 70
0
 71
3
 72
9
 73
5
 74
0
 42
0.0000001
 43
0.0000001
 44
0.0000000001
 40
0.0
 40
0.0
 40
0.0
 40
0.0
 40
0.3887159619
 40
1.0
 40
1.0
 40
1.0
 40
1.0
 10
5.7875692171
 20
25.6418936388
 30
0.0
 10
5.7887212745
 20
25.6436157042
 30
0.0
 10
5.792238239
 20
25.6476552977
 30
0.0
 10
5.7960256105
 20
25.6513994403
 30
0.0
 10
5.7983894959
 20
25.6536417467
 30
0.0
  0
LINE
  5
361
100
AcDbEntity
  8
0
100
AcDbLine
 62
7
  6
BYLAYER
 10
5.7983894959
 20
25.6536417467
 11
5.8073440466
 21
25.6617881986
  0
SPLINE
  5
362
100
AcDbEntity
  8
0
100
AcDbSpline
 62
7
  6
BYLAYER
 70
0
 71
3
 72
9
 73
5
 74
0
 42
0.0000001
 43
0.0000001
 44
0.0000000001
 40
0.0
 40
0.0
 40
0.0
 40
0.0
 40
0.254712904
 40
1.0
 40
1.0
 40
1.0
 40
1.0
 10
4.1630799225
 20
28.5900182143
 30
0.0
 10
4.1663670864
 20
28.5945089555
 30
0.0
 10
4.1797336648
 20
28.611795568
 30
0.0
 10
4.1949967514
 20
28.6276292569
 30
0.0
 10
4.2072892914
 20
28.6383091072
 30
0.0
  0
SPLINE
  5
363
100
AcDbEntity
  8
0
100
AcDbSpline
 62
7
  6
BYLAYER
 70
0
 71
3
 72
23
 73
19
 74
0
 42
0.0000001
 43
0.0000001
 44
0.0000000001
 40
0.0
 40
0.0
 40
0.0
 40
0.0
 40
0.0434800734
 40
0.087271553
 40
0.1329265989
 40
0.181699299
 40
0.2343988936
 40
0.2914207763
 40
0.3527699764
 40
0.4181697592
 40
0.4870982799
 40
0.5588726983
 40
0.632679567
 40
0.7076177521
 40
0.7827328991
 40
0.8571168842
 40
0.9298763543
 40
1.0
 40
1.0
 40
1.0
 40
1.0
 10
4.2072892914
 20
28.6383091072
 30
0.0
 10
4.2233302563
 20
28.6522456168
 30
0.0
 10
4.2589438
 20
28.6765812981
 30
0.0
 10
4.3203829386
 20
28.6994325198
 30
0.0
 10
4.3879154447
 20
28.7081060111
 30
0.0
 10
4.4600333958
 20
28.7025675558
 30
0.0
 10
4.5353909793
 20
28.6832610164
 30
0.0
 10
4.6126444339
 20
28.6506159218
 30
0.0
 10
4.6904576589
 20
28.6053516272
 30
0.0
 10
4.7674185226
 20
28.5482939082
 30
0.0
 10
4.8421382166
 20
28.4805261541
 30
0.0
 10
4.9132337505
 20
28.4033030069
 30
0.0
 10
4.9793706985
 20
28.3180579279
 30
0.0
 10
5.0393315967
 20
28.2264097689
 30
0.0
 10
5.0919782088
 20
28.1300538336
 30
0.0
 10
5.1363539501
 20
28.0307769851
 30
0.0
 10
5.17154819
 20
27.930471934
 30
0.0
 10
5.1889024936
 20
27.8627145552
 30
0.0
 10
5.1957730776
 20
27.8291397209
 30
0.0
  0
SPLINE
  5
364
100
AcDbEntity
  8
0
100
AcDbSpline
 62
7
  6
BYLAYER
 70
0
 71
3
 72
15
 73
11
 74
0
 42
0.0000001
 43
0.0000001
 44
0.0000000001
 40
0.0
 40
0.0
 40
0.0
 40
0.0
 40
0.1566068283
 40
0.3036747498
 40
0.4400865055
 40
0.5659730973
 40
0.6823705989
 40
0.791304479
 40
0.8958923051
 40
1.0
 40
1.0
 40
1.0
 40
1.0
 10
5.2024345084
 20
27.7934043787
 30
0.0
 10
5.2078186304
 20
27.7613508285
 30
0.0
 10
5.215219045
 20
27.6986243433
 30
0.0
 10
5.2157627977
 20
27.6070780229
 30
0.0
 10
5.2052404533
 20
27.5224918272
 30
0.0
 10
5.1838202128
 20
27.4465074058
 30
0.0
 10
5.1517282821
 20
27.3805598365
 30
0.0
 10
5.1093559316
 20
27.3260501461
 30
0.0
 10
5.0574445974
 20
27.2844195868
 30
0.0
 10
5.0176016802
 20
27.2661866833
 30
0.0
 10
4.9970357648
 20
27.2595612474
 30
0.0
  0
SPLINE
  5
365
100
AcDbEntity
  8
0
100
AcDbSpline
 62
7
  6
BYLAYER
 70
0
 71
3
 72
9
 73
5
 74
0
 42
0.0000001
 43
0.0000001
 44
0.0000000001
 40
0.0
 40
0.0
 40
0.0
 40
0.0
 40
0.2462904779
 40
1.0
 40
1.0
 40
1.0
 40
1.0
 10
4.9970357648
 20
27.2595612474
 30
0.0
 10
4.9922589845
 20
27.2580223783
 30
0.0
 10
4.9726983211
 20
27.2522961177
 30
0.0
 10
4.9525352733
 20
27.2486683995
 30
0.0
 10
4.9372622018
 20
27.2470557883
 30
0.0
  0
SPLINE
  5
366
100
AcDbEntity
  8
0
100
AcDbSpline
 62
7
  6
BYLAYER
 70
0
 71
3
 72
12
 73
8
 74
0
 42
0.0000001
 43
0.0000001
 44
0.0000000001
 40
0.0
 40
0.0
 40
0.0
 40
0.0
 40
0.2893200915
 40
0.548700262
 40
0.7816621626
 40
0.8918335229
 40
1.0
 40
1.0
 40
1.0
 40
1.0
 10
3.8715399435
 20
29.2411100977
 30
0.0
 10
3.8539986404
 20
29.2512373447
 30
0.0
 10
3.819065176
 20
29.2678227994
 30
0.0
 10
3.7654434753
 20
29.2808365632
 30
0.0
 10
3.7225957819
 20
29.2796926032
 30
0.0
 10
3.6920283802
 20
29.2712147445
 30
0.0
 10
3.6781100694
 20
29.2646866933
 30
0.0
 10
3.6715520296
 20
29.2609004267
 30
0.0
  0
SPLINE
  5
367
100
AcDbEntity
  8
0
100
AcDbSpline
 62
7
  6
BYLAYER
 70
0
 71
3
 72
13
 73
9
 74
0
 42
0.0000001
 43
0.0000001
 44
0.0000000001
 40
0.0
 40
0.0
 40
0.0
 40
0.0
 40
0.2563446374
 40
0.5127430251
 40
0.6389144559
 40
0.7626886714
 40
0.883322204
 40
1.0
 40
1.0
 40
1.0
 40
1.0
 10
3.5886960535
 20
27.775494335
 30
0.0
 10
3.6355447384
 20
27.6668935102
 30
0.0
 10
3.7421310304
 20
27.4550208527
 30
0.0
 10
3.9038666928
 20
27.2077557835
 30
0.0
 10
4.0484832608
 20
27.0241233169
 30
0.0
 10
4.1622616901
 20
26.8963407674
 30
0.0
 10
4.2808009045
 20
26.7791197501
 30
0.0
 10
4.3636910062
 20
26.7074196615
 30
0.0
 10
4.405671464
 20
26.6737189666
 30
0.0
  0
SPLINE
  5
368
100
AcDbEntity
  8
0
100
AcDbSpline
 62
7
  6
BYLAYER
 70
0
 71
3
 72
10
 73
6
 74
0
 42
0.0000001
 43
0.0000001
 44
0.0000000001
 40
0.0
 40
0.0
 40
0.0
 40
0.0
 40
0.2375788854
 40
0.4886760241
 40
1.0
 40
1.0
 40
1.0
 40
1.0
 10
4.405671464
 20
26.6737189666
 30
0.0
 10
4.4108261787
 20
26.6696191264
 30
0.0
 10
4.4207335817
 20
26.6602874953
 30
0.0
 10
4.4382370987
 20
26.6387349834
 30
0.0
 10
4.4484656371
 20
26.6199030845
 30
0.0
 10
4.4535931719
 20
26.6066876679
 30
0.0
  0
SPLINE
  5
369
100
AcDbEntity
  8
0
100
AcDbSpline
 62
7
  6
BYLAYER
 70
0
 71
3
 72
11
 73
7
 74
0
 42
0.0000001
 43
0.0000001
 44
0.0000000001
 40
0.0
 40
0.0
 40
0.0
 40
0.0
 40
0.2652273528
 40
0.5294350764
 40
0.7781530029
 40
1.0
 40
1.0
 40
1.0
 40
1.0
 10
4.7380411684
 20
25.8735675648
 30
0.0
 10
4.7432032218
 20
25.8602631816
 30
0.0
 10
4.755862227
 20
25.8345728821
 30
0.0
 10
4.7802636932
 20
25.8003148207
 30
0.0
 10
4.8085856745
 20
25.7724456847
 30
0.0
 10
4.8300913735
 20
25.7585388414
 30
0.0
 10
4.8409506881
 20
25.7535832388
 30
0.0
  0
SPLINE
  5
36A
100
AcDbEntity
  8
0
100
AcDbSpline
 62
7
  6
BYLAYER
 70
0
 71
3
 72
12
 73
8
 74
0
 42
0.0000001
 43
0.0000001
 44
0.0000000001
 40
0.0
 40
0.0
 40
0.0
 40
0.0
 40
0.2773013224
 40
0.5348335379
 40
0.7743284607
 40
0.8886062352
 40
1.0
 40
1.0
 40
1.0
 40
1.0
 10
4.8409506881
 20
25.7535832388
 30
0.0
 10
4.9171265669
 20
25.7188206968
 30
0.0
 10
5.0683426662
 20
25.6605156611
 30
0.0
 10
5.2971598795
 20
25.6083877922
 30
0.0
 10
5.4825973488
 20
25.5980403102
 30
0.0
 10
5.6226677025
 20
25.6108586904
 30
0.0
 10
5.6896906612
 20
25.6239737274
 30
0.0
 10
5.7223031473
 20
25.632208416
 30
0.0
  0
SPLINE
  5
36B
100
AcDbEntity
  8
0
100
AcDbSpline
 62
7
  6
BYLAYER
 70
0
 71
3
 72
15
 73
11
 74
0
 42
0.0000001
 43
0.0000001
 44
0.0000000001
 40
0.0
 40
0.0
 40
0.0
 40
0.0
 40
0.1008071314
 40
0.2049357908
 40
0.3152172653
 40
0.4336050452
 40
0.5612415963
 40
0.6985294371
 40
0.8452011821
 40
1.0
 40
1.0
 40
1.0
 40
1.0
 10
4.7061602731
 20
27.1423163554
 30
0.0
 10
4.7225799784
 20
27.1517967988
 30
0.0
 10
4.7538358371
 20
27.1750101572
 30
0.0
 10
4.7927854344
 20
27.2202692676
 30
0.0
 10
4.8234662676
 20
27.2752578869
 30
0.0
 10
4.8455674197
 20
27.3388311422
 30
0.0
 10
4.8587744504
 20
27.4099432867
 30
0.0
 10
4.8630069095
 20
27.4874299127
 30
0.0
 10
4.8581668026
 20
27.5699588632
 30
0.0
 10
4.8492625638
 20
27.6260561288
 30
0.0
 10
4.8434255736
 20
27.6545800472
 30
0.0
  0
SPLINE
  5
36C
100
AcDbEntity
  8
0
100
AcDbSpline
 62
7
  6
BYLAYER
 70
0
 71
3
 72
24
 73
20
 74
0
 42
0.0000001
 43
0.0000001
 44
0.0000000001
 40
0.0
 40
0.0
 40
0.0
 40
0.0
 40
0.0623671147
 40
0.1287406986
 40
0.1983307993
 40
0.2703115891
 40
0.3436946672
 40
0.4174298427
 40
0.4904592115
 40
0.5617519769
 40
0.6303561417
 40
0.6954481421
 40
0.7564009785
 40
0.8128436467
 40
0.8647472448
 40
0.9125265106
 40
0.9571051317
 40
0.9786667292
 40
1.0
 40
1.0
 40
1.0
 40
1.0
 10
22.4331540368
 20
11.7885972012
 30
0.0
 10
22.3792796508
 20
11.7574929956
 30
0.0
 10
22.2722243207
 20
11.6859236894
 30
0.0
 10
22.1205903207
 20
11.5583581917
 30
0.0
 10
21.9756544987
 20
11.4095364167
 30
0.0
 10
21.8405287574
 20
11.242709345
 30
0.0
 10
21.718027891
 20
11.0614065006
 30
0.0
 10
21.6107897041
 20
10.8694837266
 30
0.0
 10
21.5211116764
 20
10.6710323753
 30
0.0
 10
21.4508775011
 20
10.4702900273
 30
0.0
 10
21.4015964459
 20
10.2715151165
 30
0.0
 10
21.3743437945
 20
10.0789006739
 30
0.0
 10
21.3696971638
 20
9.8964762017
 30
0.0
 10
21.3878598012
 20
9.7280041557
 30
0.0
 10
21.4287080985
 20
9.5769411985
 30
0.0
 10
21.4916821927
 20
9.4465061351
 30
0.0
 10
21.562942001
 20
9.3565196496
 30
0.0
 10
21.6290155309
 20
9.2992411901
 30
0.0
 10
21.664744221
 20
9.2754475028
 30
0.0
 10
21.6831723033
 20
9.2648077178
 30
0.0
  0
SPLINE
  5
36D
100
AcDbEntity
  8
0
100
AcDbSpline
 62
7
  6
BYLAYER
 70
0
 71
3
 72
9
 73
5
 74
0
 42
0.0000001
 43
0.0000001
 44
0.0000000001
 40
0.0
 40
0.0
 40
0.0
 40
0.0
 40
0.2463165797
 40
1.0
 40
1.0
 40
1.0
 40
1.0
 10
5.8058553808
 20
25.6727266835
 30
0.0
 10
5.8165448839
 20
25.6831349309
 30
0.0
 10
5.858914167
 20
25.72643851
 30
0.0
 10
5.8970867156
 20
25.7738098516
 30
0.0
 10
5.9233388761
 20
25.811157992
 30
0.0
  0
SPLINE
  5
36E
100
AcDbEntity
  8
0
100
AcDbSpline
 62
7
  6
BYLAYER
 70
0
 71
3
 72
12
 73
8
 74
0
 42
0.0000001
 43
0.0000001
 44
0.0000000001
 40
0.0
 40
0.0
 40
0.0
 40
0.0
 40
0.2894229637
 40
0.5486968817
 40
0.7816465254
 40
0.8918325285
 40
1.0
 40
1.0
 40
1.0
 40
1.0
 10
21.9284862708
 20
11.1261840506
 30
0.0
 10
21.9472391107
 20
11.1370109431
 30
0.0
 10
21.9845670298
 20
11.1547495091
 30
0.0
 10
22.0418760699
 20
11.1686342387
 30
0.0
 10
22.0876590525
 20
11.1674183477
 30
0.0
 10
22.1203248087
 20
11.1583554971
 30
0.0
 10
22.1352066757
 20
11.1513929333
 30
0.0
 10
22.1422169211
 20
11.1473494116
 30
0.0
  0
SPLINE
  5
36F
100
AcDbEntity
  8
0
100
AcDbSpline
 62
7
  6
BYLAYER
 70
0
 71
3
 72
13
 73
9
 74
0
 42
0.0000001
 43
0.0000001
 44
0.0000000001
 40
0.0
 40
0.0
 40
0.0
 40
0.0
 40
0.1166702408
 40
0.2373029628
 40
0.3610765155
 40
0.4872474185
 40
0.7436497813
 40
1.0
 40
1.0
 40
1.0
 40
1.0
 10
4.1937864028
 20
26.5510473794
 30
0.0
 10
4.151790668
 20
26.5847431264
 30
0.0
 10
4.0688743199
 20
26.6564459852
 30
0.0
 10
3.9503040862
 20
26.7736838722
 30
0.0
 10
3.8364894547
 20
26.901485212
 30
0.0
 10
3.6918244982
 20
27.0851493591
 30
0.0
 10
3.5300406302
 20
27.3324691845
 30
0.0
 10
3.423425315
 20
27.5443930775
 30
0.0
 10
3.3765649023
 20
27.6530210888
 30
0.0
  0
SPLINE
  5
370
100
AcDbEntity
  8
0
100
AcDbSpline
 62
7
  6
BYLAYER
 70
0
 71
3
 72
12
 73
8
 74
0
 42
0.0000001
 43
0.0000001
 44
0.0000000001
 40
0.0
 40
0.0
 40
0.0
 40
0.0
 40
0.2894229637
 40
0.5486968817
 40
0.7816465254
 40
0.8918325285
 40
1.0
 40
1.0
 40
1.0
 40
1.0
 10
22.9378218029
 20
11.7089207132
 30
0.0
 10
22.9565746428
 20
11.7197476058
 30
0.0
 10
22.9939025618
 20
11.7374861718
 30
0.0
 10
23.0512116019
 20
11.7513709014
 30
0.0
 10
23.0969945845
 20
11.7501550103
 30
0.0
 10
23.1296603407
 20
11.7410921598
 30
0.0
 10
23.1445422078
 20
11.7341295959
 30
0.0
 10
23.1515524531
 20
11.7300860743
 30
0.0
  0
SPLINE
  5
371
100
AcDbEntity
  8
0
100
AcDbSpline
 62
7
  6
BYLAYER
 70
0
 71
3
 72
12
 73
8
 74
0
 42
0.0000001
 43
0.0000001
 44
0.0000000001
 40
0.0
 40
0.0
 40
0.0
 40
0.0
 40
0.2893200915
 40
0.548700262
 40
0.7816621626
 40
0.8918335229
 40
1.0
 40
1.0
 40
1.0
 40
1.0
 10
6.6646001005
 20
30.8536745055
 30
0.0
 10
6.6470587974
 20
30.8638017525
 30
0.0
 10
6.612125333
 20
30.8803872072
 30
0.0
 10
6.5585036323
 20
30.8934009709
 30
0.0
 10
6.5156559389
 20
30.892257011
 30
0.0
 10
6.4850885372
 20
30.8837791523
 30
0.0
 10
6.4711702264
 20
30.8772511011
 30
0.0
 10
6.4646121866
 20
30.8734648345
 30
0.0
  0
SPLINE
  5
372
100
AcDbEntity
  8
0
100
AcDbSpline
 62
7
  6
BYLAYER
 70
0
 71
3
 72
12
 73
8
 74
0
 42
0.0000001
 43
0.0000001
 44
0.0000000001
 40
0.0
 40
0.0
 40
0.0
 40
0.0
 40
0.0954037859
 40
0.2084172138
 40
0.4699021184
 40
0.747178535
 40
1.0
 40
1.0
 40
1.0
 40
1.0
 10
4.1095148575
 20
26.4379177189
 30
0.0
 10
4.1139682375
 20
26.4383155458
 30
0.0
 10
4.1236454055
 20
26.4397520844
 30
0.0
 10
4.1451624591
 20
26.4444845769
 30
0.0
 10
4.1743972422
 20
26.453522703
 30
0.0
 10
4.208892368
 20
26.4672400504
 30
0.0
 10
4.231201606
 20
26.4782883357
 30
0.0
 10
4.2414627397
 20
26.4842125686
 30
0.0
  0
SPLINE
  5
373
100
AcDbEntity
  8
0
100
AcDbSpline
 62
7
  6
BYLAYER
 70
0
 71
3
 72
9
 73
5
 74
0
 42
0.0000001
 43
0.0000001
 44
0.0000000001
 40
0.0
 40
0.0
 40
0.0
 40
0.0
 40
0.5117563401
 40
1.0
 40
1.0
 40
1.0
 40
1.0
 10
4.2414627397
 20
26.4842125687
 30
0.0
 10
4.2363559122
 20
26.4973746156
 30
0.0
 10
4.223065549
 20
26.5218791725
 30
0.0
 10
4.2042902519
 20
26.5426156696
 30
0.0
 10
4.193786401
 20
26.5510473699
 30
0.0
  0
SPLINE
  5
374
100
AcDbEntity
  8
0
100
AcDbSpline
 62
7
  6
BYLAYER
 70
0
 71
3
 72
25
 73
21
 74
0
 42
0.0000001
 43
0.0000001
 44
0.0000000001
 40
0.0
 40
0.0
 40
0.0
 40
0.0
 40
0.0213316061
 40
0.0428908915
 40
0.064895551
 40
0.0875410111
 40
0.1353143386
 40
0.18721613
 40
0.2436519121
 40
0.3045971595
 40
0.3696841675
 40
0.4382785951
 40
0.5095650163
 40
0.5825867135
 40
0.6563182291
 40
0.7296998595
 40
0.8016733372
 40
0.8712649161
 40
0.9376451972
 40
1.0
 40
1.0
 40
1.0
 40
1.0
 10
14.3739283716
 20
16.1945070928
 30
0.0
 10
14.3599831039
 20
16.1864590253
 30
0.0
 10
14.3308736751
 20
16.1720573266
 30
0.0
 10
14.2844686708
 20
16.1560034758
 30
0.0
 10
14.2354710391
 20
16.1455567693
 30
0.0
 10
14.1658800759
 20
16.1390390327
 30
0.0
 10
14.0730913539
 20
16.1458274068
 30
0.0
 10
13.9586916193
 20
16.1762488505
 30
0.0
 10
13.8414128611
 20
16.2280720929
 30
0.0
 10
13.7236285394
 20
16.3001207365
 30
0.0
 10
13.6077382201
 20
16.3908638348
 30
0.0
 10
13.4961194579
 20
16.498343086
 30
0.0
 10
13.3911508595
 20
16.6203102461
 30
0.0
 10
13.2950441231
 20
16.7541589127
 30
0.0
 10
13.2098348021
 20
16.8970347213
 30
0.0
 10
13.1373845906
 20
17.0459086034
 30
0.0
 10
13.0791766451
 20
17.1975729713
 30
0.0
 10
13.0364821944
 20
17.3488631001
 30
0.0
 10
13.0102693656
 20
17.4964987255
 30
0.0
 10
13.0038646934
 20
17.5937298046
 30
0.0
 10
13.0038646934
 20
17.6407948993
 30
0.0
  0
SPLINE
  5
375
100
AcDbEntity
  8
0
100
AcDbSpline
 62
7
  6
BYLAYER
 70
0
 71
3
 72
13
 73
9
 74
0
 42
0.0000001
 43
0.0000001
 44
0.0000000001
 40
0.0
 40
0.0
 40
0.0
 40
0.0
 40
0.1166483084
 40
0.243647804
 40
0.5122471713
 40
0.7742609639
 40
0.8934368156
 40
1.0
 40
1.0
 40
1.0
 40
1.0
 10
4.1937570392
 20
26.5510709393
 30
0.0
 10
4.1888919053
 20
26.5482620697
 30
0.0
 10
4.1791388119
 20
26.5416760568
 30
0.0
 10
4.1602545238
 20
26.525748824
 30
0.0
 10
4.1391180408
 20
26.5019281053
 30
0.0
 10
4.1224744302
 20
26.4751866576
 30
0.0
 10
4.1133935152
 20
26.4534779372
 30
0.0
 10
4.110458627
 20
26.4429622607
 30
0.0
 10
4.1095148575
 20
26.4379177188
 30
0.0
  0
SPLINE
  5
376
100
AcDbEntity
  8
0
100
AcDbSpline
 62
7
  6
BYLAYER
 70
0
 71
3
 72
13
 73
9
 74
0
 42
0.0000001
 43
0.0000001
 44
0.0000000001
 40
0.0
 40
0.0
 40
0.0
 40
0.0
 40
0.1179750572
 40
0.2437351863
 40
0.5064004118
 40
0.7655283889
 40
0.8871767239
 40
1.0
 40
1.0
 40
1.0
 40
1.0
 10
4.5654780012
 20
25.5048255922
 30
0.0
 10
4.5649790285
 20
25.510612413
 30
0.0
 10
4.5650044576
 20
25.5226718973
 30
0.0
 10
4.5686266284
 20
25.5474048096
 30
0.0
 10
4.5795116962
 20
25.5777436333
 30
0.0
 10
4.5971739775
 20
25.6044968222
 30
0.0
 10
4.6145663171
 20
25.6215739514
 30
0.0
 10
4.6240090581
 20
25.628332678
 30
0.0
 10
4.628819537
 20
25.6311099927
 30
0.0
  0
SPLINE
  5
377
100
AcDbEntity
  8
0
100
AcDbSpline
 62
7
  6
BYLAYER
 70
0
 71
3
 72
11
 73
7
 74
0
 42
0.0000001
 43
0.0000001
 44
0.0000000001
 40
0.0
 40
0.0
 40
0.0
 40
0.0
 40
0.2218377159
 40
0.4705622601
 40
0.7347782616
 40
1.0
 40
1.0
 40
1.0
 40
1.0
 10
4.628819537
 20
25.6311099927
 30
0.0
 10
4.6179606325
 20
25.6360654081
 30
0.0
 10
4.5964538958
 20
25.6499704996
 30
0.0
 10
4.5681320262
 20
25.6778406419
 30
0.0
 10
4.543729653
 20
25.7120989011
 30
0.0
 10
4.5310719825
 20
25.7377901628
 30
0.0
 10
4.5259100173
 20
25.7510943185
 30
0.0
  0
SPLINE
  5
378
100
AcDbEntity
  8
0
100
AcDbSpline
 62
7
  6
BYLAYER
 70
0
 71
3
 72
25
 73
21
 74
0
 42
0.0000001
 43
0.0000001
 44
0.0000000001
 40
0.0
 40
0.0
 40
0.0
 40
0.0
 40
0.0215545782
 40
0.0433973407
 40
0.0657902735
 40
0.0889657686
 40
0.1383129324
 40
0.19249834
 40
0.2518104852
 40
0.3159955959
 40
0.3843773165
 40
0.4559964688
 40
0.5296897614
 40
0.6041748952
 40
0.6781319826
 40
0.7502651341
 40
0.8193778443
 40
0.8844582391
 40
0.9448176602
 40
1.0
 40
1.0
 40
1.0
 40
1.0
 10
16.2598720468
 20
21.6645585464
 30
0.0
 10
16.2701108415
 20
21.670470381
 30
0.0
 10
16.291607842
 20
21.6809123094
 30
0.0
 10
16.3260614697
 20
21.6920037774
 30
0.0
 10
16.3625667542
 20
21.698534721
 30
0.0
 10
16.4146852476
 20
21.7011325162
 30
0.0
 10
16.4841992451
 20
21.6920304991
 30
0.0
 10
16.5692444654
 20
21.6633239455
 30
0.0
 10
16.655729012
 20
21.6176181706
 30
0.0
 10
16.7414793288
 20
21.5561184434
 30
0.0
 10
16.824376348
 20
21.4804661408
 30
0.0
 10
16.9022800057
 20
21.3926175443
 30
0.0
 10
16.9731480215
 20
21.2948552685
 30
0.0
 10
17.0351529794
 20
21.1897602332
 30
0.0
 10
17.0866498167
 20
21.0800757328
 30
0.0
 10
17.1262765559
 20
20.96867499
 30
0.0
 10
17.153035649
 20
20.8584856078
 30
0.0
 10
17.1661913283
 20
20.7523060464
 30
0.0
 10
17.165338143
 20
20.6529342382
 30
0.0
 10
17.1549663847
 20
20.5900322156
 30
0.0
 10
17.147132436
 20
20.5607953181
 30
0.0
  0
SPLINE
  5
379
100
AcDbEntity
  8
0
100
AcDbSpline
 62
7
  6
BYLAYER
 70
0
 71
3
 72
12
 73
8
 74
0
 42
0.0000001
 43
0.0000001
 44
0.0000000001
 40
0.0
 40
0.0
 40
0.0
 40
0.0
 40
0.252821465
 40
0.5300978816
 40
0.7915827862
 40
0.9045962141
 40
1.0
 40
1.0
 40
1.0
 40
1.0
 10
4.5259100175
 20
25.751094318
 30
0.0
 10
4.5156488837
 20
25.7451700851
 30
0.0
 10
4.4933396458
 20
25.7341217998
 30
0.0
 10
4.45884452
 20
25.7204044524
 30
0.0
 10
4.4296097369
 20
25.7113663263
 30
0.0
 10
4.4080926833
 20
25.7066338338
 30
0.0
 10
4.3984155153
 20
25.7051972952
 30
0.0
 10
4.3939621353
 20
25.7047994683
 30
0.0
  0
SPLINE
  5
37A
100
AcDbEntity
  8
0
100
AcDbSpline
 62
7
  6
BYLAYER
 70
0
 71
3
 72
9
 73
5
 74
0
 42
0.0000001
 43
0.0000001
 44
0.0000000001
 40
0.0
 40
0.0
 40
0.0
 40
0.0
 40
0.5137529734
 40
1.0
 40
1.0
 40
1.0
 40
1.0
 10
5.7787894908
 20
25.5134099003
 30
0.0
 10
5.7720589678
 20
25.5243655671
 30
0.0
 10
5.7622114541
 20
25.5478989993
 30
0.0
 10
5.7607546091
 20
25.573529923
 30
0.0
 10
5.7625139358
 20
25.5855716141
 30
0.0
  0
SPLINE
  5
37B
100
AcDbEntity
  8
0
100
AcDbSpline
 62
7
  6
BYLAYER
 70
0
 71
3
 72
9
 73
5
 74
0
 42
0.0000001
 43
0.0000001
 44
0.0000000001
 40
0.0
 40
0.0
 40
0.0
 40
0.0
 40
0.5121358879
 40
1.0
 40
1.0
 40
1.0
 40
1.0
 10
5.7625139358
 20
25.5855716141
 30
0.0
 10
5.7637523631
 20
25.5940480152
 30
0.0
 10
5.7685784211
 20
25.6103895174
 30
0.0
 10
5.7786291286
 20
25.6242527005
 30
0.0
 10
5.7845356602
 20
25.6298834257
 30
0.0
  0
SPLINE
  5
37C
100
AcDbEntity
  8
0
100
AcDbSpline
 62
7
  6
BYLAYER
 70
0
 71
3
 72
12
 73
8
 74
0
 42
0.0000001
 43
0.0000001
 44
0.0000000001
 40
0.0
 40
0.0
 40
0.0
 40
0.0
 40
0.1071952595
 40
0.2222589534
 40
0.4707847215
 40
0.7347220204
 40
1.0
 40
1.0
 40
1.0
 40
1.0
 10
4.5654780012
 20
25.5048255922
 30
0.0
 10
4.5567290745
 20
25.5088181281
 30
0.0
 10
4.5391744055
 20
25.5184149342
 30
0.0
 10
4.5047008029
 20
25.5429420446
 30
0.0
 10
4.4643385672
 20
25.5827496188
 30
0.0
 10
4.423646333
 20
25.6397706384
 30
0.0
 10
4.4025707985
 20
25.6826119888
 30
0.0
 10
4.3939621352
 20
25.7047994683
 30
0.0
  0
SPLINE
  5
37D
100
AcDbEntity
  8
0
100
AcDbSpline
 62
7
  6
BYLAYER
 70
0
 71
3
 72
11
 73
7
 74
0
 42
0.0000001
 43
0.0000001
 44
0.0000000001
 40
0.0
 40
0.0
 40
0.0
 40
0.0
 40
0.237061375
 40
0.486099802
 40
0.7422076669
 40
1.0
 40
1.0
 40
1.0
 40
1.0
 10
4.1095148574
 20
26.4379177188
 30
0.0
 10
4.0281788459
 20
26.5031801324
 30
0.0
 10
3.8702427217
 20
26.6482794389
 30
0.0
 10
3.6563072577
 20
26.8957323206
 30
0.0
 10
3.4646612544
 20
27.1719637519
 30
0.0
 10
3.3553273236
 20
27.3703682827
 30
0.0
 10
3.3058545186
 20
27.4724090576
 30
0.0
  0
SPLINE
  5
37E
100
AcDbEntity
  8
0
100
AcDbSpline
 62
7
  6
BYLAYER
 70
0
 71
3
 72
23
 73
19
 74
0
 42
0.0000001
 43
0.0000001
 44
0.0000000001
 40
0.0
 40
0.0
 40
0.0
 40
0.0
 40
0.0623375599
 40
0.1287493798
 40
0.1983695673
 40
0.2703391878
 40
0.3437246652
 40
0.4174678781
 40
0.4905015775
 40
0.5617975621
 40
0.6304063721
 40
0.6955060039
 40
0.7564631102
 40
0.8129096337
 40
0.8648196185
 40
0.9126022362
 40
0.9571849032
 40
1.0
 40
1.0
 40
1.0
 40
1.0
 10
24.0498154463
 20
9.901461787
 30
0.0
 10
24.0344708091
 20
9.8926026095
 30
0.0
 10
24.0039700269
 20
9.8721965474
 30
0.0
 10
23.9607394871
 20
9.8358544435
 30
0.0
 10
23.9194335216
 20
9.7934284168
 30
0.0
 10
23.8809191354
 20
9.7458895702
 30
0.0
 10
23.8460237956
 20
9.694217999
 30
0.0
 10
23.8154530134
 20
9.6395305108
 30
0.0
 10
23.789902883
 20
9.5829733711
 30
0.0
 10
23.7698818504
 20
9.5257690452
 30
0.0
 10
23.7558474943
 20
9.4691201942
 30
0.0
 10
23.7480696219
 20
9.4142301307
 30
0.0
 10
23.7467526546
 20
9.3622422042
 30
0.0
 10
23.7519268739
 20
9.3142299124
 30
0.0
 10
23.7635632328
 20
9.2711820291
 30
0.0
 10
23.781524276
 20
9.2340011084
 30
0.0
 10
23.8055665701
 20
9.2036011184
 30
0.0
 10
23.8255438746
 20
9.1883073645
 30
0.0
 10
23.8360854399
 20
9.1822269079
 30
0.0
  0
SPLINE
  5
37F
100
AcDbEntity
  8
0
100
AcDbSpline
 62
7
  6
BYLAYER
 70
0
 71
3
 72
12
 73
8
 74
0
 42
0.0000001
 43
0.0000001
 44
0.0000000001
 40
0.0
 40
0.0
 40
0.0
 40
0.0
 40
0.2852523035
 40
0.5448758391
 40
0.7808681761
 40
0.8920622288
 40
1.0
 40
1.0
 40
1.0
 40
1.0
 10
9.0433355225
 20
21.2745836962
 30
0.0
 10
9.0812763047
 20
21.2526790709
 30
0.0
 10
9.1568353731
 20
21.2157678493
 30
0.0
 10
9.2726586493
 20
21.1821944444
 30
0.0
 10
9.3665810156
 20
21.1755770797
 30
0.0
 10
9.4361210665
 20
21.1842167581
 30
0.0
 10
9.4687798369
 20
21.1928748573
 30
0.0
 10
9.4844543305
 20
21.1982713174
 30
0.0
  0
SPLINE
  5
380
100
AcDbEntity
  8
0
100
AcDbSpline
 62
7
  6
BYLAYER
 70
0
 71
3
 72
16
 73
12
 74
0
 42
0.0000001
 43
0.0000001
 44
0.0000000001
 40
0.0
 40
0.0
 40
0.0
 40
0.0
 40
0.1465420704
 40
0.2879202379
 40
0.4232664556
 40
0.4885333311
 40
0.5521228463
 40
0.6741012194
 40
0.7891636547
 40
0.8976152458
 40
1.0
 40
1.0
 40
1.0
 40
1.0
 10
6.1385669251
 20
27.6056784659
 30
0.0
 10
6.159152681
 20
27.5250903136
 30
0.0
 10
6.1946012072
 20
27.3654117333
 30
0.0
 10
6.2301059485
 20
27.1276033596
 30
0.0
 10
6.2437961
 20
26.9337348215
 30
0.0
 10
6.2446376087
 20
26.7837324991
 30
0.0
 10
6.2389939727
 20
26.6414342215
 30
0.0
 10
6.2202251246
 20
26.4715268599
 30
0.0
 10
6.1778462781
 20
26.2796239682
 30
0.0
 10
6.1162675155
 20
26.1046937797
 30
0.0
 10
6.0612693225
 20
25.9978433262
 30
0.0
 10
6.0306810429
 20
25.9484324892
 30
0.0
  0
SPLINE
  5
381
100
AcDbEntity
  8
0
100
AcDbSpline
 62
7
  6
BYLAYER
 70
0
 71
3
 72
9
 73
5
 74
0
 42
0.0000001
 43
0.0000001
 44
0.0000000001
 40
0.0
 40
0.0
 40
0.0
 40
0.0
 40
0.5113279627
 40
1.0
 40
1.0
 40
1.0
 40
1.0
 10
6.0278794027
 20
25.9439311603
 30
0.0
 10
5.9988510047
 20
25.8899620202
 30
0.0
 10
5.933686874
 20
25.7886233047
 30
0.0
 10
5.8513185783
 20
25.7004672007
 30
0.0
 10
5.8073435467
 20
25.6617876993
 30
0.0
  0
SPLINE
  5
382
100
AcDbEntity
  8
0
100
AcDbSpline
 62
7
  6
BYLAYER
 70
0
 71
3
 72
9
 73
5
 74
0
 42
0.0000001
 43
0.0000001
 44
0.0000000001
 40
0.0
 40
0.0
 40
0.0
 40
0.0
 40
0.2593059008
 40
1.0
 40
1.0
 40
1.0
 40
1.0
 10
5.8124403402
 20
25.6381147723
 30
0.0
 10
5.812997933
 20
25.6347806617
 30
0.0
 10
5.8148876815
 20
25.6218824143
 30
0.0
 10
5.8157186422
 20
25.6088151571
 30
0.0
 10
5.8155750146
 20
25.5991602432
 30
0.0
  0
SPLINE
  5
383
100
AcDbEntity
  8
0
100
AcDbSpline
 62
7
  6
BYLAYER
 70
0
 71
3
 72
11
 73
7
 74
0
 42
0.0000001
 43
0.0000001
 44
0.0000000001
 40
0.0
 40
0.0
 40
0.0
 40
0.0
 40
0.2871678365
 40
0.5463462339
 40
0.7814833097
 40
1.0
 40
1.0
 40
1.0
 40
1.0
 10
5.8155750146
 20
25.5991602432
 30
0.0
 10
5.815437389
 20
25.5899087943
 30
0.0
 10
5.8138445404
 20
25.5722775278
 30
0.0
 10
5.8068062203
 20
25.5479034229
 30
0.0
 10
5.7952822832
 20
25.527753039
 30
0.0
 10
5.7845790041
 20
25.5174162563
 30
0.0
 10
5.7787894908
 20
25.5134099004
 30
0.0
  0
SPLINE
  5
384
100
AcDbEntity
  8
0
100
AcDbSpline
 62
7
  6
BYLAYER
 70
0
 71
3
 72
16
 73
12
 74
0
 42
0.0000001
 43
0.0000001
 44
0.0000000001
 40
0.0
 40
0.0
 40
0.0
 40
0.0
 40
0.1116873295
 40
0.2243558799
 40
0.339646775
 40
0.4591235704
 40
0.5208866732
 40
0.5841599148
 40
0.7156143806
 40
0.8541851565
 40
1.0
 40
1.0
 40
1.0
 40
1.0
 10
5.7787894908
 20
25.5134099004
 30
0.0
 10
5.7399231114
 20
25.4865142803
 30
0.0
 10
5.6574289305
 20
25.4385768117
 30
0.0
 10
5.5228358348
 20
25.3865640002
 30
0.0
 10
5.3786706221
 20
25.355024819
 30
0.0
 10
5.2530823545
 20
25.3460000985
 30
0.0
 10
5.1495866879
 20
25.3487319035
 30
0.0
 10
5.0414109955
 20
25.3584180778
 30
0.0
 10
4.9023117587
 20
25.3837645093
 30
0.0
 10
4.7333328777
 20
25.4339113082
 30
0.0
 10
4.6216161144
 20
25.4792072003
 30
0.0
 10
4.5654780012
 20
25.5048255922
 30
0.0
  0
SPLINE
  5
385
100
AcDbEntity
  8
0
100
AcDbSpline
 62
7
  6
BYLAYER
 70
0
 71
3
 72
13
 73
9
 74
0
 42
0.0000001
 43
0.0000001
 44
0.0000000001
 40
0.0
 40
0.0
 40
0.0
 40
0.0
 40
0.113869767
 40
0.2289430125
 40
0.3463920062
 40
0.467287142
 40
0.7225595223
 40
1.0
 40
1.0
 40
1.0
 40
1.0
 10
17.3580862774
 20
19.3541365375
 30
0.0
 10
17.3358190603
 20
19.341278917
 30
0.0
 10
17.2893298914
 20
19.3182828666
 30
0.0
 10
17.2151825696
 20
19.292768948
 30
0.0
 10
17.1369064623
 20
19.2762349425
 30
0.0
 10
17.0256820471
 20
19.2660984039
 30
0.0
 10
16.8774137132
 20
19.2774884041
 30
0.0
 10
16.7606614263
 20
19.3090281787
 30
0.0
 10
16.701572527
 20
19.3298448501
 30
0.0
  0
SPLINE
  5
386
100
AcDbEntity
  8
0
100
AcDbSpline
 62
7
  6
BYLAYER
 70
0
 71
3
 72
11
 73
7
 74
0
 42
0.0000001
 43
0.0000001
 44
0.0000000001
 40
0.0
 40
0.0
 40
0.0
 40
0.0
 40
0.2284976191
 40
0.4666315279
 40
0.7225080723
 40
1.0
 40
1.0
 40
1.0
 40
1.0
 10
16.8772311254
 20
19.4509678081
 30
0.0
 10
16.8797306759
 20
19.4524134966
 30
0.0
 10
16.8852519968
 20
19.4546957439
 30
0.0
 10
16.8943741706
 20
19.4559845073
 30
0.0
 10
16.9041568539
 20
19.4551849478
 30
0.0
 10
16.9106967633
 20
19.4534096264
 30
0.0
 10
16.9140029597
 20
19.4522409841
 30
0.0
  0
SPLINE
  5
387
100
AcDbEntity
  8
0
100
AcDbSpline
 62
7
  6
BYLAYER
 70
0
 71
3
 72
23
 73
19
 74
0
 42
0.0000001
 43
0.0000001
 44
0.0000000001
 40
0.0
 40
0.0
 40
0.0
 40
0.0
 40
0.0623375599
 40
0.1287493798
 40
0.1983695673
 40
0.2703391878
 40
0.3437246652
 40
0.4174678781
 40
0.4905015775
 40
0.5617975621
 40
0.6304063721
 40
0.6955060039
 40
0.7564631102
 40
0.8129096337
 40
0.8648196185
 40
0.9126022362
 40
0.9571849032
 40
1.0
 40
1.0
 40
1.0
 40
1.0
 10
25.0591509783
 20
10.4841984497
 30
0.0
 10
25.0438063412
 20
10.4753392722
 30
0.0
 10
25.013305559
 20
10.4549332101
 30
0.0
 10
24.9700750192
 20
10.4185911062
 30
0.0
 10
24.9287690536
 20
10.3761650794
 30
0.0
 10
24.8902546675
 20
10.3286262329
 30
0.0
 10
24.8553593276
 20
10.2769546617
 30
0.0
 10
24.8247885455
 20
10.2222671735
 30
0.0
 10
24.7992384151
 20
10.1657100337
 30
0.0
 10
24.7792173824
 20
10.1085057079
 30
0.0
 10
24.7651830263
 20
10.0518568569
 30
0.0
 10
24.757405154
 20
9.9969667934
 30
0.0
 10
24.7560881867
 20
9.9449788669
 30
0.0
 10
24.761262406
 20
9.8969665751
 30
0.0
 10
24.7728987648
 20
9.8539186917
 30
0.0
 10
24.7908598081
 20
9.816737771
 30
0.0
 10
24.8149021021
 20
9.786337781
 30
0.0
 10
24.8348794066
 20
9.7710440271
 30
0.0
 10
24.8454209719
 20
9.7649635705
 30
0.0
  0
SPLINE
  5
388
100
AcDbEntity
  8
0
100
AcDbSpline
 62
7
  6
BYLAYER
 70
0
 71
3
 72
11
 73
7
 74
0
 42
0.0000001
 43
0.0000001
 44
0.0000000001
 40
0.0
 40
0.0
 40
0.0
 40
0.0
 40
0.2136280124
 40
0.44818145
 40
0.7104931745
 40
1.0
 40
1.0
 40
1.0
 40
1.0
 10
16.3428679732
 20
18.8934586113
 30
0.0
 10
16.337369075
 20
18.8916624158
 30
0.0
 10
16.325137287
 20
18.8898652623
 30
0.0
 10
16.3058869169
 20
18.8925011325
 30
0.0
 10
16.2858350164
 20
18.9000704087
 30
0.0
 10
16.2729322186
 20
18.9077528206
 30
0.0
 10
16.2665047707
 20
18.9122412914
 30
0.0
  0
SPLINE
  5
389
100
AcDbEntity
  8
0
100
AcDbSpline
 62
7
  6
BYLAYER
 70
0
 71
3
 72
14
 73
10
 74
0
 42
0.0000001
 43
0.0000001
 44
0.0000000001
 40
0.0
 40
0.0
 40
0.0
 40
0.0
 40
0.0795414182
 40
0.1620155767
 40
0.2555687988
 40
0.3653861361
 40
0.4942549733
 40
0.6431868326
 40
1.0
 40
1.0
 40
1.0
 40
1.0
 10
8.6627371503
 20
28.4565167883
 30
0.0
 10
8.6627359115
 20
28.4536985146
 30
0.0
 10
8.6637444569
 20
28.4478958486
 30
0.0
 10
8.6684668912
 20
28.4399821837
 30
0.0
 10
8.6759883002
 20
28.4330523682
 30
0.0
 10
8.6861214476
 20
28.4269563899
 30
0.0
 10
8.6988063828
 20
28.4216060781
 30
0.0
 10
8.7203415494
 20
28.4150471321
 30
0.0
 10
8.7380582484
 20
28.4119312631
 30
0.0
 10
8.7505923367
 20
28.4102796528
 30
0.0
  0
SPLINE
  5
38A
100
AcDbEntity
  8
0
100
AcDbSpline
 62
7
  6
BYLAYER
 70
0
 71
3
 72
23
 73
19
 74
0
 42
0.0000001
 43
0.0000001
 44
0.0000000001
 40
0.0
 40
0.0
 40
0.0
 40
0.0
 40
0.0623375599
 40
0.1287493798
 40
0.1983695673
 40
0.2703391878
 40
0.3437246652
 40
0.4174678781
 40
0.4905015775
 40
0.5617975621
 40
0.6304063721
 40
0.6955060039
 40
0.7564631102
 40
0.8129096337
 40
0.8648196185
 40
0.9126022362
 40
0.9571849032
 40
1.0
 40
1.0
 40
1.0
 40
1.0
 10
24.5544832123
 20
9.1834831694
 30
0.0
 10
24.5391385752
 20
9.1746239919
 30
0.0
 10
24.508637793
 20
9.1542179298
 30
0.0
 10
24.4654072532
 20
9.1178758259
 30
0.0
 10
24.4241012876
 20
9.0754497991
 30
0.0
 10
24.3855869015
 20
9.0279109526
 30
0.0
 10
24.3506915616
 20
8.9762393814
 30
0.0
 10
24.3201207795
 20
8.9215518932
 30
0.0
 10
24.294570649
 20
8.8649947534
 30
0.0
 10
24.2745496164
 20
8.8077904276
 30
0.0
 10
24.2605152603
 20
8.7511415766
 30
0.0
 10
24.2527373879
 20
8.6962515131
 30
0.0
 10
24.2514204206
 20
8.6442635866
 30
0.0
 10
24.2565946399
 20
8.5962512948
 30
0.0
 10
24.2682309988
 20
8.5532034114
 30
0.0
 10
24.286192042
 20
8.5160224907
 30
0.0
 10
24.3102343361
 20
8.4856225007
 30
0.0
 10
24.3302116406
 20
8.4703287468
 30
0.0
 10
24.3407532059
 20
8.4642482902
 30
0.0
  0
ELLIPSE
  5
38B
100
AcDbEntity
  8
0
100
AcDbEllipse
 62
7
  6
BYLAYER
 10
9.7134506394
 20
26.3269488313
 30
0.0
 11
-1.1457466278
 21
2.2240341802
 31
0.0
 40
0.6067341637
 41
-0.9986850864
 42
-0.5139533844
  0
ELLIPSE
  5
38C
100
AcDbEntity
  8
0
100
AcDbEllipse
 62
7
  6
BYLAYER
 10
11.8535916962
 20
27.5625524709
 30
0.0
 11
-1.3430636061
 21
2.1105312189
 31
0.0
 40
0.5463860612
 41
-1.0513325987
 42
-0.5666008966
  0
ENDSEC
  0
SECTION
  2
OBJECTS
  0
DICTIONARY
  5
C
100
AcDbDictionary
280
0
281
1
  3
ACAD_GROUP
350
D
  3
ACAD_MLINESTYLE
350
17
  3
ACAD_LAYOUT
350
1A
  3
ACAD_PLOTSETTINGS
350
19
  3
ACAD_PLOTSTYLENAME
350
E
  0
DICTIONARY
  5
D
102
{ACAD_REACTORS
330
C
102
}
100
AcDbDictionary
280
0
281
1
  0
ACDBDICTIONARYWDFLT
  5
E
102
{ACAD_REACTORS
330
C
102
}
100
AcDbDictionary
281
1
  3
Normal
350
F
100
AcDbDictionaryWithDefault
340
F
  0
DICTIONARY
  5
17
102
{ACAD_REACTORS
330
C
102
}
100
AcDbDictionary
280
0
281
1
  3
Standard
350
18
  0
DICTIONARY
  5
19
102
{ACAD_REACTORS
330
C
102
}
100
AcDbDictionary
281
1
  0
DICTIONARY
  5
1A
102
{ACAD_REACTORS
330
C
102
}
100
AcDbDictionary
281
1
  3
Model
350
38D
  3
Layout1
350
38E
  0
ACDBPLACEHOLDER
  5
F
102
{ACAD_REACTORS
330
E
102
}
  0
MLINESTYLE
  5
18
102
{ACAD_REACTORS
330
17
102
}
100
AcDbMlineStyle
  2
STANDARD
 70
0
  3

 62
256
 51
90.0
 52
90.0
 71
2
 49
0.5
 62
256
  6
BYLAYER
 49
-0.5
 62
256
  6
BYLAYER
  0
LAYOUT
  5
38D
102
{ACAD_REACTORS
330
1A
102
}
100
AcDbPlotSettings
  1

  2
none_device
  4

  6

 40
0.0
 41
0.0
 42
0.0
 43
0.0
 44
210.0
 45
297.0
 46
0.0
 47
0.0
 48
0.0
 49
0.0
140
0.0
141
0.0
142
1.0
143
1.0
 70
1024
 72
1
 73
0
 74
0
  7

 75
0
147
1.0
148
0.0
149
0.0
100
AcDbLayout
  1
Model
 70
0
 71
0
 10
0.0
 20
0.0
 11
210.0
 21
297.0
 12
0.0
 22
0.0
 32
0.0
 14
0.0
 24
0.0
 34
0.0
 15
0.0
 25
0.0
 35
0.0
146
0.0
 13
0.0
 23
0.0
 33
0.0
 16
1.0
 26
0.0
 36
0.0
 17
0.0
 27
1.0
 37
0.0
 76
0
330
210
345
0
346
0
  0
LAYOUT
  5
38E
102
{ACAD_REACTORS
330
1A
102
}
100
AcDbPlotSettings
  1

  2
none_device
  4

  6

 40
0.0
 41
0.0
 42
0.0
 43
0.0
 44
210.0
 45
297.0
 46
0.0
 47
0.0
 48
0.0
 49
0.0
140
0.0
141
0.0
142
1.0
143
1.0
 70
0
 72
1
 73
0
 74
0
  7

 75
0
147
1.0
148
0.0
149
0.0
100
AcDbLayout
  1
Layout1
 70
0
 71
1
 10
0.0
 20
0.0
 11
210.0
 21
297.0
 12
0.0
 22
0.0
 32
0.0
 14
0.0
 24
0.0
 34
0.0
 15
0.0
 25
0.0
 35
0.0
146
0.0
 13
0.0
 23
0.0
 33
0.0
 16
1.0
 26
0.0
 36
0.0
 17
0.0
 27
1.0
 37
0.0
 76
0
330
211
345
0
346
0
  0
ENDSEC
  0
EOF
