999
DXF file: C:\Users\sesa63760\Dev\_Creo\CAD\MCADID0000495_3D-CAD\drw0001_7.dxf
999
Pro/ENGINEER 2019471 by Parametric Technology Corporation
  0
SECTION
  2
HEADER
  9
$ACADVER
  1
AC1024
  9
$DWGCODEPAGE
  3
ANSI_1252
  9
$EXTMAX
 10
237.7154873075
 20
336.1976177634
 30
0.0
  9
$EXTMIN
 10
0.0
 20
0.0
 30
0.0
  9
$LIMMIN
 10
0.0
 20
0.0
  9
$LIMMAX
 10
237.7154873075
 20
336.1976177634
  9
$VIEWCTR
 10
118.8577436537
 20
168.0988088817
  9
$VIEWSIZE
 40
336.1976177634
  9
$CLAYER
  8
0
  9
$LTSCALE
 40
21.9151039727
  9
$CELTYPE
  6
BYLAYER
  9
$DIMSCALE
 40
1.0
  9
$DIMASZ
 40
2.8299462775
  9
$DIMEXO
 40
1.0
  9
$DIMDLI
 40
15.141344563
  9
$DIMEXE
 40
1.0
  9
$DIMCEN
 40
3.5861079228
  9
$DIMLFAC
 40
1.0
  9
$DIMBLK
  1
_FILLED
  9
$DIMALT
 70
0
  9
$DIMALTF
 40
0.0393700787
  9
$DIMTXT
 40
3.9619247885
  9
$DIMTOL
 70
1
  9
$DIMLIM
 70
0
  9
$DIMTFAC
 40
1.0
  9
$DIMTP
 40
0.01
  9
$DIMTM
 40
0.01
  9
$DIMGAP
 40
0.625
  9
$DIMDSEP
 70
46
  9
$AUNITS
 70
0
  9
$PDMODE
 70
3
  9
$PDSIZE
 40
0.3125
  9
$HANDSEED
  5
552
  9
$TILEMODE
 70
1
  9
$MEASUREMENT
 70
1
  9
$INSUNITS
 70
4
  0
ENDSEC
  0
SECTION
  2
CLASSES
  0
CLASS
  1
ACDBDICTIONARYWDFLT
  2
AcDbDictionaryWithDefault
  3
AutoCAD 2000
 90
0
 91
1
280
0
281
0
  0
CLASS
  1
ACDBPLACEHOLDER
  2
AcDbPlaceHolder
  3
AutoCAD 2000
 90
0
 91
1
280
0
281
0
  0
CLASS
  1
LAYOUT
  2
AcDbLayout
  3
AutoCAD 2000
 90
0
 91
0
280
0
281
0
  0
ENDSEC
  0
SECTION
  2
TABLES
  0
TABLE
  2
VPORT
  5
8
100
AcDbSymbolTable
 70
2
  0
VPORT
  5
1F4
100
AcDbSymbolTableRecord
100
AcDbViewportTableRecord
  2
*ACTIVE
 70
0
 10
0.0
 20
0.0
 11
1.0
 21
1.0
 12
118.8577436537
 22
168.0988088817
 13
0.0
 23
0.0
 14
1.0
 24
1.0
 15
0.0
 25
0.0
 16
0.0
 26
0.0
 36
1.0
 17
0.0
 27
0.0
 37
0.0
 40
336.1976177634
 41
0.7070707071
 42
50.0
 43
0.0
 44
0.0
 50
0.0
 51
0.0
 71
0
 72
100
 73
1
 74
1
 75
0
 76
0
 77
0
 78
0
  0
ENDTAB
  0
TABLE
  2
LTYPE
  5
5
100
AcDbSymbolTable
 70
6
  0
LTYPE
  5
14
100
AcDbSymbolTableRecord
100
AcDbLinetypeTableRecord
  2
BYBLOCK
 70
0
  3

 72
65
 73
0
 40
0.0
  0
LTYPE
  5
15
100
AcDbSymbolTableRecord
100
AcDbLinetypeTableRecord
  2
BYLAYER
 70
0
  3

 72
65
 73
0
 40
0.0
  0
LTYPE
  5
16
100
AcDbSymbolTableRecord
100
AcDbLinetypeTableRecord
  2
CONTINUOUS
 70
64
  3
Solid line
 72
65
 73
0
 40
0.0
  0
LTYPE
  5
1F5
100
AcDbSymbolTableRecord
100
AcDbLinetypeTableRecord
  2
CENTER
 70
64
  3
____ _ ____ _ ____ _ ____ _ ____ _ ____ _ ____
 72
65
 73
4
 40
0.6
 49
0.375
 74
0
 49
-0.075
 74
0
 49
0.075
 74
0
 49
-0.075
 74
0
  0
LTYPE
  5
1F6
100
AcDbSymbolTableRecord
100
AcDbLinetypeTableRecord
  2
HIDDEN
 70
64
  3
- - - - - - - - - - - - - - - - - - - -
 72
65
 73
2
 40
0.2
 49
0.1
 74
0
 49
-0.1
 74
0
  0
LTYPE
  5
1F7
100
AcDbSymbolTableRecord
100
AcDbLinetypeTableRecord
  2
PHANTOM
 70
64
  3
_____ _ _ _____ _ _ _____ _ _ _____
 72
65
 73
6
 40
0.8
 49
0.45
 74
0
 49
-0.05
 74
0
 49
0.1
 74
0
 49
-0.05
 74
0
 49
0.1
 74
0
 49
-0.05
 74
0
  0
LTYPE
  5
1F8
100
AcDbSymbolTableRecord
100
AcDbLinetypeTableRecord
  2
DOT
 70
64
  3
. . . . . . . . . . . . . . . . . . . .
 72
65
 73
2
 40
0.2
 49
0.1
 74
0
 49
-0.1
 74
0
  0
LTYPE
  5
1F9
100
AcDbSymbolTableRecord
100
AcDbLinetypeTableRecord
  2
DASHED
 70
64
  3
- - - - - - - - - - - - - - - - - - - -
 72
65
 73
2
 40
0.2
 49
0.1
 74
0
 49
-0.1
 74
0
  0
ENDTAB
  0
TABLE
  2
LAYER
  5
2
100
AcDbSymbolTable
 70
36
  0
LAYER
  5
10
100
AcDbSymbolTableRecord
100
AcDbLayerTableRecord
  2
0
 70
0
 62
7
  6
CONTINUOUS
370
-3
390
F
  0
LAYER
  5
1FA
100
AcDbSymbolTableRecord
100
AcDbLayerTableRecord
  2
DEFAULT_1
 70
0
 62
7
  6
CENTER
370
-3
390
F
  0
LAYER
  5
1FB
100
AcDbSymbolTableRecord
100
AcDbLayerTableRecord
  2
DEFAULT_2
 70
0
 62
8
  6
HIDDEN
370
-3
390
F
  0
LAYER
  5
1FC
100
AcDbSymbolTableRecord
100
AcDbLayerTableRecord
  2
DEFAULT_3
 70
0
 62
7
  6
PHANTOM
370
-3
390
F
  0
LAYER
  5
1FD
100
AcDbSymbolTableRecord
100
AcDbLayerTableRecord
  2
00_COMPONENTS
 70
0
 62
7
  6
CONTINUOUS
370
-3
390
F
  0
LAYER
  5
1FE
100
AcDbSymbolTableRecord
100
AcDbLayerTableRecord
  2
01_1_DEFAULT_DATUMS
 70
0
 62
7
  6
CONTINUOUS
370
-3
390
F
  0
LAYER
  5
1FF
100
AcDbSymbolTableRecord
100
AcDbLayerTableRecord
  2
01_PLANES
 70
0
 62
7
  6
CONTINUOUS
370
-3
390
F
  0
LAYER
  5
200
100
AcDbSymbolTableRecord
100
AcDbLayerTableRecord
  2
02_COORD_SYS
 70
0
 62
7
  6
CONTINUOUS
370
-3
390
F
  0
LAYER
  5
201
100
AcDbSymbolTableRecord
100
AcDbLayerTableRecord
  2
03_AXES
 70
0
 62
7
  6
CONTINUOUS
370
-3
390
F
  0
LAYER
  5
202
100
AcDbSymbolTableRecord
100
AcDbLayerTableRecord
  2
04_POINTS
 70
0
 62
7
  6
CONTINUOUS
370
-3
390
F
  0
LAYER
  5
203
100
AcDbSymbolTableRecord
100
AcDbLayerTableRecord
  2
05_CURVES
 70
0
 62
7
  6
CONTINUOUS
370
-3
390
F
  0
LAYER
  5
204
100
AcDbSymbolTableRecord
100
AcDbLayerTableRecord
  2
06_SURFS
 70
0
 62
7
  6
CONTINUOUS
370
-3
390
F
  0
LAYER
  5
205
100
AcDbSymbolTableRecord
100
AcDbLayerTableRecord
  2
07_COSMETICS
 70
0
 62
7
  6
CONTINUOUS
370
-3
390
F
  0
LAYER
  5
206
100
AcDbSymbolTableRecord
100
AcDbLayerTableRecord
  2
10_NOTES
 70
0
 62
7
  6
CONTINUOUS
370
-3
390
F
  0
LAYER
  5
207
100
AcDbSymbolTableRecord
100
AcDbLayerTableRecord
  2
11_NOTES_PUB
 70
0
 62
7
  6
CONTINUOUS
370
-3
390
F
  0
LAYER
  5
208
100
AcDbSymbolTableRecord
100
AcDbLayerTableRecord
  2
13_REF_GTOL
 70
0
 62
7
  6
CONTINUOUS
370
-3
390
F
  0
LAYER
  5
209
100
AcDbSymbolTableRecord
100
AcDbLayerTableRecord
  2
16_MISC
 70
0
 62
7
  6
CONTINUOUS
370
-3
390
F
  0
LAYER
  5
20A
100
AcDbSymbolTableRecord
100
AcDbLayerTableRecord
  2
17_NO_PRINT
 70
0
 62
7
  6
CONTINUOUS
370
-3
390
F
  0
LAYER
  5
20B
100
AcDbSymbolTableRecord
100
AcDbLayerTableRecord
  2
18_DATUM_CAMS_JOINTS
 70
0
 62
7
  6
CONTINUOUS
370
-3
390
F
  0
LAYER
  5
20C
100
AcDbSymbolTableRecord
100
AcDbLayerTableRecord
  2
19_DATUM_FUNCTIONAL
 70
0
 62
7
  6
CONTINUOUS
370
-3
390
F
  0
LAYER
  5
20D
100
AcDbSymbolTableRecord
100
AcDbLayerTableRecord
  2
20_DATUM_KINEMATIC_SCHEME
 70
0
 62
7
  6
CONTINUOUS
370
-3
390
F
  0
ENDTAB
  0
TABLE
  2
STYLE
  5
3
100
AcDbSymbolTable
 70
1
  0
STYLE
  5
11
100
AcDbSymbolTableRecord
100
AcDbTextStyleTableRecord
  2
STANDARD
 70
0
 40
0.0
 41
0.8
 50
0.0
 71
0
 42
0.2
  3
txt
  4

  0
STYLE
  5
20E
100
AcDbSymbolTableRecord
100
AcDbTextStyleTableRecord
  2
TEXTSTYLE_1
 70
0
 40
0.0
 41
0.8
 50
0.0
 71
0
 42
0.2
  3
gdt
  4

  0
ENDTAB
  0
TABLE
  2
VIEW
  5
6
100
AcDbSymbolTable
 70
0
  0
ENDTAB
  0
TABLE
  2
UCS
  5
7
100
AcDbSymbolTable
 70
0
  0
ENDTAB
  0
TABLE
  2
APPID
  5
9
100
AcDbSymbolTable
 70
1
  0
APPID
  5
20F
100
AcDbSymbolTableRecord
100
AcDbRegAppTableRecord
  2
ACAD
 70
0
  0
ENDTAB
  0
TABLE
  2
BLOCK_RECORD
  5
1
100
AcDbSymbolTable
 70
0
  0
BLOCK_RECORD
  5
210
100
AcDbSymbolTableRecord
100
AcDbBlockTableRecord
  2
*Model_Space
  0
BLOCK_RECORD
  5
211
100
AcDbSymbolTableRecord
100
AcDbBlockTableRecord
  2
*Paper_Space
  0
BLOCK_RECORD
  5
212
100
AcDbSymbolTableRecord
100
AcDbBlockTableRecord
  2
_FILLED
  0
ENDTAB
  0
TABLE
  2
DIMSTYLE
  5
A
100
AcDbSymbolTable
 70
1
100
AcDbDimStyleTable
 71
0
  0
DIMSTYLE
105
213
100
AcDbSymbolTableRecord
100
AcDbDimStyleTableRecord
  2
STANDARD
 70
0
  3

  4

 40
1.0
 41
2.8299462775
 42
1.0
 43
0.38
 44
1.0
 45
0.0
 46
0.0
 47
0.01
 48
0.01
140
3.9619247885
141
0.09
142
0.0
143
25.4
144
1.0
145
0.0
146
1.0
147
0.625
 71
1
 72
0
 73
0
 74
0
 75
0
 76
0
 77
1
 78
8
 79
2
170
0
171
1
172
0
173
0
174
0
175
0
176
0
177
0
178
0
270
2
179
2
271
2
272
2
273
2
274
2
275
0
280
0
281
0
282
0
283
1
284
8
285
0
286
0
287
3
288
0
340
11
278
46
341
212
342
212
343
212
344
212
  0
ENDTAB
  0
ENDSEC
  0
SECTION
  2
BLOCKS
  0
BLOCK
  5
20
100
AcDbEntity
  8
0
100
AcDbBlockBegin
  2
*Model_Space
 70
0
 10
0.0
 20
0.0
 30
0.0
  3
*Model_Space
  1

  0
ENDBLK
  5
21
100
AcDbEntity
  8
0
100
AcDbBlockEnd
  0
BLOCK
  5
1C
100
AcDbEntity
  8
0
100
AcDbBlockBegin
  2
*Paper_Space
 70
0
 10
0.0
 20
0.0
 30
0.0
  3
*Paper_Space
  1

  0
ENDBLK
  5
1D
100
AcDbEntity
  8
0
100
AcDbBlockEnd
  0
BLOCK
  5
214
100
AcDbEntity
  8
0
100
AcDbBlockBegin
  2
_FILLED
 70
64
 10
0.0
 20
0.0
  3
_FILLED
  1

  0
SOLID
  5
215
100
AcDbEntity
  8
0
  6
BYBLOCK
 62
0
100
AcDbTrace
 10
0.0
 20
0.0
 11
-1.0
 21
0.25
 12
-1.0
 22
-0.25
 13
-1.0
 23
-0.25
  0
ENDBLK
  5
216
100
AcDbEntity
  8
0
  6
BYBLOCK
 62
0
100
AcDbBlockEnd
  0
ENDSEC
  0
SECTION
  2
ENTITIES
  0
LINE
  5
217
100
AcDbEntity
  8
0
100
AcDbLine
 62
7
  6
CONTINUOUS
 10
25.240903946
 20
137.8958140659
 11
25.240903946
 21
228.3958140659
  0
LINE
  5
218
100
AcDbEntity
  8
0
100
AcDbLine
 62
7
  6
CONTINUOUS
 10
25.2975885457
 20
228.395814066
 11
25.2975885457
 21
228.4475124116
  0
LINE
  5
219
100
AcDbEntity
  8
0
100
AcDbLine
 62
7
  6
CONTINUOUS
 10
25.7604626423
 20
227.876235307
 11
25.7604626423
 21
138.4153727622
  0
LINE
  5
21A
100
AcDbEntity
  8
0
100
AcDbLine
 62
7
  6
CONTINUOUS
 10
26.7599691301
 20
139.4148792501
 11
26.7599691301
 21
226.8766556497
  0
LINE
  5
21B
100
AcDbEntity
  8
0
100
AcDbLine
 62
7
  6
CONTINUOUS
 10
34.0701932687
 20
221.3251033882
 11
31.8116146237
 21
219.0665247432
  0
LINE
  5
21C
100
AcDbEntity
  8
0
100
AcDbLine
 62
7
  6
CONTINUOUS
 10
41.1701932683
 20
221.4251033878
 11
38.9116146235
 21
219.1665247449
  0
LINE
  5
21D
100
AcDbEntity
  8
0
100
AcDbLine
 62
7
  6
CONTINUOUS
 10
30.740903946
 20
210.9958140655
 11
32.740903946
 21
212.9958140655
  0
LINE
  5
21E
100
AcDbEntity
  8
0
100
AcDbLine
 62
7
  6
CONTINUOUS
 10
33.040903946
 20
212.6958140659
 11
31.040903946
 21
210.6958140659
  0
LINE
  5
21F
100
AcDbEntity
  8
0
100
AcDbLine
 62
7
  6
CONTINUOUS
 10
30.740903946
 20
158.3958140657
 11
30.740903946
 21
210.9958140655
  0
LINE
  5
220
100
AcDbEntity
  8
0
100
AcDbLine
 62
7
  6
CONTINUOUS
 10
30.740903946
 20
215.9958140656
 11
30.740903946
 21
221.9958140654
  0
LINE
  5
221
100
AcDbEntity
  8
0
100
AcDbLine
 62
7
  6
CONTINUOUS
 10
31.040903946
 20
158.3958140659
 11
31.040903946
 21
190.3958140659
  0
LINE
  5
222
100
AcDbEntity
  8
0
100
AcDbLine
 62
7
  6
CONTINUOUS
 10
31.040903946
 20
193.6958140666
 11
31.040903946
 21
210.6958140666
  0
LINE
  5
223
100
AcDbEntity
  8
0
100
AcDbLine
 62
7
  6
CONTINUOUS
 10
34.240903946
 20
221.2543927087
 11
34.240903946
 21
220.0458140663
  0
LINE
  5
224
100
AcDbEntity
  8
0
100
AcDbLine
 62
7
  6
CONTINUOUS
 10
34.240903946
 20
217.9458140666
 11
34.240903946
 21
216.7372354223
  0
LINE
  5
225
100
AcDbEntity
  8
0
100
AcDbLine
 62
7
  6
CONTINUOUS
 10
48.240903946
 20
225.4958140655
 11
50.240903946
 21
227.4958140655
  0
LINE
  5
226
100
AcDbEntity
  8
0
100
AcDbLine
 62
7
  6
CONTINUOUS
 10
50.5409039467
 20
227.1958140666
 11
48.5409039467
 21
225.1958140666
  0
LINE
  5
227
100
AcDbEntity
  8
0
100
AcDbLine
 62
7
  6
CONTINUOUS
 10
36.740903946
 20
219.8958140659
 11
36.740903946
 21
218.0958140652
  0
LINE
  5
228
100
AcDbEntity
  8
0
100
AcDbLine
 62
7
  6
CONTINUOUS
 10
40.240903946
 20
216.5958140652
 11
40.240903946
 21
218.9458140666
  0
LINE
  5
229
100
AcDbEntity
  8
0
100
AcDbLine
 62
7
  6
CONTINUOUS
 10
40.3909039464
 20
143.6458140655
 11
40.3909039464
 21
153.6458140663
  0
LINE
  5
22A
100
AcDbEntity
  8
0
100
AcDbLine
 62
7
  6
CONTINUOUS
 10
42.240903946
 20
218.9458140666
 11
42.240903946
 21
216.5958140652
  0
LINE
  5
22B
100
AcDbEntity
  8
0
100
AcDbLine
 62
7
  6
CONTINUOUS
 10
33.040903946
 20
192.3958140659
 11
31.040903946
 21
190.3958140659
  0
LINE
  5
22C
100
AcDbEntity
  8
0
100
AcDbLine
 62
7
  6
CONTINUOUS
 10
51.9617713103
 20
141.8958140659
 11
51.9533080205
 21
142.1628684923
  0
LINE
  5
22D
100
AcDbEntity
  8
0
100
AcDbLine
 62
7
  6
CONTINUOUS
 10
44.740903946
 20
221.9958140638
 11
44.740903946
 21
215.9958140672
  0
LINE
  5
22E
100
AcDbEntity
  8
0
100
AcDbLine
 62
7
  6
CONTINUOUS
 10
45.240903946
 20
154.6458140659
 11
45.240903946
 21
153.1656556049
  0
LINE
  5
22F
100
AcDbEntity
  8
0
100
AcDbLine
 62
7
  6
CONTINUOUS
 10
45.2409039462
 20
103.4475124115
 11
45.240903946
 21
139.4148792501
  0
LINE
  5
230
100
AcDbEntity
  8
0
100
AcDbLine
 62
7
  6
CONTINUOUS
 10
45.240903946
 20
226.8766184187
 11
45.240903946
 21
228.4478140659
  0
LINE
  5
231
100
AcDbEntity
  8
0
100
AcDbLine
 62
7
  6
CONTINUOUS
 10
45.7409040172
 20
136.884706498
 11
45.7409040945
 21
103.395814066
  0
LINE
  5
232
100
AcDbEntity
  8
0
100
AcDbLine
 62
7
  6
CONTINUOUS
 10
45.740903946
 20
228.4478140659
 11
45.740903946
 21
234.3958140659
  0
LINE
  5
233
100
AcDbEntity
  8
0
100
AcDbLine
 62
7
  6
CONTINUOUS
 10
45.7975885456
 20
234.3958140659
 11
45.7975885456
 21
234.4475124116
  0
LINE
  5
234
100
AcDbEntity
  8
0
100
AcDbLine
 62
7
  6
CONTINUOUS
 10
46.2604626423
 20
233.8762553697
 11
46.2604626423
 21
228.4478140659
  0
LINE
  5
235
100
AcDbEntity
  8
0
100
AcDbLine
 62
7
  6
CONTINUOUS
 10
46.2604625595
 20
137.4985158197
 11
46.2604626358
 21
104.4307241409
  0
LINE
  5
236
100
AcDbEntity
  8
0
100
AcDbLine
 62
7
  6
CONTINUOUS
 10
47.2599691302
 20
228.4478140659
 11
47.2599691302
 21
232.8767488817
  0
LINE
  5
237
100
AcDbEntity
  8
0
100
AcDbLine
 62
7
  6
CONTINUOUS
 10
48.240903946
 20
213.9958148214
 11
48.240903946
 21
225.4958140655
  0
LINE
  5
238
100
AcDbEntity
  8
0
100
AcDbLine
 62
7
  6
CONTINUOUS
 10
48.5409039467
 20
214.1958140666
 11
48.5409039467
 21
225.1958140666
  0
LINE
  5
239
100
AcDbEntity
  8
0
100
AcDbLine
 62
7
  6
CONTINUOUS
 10
57.3059039455
 20
136.0458140662
 11
56.7909039467
 21
137.145814066
  0
LINE
  5
23A
100
AcDbEntity
  8
0
100
AcDbLine
 62
7
  6
CONTINUOUS
 10
52.2409039459
 20
131.8958140725
 11
52.2409039459
 21
141.8958140659
  0
LINE
  5
23B
100
AcDbEntity
  8
0
100
AcDbLine
 62
7
  6
CONTINUOUS
 10
55.0409039467
 20
133.4458140659
 11
55.0409039467
 21
133.7458140655
  0
LINE
  5
23C
100
AcDbEntity
  8
0
100
AcDbLine
 62
7
  6
CONTINUOUS
 10
55.0409039467
 20
140.0458140663
 11
55.0409039467
 21
140.3458140652
  0
LINE
  5
23D
100
AcDbEntity
  8
0
100
AcDbLine
 62
7
  6
CONTINUOUS
 10
56.3909039464
 20
134.5208140659
 11
56.3909039464
 21
139.2708140659
  0
LINE
  5
23E
100
AcDbEntity
  8
0
100
AcDbLine
 62
7
  6
CONTINUOUS
 10
56.7909039467
 20
137.145814066
 11
56.7909039467
 21
138.4458140666
  0
LINE
  5
23F
100
AcDbEntity
  8
0
100
AcDbLine
 62
7
  6
CONTINUOUS
 10
57.3059039455
 20
135.3458140652
 11
57.3059039455
 21
136.0458140662
  0
LINE
  5
240
100
AcDbEntity
  8
0
100
AcDbLine
 62
7
  6
CONTINUOUS
 10
57.6409039464
 20
107.4958140651
 11
57.6409039464
 21
112.1958140671
  0
LINE
  5
241
100
AcDbEntity
  8
0
100
AcDbLine
 62
7
  6
CONTINUOUS
 10
57.9409039453
 20
107.7958140663
 11
57.9409039453
 21
111.8958140659
  0
LINE
  5
242
100
AcDbEntity
  8
0
100
AcDbLine
 62
7
  6
CONTINUOUS
 10
55.240903946
 20
153.1656556049
 11
55.2438608217
 21
154.6458140659
  0
LINE
  5
243
100
AcDbEntity
  8
0
100
AcDbLine
 62
7
  6
CONTINUOUS
 10
57.240903946
 20
103.3958140659
 11
45.7409040945
 21
103.3958140659
  0
LINE
  5
244
100
AcDbEntity
  8
0
100
AcDbLine
 62
7
  6
CONTINUOUS
 10
45.7409040945
 20
103.4475124128
 11
45.2409039462
 21
103.4475124128
  0
LINE
  5
245
100
AcDbEntity
  8
0
100
AcDbLine
 62
7
  6
CONTINUOUS
 10
59.5949533843
 20
103.882956923
 11
192.340903946
 21
103.8829569231
  0
LINE
  5
246
100
AcDbEntity
  8
0
100
AcDbLine
 62
7
  6
CONTINUOUS
 10
46.2460988096
 20
103.9306086474
 11
192.340903946
 21
103.9306086474
  0
LINE
  5
247
100
AcDbEntity
  8
0
100
AcDbLine
 62
7
  6
CONTINUOUS
 10
45.7409040931
 20
103.9968015772
 11
45.2409039462
 21
103.9968015772
  0
LINE
  5
248
100
AcDbEntity
  8
0
100
AcDbLine
 62
7
  6
CONTINUOUS
 10
192.340903946
 20
104.4307241409
 11
46.2604626358
 21
104.4307241409
  0
LINE
  5
249
100
AcDbEntity
  8
0
100
AcDbLine
 62
7
  6
CONTINUOUS
 10
188.5409039434
 20
106.4958140655
 11
58.6409039464
 21
106.4958140655
  0
LINE
  5
24A
100
AcDbEntity
  8
0
100
AcDbLine
 62
7
  6
CONTINUOUS
 10
188.240903946
 20
106.7958140659
 11
58.9409039453
 21
106.7958140659
  0
LINE
  5
24B
100
AcDbEntity
  8
0
100
AcDbLine
 62
7
  6
CONTINUOUS
 10
194.2409039464
 20
107.3958140659
 11
208.243371506
 21
107.3958140659
  0
LINE
  5
24C
100
AcDbEntity
  8
0
100
AcDbLine
 62
7
  6
CONTINUOUS
 10
192.340903946
 20
107.8661871103
 11
192.9594473643
 21
107.8661871103
  0
LINE
  5
24D
100
AcDbEntity
  8
0
100
AcDbLine
 62
7
  6
CONTINUOUS
 10
192.340903946
 20
107.8829569231
 11
192.8609225699
 21
107.8829569231
  0
LINE
  5
24E
100
AcDbEntity
  8
0
100
AcDbLine
 62
7
  6
CONTINUOUS
 10
192.340903946
 20
107.9153727622
 11
207.7238128097
 21
107.9153727622
  0
LINE
  5
24F
100
AcDbEntity
  8
0
100
AcDbLine
 62
7
  6
CONTINUOUS
 10
60.0909039456
 20
153.6458140658
 11
60.0909039456
 21
144.1982256761
  0
LINE
  5
250
100
AcDbEntity
  8
0
100
AcDbLine
 62
7
  6
CONTINUOUS
 10
61.0647009971
 20
143.1749467018
 11
61.0647009971
 21
142.8958140659
  0
LINE
  5
251
100
AcDbEntity
  8
0
100
AcDbLine
 62
7
  6
CONTINUOUS
 10
62.6409039464
 20
146.6958140634
 11
62.6409039464
 21
152.2958140663
  0
LINE
  5
252
100
AcDbEntity
  8
0
100
AcDbLine
 62
7
  6
CONTINUOUS
 10
62.940903946
 20
146.9958140655
 11
62.940903946
 21
151.9958140653
  0
LINE
  5
253
100
AcDbEntity
  8
0
100
AcDbLine
 62
7
  6
CONTINUOUS
 10
63.1759039465
 20
136.0458140662
 11
63.1759039465
 21
135.3458140652
  0
LINE
  5
254
100
AcDbEntity
  8
0
100
AcDbLine
 62
7
  6
CONTINUOUS
 10
63.6909039453
 20
138.4458140666
 11
63.6909039453
 21
137.145814066
  0
LINE
  5
255
100
AcDbEntity
  8
0
100
AcDbLine
 62
7
  6
CONTINUOUS
 10
64.0909039457
 20
139.2708140659
 11
64.0909039457
 21
134.5208140659
  0
LINE
  5
256
100
AcDbEntity
  8
0
100
AcDbLine
 62
7
  6
CONTINUOUS
 10
65.4409039453
 20
140.3458140652
 11
65.4409039453
 21
140.0458140663
  0
LINE
  5
257
100
AcDbEntity
  8
0
100
AcDbLine
 62
7
  6
CONTINUOUS
 10
65.4409039453
 20
133.7458140655
 11
65.4409039453
 21
133.4458140666
  0
LINE
  5
258
100
AcDbEntity
  8
0
100
AcDbLine
 62
7
  6
CONTINUOUS
 10
210.6515238576
 20
108.9148792501
 11
192.340903946
 21
108.9148792501
  0
LINE
  5
259
100
AcDbEntity
  8
0
100
AcDbLine
 62
7
  6
CONTINUOUS
 10
76.4409039453
 20
111.4958140652
 11
188.240903946
 21
111.4958140652
  0
LINE
  5
25A
100
AcDbEntity
  8
0
100
AcDbLine
 62
7
  6
CONTINUOUS
 10
76.7409039461
 20
111.7958140663
 11
80.440903939
 21
111.7958140663
  0
LINE
  5
25B
100
AcDbEntity
  8
0
100
AcDbLine
 62
7
  6
CONTINUOUS
 10
121.9409047013
 20
111.7958140663
 11
188.5409039434
 21
111.7958140663
  0
LINE
  5
25C
100
AcDbEntity
  8
0
100
AcDbLine
 62
7
  6
CONTINUOUS
 10
119.740903946
 20
111.9958140659
 11
82.740903946
 21
111.9958140659
  0
LINE
  5
25D
100
AcDbEntity
  8
0
100
AcDbLine
 62
7
  6
CONTINUOUS
 10
58.9409039453
 20
112.8958140655
 11
75.4409039453
 21
112.8958140655
  0
LINE
  5
25E
100
AcDbEntity
  8
0
100
AcDbLine
 62
7
  6
CONTINUOUS
 10
58.6409039459
 20
113.1958140666
 11
75.7409039464
 21
113.1958140666
  0
LINE
  5
25F
100
AcDbEntity
  8
0
100
AcDbLine
 62
7
  6
CONTINUOUS
 10
68.2409039459
 20
141.8958133119
 11
68.2409039459
 21
131.89581482
  0
LINE
  5
260
100
AcDbEntity
  8
0
100
AcDbLine
 62
7
  6
CONTINUOUS
 10
169.0409039434
 20
121.3958140659
 11
161.4409039486
 21
121.3958140659
  0
LINE
  5
261
100
AcDbEntity
  8
0
100
AcDbLine
 62
7
  6
CONTINUOUS
 10
145.0409039434
 20
121.3958140659
 11
137.4409039486
 21
121.3958140659
  0
LINE
  5
262
100
AcDbEntity
  8
0
100
AcDbLine
 62
7
  6
CONTINUOUS
 10
213.2975885417
 20
122.32210267
 11
213.240903946
 21
122.32210267
  0
LINE
  5
263
100
AcDbEntity
  8
0
100
AcDbLine
 62
7
  6
CONTINUOUS
 10
168.6409039477
 20
122.3958140659
 11
161.8409039444
 21
122.3958140659
  0
LINE
  5
264
100
AcDbEntity
  8
0
100
AcDbLine
 62
7
  6
CONTINUOUS
 10
144.6409039479
 20
122.3958140659
 11
137.8409039441
 21
122.3958140659
  0
LINE
  5
265
100
AcDbEntity
  8
0
100
AcDbLine
 62
7
  6
CONTINUOUS
 10
75.9409039454
 20
112.3958140659
 11
75.9409039454
 21
111.9958140655
  0
LINE
  5
266
100
AcDbEntity
  8
0
100
AcDbLine
 62
7
  6
CONTINUOUS
 10
76.240903946
 20
112.695814065
 11
76.240903946
 21
112.2958140664
  0
LINE
  5
267
100
AcDbEntity
  8
0
100
AcDbLine
 62
7
  6
CONTINUOUS
 10
77.4409039461
 20
152.9958140655
 11
77.4409039461
 21
146.9958140655
  0
LINE
  5
268
100
AcDbEntity
  8
0
100
AcDbLine
 62
7
  6
CONTINUOUS
 10
77.740903946
 20
153.2958140629
 11
77.740903946
 21
146.6958140667
  0
LINE
  5
269
100
AcDbEntity
  8
0
100
AcDbLine
 62
7
  6
CONTINUOUS
 10
81.4409039452
 20
112.7958148189
 11
81.4409039452
 21
130.2958140663
  0
LINE
  5
26A
100
AcDbEntity
  8
0
100
AcDbLine
 62
7
  6
CONTINUOUS
 10
81.740903946
 20
112.9958140655
 11
81.740903946
 21
129.9958140657
  0
LINE
  5
26B
100
AcDbEntity
  8
0
100
AcDbLine
 62
7
  6
CONTINUOUS
 10
25.760537072
 20
138.4153723443
 11
26.7599691301
 21
139.4148792501
  0
LINE
  5
26C
100
AcDbEntity
  8
0
100
AcDbLine
 62
7
  6
CONTINUOUS
 10
25.7604626423
 20
138.4153727621
 11
25.240903946
 21
137.8958140659
  0
LWPOLYLINE
  5
26D
100
AcDbEntity
  8
0
100
AcDbPolyline
 62
7
  6
CONTINUOUS
 90
4
 70
0
 10
25.760537072
 20
138.4153723443
 10
25.9520672629
 20
138.606382979
 10
26.1641438325
 20
138.8189034739
 10
26.7599691301
 20
139.4148792501
  0
LINE
  5
26E
100
AcDbEntity
  8
0
100
AcDbLine
 62
7
  6
CONTINUOUS
 10
137.8409039441
 20
127.3958140659
 11
144.6409039479
 21
127.3958140659
  0
LINE
  5
26F
100
AcDbEntity
  8
0
100
AcDbLine
 62
7
  6
CONTINUOUS
 10
161.8409039444
 20
127.3958140659
 11
168.6409039477
 21
127.3958140659
  0
LINE
  5
270
100
AcDbEntity
  8
0
100
AcDbLine
 62
7
  6
CONTINUOUS
 10
137.4409039486
 20
128.3958140659
 11
145.0409039434
 21
128.3958140659
  0
LINE
  5
271
100
AcDbEntity
  8
0
100
AcDbLine
 62
7
  6
CONTINUOUS
 10
161.4409039486
 20
128.3958140659
 11
169.0409039434
 21
128.3958140659
  0
LINE
  5
272
100
AcDbEntity
  8
0
100
AcDbLine
 62
7
  6
CONTINUOUS
 10
67.2409039394
 20
130.8958140659
 11
53.2409046999
 21
130.8958140659
  0
LINE
  5
273
100
AcDbEntity
  8
0
100
AcDbLine
 62
7
  6
CONTINUOUS
 10
63.6909039453
 20
137.145814066
 11
63.1759039465
 21
136.0458140662
  0
LINE
  5
274
100
AcDbEntity
  8
0
100
AcDbLine
 62
7
  6
CONTINUOUS
 10
46.2604625595
 20
137.4984145113
 11
45.7409040172
 21
136.884706498
  0
LINE
  5
275
100
AcDbEntity
  8
0
100
AcDbLine
 62
7
  6
CONTINUOUS
 10
128.9859039456
 20
217.2825654119
 11
126.485903946
 21
215.8391897391
  0
LINE
  5
276
100
AcDbEntity
  8
0
100
AcDbLine
 62
7
  6
CONTINUOUS
 10
128.9859039456
 20
211.5090627199
 11
131.4859039451
 21
212.9524383928
  0
LINE
  5
277
100
AcDbEntity
  8
0
100
AcDbLine
 62
7
  6
CONTINUOUS
 10
83.7409039458
 20
131.9958140659
 11
119.740903946
 21
131.9958140659
  0
LINE
  5
278
100
AcDbEntity
  8
0
100
AcDbLine
 62
7
  6
CONTINUOUS
 10
83.4409039452
 20
132.2958140663
 11
119.9409039452
 21
132.2958140663
  0
LINE
  5
279
100
AcDbEntity
  8
0
100
AcDbLine
 62
7
  6
CONTINUOUS
 10
159.740903946
 20
132.8958140659
 11
126.740903946
 21
132.8958140659
  0
LINE
  5
27A
100
AcDbEntity
  8
0
100
AcDbLine
 62
7
  6
CONTINUOUS
 10
52.240903946
 20
133.1458140659
 11
54.740903946
 21
133.1458140659
  0
LINE
  5
27B
100
AcDbEntity
  8
0
100
AcDbLine
 62
7
  6
CONTINUOUS
 10
65.7409039463
 20
133.1458140659
 11
68.240903946
 21
133.1458140659
  0
LINE
  5
27C
100
AcDbEntity
  8
0
100
AcDbLine
 62
7
  6
CONTINUOUS
 10
159.740903946
 20
133.3958140659
 11
126.7409039461
 21
133.3958140659
  0
LINE
  5
27D
100
AcDbEntity
  8
0
100
AcDbLine
 62
7
  6
CONTINUOUS
 10
192.7409039461
 20
133.8958140659
 11
189.740903946
 21
133.8958140659
  0
LINE
  5
27E
100
AcDbEntity
  8
0
100
AcDbLine
 62
7
  6
CONTINUOUS
 10
55.3409039461
 20
134.0458140663
 11
65.1409039464
 21
134.0458140663
  0
LINE
  5
27F
100
AcDbEntity
  8
0
100
AcDbLine
 62
7
  6
CONTINUOUS
 10
181.740903946
 20
134.3958140659
 11
177.740903946
 21
134.3958140659
  0
LINE
  5
280
100
AcDbEntity
  8
0
100
AcDbLine
 62
7
  6
CONTINUOUS
 10
64.0909039456
 20
134.5208140659
 11
56.3909039464
 21
134.5208140659
  0
LINE
  5
281
100
AcDbEntity
  8
0
100
AcDbLine
 62
7
  6
CONTINUOUS
 10
63.1759039465
 20
135.3458140652
 11
57.3059039455
 21
135.3458140652
  0
LINE
  5
282
100
AcDbEntity
  8
0
100
AcDbLine
 62
7
  6
CONTINUOUS
 10
158.8409039455
 20
135.3958140659
 11
150.8413177691
 21
135.3958140659
  0
LINE
  5
283
100
AcDbEntity
  8
0
100
AcDbLine
 62
7
  6
CONTINUOUS
 10
147.6409039466
 20
135.3958140659
 11
127.641317767
 21
135.3958140659
  0
LINE
  5
284
100
AcDbEntity
  8
0
100
AcDbLine
 62
7
  6
CONTINUOUS
 10
45.2409039462
 20
137.8958140659
 11
25.240903946
 21
137.8958140659
  0
LINE
  5
285
100
AcDbEntity
  8
0
100
AcDbLine
 62
7
  6
CONTINUOUS
 10
25.7604626423
 20
138.4153727621
 11
45.3432387957
 21
138.4153727623
  0
LINE
  5
286
100
AcDbEntity
  8
0
100
AcDbLine
 62
7
  6
CONTINUOUS
 10
56.7909039467
 20
138.4458140666
 11
63.6909039453
 21
138.4458140666
  0
LINE
  5
287
100
AcDbEntity
  8
0
100
AcDbLine
 62
7
  6
CONTINUOUS
 10
56.3909039464
 20
139.2708140659
 11
64.0909039456
 21
139.2708140659
  0
LINE
  5
288
100
AcDbEntity
  8
0
100
AcDbLine
 62
7
  6
CONTINUOUS
 10
94.8942118883
 20
233.8762553697
 11
94.8909039464
 21
234.3078140659
  0
LINE
  5
289
100
AcDbEntity
  8
0
100
AcDbLine
 62
7
  6
CONTINUOUS
 10
92.5409039467
 20
226.1958140666
 11
92.5409039467
 21
214.1958140666
  0
LINE
  5
28A
100
AcDbEntity
  8
0
100
AcDbLine
 62
7
  6
CONTINUOUS
 10
92.740903946
 20
226.4958140654
 11
92.740903946
 21
213.9958140719
  0
LINE
  5
28B
100
AcDbEntity
  8
0
100
AcDbLine
 62
7
  6
CONTINUOUS
 10
94.8909039465
 20
226.3958140802
 11
94.8908958034
 21
233.8762532091
  0
LINE
  5
28C
100
AcDbEntity
  8
0
100
AcDbLine
 62
7
  6
CONTINUOUS
 10
95.3909039467
 20
232.8767488817
 11
95.3909039467
 21
234.2924186942
  0
LINE
  5
28D
100
AcDbEntity
  8
0
100
AcDbLine
 62
7
  6
CONTINUOUS
 10
95.3923764217
 20
232.8767488817
 11
95.3909038278
 21
226.8418705074
  0
LINE
  5
28E
100
AcDbEntity
  8
0
100
AcDbLine
 62
7
  6
CONTINUOUS
 10
62.6409039464
 20
152.2958140663
 11
64.6409039464
 21
154.2958140663
  0
LINE
  5
28F
100
AcDbEntity
  8
0
100
AcDbLine
 62
7
  6
CONTINUOUS
 10
64.940903946
 20
153.9958140659
 11
62.940903946
 21
151.9958140659
  0
LINE
  5
290
100
AcDbEntity
  8
0
100
AcDbLine
 62
7
  6
CONTINUOUS
 10
45.2409039461
 20
138.3285123133
 11
45.3435043913
 21
138.4153727624
  0
LINE
  5
291
100
AcDbEntity
  8
0
100
AcDbLine
 62
7
  6
CONTINUOUS
 10
45.240903946
 20
139.4148792501
 11
26.7599691301
 21
139.4148792501
  0
LINE
  5
292
100
AcDbEntity
  8
0
100
AcDbLine
 62
7
  6
CONTINUOUS
 10
65.1409039465
 20
139.7458140655
 11
55.3409039457
 21
139.7458140655
  0
LINE
  5
293
100
AcDbEntity
  8
0
100
AcDbLine
 62
7
  6
CONTINUOUS
 10
127.6409039466
 20
140.3958140659
 11
147.6404901229
 21
140.3958140659
  0
LINE
  5
294
100
AcDbEntity
  8
0
100
AcDbLine
 62
7
  6
CONTINUOUS
 10
150.8409039455
 20
140.3958140659
 11
158.840490125
 21
140.3958140659
  0
LINE
  5
295
100
AcDbEntity
  8
0
100
AcDbLine
 62
7
  6
CONTINUOUS
 10
68.240903946
 20
140.6458140659
 11
65.7409039463
 21
140.6458140659
  0
LINE
  5
296
100
AcDbEntity
  8
0
100
AcDbLine
 62
7
  6
CONTINUOUS
 10
54.740903946
 20
140.6458140659
 11
52.240903946
 21
140.6458140659
  0
LINE
  5
297
100
AcDbEntity
  8
0
100
AcDbLine
 62
7
  6
CONTINUOUS
 10
52.2409039459
 20
141.8958140659
 11
51.9617713103
 21
141.8958140659
  0
LINE
  5
298
100
AcDbEntity
  8
0
100
AcDbLine
 62
7
  6
CONTINUOUS
 10
51.4376240596
 20
142.6458140659
 11
41.3909039464
 21
142.6458140659
  0
LINE
  5
299
100
AcDbEntity
  8
0
100
AcDbLine
 62
7
  6
CONTINUOUS
 10
53.240903946
 20
142.8958140659
 11
67.2409031919
 21
142.8958140659
  0
LINE
  5
29A
100
AcDbEntity
  8
0
100
AcDbLine
 62
7
  6
CONTINUOUS
 10
177.740903946
 20
145.3958140659
 11
181.740903946
 21
145.3958140659
  0
LINE
  5
29B
100
AcDbEntity
  8
0
100
AcDbLine
 62
7
  6
CONTINUOUS
 10
76.740903946
 20
145.6958140666
 11
63.6409039432
 21
145.6958140666
  0
LINE
  5
29C
100
AcDbEntity
  8
0
100
AcDbLine
 62
7
  6
CONTINUOUS
 10
189.740903946
 20
145.8958140659
 11
192.7409039461
 21
145.8958140659
  0
LINE
  5
29D
100
AcDbEntity
  8
0
100
AcDbLine
 62
7
  6
CONTINUOUS
 10
76.4409039453
 20
145.9958140659
 11
63.9409039453
 21
145.9958140659
  0
LINE
  5
29E
100
AcDbEntity
  8
0
100
AcDbLine
 62
7
  6
CONTINUOUS
 10
31.8116146234
 20
218.9251033882
 11
34.0701932688
 21
216.6665247447
  0
LINE
  5
29F
100
AcDbEntity
  8
0
100
AcDbLine
 62
7
  6
CONTINUOUS
 10
25.7604626423
 20
227.876235307
 11
25.2409039461
 21
228.395814066
  0
LINE
  5
2A0
100
AcDbEntity
  8
0
100
AcDbLine
 62
7
  6
CONTINUOUS
 10
99.890903946
 20
234.3238317553
 11
99.890903946
 21
234.0578079469
  0
LINE
  5
2A1
100
AcDbEntity
  8
0
100
AcDbLine
 62
7
  6
CONTINUOUS
 10
100.7409039464
 20
227.8555959771
 11
100.7409039464
 21
230.8534557191
  0
LINE
  5
2A2
100
AcDbEntity
  8
0
100
AcDbLine
 62
7
  6
CONTINUOUS
 10
161.4959039464
 20
217.282565412
 11
158.9959039468
 21
215.8391897391
  0
LINE
  5
2A3
100
AcDbEntity
  8
0
100
AcDbLine
 62
7
  6
CONTINUOUS
 10
161.4959039464
 20
211.5090627199
 11
163.995903946
 21
212.9524383928
  0
LINE
  5
2A4
100
AcDbEntity
  8
0
100
AcDbLine
 62
7
  6
CONTINUOUS
 10
192.7409039461
 20
148.8958140659
 11
189.740903946
 21
148.8958140659
  0
LINE
  5
2A5
100
AcDbEntity
  8
0
100
AcDbLine
 62
7
  6
CONTINUOUS
 10
184.7409039461
 20
148.8958140659
 11
181.740903946
 21
148.8958140659
  0
LINE
  5
2A6
100
AcDbEntity
  8
0
100
AcDbLine
 62
7
  6
CONTINUOUS
 10
166.7409039394
 20
149.1458140659
 11
162.7409039494
 21
149.1458140659
  0
LINE
  5
2A7
100
AcDbEntity
  8
0
100
AcDbLine
 62
7
  6
CONTINUOUS
 10
157.240903946
 20
150.6458140659
 11
160.740903946
 21
150.6458140659
  0
LINE
  5
2A8
100
AcDbEntity
  8
0
100
AcDbLine
 62
7
  6
CONTINUOUS
 10
161.6621641483
 20
151.6038878424
 11
159.4184198178
 21
151.6038878424
  0
LINE
  5
2A9
100
AcDbEntity
  8
0
100
AcDbLine
 62
7
  6
CONTINUOUS
 10
207.1909039463
 20
153.1458140659
 11
204.1913177694
 21
153.1458140659
  0
LINE
  5
2AA
100
AcDbEntity
  8
0
100
AcDbLine
 62
7
  6
CONTINUOUS
 10
45.240903946
 20
153.1656556049
 11
55.240903946
 21
153.1656556049
  0
LINE
  5
2AB
100
AcDbEntity
  8
0
100
AcDbLine
 62
7
  6
CONTINUOUS
 10
64.9409039454
 20
153.9958140659
 11
76.4409039453
 21
153.9958140659
  0
LINE
  5
2AC
100
AcDbEntity
  8
0
100
AcDbLine
 62
7
  6
CONTINUOUS
 10
64.6409039464
 20
154.2958140663
 11
76.7409039426
 21
154.2958140663
  0
LINE
  5
2AD
100
AcDbEntity
  8
0
100
AcDbLine
 62
7
  6
CONTINUOUS
 10
41.3909039464
 20
154.6458140659
 11
45.240903946
 21
154.6458140659
  0
LINE
  5
2AE
100
AcDbEntity
  8
0
100
AcDbLine
 62
7
  6
CONTINUOUS
 10
55.2438608217
 20
154.6458140659
 11
59.0909039456
 21
154.6458140659
  0
LINE
  5
2AF
100
AcDbEntity
  8
0
100
AcDbLine
 62
7
  6
CONTINUOUS
 10
43.5758188934
 20
219.1608991201
 11
41.3116146238
 21
221.4251033878
  0
LINE
  5
2B0
100
AcDbEntity
  8
0
100
AcDbLine
 62
7
  6
CONTINUOUS
 10
106.0409039461
 20
211.6958140666
 11
106.0409039461
 21
193.6958140666
  0
LINE
  5
2B1
100
AcDbEntity
  8
0
100
AcDbLine
 62
7
  6
CONTINUOUS
 10
106.0409039461
 20
191.3958140659
 11
106.0409039461
 21
158.3958140659
  0
LINE
  5
2B2
100
AcDbEntity
  8
0
100
AcDbLine
 62
7
  6
CONTINUOUS
 10
106.3409039456
 20
211.6958140681
 11
106.3409039456
 21
158.3958140659
  0
LINE
  5
2B3
100
AcDbEntity
  8
0
100
AcDbLine
 62
7
  6
CONTINUOUS
 10
46.2460988096
 20
103.9306086474
 11
45.7409040945
 21
103.3958140659
  0
LINE
  5
2B4
100
AcDbEntity
  8
0
100
AcDbLine
 62
7
  6
CONTINUOUS
 10
105.0409039471
 20
157.0958140652
 11
32.0409039464
 21
157.0958140652
  0
LINE
  5
2B5
100
AcDbEntity
  8
0
100
AcDbLine
 62
7
  6
CONTINUOUS
 10
105.0409039467
 20
157.3958140659
 11
32.0409039467
 21
157.3958140659
  0
LINE
  5
2B6
100
AcDbEntity
  8
0
100
AcDbLine
 62
7
  6
CONTINUOUS
 10
181.740903946
 20
160.8958140659
 11
184.740903946
 21
160.8958140659
  0
LINE
  5
2B7
100
AcDbEntity
  8
0
100
AcDbLine
 62
7
  6
CONTINUOUS
 10
189.740903946
 20
160.8958140659
 11
192.740903946
 21
160.8958140659
  0
LINE
  5
2B8
100
AcDbEntity
  8
0
100
AcDbLine
 62
7
  6
CONTINUOUS
 10
115.7409039464
 20
230.8534557154
 11
115.7409039464
 21
227.8562559205
  0
LINE
  5
2B9
100
AcDbEntity
  8
0
100
AcDbLine
 62
7
  6
CONTINUOUS
 10
116.590903946
 20
234.0578079469
 11
116.590903946
 21
234.3238317553
  0
LINE
  5
2BA
100
AcDbEntity
  8
0
100
AcDbLine
 62
7
  6
CONTINUOUS
 10
57.5957848229
 20
103.8217451884
 11
57.240903946
 21
103.3958140659
  0
LINE
  5
2BB
100
AcDbEntity
  8
0
100
AcDbLine
 62
7
  6
CONTINUOUS
 10
81.4409039452
 20
130.2958140663
 11
83.4409039452
 21
132.2958140663
  0
LINE
  5
2BC
100
AcDbEntity
  8
0
100
AcDbLine
 62
7
  6
CONTINUOUS
 10
83.740903946
 20
131.9958140659
 11
81.740903946
 21
129.9958140659
  0
LINE
  5
2BD
100
AcDbEntity
  8
0
100
AcDbLine
 62
7
  6
CONTINUOUS
 10
159.4184198178
 20
162.6877402897
 11
161.6621641483
 21
162.6877402897
  0
LINE
  5
2BE
100
AcDbEntity
  8
0
100
AcDbLine
 62
7
  6
CONTINUOUS
 10
160.740903946
 20
163.6458140659
 11
157.240903946
 21
163.6458140659
  0
LINE
  5
2BF
100
AcDbEntity
  8
0
100
AcDbLine
 62
7
  6
CONTINUOUS
 10
192.740903946
 20
163.8958140659
 11
189.740903946
 21
163.8958140659
  0
LINE
  5
2C0
100
AcDbEntity
  8
0
100
AcDbLine
 62
7
  6
CONTINUOUS
 10
184.740903946
 20
163.8958140659
 11
181.740903946
 21
163.8958140659
  0
LINE
  5
2C1
100
AcDbEntity
  8
0
100
AcDbLine
 62
7
  6
CONTINUOUS
 10
162.740903946
 20
165.1458140659
 11
166.7409031921
 21
165.1458140659
  0
LINE
  5
2C2
100
AcDbEntity
  8
0
100
AcDbLine
 62
7
  6
CONTINUOUS
 10
204.190903946
 20
167.1458140659
 11
207.1904901224
 21
167.1458140659
  0
LINE
  5
2C3
100
AcDbEntity
  8
0
100
AcDbLine
 62
7
  6
CONTINUOUS
 10
47.2599691302
 20
232.8767488817
 11
45.740903946
 21
234.3958140659
  0
LWPOLYLINE
  5
2C4
100
AcDbEntity
  8
0
100
AcDbPolyline
 62
7
  6
CONTINUOUS
 90
4
 70
0
 10
46.2604626422
 20
233.8762553698
 10
46.4514746218
 20
233.6846880457
 10
46.663995112
 20
233.4725977624
 10
47.2599691302
 20
232.8767488817
  0
LINE
  5
2C5
100
AcDbEntity
  8
0
100
AcDbLine
 62
7
  6
CONTINUOUS
 10
124.2842016469
 20
191.395814066
 11
124.2160715353
 21
220.8958140657
  0
LINE
  5
2C6
100
AcDbEntity
  8
0
100
AcDbLine
 62
7
  6
CONTINUOUS
 10
121.0909053865
 20
226.836455331
 11
121.089431465
 21
232.8767488817
  0
LINE
  5
2C7
100
AcDbEntity
  8
0
100
AcDbLine
 62
7
  6
CONTINUOUS
 10
120.7409039461
 20
130.9958140655
 11
120.7409039461
 21
112.9958140655
  0
LINE
  5
2C8
100
AcDbEntity
  8
0
100
AcDbLine
 62
7
  6
CONTINUOUS
 10
120.9409039453
 20
131.2958140663
 11
120.9409039453
 21
112.7958140728
  0
LINE
  5
2C9
100
AcDbEntity
  8
0
100
AcDbLine
 62
7
  6
CONTINUOUS
 10
121.090903946
 20
234.2924186942
 11
121.090903946
 21
232.8767488817
  0
LINE
  5
2CA
100
AcDbEntity
  8
0
100
AcDbLine
 62
7
  6
CONTINUOUS
 10
121.590903946
 20
226.3958140659
 11
121.5909039461
 21
233.8762532091
  0
LINE
  5
2CB
100
AcDbEntity
  8
0
100
AcDbLine
 62
7
  6
CONTINUOUS
 10
124.740903946
 20
134.8958140659
 11
124.740903946
 21
179.3958140659
  0
LINE
  5
2CC
100
AcDbEntity
  8
0
100
AcDbLine
 62
7
  6
CONTINUOUS
 10
125.240903946
 20
134.8958140659
 11
125.240903946
 21
179.3958140659
  0
LINE
  5
2CD
100
AcDbEntity
  8
0
100
AcDbLine
 62
7
  6
CONTINUOUS
 10
126.1409039452
 20
192.2958140659
 11
126.1409039452
 21
201.2958140659
  0
LINE
  5
2CE
100
AcDbEntity
  8
0
100
AcDbLine
 62
7
  6
CONTINUOUS
 10
126.485903946
 20
212.9524383928
 11
126.485903946
 21
215.839189739
  0
LINE
  5
2CF
100
AcDbEntity
  8
0
100
AcDbLine
 62
7
  6
CONTINUOUS
 10
126.6409039464
 20
136.3958140659
 11
126.6409039464
 21
139.3954002455
  0
LINE
  5
2D0
100
AcDbEntity
  8
0
100
AcDbLine
 62
7
  6
CONTINUOUS
 10
127.2409039467
 20
192.8458140666
 11
127.2409039467
 21
196.5582496307
  0
LINE
  5
2D1
100
AcDbEntity
  8
0
100
AcDbLine
 62
7
  6
CONTINUOUS
 10
127.2409039467
 20
196.9333785015
 11
127.2409039467
 21
200.9458140663
  0
LINE
  5
2D2
100
AcDbEntity
  8
0
100
AcDbLine
 62
7
  6
CONTINUOUS
 10
127.3409039464
 20
196.5582496307
 11
127.3409039464
 21
196.9333785015
  0
LINE
  5
2D3
100
AcDbEntity
  8
0
100
AcDbLine
 62
7
  6
CONTINUOUS
 10
121.590903992
 20
234.3078201148
 11
121.5875960401
 21
233.8762553697
  0
LINE
  5
2D4
100
AcDbEntity
  8
0
100
AcDbLine
 62
7
  6
CONTINUOUS
 10
191.2218387618
 20
232.8767488817
 11
192.7409039461
 21
234.3958140659
  0
LWPOLYLINE
  5
2D5
100
AcDbEntity
  8
0
100
AcDbPolyline
 62
7
  6
CONTINUOUS
 90
4
 70
0
 10
192.2213452499
 20
233.8762553697
 10
192.0297779258
 20
233.6852433902
 10
191.8176876425
 20
233.4727229
 10
191.2218387618
 20
232.8767488817
  0
LINE
  5
2D6
100
AcDbEntity
  8
0
100
AcDbLine
 62
7
  6
CONTINUOUS
 10
181.740903946
 20
175.8958140659
 11
184.740903946
 21
175.8958140659
  0
LINE
  5
2D7
100
AcDbEntity
  8
0
100
AcDbLine
 62
7
  6
CONTINUOUS
 10
189.740903946
 20
175.8958140659
 11
192.740903946
 21
175.8958140659
  0
LINE
  5
2D8
100
AcDbEntity
  8
0
100
AcDbLine
 62
7
  6
CONTINUOUS
 10
128.2909039469
 20
194.745814066
 11
128.2909039469
 21
198.7458140653
  0
LINE
  5
2D9
100
AcDbEntity
  8
0
100
AcDbLine
 62
7
  6
CONTINUOUS
 10
128.4409039453
 20
199.4458140659
 11
128.4409039453
 21
200.0958140663
  0
LINE
  5
2DA
100
AcDbEntity
  8
0
100
AcDbLine
 62
7
  6
CONTINUOUS
 10
128.9409039463
 20
196.1213142652
 11
128.9409039463
 21
197.3703138664
  0
LINE
  5
2DB
100
AcDbEntity
  8
0
100
AcDbLine
 62
7
  6
CONTINUOUS
 10
129.0409039458
 20
196.3458140655
 11
129.0409039458
 21
197.1458140663
  0
LINE
  5
2DC
100
AcDbEntity
  8
0
100
AcDbLine
 62
7
  6
CONTINUOUS
 10
129.0909039457
 20
198.7458140653
 11
129.0909039457
 21
199.2458140658
  0
LINE
  5
2DD
100
AcDbEntity
  8
0
100
AcDbLine
 62
7
  6
CONTINUOUS
 10
129.540903946
 20
193.6458140659
 11
129.540903946
 21
194.745814066
  0
LINE
  5
2DE
100
AcDbEntity
  8
0
100
AcDbLine
 62
7
  6
CONTINUOUS
 10
129.7909039468
 20
199.2458140652
 11
129.7909039468
 21
198.7458140653
  0
LINE
  5
2DF
100
AcDbEntity
  8
0
100
AcDbLine
 62
7
  6
CONTINUOUS
 10
129.8409039462
 20
197.1458140661
 11
129.8409039462
 21
196.3458140655
  0
LINE
  5
2E0
100
AcDbEntity
  8
0
100
AcDbLine
 62
7
  6
CONTINUOUS
 10
130.440903946
 20
200.0958140663
 11
130.440903946
 21
199.4458140659
  0
LINE
  5
2E1
100
AcDbEntity
  8
0
100
AcDbLine
 62
7
  6
CONTINUOUS
 10
130.5033395115
 20
200.9458140663
 11
130.5033395115
 21
200.8458140666
  0
LINE
  5
2E2
100
AcDbEntity
  8
0
100
AcDbLine
 62
7
  6
CONTINUOUS
 10
130.6909039464
 20
194.7458140659
 11
130.690903946
 21
193.6458140659
  0
LINE
  5
2E3
100
AcDbEntity
  8
0
100
AcDbLine
 62
7
  6
CONTINUOUS
 10
130.8784683804
 20
200.8458140666
 11
130.8784683804
 21
200.9458140663
  0
LINE
  5
2E4
100
AcDbEntity
  8
0
100
AcDbLine
 62
7
  6
CONTINUOUS
 10
130.940903946
 20
199.4458140659
 11
130.940903946
 21
200.0958140659
  0
LINE
  5
2E5
100
AcDbEntity
  8
0
100
AcDbLine
 62
7
  6
CONTINUOUS
 10
130.990903946
 20
209.7958140659
 11
130.990903946
 21
210.4958140655
  0
LINE
  5
2E6
100
AcDbEntity
  8
0
100
AcDbLine
 62
7
  6
CONTINUOUS
 10
130.9909039459
 20
218.2958140663
 11
130.9909039459
 21
218.9958140648
  0
LINE
  5
2E7
100
AcDbEntity
  8
0
100
AcDbLine
 62
7
  6
CONTINUOUS
 10
131.4859039451
 20
215.839189739
 11
131.4859039451
 21
212.9524383928
  0
LINE
  5
2E8
100
AcDbEntity
  8
0
100
AcDbLine
 62
7
  6
CONTINUOUS
 10
131.5409039458
 20
196.3458140657
 11
131.5409039458
 21
197.1458140661
  0
LINE
  5
2E9
100
AcDbEntity
  8
0
100
AcDbLine
 62
7
  6
CONTINUOUS
 10
131.5909039457
 20
198.7458140653
 11
131.5909039457
 21
199.245814066
  0
LINE
  5
2EA
100
AcDbEntity
  8
0
100
AcDbLine
 62
7
  6
CONTINUOUS
 10
132.2909039468
 20
199.2458140652
 11
132.2909039468
 21
198.7458140653
  0
LINE
  5
2EB
100
AcDbEntity
  8
0
100
AcDbLine
 62
7
  6
CONTINUOUS
 10
132.3409039462
 20
197.1458140661
 11
132.3409039462
 21
196.3458140655
  0
LINE
  5
2EC
100
AcDbEntity
  8
0
100
AcDbLine
 62
7
  6
CONTINUOUS
 10
132.940903946
 20
200.0958140659
 11
132.940903946
 21
199.4458140659
  0
LINE
  5
2ED
100
AcDbEntity
  8
0
100
AcDbLine
 62
7
  6
CONTINUOUS
 10
133.0033395115
 20
200.9458140663
 11
133.0033395115
 21
200.8458140666
  0
LINE
  5
2EE
100
AcDbEntity
  8
0
100
AcDbLine
 62
7
  6
CONTINUOUS
 10
133.2259039453
 20
213.4258140652
 11
133.2259039453
 21
216.9858140658
  0
LINE
  5
2EF
100
AcDbEntity
  8
0
100
AcDbLine
 62
7
  6
CONTINUOUS
 10
133.3784683804
 20
200.8458140666
 11
133.3784683804
 21
200.9458140663
  0
LINE
  5
2F0
100
AcDbEntity
  8
0
100
AcDbLine
 62
7
  6
CONTINUOUS
 10
133.440903946
 20
199.4458140659
 11
133.440903946
 21
200.0958140659
  0
LINE
  5
2F1
100
AcDbEntity
  8
0
100
AcDbLine
 62
7
  6
CONTINUOUS
 10
134.0409039458
 20
196.3458140655
 11
134.0409039458
 21
197.1458140663
  0
LINE
  5
2F2
100
AcDbEntity
  8
0
100
AcDbLine
 62
7
  6
CONTINUOUS
 10
134.0909039457
 20
198.7458140653
 11
134.0909039457
 21
199.245814066
  0
LINE
  5
2F3
100
AcDbEntity
  8
0
100
AcDbLine
 62
7
  6
CONTINUOUS
 10
134.7909039468
 20
199.2458140652
 11
134.7909039468
 21
198.7458140653
  0
LINE
  5
2F4
100
AcDbEntity
  8
0
100
AcDbLine
 62
7
  6
CONTINUOUS
 10
134.8409039462
 20
197.1458140661
 11
134.8409039462
 21
196.3458140655
  0
LINE
  5
2F5
100
AcDbEntity
  8
0
100
AcDbLine
 62
7
  6
CONTINUOUS
 10
135.0059039465
 20
211.7358140658
 11
135.0059039465
 21
213.2358140658
  0
LINE
  5
2F6
100
AcDbEntity
  8
0
100
AcDbLine
 62
7
  6
CONTINUOUS
 10
135.0059039465
 20
213.6458140659
 11
135.0059039465
 21
215.1458140659
  0
LINE
  5
2F7
100
AcDbEntity
  8
0
100
AcDbLine
 62
7
  6
CONTINUOUS
 10
135.0059039465
 20
215.555814066
 11
135.0059039465
 21
217.055814066
  0
LINE
  5
2F8
100
AcDbEntity
  8
0
100
AcDbLine
 62
7
  6
CONTINUOUS
 10
135.440903946
 20
200.0958140659
 11
135.440903946
 21
199.4458140659
  0
LINE
  5
2F9
100
AcDbEntity
  8
0
100
AcDbLine
 62
7
  6
CONTINUOUS
 10
135.5033395115
 20
200.9458140663
 11
135.5033395115
 21
200.8458140666
  0
LINE
  5
2FA
100
AcDbEntity
  8
0
100
AcDbLine
 62
7
  6
CONTINUOUS
 10
192.7409039461
 20
178.8958140659
 11
189.740903946
 21
178.8958140659
  0
LINE
  5
2FB
100
AcDbEntity
  8
0
100
AcDbLine
 62
7
  6
CONTINUOUS
 10
184.7409039461
 20
178.8958140659
 11
181.740903946
 21
178.8958140659
  0
LINE
  5
2FC
100
AcDbEntity
  8
0
100
AcDbLine
 62
7
  6
CONTINUOUS
 10
126.7409039461
 20
180.8958140659
 11
159.740903946
 21
180.8958140659
  0
LINE
  5
2FD
100
AcDbEntity
  8
0
100
AcDbLine
 62
7
  6
CONTINUOUS
 10
126.740903946
 20
181.3958140659
 11
159.740903946
 21
181.3958140659
  0
LINE
  5
2FE
100
AcDbEntity
  8
0
100
AcDbLine
 62
7
  6
CONTINUOUS
 10
135.8784683804
 20
200.8458140666
 11
135.8784683804
 21
200.9458140663
  0
LINE
  5
2FF
100
AcDbEntity
  8
0
100
AcDbLine
 62
7
  6
CONTINUOUS
 10
135.940903946
 20
199.4458140659
 11
135.940903946
 21
200.0958140659
  0
LINE
  5
300
100
AcDbEntity
  8
0
100
AcDbLine
 62
7
  6
CONTINUOUS
 10
136.4409039452
 20
122.3958140693
 11
136.4409039452
 21
127.3958140625
  0
LINE
  5
301
100
AcDbEntity
  8
0
100
AcDbLine
 62
7
  6
CONTINUOUS
 10
136.5059039465
 20
217.055814066
 11
136.5059039465
 21
215.555814066
  0
LINE
  5
302
100
AcDbEntity
  8
0
100
AcDbLine
 62
7
  6
CONTINUOUS
 10
136.5059039465
 20
215.1458140659
 11
136.5059039465
 21
213.6458140659
  0
LINE
  5
303
100
AcDbEntity
  8
0
100
AcDbLine
 62
7
  6
CONTINUOUS
 10
136.5059039465
 20
213.2358140658
 11
136.5059039465
 21
211.7358140658
  0
LINE
  5
304
100
AcDbEntity
  8
0
100
AcDbLine
 62
7
  6
CONTINUOUS
 10
136.5409039458
 20
196.3458140657
 11
136.5409039458
 21
197.1458140663
  0
LINE
  5
305
100
AcDbEntity
  8
0
100
AcDbLine
 62
7
  6
CONTINUOUS
 10
136.5909039457
 20
198.7458140653
 11
136.5909039457
 21
199.245814066
  0
LINE
  5
306
100
AcDbEntity
  8
0
100
AcDbLine
 62
7
  6
CONTINUOUS
 10
136.9159039467
 20
211.7358140658
 11
136.9159039467
 21
213.2358140658
  0
LINE
  5
307
100
AcDbEntity
  8
0
100
AcDbLine
 62
7
  6
CONTINUOUS
 10
136.9159039467
 20
213.6458140659
 11
136.9159039467
 21
215.1458140659
  0
LINE
  5
308
100
AcDbEntity
  8
0
100
AcDbLine
 62
7
  6
CONTINUOUS
 10
136.9159039467
 20
215.555814066
 11
136.9159039467
 21
217.055814066
  0
LINE
  5
309
100
AcDbEntity
  8
0
100
AcDbLine
 62
7
  6
CONTINUOUS
 10
137.2909039468
 20
199.2458140652
 11
137.2909039468
 21
198.7458140653
  0
LINE
  5
30A
100
AcDbEntity
  8
0
100
AcDbLine
 62
7
  6
CONTINUOUS
 10
137.3409039462
 20
197.1458140661
 11
137.3409039462
 21
196.3458140657
  0
LINE
  5
30B
100
AcDbEntity
  8
0
100
AcDbLine
 62
7
  6
CONTINUOUS
 10
137.8409039456
 20
122.3958140659
 11
137.8409039456
 21
127.3958140659
  0
LINE
  5
30C
100
AcDbEntity
  8
0
100
AcDbLine
 62
7
  6
CONTINUOUS
 10
137.940903946
 20
200.0958140659
 11
137.940903946
 21
199.4458140659
  0
LINE
  5
30D
100
AcDbEntity
  8
0
100
AcDbLine
 62
7
  6
CONTINUOUS
 10
138.0033395115
 20
200.9458140663
 11
138.0033395115
 21
200.8458140666
  0
LINE
  5
30E
100
AcDbEntity
  8
0
100
AcDbLine
 62
7
  6
CONTINUOUS
 10
138.3784683804
 20
200.8458140666
 11
138.3784683804
 21
200.9458140663
  0
LINE
  5
30F
100
AcDbEntity
  8
0
100
AcDbLine
 62
7
  6
CONTINUOUS
 10
138.4159039467
 20
217.055814066
 11
138.4159039467
 21
215.555814066
  0
LINE
  5
310
100
AcDbEntity
  8
0
100
AcDbLine
 62
7
  6
CONTINUOUS
 10
138.4159039467
 20
215.1458140659
 11
138.4159039467
 21
213.6458140659
  0
LINE
  5
311
100
AcDbEntity
  8
0
100
AcDbLine
 62
7
  6
CONTINUOUS
 10
138.4159039467
 20
213.2358140658
 11
138.4159039467
 21
211.7358140658
  0
LINE
  5
312
100
AcDbEntity
  8
0
100
AcDbLine
 62
7
  6
CONTINUOUS
 10
138.440903946
 20
199.4458140659
 11
138.440903946
 21
200.0958140659
  0
LINE
  5
313
100
AcDbEntity
  8
0
100
AcDbLine
 62
7
  6
CONTINUOUS
 10
138.8259039468
 20
211.7358140658
 11
138.8259039468
 21
213.2358140658
  0
LINE
  5
314
100
AcDbEntity
  8
0
100
AcDbLine
 62
7
  6
CONTINUOUS
 10
138.8259039468
 20
213.6458140659
 11
138.8259039468
 21
215.1458140659
  0
LINE
  5
315
100
AcDbEntity
  8
0
100
AcDbLine
 62
7
  6
CONTINUOUS
 10
138.8259039468
 20
215.555814066
 11
138.8259039468
 21
217.055814066
  0
LINE
  5
316
100
AcDbEntity
  8
0
100
AcDbLine
 62
7
  6
CONTINUOUS
 10
138.865168015
 20
127.3958140659
 11
138.865168015
 21
122.3958140659
  0
LINE
  5
317
100
AcDbEntity
  8
0
100
AcDbLine
 62
7
  6
CONTINUOUS
 10
139.0409039458
 20
196.3458140657
 11
139.0409039458
 21
197.1458140661
  0
LINE
  5
318
100
AcDbEntity
  8
0
100
AcDbLine
 62
7
  6
CONTINUOUS
 10
139.0909039457
 20
198.7458140653
 11
139.0909039457
 21
199.245814066
  0
LINE
  5
319
100
AcDbEntity
  8
0
100
AcDbLine
 62
7
  6
CONTINUOUS
 10
139.2894320827
 20
122.3958140659
 11
139.2894320827
 21
127.3958140659
  0
LINE
  5
31A
100
AcDbEntity
  8
0
100
AcDbLine
 62
7
  6
CONTINUOUS
 10
139.7909039468
 20
199.2458140652
 11
139.7909039468
 21
198.7458140653
  0
LINE
  5
31B
100
AcDbEntity
  8
0
100
AcDbLine
 62
7
  6
CONTINUOUS
 10
139.8409039462
 20
197.1458140661
 11
139.8409039462
 21
196.3458140655
  0
LINE
  5
31C
100
AcDbEntity
  8
0
100
AcDbLine
 62
7
  6
CONTINUOUS
 10
140.3259039468
 20
217.055814066
 11
140.3259039468
 21
215.555814066
  0
LINE
  5
31D
100
AcDbEntity
  8
0
100
AcDbLine
 62
7
  6
CONTINUOUS
 10
140.3259039468
 20
215.1458140659
 11
140.3259039468
 21
213.6458140659
  0
LINE
  5
31E
100
AcDbEntity
  8
0
100
AcDbLine
 62
7
  6
CONTINUOUS
 10
140.3259039468
 20
213.2358140658
 11
140.3259039468
 21
211.7358140658
  0
LINE
  5
31F
100
AcDbEntity
  8
0
100
AcDbLine
 62
7
  6
CONTINUOUS
 10
140.440903946
 20
200.0958140659
 11
140.440903946
 21
199.4458140659
  0
LINE
  5
320
100
AcDbEntity
  8
0
100
AcDbLine
 62
7
  6
CONTINUOUS
 10
140.5033395115
 20
200.9458140663
 11
140.5033395115
 21
200.8458140666
  0
LINE
  5
321
100
AcDbEntity
  8
0
100
AcDbLine
 62
7
  6
CONTINUOUS
 10
140.7359039451
 20
211.7358140658
 11
140.7359039451
 21
213.2358140658
  0
LINE
  5
322
100
AcDbEntity
  8
0
100
AcDbLine
 62
7
  6
CONTINUOUS
 10
140.7359039451
 20
213.6458140659
 11
140.7359039451
 21
215.1458140659
  0
LINE
  5
323
100
AcDbEntity
  8
0
100
AcDbLine
 62
7
  6
CONTINUOUS
 10
140.7359039451
 20
215.555814066
 11
140.7359039451
 21
217.055814066
  0
LINE
  5
324
100
AcDbEntity
  8
0
100
AcDbLine
 62
7
  6
CONTINUOUS
 10
140.8784683804
 20
200.8458140666
 11
140.8784683804
 21
200.9458140663
  0
LINE
  5
325
100
AcDbEntity
  8
0
100
AcDbLine
 62
7
  6
CONTINUOUS
 10
140.940903946
 20
199.4458140659
 11
140.940903946
 21
200.0958140659
  0
LINE
  5
326
100
AcDbEntity
  8
0
100
AcDbLine
 62
7
  6
CONTINUOUS
 10
141.5409039458
 20
196.3458140657
 11
141.5409039458
 21
197.1458140661
  0
LINE
  5
327
100
AcDbEntity
  8
0
100
AcDbLine
 62
7
  6
CONTINUOUS
 10
141.5909039457
 20
198.7458140653
 11
141.5909039457
 21
199.245814066
  0
LINE
  5
328
100
AcDbEntity
  8
0
100
AcDbLine
 62
7
  6
CONTINUOUS
 10
142.2359039451
 20
217.055814066
 11
142.2359039451
 21
215.555814066
  0
LINE
  5
329
100
AcDbEntity
  8
0
100
AcDbLine
 62
7
  6
CONTINUOUS
 10
142.2359039451
 20
215.1458140659
 11
142.2359039451
 21
213.6458140659
  0
LINE
  5
32A
100
AcDbEntity
  8
0
100
AcDbLine
 62
7
  6
CONTINUOUS
 10
142.2359039451
 20
213.2358140658
 11
142.2359039451
 21
211.7358140658
  0
LINE
  5
32B
100
AcDbEntity
  8
0
100
AcDbLine
 62
7
  6
CONTINUOUS
 10
142.2909039468
 20
199.2458140652
 11
142.2909039468
 21
198.7458140653
  0
LINE
  5
32C
100
AcDbEntity
  8
0
100
AcDbLine
 62
7
  6
CONTINUOUS
 10
142.3409039462
 20
197.1458140661
 11
142.3409039462
 21
196.3458140655
  0
LINE
  5
32D
100
AcDbEntity
  8
0
100
AcDbLine
 62
7
  6
CONTINUOUS
 10
142.6459039453
 20
211.7358140658
 11
142.6459039453
 21
213.2358140658
  0
LINE
  5
32E
100
AcDbEntity
  8
0
100
AcDbLine
 62
7
  6
CONTINUOUS
 10
142.6459039453
 20
213.6458140659
 11
142.6459039453
 21
215.1458140659
  0
LINE
  5
32F
100
AcDbEntity
  8
0
100
AcDbLine
 62
7
  6
CONTINUOUS
 10
142.6459039453
 20
215.555814066
 11
142.6459039453
 21
217.055814066
  0
LINE
  5
330
100
AcDbEntity
  8
0
100
AcDbLine
 62
7
  6
CONTINUOUS
 10
142.940903946
 20
200.0958140659
 11
142.940903946
 21
199.4458140659
  0
LINE
  5
331
100
AcDbEntity
  8
0
100
AcDbLine
 62
7
  6
CONTINUOUS
 10
143.0033395115
 20
200.9458140663
 11
143.0033395115
 21
200.8458140666
  0
LINE
  5
332
100
AcDbEntity
  8
0
100
AcDbLine
 62
7
  6
CONTINUOUS
 10
143.1923758093
 20
127.3958140659
 11
143.1923758093
 21
122.3958140659
  0
LINE
  5
333
100
AcDbEntity
  8
0
100
AcDbLine
 62
7
  6
CONTINUOUS
 10
207.1909039463
 20
188.8958140659
 11
204.1913177694
 21
188.8958140659
  0
LINE
  5
334
100
AcDbEntity
  8
0
100
AcDbLine
 62
7
  6
CONTINUOUS
 10
164.2409650278
 20
189.4391117642
 11
126.2409039457
 21
189.4391117669
  0
LINE
  5
335
100
AcDbEntity
  8
0
100
AcDbLine
 62
7
  6
CONTINUOUS
 10
181.740903946
 20
190.8958140659
 11
184.7409039461
 21
190.8958140659
  0
LINE
  5
336
100
AcDbEntity
  8
0
100
AcDbLine
 62
7
  6
CONTINUOUS
 10
189.740903946
 20
190.8958140659
 11
192.7409039461
 21
190.8958140659
  0
LINE
  5
337
100
AcDbEntity
  8
0
100
AcDbLine
 62
7
  6
CONTINUOUS
 10
147.2409039466
 20
191.7958140659
 11
126.6409039453
 21
191.7958140659
  0
LINE
  5
338
100
AcDbEntity
  8
0
100
AcDbLine
 62
7
  6
CONTINUOUS
 10
33.0409039464
 20
192.3958140659
 11
105.0409039467
 21
192.3958140659
  0
LINE
  5
339
100
AcDbEntity
  8
0
100
AcDbLine
 62
7
  6
CONTINUOUS
 10
105.0409039467
 20
192.6958140659
 11
32.0409039467
 21
192.6958140659
  0
LINE
  5
33A
100
AcDbEntity
  8
0
100
AcDbLine
 62
7
  6
CONTINUOUS
 10
146.6409039452
 20
192.8458140666
 11
127.2409039467
 21
192.8458140666
  0
LINE
  5
33B
100
AcDbEntity
  8
0
100
AcDbLine
 62
7
  6
CONTINUOUS
 10
208.243371506
 20
107.3958140659
 11
207.7238128097
 21
107.9153727622
  0
LINE
  5
33C
100
AcDbEntity
  8
0
100
AcDbLine
 62
7
  6
CONTINUOUS
 10
193.8605249298
 20
107.8523482782
 11
194.2409039464
 21
107.3958140659
  0
LINE
  5
33D
100
AcDbEntity
  8
0
100
AcDbLine
 62
7
  6
CONTINUOUS
 10
143.3784683804
 20
200.8458140666
 11
143.3784683804
 21
200.9458140663
  0
LINE
  5
33E
100
AcDbEntity
  8
0
100
AcDbLine
 62
7
  6
CONTINUOUS
 10
143.440903946
 20
199.4458140659
 11
143.440903946
 21
200.0958140659
  0
LINE
  5
33F
100
AcDbEntity
  8
0
100
AcDbLine
 62
7
  6
CONTINUOUS
 10
143.6166398771
 20
122.3958140659
 11
143.6166398771
 21
127.3958140659
  0
LINE
  5
340
100
AcDbEntity
  8
0
100
AcDbLine
 62
7
  6
CONTINUOUS
 10
144.0409039458
 20
196.3458140657
 11
144.0409039458
 21
197.1458140663
  0
LINE
  5
341
100
AcDbEntity
  8
0
100
AcDbLine
 62
7
  6
CONTINUOUS
 10
144.0909039457
 20
198.7458140653
 11
144.0909039457
 21
199.245814066
  0
LINE
  5
342
100
AcDbEntity
  8
0
100
AcDbLine
 62
7
  6
CONTINUOUS
 10
144.1459039453
 20
217.055814066
 11
144.1459039453
 21
215.555814066
  0
LINE
  5
343
100
AcDbEntity
  8
0
100
AcDbLine
 62
7
  6
CONTINUOUS
 10
144.1459039453
 20
215.1458140659
 11
144.1459039453
 21
213.6458140659
  0
LINE
  5
344
100
AcDbEntity
  8
0
100
AcDbLine
 62
7
  6
CONTINUOUS
 10
144.1459039453
 20
213.2358140658
 11
144.1459039453
 21
211.7358140658
  0
LINE
  5
345
100
AcDbEntity
  8
0
100
AcDbLine
 62
7
  6
CONTINUOUS
 10
144.540903946
 20
193.6458140659
 11
144.540903946
 21
194.7458140659
  0
LINE
  5
346
100
AcDbEntity
  8
0
100
AcDbLine
 62
7
  6
CONTINUOUS
 10
144.5559039454
 20
211.7358140658
 11
144.5559039454
 21
213.2358140658
  0
LINE
  5
347
100
AcDbEntity
  8
0
100
AcDbLine
 62
7
  6
CONTINUOUS
 10
144.5559039454
 20
213.6458140659
 11
144.5559039454
 21
215.1458140659
  0
LINE
  5
348
100
AcDbEntity
  8
0
100
AcDbLine
 62
7
  6
CONTINUOUS
 10
144.5559039454
 20
215.555814066
 11
144.5559039454
 21
217.055814066
  0
LINE
  5
349
100
AcDbEntity
  8
0
100
AcDbLine
 62
7
  6
CONTINUOUS
 10
144.6409039472
 20
122.3958140659
 11
144.6409039472
 21
127.3958140659
  0
LINE
  5
34A
100
AcDbEntity
  8
0
100
AcDbLine
 62
7
  6
CONTINUOUS
 10
144.7909039468
 20
199.2458140652
 11
144.7909039468
 21
198.7458140653
  0
LINE
  5
34B
100
AcDbEntity
  8
0
100
AcDbLine
 62
7
  6
CONTINUOUS
 10
144.8409039462
 20
197.1458140661
 11
144.8409039462
 21
196.3458140657
  0
LINE
  5
34C
100
AcDbEntity
  8
0
100
AcDbLine
 62
7
  6
CONTINUOUS
 10
145.440903946
 20
200.0958140659
 11
145.440903946
 21
199.4458140659
  0
LINE
  5
34D
100
AcDbEntity
  8
0
100
AcDbLine
 62
7
  6
CONTINUOUS
 10
145.5909039457
 20
198.7458140653
 11
145.5909039457
 21
193.6458140659
  0
LINE
  5
34E
100
AcDbEntity
  8
0
100
AcDbLine
 62
7
  6
CONTINUOUS
 10
146.0409039467
 20
127.395814063
 11
146.0409039467
 21
122.3958140688
  0
LINE
  5
34F
100
AcDbEntity
  8
0
100
AcDbLine
 62
7
  6
CONTINUOUS
 10
146.0559039454
 20
217.055814066
 11
146.0559039454
 21
215.555814066
  0
LINE
  5
350
100
AcDbEntity
  8
0
100
AcDbLine
 62
7
  6
CONTINUOUS
 10
146.0559039454
 20
215.1458140659
 11
146.0559039454
 21
213.6458140659
  0
LINE
  5
351
100
AcDbEntity
  8
0
100
AcDbLine
 62
7
  6
CONTINUOUS
 10
146.0559039454
 20
213.2358140658
 11
146.0559039454
 21
211.7358140658
  0
LINE
  5
352
100
AcDbEntity
  8
0
100
AcDbLine
 62
7
  6
CONTINUOUS
 10
146.4659039456
 20
211.7358140658
 11
146.4659039456
 21
213.2358140658
  0
LINE
  5
353
100
AcDbEntity
  8
0
100
AcDbLine
 62
7
  6
CONTINUOUS
 10
146.4659039456
 20
213.6458140659
 11
146.4659039456
 21
215.1458140659
  0
LINE
  5
354
100
AcDbEntity
  8
0
100
AcDbLine
 62
7
  6
CONTINUOUS
 10
146.4659039456
 20
215.555814066
 11
146.4659039456
 21
217.055814066
  0
LINE
  5
355
100
AcDbEntity
  8
0
100
AcDbLine
 62
7
  6
CONTINUOUS
 10
146.6409039452
 20
200.9458140663
 11
146.6409039452
 21
192.8458140666
  0
LINE
  5
356
100
AcDbEntity
  8
0
100
AcDbLine
 62
7
  6
CONTINUOUS
 10
147.7409039467
 20
201.2958140642
 11
147.7409039467
 21
192.2958140676
  0
LINE
  5
357
100
AcDbEntity
  8
0
100
AcDbLine
 62
7
  6
CONTINUOUS
 10
147.9659039456
 20
217.055814066
 11
147.9659039456
 21
215.555814066
  0
LINE
  5
358
100
AcDbEntity
  8
0
100
AcDbLine
 62
7
  6
CONTINUOUS
 10
147.9659039456
 20
215.1458140659
 11
147.9659039456
 21
213.6458140659
  0
LINE
  5
359
100
AcDbEntity
  8
0
100
AcDbLine
 62
7
  6
CONTINUOUS
 10
147.9659039456
 20
213.2358140658
 11
147.9659039456
 21
211.7358140658
  0
LINE
  5
35A
100
AcDbEntity
  8
0
100
AcDbLine
 62
7
  6
CONTINUOUS
 10
148.3759039457
 20
211.7358140658
 11
148.3759039457
 21
213.2358140658
  0
LINE
  5
35B
100
AcDbEntity
  8
0
100
AcDbLine
 62
7
  6
CONTINUOUS
 10
148.3759039457
 20
213.6458140659
 11
148.3759039457
 21
215.1458140659
  0
LINE
  5
35C
100
AcDbEntity
  8
0
100
AcDbLine
 62
7
  6
CONTINUOUS
 10
148.3759039457
 20
215.555814066
 11
148.3759039457
 21
217.055814066
  0
LINE
  5
35D
100
AcDbEntity
  8
0
100
AcDbLine
 62
7
  6
CONTINUOUS
 10
148.6409039464
 20
139.395400242
 11
148.6409039464
 21
136.3962278898
  0
LINE
  5
35E
100
AcDbEntity
  8
0
100
AcDbLine
 62
7
  6
CONTINUOUS
 10
149.1976062429
 20
205.8958140652
 11
149.1976062429
 21
191.3958140666
  0
LINE
  5
35F
100
AcDbEntity
  8
0
100
AcDbLine
 62
7
  6
CONTINUOUS
 10
149.8409039456
 20
136.3958140662
 11
149.8409039456
 21
139.3954002421
  0
LINE
  5
360
100
AcDbEntity
  8
0
100
AcDbLine
 62
7
  6
CONTINUOUS
 10
149.8759039457
 20
217.055814066
 11
149.8759039457
 21
215.555814066
  0
LINE
  5
361
100
AcDbEntity
  8
0
100
AcDbLine
 62
7
  6
CONTINUOUS
 10
149.8759039457
 20
215.1458140659
 11
149.8759039457
 21
213.6458140659
  0
LINE
  5
362
100
AcDbEntity
  8
0
100
AcDbLine
 62
7
  6
CONTINUOUS
 10
149.8759039457
 20
213.2358140658
 11
149.8759039457
 21
211.7358140658
  0
LINE
  5
363
100
AcDbEntity
  8
0
100
AcDbLine
 62
7
  6
CONTINUOUS
 10
156.8795373109
 20
211.8921752139
 11
157.2225112563
 21
213.1721714013
  0
LINE
  5
364
100
AcDbEntity
  8
0
100
AcDbLine
 62
7
  6
CONTINUOUS
 10
212.7213455951
 20
227.876255715
 11
213.2409039461
 21
228.395814066
  0
LINE
  5
365
100
AcDbEntity
  8
0
100
AcDbLine
 62
7
  6
CONTINUOUS
 10
145.5909039457
 20
193.6458140659
 11
144.540903946
 21
193.6458140659
  0
LINE
  5
366
100
AcDbEntity
  8
0
100
AcDbLine
 62
7
  6
CONTINUOUS
 10
130.690903946
 20
193.6458140659
 11
129.540903946
 21
193.6458140659
  0
LINE
  5
367
100
AcDbEntity
  8
0
100
AcDbLine
 62
7
  6
CONTINUOUS
 10
194.2409039461
 20
194.5958140652
 11
170.240903946
 21
194.5958140652
  0
LINE
  5
368
100
AcDbEntity
  8
0
100
AcDbLine
 62
7
  6
CONTINUOUS
 10
128.2909039469
 20
194.745814066
 11
145.5909039458
 21
194.7458140659
  0
LINE
  5
369
100
AcDbEntity
  8
0
100
AcDbLine
 62
7
  6
CONTINUOUS
 10
194.240903946
 20
194.8958140659
 11
170.240903946
 21
194.8958140659
  0
LINE
  5
36A
100
AcDbEntity
  8
0
100
AcDbLine
 62
7
  6
CONTINUOUS
 10
144.8409039464
 20
196.3458140657
 11
144.0409039456
 21
196.3458140657
  0
LINE
  5
36B
100
AcDbEntity
  8
0
100
AcDbLine
 62
7
  6
CONTINUOUS
 10
142.3409039462
 20
196.3458140657
 11
141.5409039456
 21
196.3458140657
  0
LINE
  5
36C
100
AcDbEntity
  8
0
100
AcDbLine
 62
7
  6
CONTINUOUS
 10
139.8409039462
 20
196.3458140657
 11
139.0409039456
 21
196.3458140657
  0
LINE
  5
36D
100
AcDbEntity
  8
0
100
AcDbLine
 62
7
  6
CONTINUOUS
 10
137.3409039464
 20
196.3458140657
 11
136.5409039456
 21
196.3458140657
  0
LINE
  5
36E
100
AcDbEntity
  8
0
100
AcDbLine
 62
7
  6
CONTINUOUS
 10
134.8409039462
 20
196.3458140657
 11
134.0409039458
 21
196.3458140657
  0
LINE
  5
36F
100
AcDbEntity
  8
0
100
AcDbLine
 62
7
  6
CONTINUOUS
 10
132.3409039462
 20
196.3458140657
 11
131.5409039456
 21
196.3458140657
  0
LINE
  5
370
100
AcDbEntity
  8
0
100
AcDbLine
 62
7
  6
CONTINUOUS
 10
129.8409039462
 20
196.3458140657
 11
129.0409039458
 21
196.3458140657
  0
LINE
  5
371
100
AcDbEntity
  8
0
100
AcDbLine
 62
7
  6
CONTINUOUS
 10
127.2409039467
 20
196.5582496307
 11
127.3409039464
 21
196.5582496307
  0
LINE
  5
372
100
AcDbEntity
  8
0
100
AcDbLine
 62
7
  6
CONTINUOUS
 10
127.3409039464
 20
196.9333785015
 11
127.2409039467
 21
196.9333785015
  0
LINE
  5
373
100
AcDbEntity
  8
0
100
AcDbLine
 62
7
  6
CONTINUOUS
 10
129.0409039458
 20
197.1458140661
 11
129.8409039464
 21
197.1458140661
  0
LINE
  5
374
100
AcDbEntity
  8
0
100
AcDbLine
 62
7
  6
CONTINUOUS
 10
131.5409039456
 20
197.1458140661
 11
132.3409039464
 21
197.1458140661
  0
LINE
  5
375
100
AcDbEntity
  8
0
100
AcDbLine
 62
7
  6
CONTINUOUS
 10
134.0409039458
 20
197.1458140661
 11
134.8409039464
 21
197.1458140661
  0
LINE
  5
376
100
AcDbEntity
  8
0
100
AcDbLine
 62
7
  6
CONTINUOUS
 10
136.5409039458
 20
197.1458140661
 11
137.3409039464
 21
197.1458140661
  0
LINE
  5
377
100
AcDbEntity
  8
0
100
AcDbLine
 62
7
  6
CONTINUOUS
 10
139.0409039456
 20
197.1458140661
 11
139.8409039464
 21
197.1458140661
  0
LINE
  5
378
100
AcDbEntity
  8
0
100
AcDbLine
 62
7
  6
CONTINUOUS
 10
141.5409039456
 20
197.1458140661
 11
142.3409039464
 21
197.1458140661
  0
LINE
  5
379
100
AcDbEntity
  8
0
100
AcDbLine
 62
7
  6
CONTINUOUS
 10
144.0409039458
 20
197.1458140661
 11
144.8409039464
 21
197.1458140661
  0
LINE
  5
37A
100
AcDbEntity
  8
0
100
AcDbLine
 62
7
  6
CONTINUOUS
 10
128.2909039469
 20
198.7458140653
 11
129.0909039457
 21
198.7458140653
  0
LINE
  5
37B
100
AcDbEntity
  8
0
100
AcDbLine
 62
7
  6
CONTINUOUS
 10
129.7909039468
 20
198.7458140653
 11
131.5909039457
 21
198.7458140653
  0
LINE
  5
37C
100
AcDbEntity
  8
0
100
AcDbLine
 62
7
  6
CONTINUOUS
 10
132.2909039468
 20
198.7458140653
 11
134.0909039457
 21
198.7458140653
  0
LINE
  5
37D
100
AcDbEntity
  8
0
100
AcDbLine
 62
7
  6
CONTINUOUS
 10
134.7909039468
 20
198.7458140653
 11
136.5909039457
 21
198.7458140653
  0
LINE
  5
37E
100
AcDbEntity
  8
0
100
AcDbLine
 62
7
  6
CONTINUOUS
 10
137.2909039468
 20
198.7458140653
 11
139.0909039457
 21
198.7458140653
  0
LINE
  5
37F
100
AcDbEntity
  8
0
100
AcDbLine
 62
7
  6
CONTINUOUS
 10
139.7909039468
 20
198.7458140653
 11
141.5909039457
 21
198.7458140653
  0
LINE
  5
380
100
AcDbEntity
  8
0
100
AcDbLine
 62
7
  6
CONTINUOUS
 10
142.2909039468
 20
198.7458140653
 11
144.0909039457
 21
198.7458140653
  0
LINE
  5
381
100
AcDbEntity
  8
0
100
AcDbLine
 62
7
  6
CONTINUOUS
 10
144.7909039468
 20
198.7458140653
 11
145.5909039457
 21
198.7458140653
  0
LINE
  5
382
100
AcDbEntity
  8
0
100
AcDbLine
 62
7
  6
CONTINUOUS
 10
145.440903946
 20
199.4458140659
 11
144.9909039441
 21
199.4458140659
  0
LINE
  5
383
100
AcDbEntity
  8
0
100
AcDbLine
 62
7
  6
CONTINUOUS
 10
143.8909039473
 20
199.4458140659
 11
143.440903946
 21
199.4458140659
  0
LINE
  5
384
100
AcDbEntity
  8
0
100
AcDbLine
 62
7
  6
CONTINUOUS
 10
142.940903946
 20
199.4458140659
 11
142.4909039441
 21
199.4458140659
  0
LINE
  5
385
100
AcDbEntity
  8
0
100
AcDbLine
 62
7
  6
CONTINUOUS
 10
141.3909039473
 20
199.4458140659
 11
140.940903946
 21
199.4458140659
  0
LINE
  5
386
100
AcDbEntity
  8
0
100
AcDbLine
 62
7
  6
CONTINUOUS
 10
140.440903946
 20
199.4458140659
 11
139.9909039441
 21
199.4458140659
  0
LINE
  5
387
100
AcDbEntity
  8
0
100
AcDbLine
 62
7
  6
CONTINUOUS
 10
138.8909039476
 20
199.4458140659
 11
138.440903946
 21
199.4458140659
  0
LINE
  5
388
100
AcDbEntity
  8
0
100
AcDbLine
 62
7
  6
CONTINUOUS
 10
137.940903946
 20
199.4458140659
 11
137.4909039441
 21
199.4458140659
  0
LINE
  5
389
100
AcDbEntity
  8
0
100
AcDbLine
 62
7
  6
CONTINUOUS
 10
136.3909039476
 20
199.4458140659
 11
135.940903946
 21
199.4458140659
  0
LINE
  5
38A
100
AcDbEntity
  8
0
100
AcDbLine
 62
7
  6
CONTINUOUS
 10
135.440903946
 20
199.4458140659
 11
134.9909039441
 21
199.4458140659
  0
LINE
  5
38B
100
AcDbEntity
  8
0
100
AcDbLine
 62
7
  6
CONTINUOUS
 10
133.8909039476
 20
199.4458140659
 11
133.440903946
 21
199.4458140659
  0
LINE
  5
38C
100
AcDbEntity
  8
0
100
AcDbLine
 62
7
  6
CONTINUOUS
 10
132.940903946
 20
199.4458140659
 11
132.4909039441
 21
199.4458140659
  0
LINE
  5
38D
100
AcDbEntity
  8
0
100
AcDbLine
 62
7
  6
CONTINUOUS
 10
131.3909039476
 20
199.4458140659
 11
130.940903946
 21
199.4458140659
  0
LINE
  5
38E
100
AcDbEntity
  8
0
100
AcDbLine
 62
7
  6
CONTINUOUS
 10
130.440903946
 20
199.4458140659
 11
129.9909039441
 21
199.4458140659
  0
LINE
  5
38F
100
AcDbEntity
  8
0
100
AcDbLine
 62
7
  6
CONTINUOUS
 10
128.8909039477
 20
199.4458140659
 11
128.4409039453
 21
199.4458140659
  0
LINE
  5
390
100
AcDbEntity
  8
0
100
AcDbLine
 62
7
  6
CONTINUOUS
 10
128.4409039453
 20
200.0958140663
 11
130.440903946
 21
200.0958140663
  0
LINE
  5
391
100
AcDbEntity
  8
0
100
AcDbLine
 62
7
  6
CONTINUOUS
 10
130.940903946
 20
200.0958140659
 11
132.940903946
 21
200.0958140659
  0
LINE
  5
392
100
AcDbEntity
  8
0
100
AcDbLine
 62
7
  6
CONTINUOUS
 10
133.440903946
 20
200.0958140659
 11
135.440903946
 21
200.0958140659
  0
LINE
  5
393
100
AcDbEntity
  8
0
100
AcDbLine
 62
7
  6
CONTINUOUS
 10
135.940903946
 20
200.0958140659
 11
137.940903946
 21
200.0958140659
  0
LINE
  5
394
100
AcDbEntity
  8
0
100
AcDbLine
 62
7
  6
CONTINUOUS
 10
138.440903946
 20
200.0958140659
 11
140.440903946
 21
200.0958140659
  0
LINE
  5
395
100
AcDbEntity
  8
0
100
AcDbLine
 62
7
  6
CONTINUOUS
 10
140.940903946
 20
200.0958140659
 11
142.940903946
 21
200.0958140659
  0
LINE
  5
396
100
AcDbEntity
  8
0
100
AcDbLine
 62
7
  6
CONTINUOUS
 10
143.440903946
 20
200.0958140659
 11
145.440903946
 21
200.0958140659
  0
LINE
  5
397
100
AcDbEntity
  8
0
100
AcDbLine
 62
7
  6
CONTINUOUS
 10
212.7213452498
 20
112.9129052022
 11
213.240903946
 21
112.393346506
  0
LINE
  5
398
100
AcDbEntity
  8
0
100
AcDbLine
 62
7
  6
CONTINUOUS
 10
133.2592966351
 20
213.1721714034
 11
133.6022705812
 21
211.8921752133
  0
LINE
  5
399
100
AcDbEntity
  8
0
100
AcDbLine
 62
7
  6
CONTINUOUS
 10
152.1633039455
 20
214.1408140651
 11
152.1633039455
 21
214.6508140667
  0
LINE
  5
39A
100
AcDbEntity
  8
0
100
AcDbLine
 62
7
  6
CONTINUOUS
 10
154.9033039457
 20
214.6508140667
 11
154.9033039457
 21
214.1408140651
  0
LINE
  5
39B
100
AcDbEntity
  8
0
100
AcDbLine
 62
7
  6
CONTINUOUS
 10
157.240903946
 20
163.6458140659
 11
157.240903946
 21
150.6458140659
  0
LINE
  5
39C
100
AcDbEntity
  8
0
100
AcDbLine
 62
7
  6
CONTINUOUS
 10
157.2559039465
 20
216.9858140658
 11
157.2559039465
 21
213.4258140652
  0
LINE
  5
39D
100
AcDbEntity
  8
0
100
AcDbLine
 62
7
  6
CONTINUOUS
 10
130.5033395115
 20
200.8458140666
 11
130.8784683804
 21
200.8458140666
  0
LINE
  5
39E
100
AcDbEntity
  8
0
100
AcDbLine
 62
7
  6
CONTINUOUS
 10
133.0033395115
 20
200.8458140666
 11
133.3784683804
 21
200.8458140666
  0
LINE
  5
39F
100
AcDbEntity
  8
0
100
AcDbLine
 62
7
  6
CONTINUOUS
 10
135.5033395115
 20
200.8458140666
 11
135.8784683804
 21
200.8458140666
  0
LINE
  5
3A0
100
AcDbEntity
  8
0
100
AcDbLine
 62
7
  6
CONTINUOUS
 10
138.0033395115
 20
200.8458140666
 11
138.3784683804
 21
200.8458140666
  0
LINE
  5
3A1
100
AcDbEntity
  8
0
100
AcDbLine
 62
7
  6
CONTINUOUS
 10
140.5033395115
 20
200.8458140666
 11
140.8784683804
 21
200.8458140666
  0
LINE
  5
3A2
100
AcDbEntity
  8
0
100
AcDbLine
 62
7
  6
CONTINUOUS
 10
143.0033395115
 20
200.8458140666
 11
143.3784683804
 21
200.8458140666
  0
LINE
  5
3A3
100
AcDbEntity
  8
0
100
AcDbLine
 62
7
  6
CONTINUOUS
 10
127.2409039467
 20
200.9458140663
 11
130.5033395115
 21
200.9458140663
  0
LINE
  5
3A4
100
AcDbEntity
  8
0
100
AcDbLine
 62
7
  6
CONTINUOUS
 10
130.8784683804
 20
200.9458140663
 11
133.0033395115
 21
200.9458140663
  0
LINE
  5
3A5
100
AcDbEntity
  8
0
100
AcDbLine
 62
7
  6
CONTINUOUS
 10
133.3784683804
 20
200.9458140663
 11
135.5033395115
 21
200.9458140663
  0
LINE
  5
3A6
100
AcDbEntity
  8
0
100
AcDbLine
 62
7
  6
CONTINUOUS
 10
135.8784683804
 20
200.9458140663
 11
138.0033395115
 21
200.9458140663
  0
LINE
  5
3A7
100
AcDbEntity
  8
0
100
AcDbLine
 62
7
  6
CONTINUOUS
 10
138.3784683804
 20
200.9458140663
 11
140.5033395115
 21
200.9458140663
  0
LINE
  5
3A8
100
AcDbEntity
  8
0
100
AcDbLine
 62
7
  6
CONTINUOUS
 10
140.8784683804
 20
200.9458140663
 11
143.0033395115
 21
200.9458140663
  0
LINE
  5
3A9
100
AcDbEntity
  8
0
100
AcDbLine
 62
7
  6
CONTINUOUS
 10
143.3784683804
 20
200.9458140663
 11
146.6409039452
 21
200.9458140663
  0
LINE
  5
3AA
100
AcDbEntity
  8
0
100
AcDbLine
 62
7
  6
CONTINUOUS
 10
126.6409039453
 20
201.7958140659
 11
147.2409039466
 21
201.7958140659
  0
LINE
  5
3AB
100
AcDbEntity
  8
0
100
AcDbLine
 62
7
  6
CONTINUOUS
 10
126.2409039411
 20
207.8525163628
 11
147.2409039466
 21
207.8525163628
  0
LINE
  5
3AC
100
AcDbEntity
  8
0
100
AcDbLine
 62
7
  6
CONTINUOUS
 10
158.9959039468
 20
212.9524383928
 11
158.9959039468
 21
215.839189739
  0
LINE
  5
3AD
100
AcDbEntity
  8
0
100
AcDbLine
 62
7
  6
CONTINUOUS
 10
159.4184198171
 20
151.6038878424
 11
159.4184198171
 21
162.6877402897
  0
LINE
  5
3AE
100
AcDbEntity
  8
0
100
AcDbLine
 62
7
  6
CONTINUOUS
 10
159.4909039459
 20
218.9958111338
 11
159.4909039459
 21
218.2958140663
  0
LINE
  5
3AF
100
AcDbEntity
  8
0
100
AcDbLine
 62
7
  6
CONTINUOUS
 10
159.4909039459
 20
210.4958140655
 11
159.4909039459
 21
209.7958140654
  0
LINE
  5
3B0
100
AcDbEntity
  8
0
100
AcDbLine
 62
7
  6
CONTINUOUS
 10
159.8409039456
 20
139.3954002457
 11
159.8409039456
 21
136.3962278861
  0
LINE
  5
3B1
100
AcDbEntity
  8
0
100
AcDbLine
 62
7
  6
CONTINUOUS
 10
160.4409039452
 20
122.3958140693
 11
160.4409039452
 21
127.3958140625
  0
LINE
  5
3B2
100
AcDbEntity
  8
0
100
AcDbLine
 62
7
  6
CONTINUOUS
 10
161.240903946
 20
179.3958140659
 11
161.240903946
 21
164.1458140659
  0
LINE
  5
3B3
100
AcDbEntity
  8
0
100
AcDbLine
 62
7
  6
CONTINUOUS
 10
161.240903946
 20
150.1458140659
 11
161.240903946
 21
134.8958140659
  0
LINE
  5
3B4
100
AcDbEntity
  8
0
100
AcDbLine
 62
7
  6
CONTINUOUS
 10
161.6621641483
 20
162.6877402897
 11
161.6621641483
 21
151.6038878421
  0
LINE
  5
3B5
100
AcDbEntity
  8
0
100
AcDbLine
 62
7
  6
CONTINUOUS
 10
161.740903946
 20
179.3958140659
 11
161.740903946
 21
166.1458140659
  0
LINE
  5
3B6
100
AcDbEntity
  8
0
100
AcDbLine
 62
7
  6
CONTINUOUS
 10
161.740903946
 20
148.1458140625
 11
161.740903946
 21
134.8958162441
  0
LINE
  5
3B7
100
AcDbEntity
  8
0
100
AcDbLine
 62
7
  6
CONTINUOUS
 10
161.8409039456
 20
122.3958140659
 11
161.8409039456
 21
127.3958140659
  0
LINE
  5
3B8
100
AcDbEntity
  8
0
100
AcDbLine
 62
7
  6
CONTINUOUS
 10
162.865168015
 20
127.3958140659
 11
162.865168015
 21
122.3958140659
  0
LINE
  5
3B9
100
AcDbEntity
  8
0
100
AcDbLine
 62
7
  6
CONTINUOUS
 10
163.2894320827
 20
122.3958140659
 11
163.2894320827
 21
127.3958140659
  0
LINE
  5
3BA
100
AcDbEntity
  8
0
100
AcDbLine
 62
7
  6
CONTINUOUS
 10
163.995903946
 20
215.839189739
 11
163.995903946
 21
212.9524383928
  0
LINE
  5
3BB
100
AcDbEntity
  8
0
100
AcDbLine
 62
7
  6
CONTINUOUS
 10
158.990903948
 20
209.2958140663
 11
131.4909039441
 21
209.2958140663
  0
LINE
  5
3BC
100
AcDbEntity
  8
0
100
AcDbLine
 62
7
  6
CONTINUOUS
 10
190.3409039456
 20
210.0958140652
 11
194.240903946
 21
210.0958140652
  0
LINE
  5
3BD
100
AcDbEntity
  8
0
100
AcDbLine
 62
7
  6
CONTINUOUS
 10
190.1909039452
 20
210.3958140659
 11
195.5409039467
 21
210.3958140659
  0
LINE
  5
3BE
100
AcDbEntity
  8
0
100
AcDbLine
 62
7
  6
CONTINUOUS
 10
161.490903943
 20
210.4958140655
 11
159.4909039459
 21
210.4958140655
  0
LINE
  5
3BF
100
AcDbEntity
  8
0
100
AcDbLine
 62
7
  6
CONTINUOUS
 10
130.990903946
 20
210.4958140655
 11
128.9909039463
 21
210.4958140655
  0
LINE
  5
3C0
100
AcDbEntity
  8
0
100
AcDbLine
 62
7
  6
CONTINUOUS
 10
155.1118930488
 20
210.5358140665
 11
135.3699148431
 21
210.5358140665
  0
LINE
  5
3C1
100
AcDbEntity
  8
0
100
AcDbLine
 62
7
  6
CONTINUOUS
 10
204.1909039458
 20
210.8958140659
 11
207.1904901226
 21
210.8958140659
  0
LINE
  5
3C2
100
AcDbEntity
  8
0
100
AcDbLine
 62
7
  6
CONTINUOUS
 10
149.8759039457
 20
211.7358140658
 11
148.3759039457
 21
211.7358140658
  0
LINE
  5
3C3
100
AcDbEntity
  8
0
100
AcDbLine
 62
7
  6
CONTINUOUS
 10
147.9659039456
 20
211.7358140658
 11
146.4659039456
 21
211.7358140658
  0
LINE
  5
3C4
100
AcDbEntity
  8
0
100
AcDbLine
 62
7
  6
CONTINUOUS
 10
146.0559039454
 20
211.7358140658
 11
144.5559039454
 21
211.7358140658
  0
LINE
  5
3C5
100
AcDbEntity
  8
0
100
AcDbLine
 62
7
  6
CONTINUOUS
 10
144.1459039453
 20
211.7358140658
 11
142.6459039453
 21
211.7358140658
  0
LINE
  5
3C6
100
AcDbEntity
  8
0
100
AcDbLine
 62
7
  6
CONTINUOUS
 10
142.2359039451
 20
211.7358140658
 11
140.7359039451
 21
211.7358140658
  0
LINE
  5
3C7
100
AcDbEntity
  8
0
100
AcDbLine
 62
7
  6
CONTINUOUS
 10
140.3259039468
 20
211.7358140658
 11
138.8259039468
 21
211.7358140658
  0
LINE
  5
3C8
100
AcDbEntity
  8
0
100
AcDbLine
 62
7
  6
CONTINUOUS
 10
138.4159039467
 20
211.7358140658
 11
136.9159039467
 21
211.7358140658
  0
LINE
  5
3C9
100
AcDbEntity
  8
0
100
AcDbLine
 62
7
  6
CONTINUOUS
 10
136.5059039465
 20
211.7358140658
 11
135.0059039465
 21
211.7358140658
  0
LINE
  5
3CA
100
AcDbEntity
  8
0
100
AcDbLine
 62
7
  6
CONTINUOUS
 10
33.0409039467
 20
212.6958140659
 11
105.0409039467
 21
212.6958140659
  0
LINE
  5
3CB
100
AcDbEntity
  8
0
100
AcDbLine
 62
7
  6
CONTINUOUS
 10
32.740903946
 20
212.9958140655
 11
47.2409039393
 21
212.9958140655
  0
LINE
  5
3CC
100
AcDbEntity
  8
0
100
AcDbLine
 62
7
  6
CONTINUOUS
 10
93.7409047001
 20
212.9958140655
 11
105.0409039471
 21
212.9958140655
  0
LINE
  5
3CD
100
AcDbEntity
  8
0
100
AcDbLine
 62
7
  6
CONTINUOUS
 10
91.5409039467
 20
213.1958140666
 11
49.5409039467
 21
213.1958140666
  0
LINE
  5
3CE
100
AcDbEntity
  8
0
100
AcDbLine
 62
7
  6
CONTINUOUS
 10
135.0059039465
 20
213.2358140658
 11
136.5059039465
 21
213.2358140658
  0
LINE
  5
3CF
100
AcDbEntity
  8
0
100
AcDbLine
 62
7
  6
CONTINUOUS
 10
136.9159039467
 20
213.2358140658
 11
138.4159039467
 21
213.2358140658
  0
LINE
  5
3D0
100
AcDbEntity
  8
0
100
AcDbLine
 62
7
  6
CONTINUOUS
 10
138.8259039468
 20
213.2358140658
 11
140.3259039468
 21
213.2358140658
  0
LINE
  5
3D1
100
AcDbEntity
  8
0
100
AcDbLine
 62
7
  6
CONTINUOUS
 10
140.7359039451
 20
213.2358140658
 11
142.2359039451
 21
213.2358140658
  0
LINE
  5
3D2
100
AcDbEntity
  8
0
100
AcDbLine
 62
7
  6
CONTINUOUS
 10
142.6459039453
 20
213.2358140658
 11
144.1459039453
 21
213.2358140658
  0
LINE
  5
3D3
100
AcDbEntity
  8
0
100
AcDbLine
 62
7
  6
CONTINUOUS
 10
144.5559039454
 20
213.2358140658
 11
146.0559039454
 21
213.2358140658
  0
LINE
  5
3D4
100
AcDbEntity
  8
0
100
AcDbLine
 62
7
  6
CONTINUOUS
 10
146.4659039456
 20
213.2358140658
 11
147.9659039456
 21
213.2358140658
  0
LINE
  5
3D5
100
AcDbEntity
  8
0
100
AcDbLine
 62
7
  6
CONTINUOUS
 10
148.3759039457
 20
213.2358140658
 11
149.8759039457
 21
213.2358140658
  0
LINE
  5
3D6
100
AcDbEntity
  8
0
100
AcDbLine
 62
7
  6
CONTINUOUS
 10
149.8759039457
 20
213.6458140659
 11
148.3759039457
 21
213.6458140659
  0
LINE
  5
3D7
100
AcDbEntity
  8
0
100
AcDbLine
 62
7
  6
CONTINUOUS
 10
147.9659039456
 20
213.6458140659
 11
146.4659039456
 21
213.6458140659
  0
LINE
  5
3D8
100
AcDbEntity
  8
0
100
AcDbLine
 62
7
  6
CONTINUOUS
 10
146.0559039454
 20
213.6458140659
 11
144.5559039454
 21
213.6458140659
  0
LINE
  5
3D9
100
AcDbEntity
  8
0
100
AcDbLine
 62
7
  6
CONTINUOUS
 10
144.1459039453
 20
213.6458140659
 11
142.6459039453
 21
213.6458140659
  0
LINE
  5
3DA
100
AcDbEntity
  8
0
100
AcDbLine
 62
7
  6
CONTINUOUS
 10
142.2359039451
 20
213.6458140659
 11
140.7359039451
 21
213.6458140659
  0
LINE
  5
3DB
100
AcDbEntity
  8
0
100
AcDbLine
 62
7
  6
CONTINUOUS
 10
140.3259039468
 20
213.6458140659
 11
138.8259039468
 21
213.6458140659
  0
LINE
  5
3DC
100
AcDbEntity
  8
0
100
AcDbLine
 62
7
  6
CONTINUOUS
 10
138.4159039467
 20
213.6458140659
 11
136.9159039467
 21
213.6458140659
  0
LINE
  5
3DD
100
AcDbEntity
  8
0
100
AcDbLine
 62
7
  6
CONTINUOUS
 10
136.5059039465
 20
213.6458140659
 11
135.0059039465
 21
213.6458140659
  0
LINE
  5
3DE
100
AcDbEntity
  8
0
100
AcDbLine
 62
7
  6
CONTINUOUS
 10
154.9033039457
 20
214.1408140651
 11
152.1633039455
 21
214.1408140651
  0
LINE
  5
3DF
100
AcDbEntity
  8
0
100
AcDbLine
 62
7
  6
CONTINUOUS
 10
190.1409039464
 20
214.3958140659
 11
190.1909039452
 21
214.3958140659
  0
LINE
  5
3E0
100
AcDbEntity
  8
0
100
AcDbLine
 62
7
  6
CONTINUOUS
 10
152.1633039455
 20
214.6508140667
 11
154.9033039457
 21
214.6508140667
  0
LINE
  5
3E1
100
AcDbEntity
  8
0
100
AcDbLine
 62
7
  6
CONTINUOUS
 10
135.0059039465
 20
215.1458140659
 11
136.5059039465
 21
215.1458140659
  0
LINE
  5
3E2
100
AcDbEntity
  8
0
100
AcDbLine
 62
7
  6
CONTINUOUS
 10
136.9159039467
 20
215.1458140659
 11
138.4159039467
 21
215.1458140659
  0
LINE
  5
3E3
100
AcDbEntity
  8
0
100
AcDbLine
 62
7
  6
CONTINUOUS
 10
138.8259039468
 20
215.1458140659
 11
140.3259039468
 21
215.1458140659
  0
LINE
  5
3E4
100
AcDbEntity
  8
0
100
AcDbLine
 62
7
  6
CONTINUOUS
 10
140.7359039451
 20
215.1458140659
 11
142.2359039451
 21
215.1458140659
  0
LINE
  5
3E5
100
AcDbEntity
  8
0
100
AcDbLine
 62
7
  6
CONTINUOUS
 10
142.6459039453
 20
215.1458140659
 11
144.1459039453
 21
215.1458140659
  0
LINE
  5
3E6
100
AcDbEntity
  8
0
100
AcDbLine
 62
7
  6
CONTINUOUS
 10
144.5559039454
 20
215.1458140659
 11
146.0559039454
 21
215.1458140659
  0
LINE
  5
3E7
100
AcDbEntity
  8
0
100
AcDbLine
 62
7
  6
CONTINUOUS
 10
146.4659039456
 20
215.1458140659
 11
147.9659039456
 21
215.1458140659
  0
LINE
  5
3E8
100
AcDbEntity
  8
0
100
AcDbLine
 62
7
  6
CONTINUOUS
 10
148.3759039457
 20
215.1458140659
 11
149.8759039457
 21
215.1458140659
  0
LINE
  5
3E9
100
AcDbEntity
  8
0
100
AcDbLine
 62
7
  6
CONTINUOUS
 10
44.2409039459
 20
215.4958140655
 11
31.2409039461
 21
215.4958140655
  0
LINE
  5
3EA
100
AcDbEntity
  8
0
100
AcDbLine
 62
7
  6
CONTINUOUS
 10
149.8759039457
 20
215.555814066
 11
148.3759039457
 21
215.555814066
  0
LINE
  5
3EB
100
AcDbEntity
  8
0
100
AcDbLine
 62
7
  6
CONTINUOUS
 10
147.9659039456
 20
215.555814066
 11
146.4659039456
 21
215.555814066
  0
LINE
  5
3EC
100
AcDbEntity
  8
0
100
AcDbLine
 62
7
  6
CONTINUOUS
 10
146.0559039454
 20
215.555814066
 11
144.5559039454
 21
215.555814066
  0
LINE
  5
3ED
100
AcDbEntity
  8
0
100
AcDbLine
 62
7
  6
CONTINUOUS
 10
144.1459039453
 20
215.555814066
 11
142.6459039453
 21
215.555814066
  0
LINE
  5
3EE
100
AcDbEntity
  8
0
100
AcDbLine
 62
7
  6
CONTINUOUS
 10
142.2359039451
 20
215.555814066
 11
140.7359039451
 21
215.555814066
  0
LINE
  5
3EF
100
AcDbEntity
  8
0
100
AcDbLine
 62
7
  6
CONTINUOUS
 10
140.3259039468
 20
215.555814066
 11
138.8259039468
 21
215.555814066
  0
LINE
  5
3F0
100
AcDbEntity
  8
0
100
AcDbLine
 62
7
  6
CONTINUOUS
 10
138.4159039467
 20
215.555814066
 11
136.9159039467
 21
215.555814066
  0
LINE
  5
3F1
100
AcDbEntity
  8
0
100
AcDbLine
 62
7
  6
CONTINUOUS
 10
136.5059039465
 20
215.555814066
 11
135.0059039465
 21
215.555814066
  0
LINE
  5
3F2
100
AcDbEntity
  8
0
100
AcDbLine
 62
7
  6
CONTINUOUS
 10
126.485903946
 20
212.9524383928
 11
128.9859039456
 21
211.5090627199
  0
LINE
  5
3F3
100
AcDbEntity
  8
0
100
AcDbLine
 62
7
  6
CONTINUOUS
 10
131.4859039451
 20
215.8391897391
 11
128.9859039456
 21
217.2825654119
  0
LINE
  5
3F4
100
AcDbEntity
  8
0
100
AcDbLine
 62
7
  6
CONTINUOUS
 10
166.265736357
 20
220.895814065
 11
166.2657363569
 21
191.4864251275
  0
LINE
  5
3F5
100
AcDbEntity
  8
0
100
AcDbLine
 62
7
  6
CONTINUOUS
 10
167.1923758093
 20
127.3958140659
 11
167.1923758093
 21
122.3958140659
  0
LINE
  5
3F6
100
AcDbEntity
  8
0
100
AcDbLine
 62
7
  6
CONTINUOUS
 10
167.6166398771
 20
122.3958140659
 11
167.6166398771
 21
127.3958140659
  0
LINE
  5
3F7
100
AcDbEntity
  8
0
100
AcDbLine
 62
7
  6
CONTINUOUS
 10
167.740903946
 20
164.1458133119
 11
167.740903946
 21
150.14581482
  0
LINE
  5
3F8
100
AcDbEntity
  8
0
100
AcDbLine
 62
7
  6
CONTINUOUS
 10
168.6409039471
 20
122.3958140659
 11
168.6409039471
 21
127.3958140659
  0
LINE
  5
3F9
100
AcDbEntity
  8
0
100
AcDbLine
 62
7
  6
CONTINUOUS
 10
168.9409039452
 20
195.8958140665
 11
168.9409039452
 21
224.8958140654
  0
LINE
  5
3FA
100
AcDbEntity
  8
0
100
AcDbLine
 62
7
  6
CONTINUOUS
 10
169.240903946
 20
195.8958140659
 11
169.240903946
 21
224.8958140659
  0
LINE
  5
3FB
100
AcDbEntity
  8
0
100
AcDbLine
 62
7
  6
CONTINUOUS
 10
170.0409039467
 20
127.395814063
 11
170.0409039467
 21
122.3958140688
  0
LINE
  5
3FC
100
AcDbEntity
  8
0
100
AcDbLine
 62
7
  6
CONTINUOUS
 10
42.1409039464
 20
216.4958140655
 11
40.3409039456
 21
216.4958140655
  0
LINE
  5
3FD
100
AcDbEntity
  8
0
100
AcDbLine
 62
7
  6
CONTINUOUS
 10
135.0059039465
 20
217.055814066
 11
136.5059039465
 21
217.055814066
  0
LINE
  5
3FE
100
AcDbEntity
  8
0
100
AcDbLine
 62
7
  6
CONTINUOUS
 10
136.9159039467
 20
217.055814066
 11
138.4159039467
 21
217.055814066
  0
LINE
  5
3FF
100
AcDbEntity
  8
0
100
AcDbLine
 62
7
  6
CONTINUOUS
 10
138.8259039468
 20
217.055814066
 11
140.3259039468
 21
217.055814066
  0
LINE
  5
400
100
AcDbEntity
  8
0
100
AcDbLine
 62
7
  6
CONTINUOUS
 10
140.7359039451
 20
217.055814066
 11
142.2359039451
 21
217.055814066
  0
LINE
  5
401
100
AcDbEntity
  8
0
100
AcDbLine
 62
7
  6
CONTINUOUS
 10
142.6459039453
 20
217.055814066
 11
144.1459039453
 21
217.055814066
  0
LINE
  5
402
100
AcDbEntity
  8
0
100
AcDbLine
 62
7
  6
CONTINUOUS
 10
144.5559039454
 20
217.055814066
 11
146.0559039454
 21
217.055814066
  0
LINE
  5
403
100
AcDbEntity
  8
0
100
AcDbLine
 62
7
  6
CONTINUOUS
 10
146.4659039456
 20
217.055814066
 11
147.9659039456
 21
217.055814066
  0
LINE
  5
404
100
AcDbEntity
  8
0
100
AcDbLine
 62
7
  6
CONTINUOUS
 10
148.3759039457
 20
217.055814066
 11
149.8759039457
 21
217.055814066
  0
LINE
  5
405
100
AcDbEntity
  8
0
100
AcDbLine
 62
7
  6
CONTINUOUS
 10
36.6409039464
 20
217.9958140655
 11
34.2909039467
 21
217.9958140655
  0
LINE
  5
406
100
AcDbEntity
  8
0
100
AcDbLine
 62
7
  6
CONTINUOUS
 10
134.4959039468
 20
218.2558140653
 11
155.9859039451
 21
218.2558140653
  0
LINE
  5
407
100
AcDbEntity
  8
0
100
AcDbLine
 62
7
  6
CONTINUOUS
 10
128.9909039463
 20
218.2958140663
 11
130.9909039459
 21
218.2958140663
  0
LINE
  5
408
100
AcDbEntity
  8
0
100
AcDbLine
 62
7
  6
CONTINUOUS
 10
159.4909039459
 20
218.2958140663
 11
161.490903943
 21
218.2958140663
  0
LINE
  5
409
100
AcDbEntity
  8
0
100
AcDbLine
 62
7
  6
CONTINUOUS
 10
43.4994825892
 20
218.9958140655
 11
42.2909039467
 21
218.9958140655
  0
LINE
  5
40A
100
AcDbEntity
  8
0
100
AcDbLine
 62
7
  6
CONTINUOUS
 10
40.1909039453
 20
218.9958140655
 11
38.9823253028
 21
218.9958140655
  0
LINE
  5
40B
100
AcDbEntity
  8
0
100
AcDbLine
 62
7
  6
CONTINUOUS
 10
131.4909039458
 20
219.4958140655
 11
158.990903946
 21
219.4958140655
  0
LINE
  5
40C
100
AcDbEntity
  8
0
100
AcDbLine
 62
7
  6
CONTINUOUS
 10
34.2909039467
 20
219.9958140655
 11
36.6409039464
 21
219.9958140655
  0
LINE
  5
40D
100
AcDbEntity
  8
0
100
AcDbLine
 62
7
  6
CONTINUOUS
 10
31.2409039461
 20
222.4958140655
 11
44.2409039459
 21
222.4958140655
  0
LINE
  5
40E
100
AcDbEntity
  8
0
100
AcDbLine
 62
7
  6
CONTINUOUS
 10
126.2409039412
 20
222.9206464769
 11
164.2409039459
 21
222.9206464768
  0
LINE
  5
40F
100
AcDbEntity
  8
0
100
AcDbLine
 62
7
  6
CONTINUOUS
 10
177.740903946
 20
134.3958140659
 11
177.740903946
 21
145.3958140659
  0
LINE
  5
410
100
AcDbEntity
  8
0
100
AcDbLine
 62
7
  6
CONTINUOUS
 10
181.240903946
 20
149.3958140658
 11
181.240903946
 21
160.395814066
  0
LINE
  5
411
100
AcDbEntity
  8
0
100
AcDbLine
 62
7
  6
CONTINUOUS
 10
181.240903946
 20
164.3958140658
 11
181.240903946
 21
175.395814066
  0
LINE
  5
412
100
AcDbEntity
  8
0
100
AcDbLine
 62
7
  6
CONTINUOUS
 10
181.240903946
 20
179.3958140658
 11
181.240903946
 21
190.395814066
  0
LINE
  5
413
100
AcDbEntity
  8
0
100
AcDbLine
 62
7
  6
CONTINUOUS
 10
119.590903946
 20
224.3958140659
 11
96.8909039466
 21
224.3958140659
  0
LINE
  5
414
100
AcDbEntity
  8
0
100
AcDbLine
 62
7
  6
CONTINUOUS
 10
170.240903946
 20
225.8958140659
 11
188.8409039456
 21
225.8958140659
  0
LINE
  5
415
100
AcDbEntity
  8
0
100
AcDbLine
 62
7
  6
CONTINUOUS
 10
170.240903946
 20
226.1958140666
 11
188.8409039457
 21
226.1958140666
  0
LINE
  5
416
100
AcDbEntity
  8
0
100
AcDbLine
 62
7
  6
CONTINUOUS
 10
114.7409039463
 20
226.856089417
 11
101.7410712613
 21
226.856089417
  0
LINE
  5
417
100
AcDbEntity
  8
0
100
AcDbLine
 62
7
  6
CONTINUOUS
 10
26.7599691301
 20
226.8766556497
 11
45.240903946
 21
226.8766556497
  0
LINE
  5
418
100
AcDbEntity
  8
0
100
AcDbLine
 62
7
  6
CONTINUOUS
 10
192.940903946
 20
226.8766707254
 11
211.7218387618
 21
226.8766707254
  0
LINE
  5
419
100
AcDbEntity
  8
0
100
AcDbLine
 62
7
  6
CONTINUOUS
 10
50.5409039467
 20
227.1958140666
 11
91.5409039467
 21
227.1958140666
  0
LINE
  5
41A
100
AcDbEntity
  8
0
100
AcDbLine
 62
7
  6
CONTINUOUS
 10
50.240903946
 20
227.4958140655
 11
91.740903946
 21
227.4958140655
  0
LINE
  5
41B
100
AcDbEntity
  8
0
100
AcDbLine
 62
7
  6
CONTINUOUS
 10
45.2409039461
 20
227.876237549
 11
25.7604604004
 21
227.876237549
  0
LINE
  5
41C
100
AcDbEntity
  8
0
100
AcDbLine
 62
7
  6
CONTINUOUS
 10
212.7213455951
 20
227.876255715
 11
192.940903946
 21
227.876255715
  0
LINE
  5
41D
100
AcDbEntity
  8
0
100
AcDbLine
 62
7
  6
CONTINUOUS
 10
45.2409039462
 20
228.395814066
 11
25.2409039461
 21
228.395814066
  0
LINE
  5
41E
100
AcDbEntity
  8
0
100
AcDbLine
 62
7
  6
CONTINUOUS
 10
192.940903946
 20
228.3958140659
 11
213.240903946
 21
228.3958140659
  0
LINE
  5
41F
100
AcDbEntity
  8
0
100
AcDbLine
 62
7
  6
CONTINUOUS
 10
45.2409039462
 20
228.4475124116
 11
25.2975885456
 21
228.4475124116
  0
LINE
  5
420
100
AcDbEntity
  8
0
100
AcDbLine
 62
7
  6
CONTINUOUS
 10
192.940903946
 20
228.4475124116
 11
213.2975885417
 21
228.4475124116
  0
LINE
  5
421
100
AcDbEntity
  8
0
100
AcDbLine
 62
7
  6
CONTINUOUS
 10
47.2599691302
 20
228.4478140659
 11
45.240903946
 21
228.4478140659
  0
LINE
  5
422
100
AcDbEntity
  8
0
100
AcDbLine
 62
7
  6
CONTINUOUS
 10
191.2218387629
 20
228.4478140659
 11
192.940903946
 21
228.4478140659
  0
LINE
  5
423
100
AcDbEntity
  8
0
100
AcDbLine
 62
7
  6
CONTINUOUS
 10
97.3909039465
 20
224.8413709168
 11
119.0909032707
 21
224.835955742
  0
LINE
  5
424
100
AcDbEntity
  8
0
100
AcDbLine
 62
7
  6
CONTINUOUS
 10
158.9959039468
 20
212.9524383928
 11
161.4959039464
 21
211.5090627199
  0
LINE
  5
425
100
AcDbEntity
  8
0
100
AcDbLine
 62
7
  6
CONTINUOUS
 10
181.740903946
 20
145.3958140659
 11
181.740903946
 21
134.3958140659
  0
LINE
  5
426
100
AcDbEntity
  8
0
100
AcDbLine
 62
7
  6
CONTINUOUS
 10
185.240903946
 20
190.3956071542
 11
185.240903946
 21
179.3960209776
  0
LINE
  5
427
100
AcDbEntity
  8
0
100
AcDbLine
 62
7
  6
CONTINUOUS
 10
185.240903946
 20
175.3956071542
 11
185.240903946
 21
164.3960209776
  0
LINE
  5
428
100
AcDbEntity
  8
0
100
AcDbLine
 62
7
  6
CONTINUOUS
 10
185.240903946
 20
160.3956071542
 11
185.240903946
 21
149.3960209776
  0
LINE
  5
429
100
AcDbEntity
  8
0
100
AcDbLine
 62
7
  6
CONTINUOUS
 10
101.7409039464
 20
231.8536222189
 11
114.7407366282
 21
231.8536222189
  0
LINE
  5
42A
100
AcDbEntity
  8
0
100
AcDbLine
 62
7
  6
CONTINUOUS
 10
94.8939785525
 20
231.9076836975
 11
95.3909039467
 21
231.9076836975
  0
LINE
  5
42B
100
AcDbEntity
  8
0
100
AcDbLine
 62
7
  6
CONTINUOUS
 10
121.090903946
 20
231.9076836975
 11
121.5878293732
 21
231.9076836975
  0
LINE
  5
42C
100
AcDbEntity
  8
0
100
AcDbLine
 62
7
  6
CONTINUOUS
 10
47.2599691302
 20
232.8767488817
 11
94.8908968914
 21
232.8767488817
  0
LINE
  5
42D
100
AcDbEntity
  8
0
100
AcDbLine
 62
7
  6
CONTINUOUS
 10
95.3923764217
 20
232.8767488817
 11
121.089431465
 21
232.8767488817
  0
LINE
  5
42E
100
AcDbEntity
  8
0
100
AcDbLine
 62
7
  6
CONTINUOUS
 10
121.590903946
 20
232.8767488817
 11
191.2218387618
 21
232.8767488817
  0
LINE
  5
42F
100
AcDbEntity
  8
0
100
AcDbLine
 62
7
  6
CONTINUOUS
 10
192.2213452498
 20
233.8762553697
 11
121.5875960401
 21
233.8762553697
  0
LINE
  5
430
100
AcDbEntity
  8
0
100
AcDbLine
 62
7
  6
CONTINUOUS
 10
121.090903946
 20
233.8762553697
 11
95.3909039467
 21
233.8762553697
  0
LINE
  5
431
100
AcDbEntity
  8
0
100
AcDbLine
 62
7
  6
CONTINUOUS
 10
94.8942118883
 20
233.8762553697
 11
46.2604626423
 21
233.8762553697
  0
LINE
  5
432
100
AcDbEntity
  8
0
100
AcDbLine
 62
7
  6
CONTINUOUS
 10
114.590903946
 20
233.9949818203
 11
101.890903946
 21
233.9949818203
  0
LINE
  5
433
100
AcDbEntity
  8
0
100
AcDbLine
 62
7
  6
CONTINUOUS
 10
120.0909039461
 20
234.3238317553
 11
116.590903946
 21
234.3238317553
  0
LINE
  5
434
100
AcDbEntity
  8
0
100
AcDbLine
 62
7
  6
CONTINUOUS
 10
99.890903946
 20
234.3238317553
 11
96.3909039468
 21
234.3238317553
  0
LINE
  5
435
100
AcDbEntity
  8
0
100
AcDbLine
 62
7
  6
CONTINUOUS
 10
96.3909039468
 20
234.3329569231
 11
120.0909039461
 21
234.3329569231
  0
LINE
  5
436
100
AcDbEntity
  8
0
100
AcDbLine
 62
7
  6
CONTINUOUS
 10
192.7409039461
 20
234.3958140659
 11
45.7409039461
 21
234.3958140659
  0
LINE
  5
437
100
AcDbEntity
  8
0
100
AcDbLine
 62
7
  6
CONTINUOUS
 10
192.7975885456
 20
234.4478140659
 11
45.7975885456
 21
234.4478140659
  0
LINE
  5
438
100
AcDbEntity
  8
0
100
AcDbLine
 62
7
  6
CONTINUOUS
 10
163.995903946
 20
215.8391897391
 11
161.4959039464
 21
217.282565412
  0
LINE
  5
439
100
AcDbEntity
  8
0
100
AcDbLine
 62
7
  6
CONTINUOUS
 10
189.240903946
 20
110.4958140655
 11
189.240903946
 21
107.7958140663
  0
LINE
  5
43A
100
AcDbEntity
  8
0
100
AcDbLine
 62
7
  6
CONTINUOUS
 10
189.240903946
 20
134.3958140658
 11
189.240903946
 21
145.395814066
  0
LINE
  5
43B
100
AcDbEntity
  8
0
100
AcDbLine
 62
7
  6
CONTINUOUS
 10
189.240903946
 20
149.3958140658
 11
189.240903946
 21
160.395814066
  0
LINE
  5
43C
100
AcDbEntity
  8
0
100
AcDbLine
 62
7
  6
CONTINUOUS
 10
189.240903946
 20
164.3958140658
 11
189.240903946
 21
175.395814066
  0
LINE
  5
43D
100
AcDbEntity
  8
0
100
AcDbLine
 62
7
  6
CONTINUOUS
 10
189.240903946
 20
179.3958140658
 11
189.240903946
 21
190.395814066
  0
LINE
  5
43E
100
AcDbEntity
  8
0
100
AcDbLine
 62
7
  6
CONTINUOUS
 10
189.5409039467
 20
110.7958140634
 11
189.5409039467
 21
107.4958140684
  0
LINE
  5
43F
100
AcDbEntity
  8
0
100
AcDbLine
 62
7
  6
CONTINUOUS
 10
189.8409039457
 20
224.8958140659
 11
189.8409039457
 21
210.5958140652
  0
LINE
  5
440
100
AcDbEntity
  8
0
100
AcDbLine
 62
7
  6
CONTINUOUS
 10
190.1409039464
 20
224.8958140626
 11
190.1409039464
 21
214.3958140659
  0
LINE
  5
441
100
AcDbEntity
  8
0
100
AcDbLine
 62
7
  6
CONTINUOUS
 10
190.1909039452
 20
214.3958140659
 11
190.1909039452
 21
210.3958140659
  0
LINE
  5
442
100
AcDbEntity
  8
0
100
AcDbLine
 62
7
  6
CONTINUOUS
 10
191.2218387618
 20
232.8767488817
 11
191.2218387618
 21
228.4478140659
  0
LINE
  5
443
100
AcDbEntity
  8
0
100
AcDbLine
 62
7
  6
CONTINUOUS
 10
192.2213452498
 20
228.4478140659
 11
192.2213452498
 21
233.8762553697
  0
LINE
  5
444
100
AcDbEntity
  8
0
100
AcDbLine
 62
7
  6
CONTINUOUS
 10
192.340903946
 20
108.9148792491
 11
192.340903946
 21
103.882956923
  0
LINE
  5
445
100
AcDbEntity
  8
0
100
AcDbLine
 62
7
  6
CONTINUOUS
 10
192.7409039461
 20
228.4478140659
 11
192.7409039461
 21
234.3958140659
  0
LINE
  5
446
100
AcDbEntity
  8
0
100
AcDbLine
 62
7
  6
CONTINUOUS
 10
192.7975885456
 20
228.4478140659
 11
192.7975885456
 21
234.4478140659
  0
LINE
  5
447
100
AcDbEntity
  8
0
100
AcDbLine
 62
7
  6
CONTINUOUS
 10
192.940903946
 20
226.8766707254
 11
192.940903946
 21
228.4478140659
  0
LINE
  5
448
100
AcDbEntity
  8
0
100
AcDbLine
 62
7
  6
CONTINUOUS
 10
193.240903946
 20
190.3956071542
 11
193.240903946
 21
179.3960209776
  0
LINE
  5
449
100
AcDbEntity
  8
0
100
AcDbLine
 62
7
  6
CONTINUOUS
 10
193.240903946
 20
175.3956071542
 11
193.240903946
 21
164.3960209776
  0
LINE
  5
44A
100
AcDbEntity
  8
0
100
AcDbLine
 62
7
  6
CONTINUOUS
 10
193.240903946
 20
160.3956071542
 11
193.240903946
 21
149.3960209776
  0
LINE
  5
44B
100
AcDbEntity
  8
0
100
AcDbLine
 62
7
  6
CONTINUOUS
 10
193.240903946
 20
145.3956071542
 11
193.240903946
 21
134.3960209776
  0
LINE
  5
44C
100
AcDbEntity
  8
0
100
AcDbLine
 62
7
  6
CONTINUOUS
 10
195.2409039461
 20
209.0958140652
 11
195.2409039461
 21
195.8958140659
  0
LINE
  5
44D
100
AcDbEntity
  8
0
100
AcDbLine
 62
7
  6
CONTINUOUS
 10
195.5409039467
 20
210.3958140659
 11
195.5409039467
 21
195.8958140693
  0
LINE
  5
44E
100
AcDbEntity
  8
0
100
AcDbLine
 62
7
  6
CONTINUOUS
 10
203.190903946
 20
154.1458140657
 11
203.190903946
 21
166.1454002425
  0
LINE
  5
44F
100
AcDbEntity
  8
0
100
AcDbLine
 62
7
  6
CONTINUOUS
 10
203.190903946
 20
189.8958140657
 11
203.190903946
 21
209.8954002426
  0
LINE
  5
450
100
AcDbEntity
  8
0
100
AcDbLine
 62
7
  6
CONTINUOUS
 10
208.190903946
 20
209.8954002425
 11
208.190903946
 21
189.8962278893
  0
LINE
  5
451
100
AcDbEntity
  8
0
100
AcDbLine
 62
7
  6
CONTINUOUS
 10
208.190903946
 20
166.1454002424
 11
208.190903946
 21
154.1462278893
  0
LINE
  5
452
100
AcDbEntity
  8
0
100
AcDbLine
 62
7
  6
CONTINUOUS
 10
211.7218387618
 20
226.8766707254
 11
211.7218387618
 21
109.9851912725
  0
LINE
  5
453
100
AcDbEntity
  8
0
100
AcDbLine
 62
7
  6
CONTINUOUS
 10
212.7213452498
 20
112.9129052022
 11
212.7213452498
 21
227.8762553697
  0
LINE
  5
454
100
AcDbEntity
  8
0
100
AcDbLine
 62
7
  6
CONTINUOUS
 10
213.240903946
 20
112.393346506
 11
213.240903946
 21
228.395814066
  0
LINE
  5
455
100
AcDbEntity
  8
0
100
AcDbLine
 62
7
  6
CONTINUOUS
 10
213.2975885456
 20
122.32210267
 11
213.2975885456
 21
228.4475124116
  0
ARC
  5
456
100
AcDbEntity
  8
0
100
AcDbCircle
 62
7
  6
CONTINUOUS
 10
58.9409047017
 20
111.8958133094
 40
1.0000007565
100
AcDbArc
 50
90.0000434528
 51
179.9999566558
  0
ARC
  5
457
100
AcDbEntity
  8
0
100
AcDbCircle
 62
7
  6
CONTINUOUS
 10
58.9409047015
 20
107.7958148225
 40
1.0000007562
100
AcDbArc
 50
180.00004335
 51
269.9999567871
  0
ARC
  5
458
100
AcDbEntity
  8
0
100
AcDbCircle
 62
7
  6
CONTINUOUS
 10
53.2409046998
 20
131.8958148198
 40
1.0000007539
100
AcDbArc
 50
180.0000428173
 51
270.0000000079
  0
ARC
  5
459
100
AcDbEntity
  8
0
100
AcDbCircle
 62
7
  6
CONTINUOUS
 10
67.2409031921
 20
131.8958148198
 40
1.0000007539
100
AcDbArc
 50
270.0000428141
 51
360.0
  0
ARC
  5
45A
100
AcDbEntity
  8
0
100
AcDbCircle
 62
7
  6
CONTINUOUS
 10
58.6409039464
 20
112.1958140667
 40
1.0
100
AcDbArc
 50
90.0000000287
 51
179.9999999769
  0
ARC
  5
45B
100
AcDbEntity
  8
0
100
AcDbCircle
 62
7
  6
CONTINUOUS
 10
58.6409039464
 20
107.4958140655
 40
1.0
100
AcDbArc
 50
180.0000000231
 51
269.9999999999
  0
ARC
  5
45C
100
AcDbEntity
  8
0
100
AcDbCircle
 62
7
  6
CONTINUOUS
 10
32.0409039469
 20
158.3958140661
 40
1.3000000009
100
AcDbArc
 50
180.0000000162
 51
269.9999999774
  0
ARC
  5
45D
100
AcDbEntity
  8
0
100
AcDbCircle
 62
7
  6
CONTINUOUS
 10
61.1643406461
 20
144.2422275282
 40
1.0854983503
100
AcDbArc
 50
211.5492111832
 51
234.1125940561
  0
ARC
  5
45E
100
AcDbEntity
  8
0
100
AcDbCircle
 62
7
  6
CONTINUOUS
 10
44.7297257966
 20
136.8846359287
 40
1.0111781397
100
AcDbArc
 50
0.0039717036
 51
59.6292929008
  0
ARC
  5
45F
100
AcDbEntity
  8
0
100
AcDbCircle
 62
7
  6
CONTINUOUS
 10
63.9409047022
 20
146.9958148225
 40
1.0000007569
100
AcDbArc
 50
180.0000435727
 51
269.9999565186
  0
ARC
  5
460
100
AcDbEntity
  8
0
100
AcDbCircle
 62
7
  6
CONTINUOUS
 10
53.2409046998
 20
141.895813312
 40
1.0000007539
100
AcDbArc
 50
90.000042817
 51
179.9999568047
  0
ARC
  5
461
100
AcDbEntity
  8
0
100
AcDbCircle
 62
7
  6
CONTINUOUS
 10
67.2409031921
 20
141.895813312
 40
1.0000007539
100
AcDbArc
 50
0.0
 51
90.0000000121
  0
ARC
  5
462
100
AcDbEntity
  8
0
100
AcDbCircle
 62
7
  6
CONTINUOUS
 10
32.0409046999
 20
158.3958148191
 40
1.0000007532
100
AcDbArc
 50
180.0000429553
 51
269.9999568047
  0
ARC
  5
463
100
AcDbEntity
  8
0
100
AcDbCircle
 62
7
  6
CONTINUOUS
 10
59.0909039456
 20
153.6458140659
 40
1.0
100
AcDbArc
 50
0.0
 51
90.000000005
  0
ARC
  5
464
100
AcDbEntity
  8
0
100
AcDbCircle
 62
7
  6
CONTINUOUS
 10
41.3909039463
 20
153.6458140659
 40
1.0
100
AcDbArc
 50
89.9999999942
 51
179.9999999769
  0
ARC
  5
465
100
AcDbEntity
  8
0
100
AcDbCircle
 62
7
  6
CONTINUOUS
 10
41.3909039463
 20
143.6458140659
 40
1.0
100
AcDbArc
 50
180.0000000231
 51
270.0000000058
  0
ARC
  5
466
100
AcDbEntity
  8
0
100
AcDbCircle
 62
7
  6
CONTINUOUS
 10
63.6409039432
 20
146.6958140634
 40
0.9999999968
100
AcDbArc
 50
180.0000000003
 51
269.9999999999
  0
ARC
  5
467
100
AcDbEntity
  8
0
100
AcDbCircle
 62
7
  6
CONTINUOUS
 10
61.0901871714
 20
144.1982258577
 40
0.9992832426
100
AcDbArc
 50
180.0000104156
 51
211.623837651
  0
ARC
  5
468
100
AcDbEntity
  8
0
100
AcDbCircle
 62
7
  6
CONTINUOUS
 10
61.1082580605
 20
144.1599621343
 40
0.9859780018
100
AcDbArc
 50
233.9506368426
 51
267.4680486365
  0
ARC
  5
469
100
AcDbEntity
  8
0
100
AcDbCircle
 62
7
  6
CONTINUOUS
 10
45.3434403753
 20
137.4983504954
 40
0.9170222692
100
AcDbArc
 50
0.010329507
 51
90.0125947427
  0
ARC
  5
46A
100
AcDbEntity
  8
0
100
AcDbCircle
 62
7
  6
CONTINUOUS
 10
51.4375737637
 20
142.1453378061
 40
0.5004762623
100
AcDbArc
 50
69.381829313
 51
89.9942420064
  0
ARC
  5
46B
100
AcDbEntity
  8
0
100
AcDbCircle
 62
7
  6
CONTINUOUS
 10
65.7410237643
 20
140.3456942469
 40
0.300119843
100
AcDbArc
 50
90.0228744937
 51
179.9999830005
  0
ARC
  5
46C
100
AcDbEntity
  8
0
100
AcDbCircle
 62
7
  6
CONTINUOUS
 10
65.7410237638
 20
133.4459338844
 40
0.3001198424
100
AcDbArc
 50
180.0228744127
 51
269.9999830379
  0
ARC
  5
46D
100
AcDbEntity
  8
0
100
AcDbCircle
 62
7
  6
CONTINUOUS
 10
54.7407841283
 20
140.3456942474
 40
0.3001198424
100
AcDbArc
 50
0.0000170144
 51
89.999983038
  0
ARC
  5
46E
100
AcDbEntity
  8
0
100
AcDbCircle
 62
7
  6
CONTINUOUS
 10
55.3409039461
 20
133.7458140659
 40
0.3
100
AcDbArc
 50
89.999999998
 51
180.0237159047
  0
ARC
  5
46F
100
AcDbEntity
  8
0
100
AcDbCircle
 62
7
  6
CONTINUOUS
 10
54.7409039461
 20
133.4458140659
 40
0.3
100
AcDbArc
 50
270.0000000235
 51
0.0228667358
  0
ARC
  5
470
100
AcDbEntity
  8
0
100
AcDbCircle
 62
7
  6
CONTINUOUS
 10
65.1409039476
 20
133.7458140685
 40
0.2999999978
100
AcDbArc
 50
359.9762836008
 51
90.0237164095
  0
ARC
  5
471
100
AcDbEntity
  8
0
100
AcDbCircle
 62
7
  6
CONTINUOUS
 10
55.3409039446
 20
140.0458140633
 40
0.2999999978
100
AcDbArc
 50
179.9999994299
 51
270.0237163984
  0
ARC
  5
472
100
AcDbEntity
  8
0
100
AcDbCircle
 62
7
  6
CONTINUOUS
 10
65.1409039476
 20
140.0458140633
 40
0.2999999978
100
AcDbArc
 50
269.9999997851
 51
0.0237164014
  0
ARC
  5
473
100
AcDbEntity
  8
0
100
AcDbCircle
 62
7
  6
CONTINUOUS
 10
82.7409047002
 20
112.9958148198
 40
1.0000007542
100
AcDbArc
 50
180.0000432182
 51
269.9999566733
  0
ARC
  5
474
100
AcDbEntity
  8
0
100
AcDbCircle
 62
7
  6
CONTINUOUS
 10
80.4409031924
 20
112.7958148191
 40
1.0000007528
100
AcDbArc
 50
270.0000427752
 51
359.9999999886
  0
ARC
  5
475
100
AcDbEntity
  8
0
100
AcDbCircle
 62
7
  6
CONTINUOUS
 10
76.7409068783
 20
112.2958169986
 40
0.5000029323
100
AcDbArc
 50
180.0003360128
 51
269.9996639875
  0
ARC
  5
476
100
AcDbEntity
  8
0
100
AcDbCircle
 62
7
  6
CONTINUOUS
 10
75.4409010143
 20
112.3958111349
 40
0.500002931
100
AcDbArc
 50
0.0003358659
 51
89.9996639058
  0
ARC
  5
477
100
AcDbEntity
  8
0
100
AcDbCircle
 62
7
  6
CONTINUOUS
 10
76.4409039468
 20
111.9958140671
 40
0.5000000016
100
AcDbArc
 50
180.0000002634
 51
270.0000000108
  0
ARC
  5
478
100
AcDbEntity
  8
0
100
AcDbCircle
 62
7
  6
CONTINUOUS
 10
75.7409039444
 20
112.6958140651
 40
0.5000000016
100
AcDbArc
 50
0.0
 51
89.9999997706
  0
CIRCLE
  5
479
100
AcDbEntity
  8
0
100
AcDbCircle
 62
7
  6
CONTINUOUS
 10
83.240903946
 20
143.8958140659
 40
1.5
  0
CIRCLE
  5
47A
100
AcDbEntity
  8
0
100
AcDbCircle
 62
7
  6
CONTINUOUS
 10
111.7409039459
 20
135.3958140662
 40
1.4999995119
  0
ARC
  5
47B
100
AcDbEntity
  8
0
100
AcDbCircle
 62
7
  6
CONTINUOUS
 10
105.0409039447
 20
158.3958140661
 40
1.3000000009
100
AcDbArc
 50
270.0000001021
 51
359.9999999917
  0
CIRCLE
  5
47C
100
AcDbEntity
  8
0
100
AcDbCircle
 62
7
  6
CONTINUOUS
 10
85.490903946
 20
139.998699748
 40
1.25
  0
CIRCLE
  5
47D
100
AcDbEntity
  8
0
100
AcDbCircle
 62
7
  6
CONTINUOUS
 10
87.740903946
 20
143.8958140659
 40
1.25
  0
CIRCLE
  5
47E
100
AcDbEntity
  8
0
100
AcDbCircle
 62
7
  6
CONTINUOUS
 10
85.490903946
 20
147.7929283838
 40
1.25
  0
CIRCLE
  5
47F
100
AcDbEntity
  8
0
100
AcDbCircle
 62
7
  6
CONTINUOUS
 10
80.990903946
 20
147.7929283838
 40
1.25
  0
CIRCLE
  5
480
100
AcDbEntity
  8
0
100
AcDbCircle
 62
7
  6
CONTINUOUS
 10
78.740903946
 20
143.8958140659
 40
1.25
  0
CIRCLE
  5
481
100
AcDbEntity
  8
0
100
AcDbCircle
 62
7
  6
CONTINUOUS
 10
80.990903946
 20
139.998699748
 40
1.25
  0
ARC
  5
482
100
AcDbEntity
  8
0
100
AcDbCircle
 62
7
  6
CONTINUOUS
 10
105.0409031903
 20
158.3958148224
 40
1.0000007565
100
AcDbArc
 50
270.0000433384
 51
359.9999564565
  0
ARC
  5
483
100
AcDbEntity
  8
0
100
AcDbCircle
 62
7
  6
CONTINUOUS
 10
76.4409031903
 20
146.9958148205
 40
1.000000755
100
AcDbArc
 50
270.0000434125
 51
359.9999569416
  0
ARC
  5
484
100
AcDbEntity
  8
0
100
AcDbCircle
 62
7
  6
CONTINUOUS
 10
76.4409031924
 20
152.9958133127
 40
1.0000007529
100
AcDbArc
 50
0.0000429553
 51
89.9999569362
  0
ARC
  5
485
100
AcDbEntity
  8
0
100
AcDbCircle
 62
7
  6
CONTINUOUS
 10
76.7409039428
 20
153.2958140631
 40
1.0000000032
100
AcDbArc
 50
0.0
 51
90.0000000113
  0
ARC
  5
486
100
AcDbEntity
  8
0
100
AcDbCircle
 62
7
  6
CONTINUOUS
 10
76.740903946
 20
146.6958140666
 40
1.0
100
AcDbArc
 50
269.9999999947
 51
360.0
  0
ARC
  5
487
100
AcDbEntity
  8
0
100
AcDbCircle
 62
7
  6
CONTINUOUS
 10
32.0409046992
 20
193.6958148191
 40
1.0000007525
100
AcDbArc
 50
180.0000429553
 51
269.9999570447
  0
ARC
  5
488
100
AcDbEntity
  8
0
100
AcDbCircle
 62
7
  6
CONTINUOUS
 10
47.2409031903
 20
213.9958148212
 40
1.0000007557
100
AcDbArc
 50
270.0000429127
 51
360.0
  0
ARC
  5
489
100
AcDbEntity
  8
0
100
AcDbCircle
 62
7
  6
CONTINUOUS
 10
49.5409046992
 20
214.1958148191
 40
1.0000007525
100
AcDbArc
 50
180.0000427446
 51
270.0000000002
  0
ARC
  5
48A
100
AcDbEntity
  8
0
100
AcDbCircle
 62
7
  6
CONTINUOUS
 10
44.2409039444
 20
221.9958140639
 40
0.5000000016
100
AcDbArc
 50
0.0
 51
89.9999998279
  0
ARC
  5
48B
100
AcDbEntity
  8
0
100
AcDbCircle
 62
7
  6
CONTINUOUS
 10
31.2409039476
 20
221.9958140639
 40
0.5000000016
100
AcDbArc
 50
90.0000001717
 51
179.9999998281
  0
ARC
  5
48C
100
AcDbEntity
  8
0
100
AcDbCircle
 62
7
  6
CONTINUOUS
 10
31.2409039476
 20
215.9958140671
 40
0.5000000016
100
AcDbArc
 50
180.0000001719
 51
269.9999998283
  0
ARC
  5
48D
100
AcDbEntity
  8
0
100
AcDbCircle
 62
7
  6
CONTINUOUS
 10
44.2409039444
 20
215.9958140671
 40
0.5000000016
100
AcDbArc
 50
270.0000001721
 51
360.0
  0
ARC
  5
48E
100
AcDbEntity
  8
0
100
AcDbCircle
 62
7
  6
CONTINUOUS
 10
36.6408640071
 20
218.0958540044
 40
0.1000399469
100
AcDbArc
 50
270.0228744136
 51
359.9999839423
  0
ARC
  5
48F
100
AcDbEntity
  8
0
100
AcDbCircle
 62
7
  6
CONTINUOUS
 10
42.1408640071
 20
216.5958540044
 40
0.1000399469
100
AcDbArc
 50
270.0228744136
 51
359.9999839423
  0
ARC
  5
490
100
AcDbEntity
  8
0
100
AcDbCircle
 62
7
  6
CONTINUOUS
 10
40.3409438849
 20
216.5958540044
 40
0.1000399469
100
AcDbArc
 50
180.0228743554
 51
269.9771255897
  0
ARC
  5
491
100
AcDbEntity
  8
0
100
AcDbCircle
 62
7
  6
CONTINUOUS
 10
36.6408640078
 20
219.8957741274
 40
0.1000399461
100
AcDbArc
 50
0.0000174336
 51
89.9771258936
  0
ARC
  5
492
100
AcDbEntity
  8
0
100
AcDbCircle
 62
7
  6
CONTINUOUS
 10
41.240903946
 20
221.3543362288
 40
0.1000399457
100
AcDbArc
 50
45.0228737923
 51
134.9771262037
  0
ARC
  5
493
100
AcDbEntity
  8
0
100
AcDbCircle
 62
7
  6
CONTINUOUS
 10
31.8823817818
 20
218.9958140655
 40
0.1000399451
100
AcDbArc
 50
135.0228735138
 51
224.9771262343
  0
ARC
  5
494
100
AcDbEntity
  8
0
100
AcDbCircle
 62
7
  6
CONTINUOUS
 10
43.4994592195
 20
219.0958237466
 40
0.1000096838
100
AcDbArc
 50
270.0133885646
 51
44.9866108964
  0
ARC
  5
495
100
AcDbEntity
  8
0
100
AcDbCircle
 62
7
  6
CONTINUOUS
 10
38.9823486714
 20
219.0958237461
 40
0.1000096833
100
AcDbArc
 50
135.0133883402
 51
269.9866120459
  0
ARC
  5
496
100
AcDbEntity
  8
0
100
AcDbCircle
 62
7
  6
CONTINUOUS
 10
34.1408942663
 20
221.2543693403
 40
0.1000096825
100
AcDbArc
 50
0.0000037244
 51
134.986611269
  0
ARC
  5
497
100
AcDbEntity
  8
0
100
AcDbCircle
 62
7
  6
CONTINUOUS
 10
34.1408942677
 20
216.7372587892
 40
0.1000096811
100
AcDbArc
 50
225.0133868374
 51
359.9999963064
  0
ARC
  5
498
100
AcDbEntity
  8
0
100
AcDbCircle
 62
7
  6
CONTINUOUS
 10
34.2909039462
 20
220.0458140657
 40
0.0500000002
100
AcDbArc
 50
179.9999998303
 51
270.0000001868
  0
ARC
  5
499
100
AcDbEntity
  8
0
100
AcDbCircle
 62
7
  6
CONTINUOUS
 10
34.290903943
 20
217.9458140685
 40
0.049999997
100
AcDbArc
 50
89.9999999104
 51
180.0000000955
  0
ARC
  5
49A
100
AcDbEntity
  8
0
100
AcDbCircle
 62
7
  6
CONTINUOUS
 10
42.290903943
 20
218.9458140685
 40
0.049999997
100
AcDbArc
 50
89.9999999104
 51
180.0000000955
  0
ARC
  5
49B
100
AcDbEntity
  8
0
100
AcDbCircle
 62
7
  6
CONTINUOUS
 10
40.190903949
 20
218.9458140685
 40
0.049999997
100
AcDbArc
 50
359.9999999124
 51
90.0000000936
  0
CIRCLE
  5
49C
100
AcDbEntity
  8
0
100
AcDbCircle
 62
7
  6
CONTINUOUS
 10
111.7409039459
 20
210.395814066
 40
1.499999512
  0
ARC
  5
49D
100
AcDbEntity
  8
0
100
AcDbCircle
 62
7
  6
CONTINUOUS
 10
105.0409031902
 20
191.3958133093
 40
1.0000007566
100
AcDbArc
 50
0.0000435498
 51
89.9999566558
  0
ARC
  5
49E
100
AcDbEntity
  8
0
100
AcDbCircle
 62
7
  6
CONTINUOUS
 10
105.0409031909
 20
193.6958148225
 40
1.0000007558
100
AcDbArc
 50
270.0000431042
 51
359.9999564502
  0
ARC
  5
49F
100
AcDbEntity
  8
0
100
AcDbCircle
 62
7
  6
CONTINUOUS
 10
95.6826255021
 20
211.2299002421
 40
23.1030581642
100
AcDbArc
 50
89.9794693907
 51
90.785822887
  0
ARC
  5
4A0
100
AcDbEntity
  8
0
100
AcDbCircle
 62
7
  6
CONTINUOUS
 10
97.3914031658
 20
226.8418701331
 40
2.0004992786
100
AcDbArc
 50
179.9999892812
 51
269.9857019899
  0
ARC
  5
4A1
100
AcDbEntity
  8
0
100
AcDbCircle
 62
7
  6
CONTINUOUS
 10
119.0904060504
 20
226.8364549567
 40
2.0004992766
100
AcDbArc
 50
270.0142407575
 51
0.0000107192
  0
ARC
  5
4A2
100
AcDbEntity
  8
0
100
AcDbCircle
 62
7
  6
CONTINUOUS
 10
96.8909061236
 20
226.3958162431
 40
2.0000021772
100
AcDbArc
 50
180.0000619636
 51
269.9999376338
  0
ARC
  5
4A3
100
AcDbEntity
  8
0
100
AcDbCircle
 62
7
  6
CONTINUOUS
 10
105.0409039479
 20
211.6958140678
 40
1.2999999978
100
AcDbArc
 50
0.0000000139
 51
90.0000000389
  0
ARC
  5
4A4
100
AcDbEntity
  8
0
100
AcDbCircle
 62
7
  6
CONTINUOUS
 10
114.7407365585
 20
230.8534546265
 40
1.0001676064
100
AcDbArc
 50
0.0000623759
 51
89.9999960084
  0
ARC
  5
4A5
100
AcDbEntity
  8
0
100
AcDbCircle
 62
7
  6
CONTINUOUS
 10
114.7407365585
 20
227.8562570094
 40
1.0001676064
100
AcDbArc
 50
270.0095890074
 51
359.9999376169
  0
ARC
  5
4A6
100
AcDbEntity
  8
0
100
AcDbCircle
 62
7
  6
CONTINUOUS
 10
101.7410713311
 20
230.8534546297
 40
1.0001676032
100
AcDbArc
 50
90.0095888344
 51
179.999937597
  0
ARC
  5
4A7
100
AcDbEntity
  8
0
100
AcDbCircle
 62
7
  6
CONTINUOUS
 10
101.7410713311
 20
227.8562570062
 40
1.0001676032
100
AcDbArc
 50
180.0378678374
 51
269.9999959978
  0
ARC
  5
4A8
100
AcDbEntity
  8
0
100
AcDbCircle
 62
7
  6
CONTINUOUS
 10
105.0409031875
 20
211.6958133074
 40
1.0000007592
100
AcDbArc
 50
0.0000436988
 51
89.9999563013
  0
ARC
  5
4A9
100
AcDbEntity
  8
0
100
AcDbCircle
 62
7
  6
CONTINUOUS
 10
91.5409031875
 20
226.1958133074
 40
1.0000007592
100
AcDbArc
 50
0.0
 51
89.9999999998
  0
ARC
  5
4AA
100
AcDbEntity
  8
0
100
AcDbCircle
 62
7
  6
CONTINUOUS
 10
91.5409031909
 20
214.1958148225
 40
1.0000007558
100
AcDbArc
 50
270.0000429069
 51
359.9999999971
  0
ARC
  5
4AB
100
AcDbEntity
  8
0
100
AcDbCircle
 62
7
  6
CONTINUOUS
 10
93.7409047002
 20
213.9958148197
 40
1.0000007542
100
AcDbArc
 50
180.0000428482
 51
269.9999999944
  0
ARC
  5
4AC
100
AcDbEntity
  8
0
100
AcDbCircle
 62
7
  6
CONTINUOUS
 10
91.740903946
 20
226.4958140655
 40
1.0
100
AcDbArc
 50
0.0
 51
90.0000000053
  0
ARC
  5
4AD
100
AcDbEntity
  8
0
100
AcDbCircle
 62
7
  6
CONTINUOUS
 10
159.7409017678
 20
134.8958162441
 40
2.0000021782
100
AcDbArc
 50
270.0000624008
 51
360.0
  0
ARC
  5
4AE
100
AcDbEntity
  8
0
100
AcDbCircle
 62
7
  6
CONTINUOUS
 10
126.7409039461
 20
134.8958140659
 40
2.0
100
AcDbArc
 50
180.0
 51
269.9999999999
  0
ARC
  5
4AF
100
AcDbEntity
  8
0
100
AcDbCircle
 62
7
  6
CONTINUOUS
 10
126.7409039461
 20
134.8958140659
 40
1.5
100
AcDbArc
 50
180.0
 51
269.9999999999
  0
ARC
  5
4B0
100
AcDbEntity
  8
0
100
AcDbCircle
 62
7
  6
CONTINUOUS
 10
159.740903946
 20
134.8958140659
 40
1.5
100
AcDbArc
 50
270.0000000003
 51
360.0
  0
CIRCLE
  5
4B1
100
AcDbEntity
  8
0
100
AcDbCircle
 62
7
  6
CONTINUOUS
 10
128.240903946
 20
114.8958140659
 40
1.0999999996
  0
ARC
  5
4B2
100
AcDbEntity
  8
0
100
AcDbCircle
 62
7
  6
CONTINUOUS
 10
150.8413181969
 20
136.3962283171
 40
1.000414337
100
AcDbArc
 50
180.0237250021
 51
269.9999754962
  0
ARC
  5
4B3
100
AcDbEntity
  8
0
100
AcDbCircle
 62
7
  6
CONTINUOUS
 10
147.6404896951
 20
136.3962283171
 40
1.000414337
100
AcDbArc
 50
270.0237250306
 51
359.9999755246
  0
ARC
  5
4B4
100
AcDbEntity
  8
0
100
AcDbCircle
 62
7
  6
CONTINUOUS
 10
158.8404896976
 20
136.396228314
 40
1.0004143338
100
AcDbArc
 50
270.0237248265
 51
359.9999754904
  0
ARC
  5
4B5
100
AcDbEntity
  8
0
100
AcDbCircle
 62
7
  6
CONTINUOUS
 10
127.6413181945
 20
136.396228314
 40
1.0004143338
100
AcDbArc
 50
180.0237248379
 51
269.9999755185
  0
ARC
  5
4B6
100
AcDbEntity
  8
0
100
AcDbCircle
 62
7
  6
CONTINUOUS
 10
121.9409047015
 20
112.7958148225
 40
1.0000007562
100
AcDbArc
 50
180.0000429572
 51
269.9999999887
  0
ARC
  5
4B7
100
AcDbEntity
  8
0
100
AcDbCircle
 62
7
  6
CONTINUOUS
 10
119.7409031904
 20
112.9958148212
 40
1.0000007557
100
AcDbArc
 50
270.0000434103
 51
359.9999567016
  0
ARC
  5
4B8
100
AcDbEntity
  8
0
100
AcDbCircle
 62
7
  6
CONTINUOUS
 10
119.7409031925
 20
130.995813312
 40
1.0000007535
100
AcDbArc
 50
0.0000431953
 51
89.9999569403
  0
ARC
  5
4B9
100
AcDbEntity
  8
0
100
AcDbCircle
 62
7
  6
CONTINUOUS
 10
161.4409039484
 20
127.3958140627
 40
1.0000000032
100
AcDbArc
 50
89.9999999879
 51
180.0000000114
  0
ARC
  5
4BA
100
AcDbEntity
  8
0
100
AcDbCircle
 62
7
  6
CONTINUOUS
 10
161.4409039484
 20
122.3958140691
 40
1.0000000032
100
AcDbArc
 50
179.9999999886
 51
270.0000000121
  0
ARC
  5
4BB
100
AcDbEntity
  8
0
100
AcDbCircle
 62
7
  6
CONTINUOUS
 10
137.4409039484
 20
122.3958140691
 40
1.0000000032
100
AcDbArc
 50
179.9999999886
 51
270.0000000121
  0
ARC
  5
4BC
100
AcDbEntity
  8
0
100
AcDbCircle
 62
7
  6
CONTINUOUS
 10
145.0409039436
 20
122.3958140691
 40
1.0000000032
100
AcDbArc
 50
269.9999999892
 51
359.9999999829
  0
ARC
  5
4BD
100
AcDbEntity
  8
0
100
AcDbCircle
 62
7
  6
CONTINUOUS
 10
145.0409039436
 20
127.3958140627
 40
1.0000000032
100
AcDbArc
 50
0.0000000171
 51
90.0000000108
  0
ARC
  5
4BE
100
AcDbEntity
  8
0
100
AcDbCircle
 62
7
  6
CONTINUOUS
 10
137.4409039484
 20
127.3958140627
 40
1.0000000032
100
AcDbArc
 50
89.9999999879
 51
180.0000000114
  0
ARC
  5
4BF
100
AcDbEntity
  8
0
100
AcDbCircle
 62
7
  6
CONTINUOUS
 10
119.9409039453
 20
131.2958140663
 40
1.0
100
AcDbArc
 50
0.0
 51
90.0000000054
  0
ARC
  5
4C0
100
AcDbEntity
  8
0
100
AcDbCircle
 62
7
  6
CONTINUOUS
 10
150.8413181969
 20
139.3953998147
 40
1.000414337
100
AcDbArc
 50
90.0237250306
 51
179.9999755246
  0
ARC
  5
4C1
100
AcDbEntity
  8
0
100
AcDbCircle
 62
7
  6
CONTINUOUS
 10
147.6404896951
 20
139.3953998147
 40
1.000414337
100
AcDbArc
 50
0.0000244686
 51
89.9999755026
  0
ARC
  5
4C2
100
AcDbEntity
  8
0
100
AcDbCircle
 62
7
  6
CONTINUOUS
 10
158.8404896976
 20
139.3953998178
 40
1.0004143338
100
AcDbArc
 50
0.0000245029
 51
89.9999755255
  0
ARC
  5
4C3
100
AcDbEntity
  8
0
100
AcDbCircle
 62
7
  6
CONTINUOUS
 10
127.6413181945
 20
139.3953998178
 40
1.0004143338
100
AcDbArc
 50
90.0237248265
 51
179.9999755075
  0
ARC
  5
4C4
100
AcDbEntity
  8
0
100
AcDbCircle
 62
7
  6
CONTINUOUS
 10
162.7409039492
 20
148.1458140627
 40
1.0000000032
100
AcDbArc
 50
89.9999999881
 51
180.0000000114
  0
ARC
  5
4C5
100
AcDbEntity
  8
0
100
AcDbCircle
 62
7
  6
CONTINUOUS
 10
162.740903946
 20
166.1458140659
 40
1.0
100
AcDbArc
 50
180.0
 51
270.0000000004
  0
ARC
  5
4C6
100
AcDbEntity
  8
0
100
AcDbCircle
 62
7
  6
CONTINUOUS
 10
160.740903946
 20
164.1458140659
 40
0.5
100
AcDbArc
 50
270.0000000009
 51
360.0
  0
ARC
  5
4C7
100
AcDbEntity
  8
0
100
AcDbCircle
 62
7
  6
CONTINUOUS
 10
160.740903946
 20
150.1458140659
 40
0.5
100
AcDbArc
 50
0.0
 51
89.9999999991
  0
ARC
  5
4C8
100
AcDbEntity
  8
0
100
AcDbCircle
 62
7
  6
CONTINUOUS
 10
207.6748304388
 20
112.9618955879
 40
5.0238476238
100
AcDbArc
 50
306.3355190692
 51
323.6643266629
  0
CIRCLE
  5
4C9
100
AcDbEntity
  8
0
100
AcDbCircle
 62
7
  6
CONTINUOUS
 10
178.240903946
 20
114.8958140659
 40
1.0999999996
  0
ARC
  5
4CA
100
AcDbEntity
  8
0
100
AcDbCircle
 62
7
  6
CONTINUOUS
 10
188.2409031925
 20
107.7958148198
 40
1.0000007535
100
AcDbArc
 50
270.0000430581
 51
359.9999568047
  0
ARC
  5
4CB
100
AcDbEntity
  8
0
100
AcDbCircle
 62
7
  6
CONTINUOUS
 10
188.2409031925
 20
110.495813312
 40
1.0000007535
100
AcDbArc
 50
0.0000431723
 51
89.9999567421
  0
ARC
  5
4CC
100
AcDbEntity
  8
0
100
AcDbCircle
 62
7
  6
CONTINUOUS
 10
188.5409039436
 20
107.4958140687
 40
1.0000000032
100
AcDbArc
 50
269.9999999887
 51
359.9999999829
  0
ARC
  5
4CD
100
AcDbEntity
  8
0
100
AcDbCircle
 62
7
  6
CONTINUOUS
 10
188.5409039436
 20
110.7958140631
 40
1.0000000032
100
AcDbArc
 50
0.0000000171
 51
90.0000000113
  0
ARC
  5
4CE
100
AcDbEntity
  8
0
100
AcDbCircle
 62
7
  6
CONTINUOUS
 10
169.0409039436
 20
122.3958140691
 40
1.0000000032
100
AcDbArc
 50
269.9999999892
 51
359.9999999829
  0
ARC
  5
4CF
100
AcDbEntity
  8
0
100
AcDbCircle
 62
7
  6
CONTINUOUS
 10
169.0409039436
 20
127.3958140627
 40
1.0000000032
100
AcDbArc
 50
0.0000000171
 51
90.0000000108
  0
ARC
  5
4D0
100
AcDbEntity
  8
0
100
AcDbCircle
 62
7
  6
CONTINUOUS
 10
189.7411110716
 20
134.3960211915
 40
0.5002071685
100
AcDbArc
 50
180.0237250272
 51
269.9762749741
  0
ARC
  5
4D1
100
AcDbEntity
  8
0
100
AcDbCircle
 62
7
  6
CONTINUOUS
 10
192.7406968204
 20
134.3960211915
 40
0.5002071685
100
AcDbArc
 50
270.0237250285
 51
359.9999754972
  0
ARC
  5
4D2
100
AcDbEntity
  8
0
100
AcDbCircle
 62
7
  6
CONTINUOUS
 10
204.1913181972
 20
166.1453998147
 40
1.000414337
100
AcDbArc
 50
90.0237250192
 51
179.9999754961
  0
ARC
  5
4D3
100
AcDbEntity
  8
0
100
AcDbCircle
 62
7
  6
CONTINUOUS
 10
204.1913181972
 20
154.1462283171
 40
1.000414337
100
AcDbArc
 50
180.0237250306
 51
269.9999754962
  0
ARC
  5
4D4
100
AcDbEntity
  8
0
100
AcDbCircle
 62
7
  6
CONTINUOUS
 10
207.1904896948
 20
154.1462283171
 40
1.000414337
100
AcDbArc
 50
270.0237250306
 51
359.9999754961
  0
ARC
  5
4D5
100
AcDbEntity
  8
0
100
AcDbCircle
 62
7
  6
CONTINUOUS
 10
207.1904896948
 20
166.1453998147
 40
1.000414337
100
AcDbArc
 50
0.0000244972
 51
89.9999755141
  0
ARC
  5
4D6
100
AcDbEntity
  8
0
100
AcDbCircle
 62
7
  6
CONTINUOUS
 10
166.7409031921
 20
150.1458148198
 40
1.0000007539
100
AcDbArc
 50
270.0000428141
 51
360.0
  0
ARC
  5
4D7
100
AcDbEntity
  8
0
100
AcDbCircle
 62
7
  6
CONTINUOUS
 10
166.7409031921
 20
164.1458133121
 40
1.0000007539
100
AcDbArc
 50
0.0
 51
89.9999999996
  0
ARC
  5
4D8
100
AcDbEntity
  8
0
100
AcDbCircle
 62
7
  6
CONTINUOUS
 10
181.7411110716
 20
164.3960211916
 40
0.5002071685
100
AcDbArc
 50
180.0237250295
 51
269.9762749855
  0
ARC
  5
4D9
100
AcDbEntity
  8
0
100
AcDbCircle
 62
7
  6
CONTINUOUS
 10
184.7406968204
 20
164.3960211916
 40
0.5002071685
100
AcDbArc
 50
270.0237250171
 51
359.9999754972
  0
ARC
  5
4DA
100
AcDbEntity
  8
0
100
AcDbCircle
 62
7
  6
CONTINUOUS
 10
189.7411110716
 20
164.3960211916
 40
0.5002071685
100
AcDbArc
 50
180.0237250295
 51
269.9762749855
  0
ARC
  5
4DB
100
AcDbEntity
  8
0
100
AcDbCircle
 62
7
  6
CONTINUOUS
 10
192.7406968204
 20
164.3960211916
 40
0.5002071685
100
AcDbArc
 50
270.0237250171
 51
359.9999754972
  0
ARC
  5
4DC
100
AcDbEntity
  8
0
100
AcDbCircle
 62
7
  6
CONTINUOUS
 10
181.7411110716
 20
160.3956069403
 40
0.5002071685
100
AcDbArc
 50
90.0237250145
 51
179.9762749705
  0
ARC
  5
4DD
100
AcDbEntity
  8
0
100
AcDbCircle
 62
7
  6
CONTINUOUS
 10
181.7411110716
 20
149.3960211915
 40
0.5002071685
100
AcDbArc
 50
180.0237250272
 51
269.9762749741
  0
ARC
  5
4DE
100
AcDbEntity
  8
0
100
AcDbCircle
 62
7
  6
CONTINUOUS
 10
184.7406968204
 20
149.3960211915
 40
0.5002071685
100
AcDbArc
 50
270.0237250285
 51
359.9999754972
  0
ARC
  5
4DF
100
AcDbEntity
  8
0
100
AcDbCircle
 62
7
  6
CONTINUOUS
 10
184.7406968204
 20
160.3956069403
 40
0.5002071685
100
AcDbArc
 50
0.0000245028
 51
89.9762749829
  0
ARC
  5
4E0
100
AcDbEntity
  8
0
100
AcDbCircle
 62
7
  6
CONTINUOUS
 10
189.7411110716
 20
160.3956069403
 40
0.5002071685
100
AcDbArc
 50
90.0237250145
 51
179.9762749705
  0
ARC
  5
4E1
100
AcDbEntity
  8
0
100
AcDbCircle
 62
7
  6
CONTINUOUS
 10
189.7411110716
 20
149.3960211915
 40
0.5002071685
100
AcDbArc
 50
180.0237250272
 51
269.9762749741
  0
ARC
  5
4E2
100
AcDbEntity
  8
0
100
AcDbCircle
 62
7
  6
CONTINUOUS
 10
192.7406968204
 20
149.3960211915
 40
0.5002071685
100
AcDbArc
 50
270.0237250285
 51
359.9999754972
  0
ARC
  5
4E3
100
AcDbEntity
  8
0
100
AcDbCircle
 62
7
  6
CONTINUOUS
 10
192.7406968204
 20
160.3956069403
 40
0.5002071685
100
AcDbArc
 50
0.0000245028
 51
89.9762749829
  0
ARC
  5
4E4
100
AcDbEntity
  8
0
100
AcDbCircle
 62
7
  6
CONTINUOUS
 10
189.7411110716
 20
145.3956069403
 40
0.5002071685
100
AcDbArc
 50
90.0237250259
 51
179.9762749728
  0
ARC
  5
4E5
100
AcDbEntity
  8
0
100
AcDbCircle
 62
7
  6
CONTINUOUS
 10
192.7406968204
 20
145.3956069403
 40
0.5002071685
100
AcDbArc
 50
0.0000245028
 51
89.9762749715
  0
ARC
  5
4E6
100
AcDbEntity
  8
0
100
AcDbCircle
 62
7
  6
CONTINUOUS
 10
126.7409039461
 20
179.3958140659
 40
2.0
100
AcDbArc
 50
90.0000000001
 51
180.0
  0
ARC
  5
4E7
100
AcDbEntity
  8
0
100
AcDbCircle
 62
7
  6
CONTINUOUS
 10
126.7409039461
 20
179.3958140659
 40
1.5
100
AcDbArc
 50
90.0000000001
 51
180.0
  0
CIRCLE
  5
4E8
100
AcDbEntity
  8
0
100
AcDbCircle
 62
7
  6
CONTINUOUS
 10
128.240903946
 20
185.8958124473
 40
1.1
  0
ARC
  5
4E9
100
AcDbEntity
  8
0
100
AcDbCircle
 62
7
  6
CONTINUOUS
 10
126.240903946
 20
191.3958140659
 40
1.9567022991
100
AcDbArc
 50
179.9999999971
 51
269.999999991
  0
ARC
  5
4EA
100
AcDbEntity
  8
0
100
AcDbCircle
 62
7
  6
CONTINUOUS
 10
126.6409039468
 20
192.2958140675
 40
0.5000000016
100
AcDbArc
 50
180.0000001833
 51
269.9999998307
  0
CIRCLE
  5
4EB
100
AcDbEntity
  8
0
100
AcDbCircle
 62
7
  6
CONTINUOUS
 10
131.9409039453
 20
196.7458135973
 40
0.7999999998
  0
ARC
  5
4EC
100
AcDbEntity
  8
0
100
AcDbCircle
 62
7
  6
CONTINUOUS
 10
129.4409036421
 20
196.7458140658
 40
0.7999998105
100
AcDbArc
 50
231.3178295859
 51
128.6821704141
  0
ARC
  5
4ED
100
AcDbEntity
  8
0
100
AcDbCircle
 62
7
  6
CONTINUOUS
 10
133.8909039451
 20
199.2458140658
 40
0.2000000006
100
AcDbArc
 50
0.0000000341
 51
89.9999992796
  0
ARC
  5
4EE
100
AcDbEntity
  8
0
100
AcDbCircle
 62
7
  6
CONTINUOUS
 10
131.3909039451
 20
199.2458140658
 40
0.2000000006
100
AcDbArc
 50
0.0000000341
 51
89.9999992796
  0
ARC
  5
4EF
100
AcDbEntity
  8
0
100
AcDbCircle
 62
7
  6
CONTINUOUS
 10
128.8909039451
 20
199.2458140658
 40
0.2000000006
100
AcDbArc
 50
0.0000000021
 51
89.999999271
  0
ARC
  5
4F0
100
AcDbEntity
  8
0
100
AcDbCircle
 62
7
  6
CONTINUOUS
 10
132.4909039443
 20
199.245814069
 40
0.1999999975
100
AcDbArc
 50
90.0000000612
 51
180.0000011111
  0
ARC
  5
4F1
100
AcDbEntity
  8
0
100
AcDbCircle
 62
7
  6
CONTINUOUS
 10
129.9909039443
 20
199.245814069
 40
0.1999999975
100
AcDbArc
 50
90.0000000612
 51
180.0000011111
  0
CIRCLE
  5
4F2
100
AcDbEntity
  8
0
100
AcDbCircle
 62
7
  6
CONTINUOUS
 10
141.9409039453
 20
196.7458135973
 40
0.7999999998
  0
CIRCLE
  5
4F3
100
AcDbEntity
  8
0
100
AcDbCircle
 62
7
  6
CONTINUOUS
 10
139.4409039453
 20
196.7458145344
 40
0.7999999998
  0
CIRCLE
  5
4F4
100
AcDbEntity
  8
0
100
AcDbCircle
 62
7
  6
CONTINUOUS
 10
136.9409039453
 20
196.7458135973
 40
0.7999999998
  0
CIRCLE
  5
4F5
100
AcDbEntity
  8
0
100
AcDbCircle
 62
7
  6
CONTINUOUS
 10
134.4409039453
 20
196.7458145344
 40
0.7999999998
  0
ARC
  5
4F6
100
AcDbEntity
  8
0
100
AcDbCircle
 62
7
  6
CONTINUOUS
 10
141.3909039451
 20
199.2458140658
 40
0.2000000006
100
AcDbArc
 50
0.0000000341
 51
89.9999993655
  0
ARC
  5
4F7
100
AcDbEntity
  8
0
100
AcDbCircle
 62
7
  6
CONTINUOUS
 10
138.8909039451
 20
199.2458140658
 40
0.2000000006
100
AcDbArc
 50
0.0000000341
 51
89.9999992796
  0
ARC
  5
4F8
100
AcDbEntity
  8
0
100
AcDbCircle
 62
7
  6
CONTINUOUS
 10
136.3909039451
 20
199.2458140658
 40
0.2000000006
100
AcDbArc
 50
0.0000000341
 51
89.9999992796
  0
ARC
  5
4F9
100
AcDbEntity
  8
0
100
AcDbCircle
 62
7
  6
CONTINUOUS
 10
139.9909039443
 20
199.245814069
 40
0.1999999975
100
AcDbArc
 50
90.0000000612
 51
180.0000011111
  0
ARC
  5
4FA
100
AcDbEntity
  8
0
100
AcDbCircle
 62
7
  6
CONTINUOUS
 10
137.4909039443
 20
199.245814069
 40
0.1999999975
100
AcDbArc
 50
90.0000000612
 51
180.0000011111
  0
ARC
  5
4FB
100
AcDbEntity
  8
0
100
AcDbCircle
 62
7
  6
CONTINUOUS
 10
134.9909039443
 20
199.245814069
 40
0.1999999975
100
AcDbArc
 50
90.0000000612
 51
180.0000011111
  0
ARC
  5
4FC
100
AcDbEntity
  8
0
100
AcDbCircle
 62
7
  6
CONTINUOUS
 10
142.4909039443
 20
199.245814069
 40
0.1999999975
100
AcDbArc
 50
90.0000000612
 51
180.0000011111
  0
ARC
  5
4FD
100
AcDbEntity
  8
0
100
AcDbCircle
 62
7
  6
CONTINUOUS
 10
159.740903946
 20
179.3958140659
 40
2.0
100
AcDbArc
 50
0.0
 51
89.9999999998
  0
ARC
  5
4FE
100
AcDbEntity
  8
0
100
AcDbCircle
 62
7
  6
CONTINUOUS
 10
159.740903946
 20
179.3958140659
 40
1.5
100
AcDbArc
 50
0.0
 51
89.9999999997
  0
CIRCLE
  5
4FF
100
AcDbEntity
  8
0
100
AcDbCircle
 62
7
  6
CONTINUOUS
 10
157.240903946
 20
196.8958140659
 40
6.9999989135
  0
CIRCLE
  5
500
100
AcDbEntity
  8
0
100
AcDbCircle
 62
7
  6
CONTINUOUS
 10
157.240903946
 20
196.8958140659
 40
4.0
  0
CIRCLE
  5
501
100
AcDbEntity
  8
0
100
AcDbCircle
 62
7
  6
CONTINUOUS
 10
157.240903946
 20
196.8958140659
 40
3.0
  0
ARC
  5
502
100
AcDbEntity
  8
0
100
AcDbCircle
 62
7
  6
CONTINUOUS
 10
147.240903946
 20
191.3958140659
 40
1.9567022968
100
AcDbArc
 50
269.9999995094
 51
360.0
  0
CIRCLE
  5
503
100
AcDbEntity
  8
0
100
AcDbCircle
 62
7
  6
CONTINUOUS
 10
157.240903946
 20
196.8958140659
 40
1.8
  0
CIRCLE
  5
504
100
AcDbEntity
  8
0
100
AcDbCircle
 62
7
  6
CONTINUOUS
 10
144.4409039453
 20
196.7458145344
 40
0.7999999998
  0
ARC
  5
505
100
AcDbEntity
  8
0
100
AcDbCircle
 62
7
  6
CONTINUOUS
 10
147.2409039451
 20
192.2958140675
 40
0.5000000016
100
AcDbArc
 50
270.0000001756
 51
360.0
  0
ARC
  5
506
100
AcDbEntity
  8
0
100
AcDbCircle
 62
7
  6
CONTINUOUS
 10
143.8909039451
 20
199.2458140658
 40
0.2000000006
100
AcDbArc
 50
0.0000000341
 51
89.9999993655
  0
ARC
  5
507
100
AcDbEntity
  8
0
100
AcDbCircle
 62
7
  6
CONTINUOUS
 10
144.9909039443
 20
199.245814069
 40
0.1999999975
100
AcDbArc
 50
90.0000000612
 51
180.0000011111
  0
ARC
  5
508
100
AcDbEntity
  8
0
100
AcDbCircle
 62
7
  6
CONTINUOUS
 10
120.7921580362
 20
210.1780472508
 40
24.1549097049
100
AcDbArc
 50
89.2317558313
 51
90.0029747171
  0
ARC
  5
509
100
AcDbEntity
  8
0
100
AcDbCircle
 62
7
  6
CONTINUOUS
 10
161.490903946
 20
214.3958140659
 40
3.9
100
AcDbArc
 50
269.999999956
 51
90.000000044
  0
ARC
  5
50A
100
AcDbEntity
  8
0
100
AcDbCircle
 62
7
  6
CONTINUOUS
 10
128.990903946
 20
214.3958140659
 40
3.9000000004
100
AcDbArc
 50
89.9999999969
 51
270.0000000031
  0
ARC
  5
50B
100
AcDbEntity
  8
0
100
AcDbCircle
 62
7
  6
CONTINUOUS
 10
126.2362383803
 20
220.9004796316
 40
2.0201722326
100
AcDbArc
 50
89.8676760434
 51
180.1323241006
  0
ARC
  5
50C
100
AcDbEntity
  8
0
100
AcDbCircle
 62
7
  6
CONTINUOUS
 10
119.590903946
 20
226.3958140659
 40
2.0
100
AcDbArc
 50
270.0
 51
360.0
  0
ARC
  5
50D
100
AcDbEntity
  8
0
100
AcDbCircle
 62
7
  6
CONTINUOUS
 10
147.240903946
 20
205.8958140659
 40
1.9567022968
100
AcDbArc
 50
0.0
 51
89.9999999849
  0
ARC
  5
50E
100
AcDbEntity
  8
0
100
AcDbCircle
 62
7
  6
CONTINUOUS
 10
126.240903946
 20
205.8958140659
 40
1.9567022967
100
AcDbArc
 50
90.0000001458
 51
180.0000000419
  0
ARC
  5
50F
100
AcDbEntity
  8
0
100
AcDbCircle
 62
7
  6
CONTINUOUS
 10
155.1118930497
 20
212.3658140654
 40
1.8299999989
100
AcDbArc
 50
269.9999999655
 51
345.0000000222
  0
ARC
  5
510
100
AcDbEntity
  8
0
100
AcDbCircle
 62
7
  6
CONTINUOUS
 10
135.3699148423
 20
212.3658140654
 40
1.8299999989
100
AcDbArc
 50
194.999999995
 51
270.0000000338
  0
CIRCLE
  5
511
100
AcDbEntity
  8
0
100
AcDbCircle
 62
7
  6
CONTINUOUS
 10
128.985903946
 20
214.3958140659
 40
1.5
  0
CIRCLE
  5
512
100
AcDbEntity
  8
0
100
AcDbCircle
 62
7
  6
CONTINUOUS
 10
161.495903946
 20
214.3958140659
 40
1.5
  0
ARC
  5
513
100
AcDbEntity
  8
0
100
AcDbCircle
 62
7
  6
CONTINUOUS
 10
134.4959039462
 20
216.9858140645
 40
1.2700000008
100
AcDbArc
 50
89.9999999824
 51
179.9999999572
  0
ARC
  5
514
100
AcDbEntity
  8
0
100
AcDbCircle
 62
7
  6
CONTINUOUS
 10
155.9859039457
 20
216.9858140645
 40
1.2700000008
100
AcDbArc
 50
0.0000000068
 51
90.0000000185
  0
ARC
  5
515
100
AcDbEntity
  8
0
100
AcDbCircle
 62
7
  6
CONTINUOUS
 10
156.2759039323
 20
213.4258140675
 40
0.9800000143
100
AcDbArc
 50
345.0000000989
 51
359.9999999826
  0
ARC
  5
516
100
AcDbEntity
  8
0
100
AcDbCircle
 62
7
  6
CONTINUOUS
 10
134.2059039597
 20
213.4258140675
 40
0.9800000143
100
AcDbArc
 50
180.0000000174
 51
194.9999997714
  0
ARC
  5
517
100
AcDbEntity
  8
0
100
AcDbCircle
 62
7
  6
CONTINUOUS
 10
158.9909010137
 20
218.9958111332
 40
0.5000029323
100
AcDbArc
 50
0.0000000617
 51
89.9996639817
  0
ARC
  5
518
100
AcDbEntity
  8
0
100
AcDbCircle
 62
7
  6
CONTINUOUS
 10
131.4909068784
 20
218.9958111332
 40
0.5000029324
100
AcDbArc
 50
90.0003360536
 51
179.9996640683
  0
ARC
  5
519
100
AcDbEntity
  8
0
100
AcDbCircle
 62
7
  6
CONTINUOUS
 10
126.6409039468
 20
201.2958140643
 40
0.5000000016
100
AcDbArc
 50
90.0000001693
 51
179.9999998167
  0
ARC
  5
51A
100
AcDbEntity
  8
0
100
AcDbCircle
 62
7
  6
CONTINUOUS
 10
147.2409039451
 20
201.2958140643
 40
0.5000000016
100
AcDbArc
 50
0.0
 51
89.9999998244
  0
ARC
  5
51B
100
AcDbEntity
  8
0
100
AcDbCircle
 62
7
  6
CONTINUOUS
 10
131.490903946
 20
209.7958140659
 40
0.5
100
AcDbArc
 50
180.0
 51
269.9999997753
  0
ARC
  5
51C
100
AcDbEntity
  8
0
100
AcDbCircle
 62
7
  6
CONTINUOUS
 10
158.990903946
 20
209.7958140659
 40
0.5
100
AcDbArc
 50
270.0000002323
 51
359.9999999429
  0
ARC
  5
51D
100
AcDbEntity
  8
0
100
AcDbCircle
 62
7
  6
CONTINUOUS
 10
164.2373347098
 20
191.4639409204
 40
2.0248324107
100
AcDbArc
 50
270.1027255322
 51
0.102725363
  0
ARC
  5
51E
100
AcDbEntity
  8
0
100
AcDbCircle
 62
7
  6
CONTINUOUS
 10
170.2409039494
 20
195.8958140693
 40
1.3000000041
100
AcDbArc
 50
180.0000001249
 51
269.9999998475
  0
ARC
  5
51F
100
AcDbEntity
  8
0
100
AcDbCircle
 62
7
  6
CONTINUOUS
 10
194.2409039426
 20
195.8958140693
 40
1.3000000041
100
AcDbArc
 50
270.0000001527
 51
359.9999999972
  0
CIRCLE
  5
520
100
AcDbEntity
  8
0
100
AcDbCircle
 62
7
  6
CONTINUOUS
 10
178.240903946
 20
185.8958140659
 40
1.0999999996
  0
ARC
  5
521
100
AcDbEntity
  8
0
100
AcDbCircle
 62
7
  6
CONTINUOUS
 10
204.1913181972
 20
189.8962283171
 40
1.000414337
100
AcDbArc
 50
180.0237250306
 51
269.9999754962
  0
ARC
  5
522
100
AcDbEntity
  8
0
100
AcDbCircle
 62
7
  6
CONTINUOUS
 10
207.1904896948
 20
189.8962283171
 40
1.000414337
100
AcDbArc
 50
270.0237250306
 51
359.9999754961
  0
ARC
  5
523
100
AcDbEntity
  8
0
100
AcDbCircle
 62
7
  6
CONTINUOUS
 10
170.2409046999
 20
195.8958148198
 40
1.0000007539
100
AcDbArc
 50
180.0000428141
 51
270.0000000085
  0
ARC
  5
524
100
AcDbEntity
  8
0
100
AcDbCircle
 62
7
  6
CONTINUOUS
 10
194.2409031921
 20
195.8958148198
 40
1.0000007539
100
AcDbArc
 50
270.000042817
 51
360.0
  0
ARC
  5
525
100
AcDbEntity
  8
0
100
AcDbCircle
 62
7
  6
CONTINUOUS
 10
181.7411110716
 20
175.3956069403
 40
0.5002071685
100
AcDbArc
 50
90.0237250145
 51
179.9762749705
  0
ARC
  5
526
100
AcDbEntity
  8
0
100
AcDbCircle
 62
7
  6
CONTINUOUS
 10
184.7406968204
 20
175.3956069403
 40
0.5002071685
100
AcDbArc
 50
0.0000245028
 51
89.9762749829
  0
ARC
  5
527
100
AcDbEntity
  8
0
100
AcDbCircle
 62
7
  6
CONTINUOUS
 10
189.7411110716
 20
175.3956069403
 40
0.5002071685
100
AcDbArc
 50
90.0237250145
 51
179.9762749705
  0
ARC
  5
528
100
AcDbEntity
  8
0
100
AcDbCircle
 62
7
  6
CONTINUOUS
 10
192.7406968204
 20
175.3956069403
 40
0.5002071685
100
AcDbArc
 50
0.0000245028
 51
89.9762749829
  0
ARC
  5
529
100
AcDbEntity
  8
0
100
AcDbCircle
 62
7
  6
CONTINUOUS
 10
189.7411110716
 20
190.3956069403
 40
0.5002071685
100
AcDbArc
 50
90.0237250259
 51
179.9762749728
  0
ARC
  5
52A
100
AcDbEntity
  8
0
100
AcDbCircle
 62
7
  6
CONTINUOUS
 10
189.7411110716
 20
179.3960211915
 40
0.5002071685
100
AcDbArc
 50
180.0237250272
 51
269.9762749741
  0
ARC
  5
52B
100
AcDbEntity
  8
0
100
AcDbCircle
 62
7
  6
CONTINUOUS
 10
192.7406968204
 20
179.3960211915
 40
0.5002071685
100
AcDbArc
 50
270.0237250285
 51
359.9999754972
  0
ARC
  5
52C
100
AcDbEntity
  8
0
100
AcDbCircle
 62
7
  6
CONTINUOUS
 10
192.7406968204
 20
190.3956069403
 40
0.5002071685
100
AcDbArc
 50
0.0000245028
 51
89.9762749715
  0
ARC
  5
52D
100
AcDbEntity
  8
0
100
AcDbCircle
 62
7
  6
CONTINUOUS
 10
181.7411110716
 20
190.3956069403
 40
0.5002071685
100
AcDbArc
 50
90.0237250259
 51
179.9762749728
  0
ARC
  5
52E
100
AcDbEntity
  8
0
100
AcDbCircle
 62
7
  6
CONTINUOUS
 10
181.7411110716
 20
179.3960211915
 40
0.5002071685
100
AcDbArc
 50
180.0237250272
 51
269.9762749741
  0
ARC
  5
52F
100
AcDbEntity
  8
0
100
AcDbCircle
 62
7
  6
CONTINUOUS
 10
184.7406968204
 20
179.3960211915
 40
0.5002071685
100
AcDbArc
 50
270.0237250285
 51
359.9999754972
  0
ARC
  5
530
100
AcDbEntity
  8
0
100
AcDbCircle
 62
7
  6
CONTINUOUS
 10
184.7406968204
 20
190.3956069403
 40
0.5002071685
100
AcDbArc
 50
0.0000245028
 51
89.9762749715
  0
ARC
  5
531
100
AcDbEntity
  8
0
100
AcDbCircle
 62
7
  6
CONTINUOUS
 10
164.240903946
 20
220.8958140659
 40
2.0248324108
100
AcDbArc
 50
0.0
 51
90.0000000029
  0
ARC
  5
532
100
AcDbEntity
  8
0
100
AcDbCircle
 62
7
  6
CONTINUOUS
 10
188.8409039423
 20
224.8958140625
 40
1.3000000041
100
AcDbArc
 50
0.0000000028
 51
89.9999998517
  0
ARC
  5
533
100
AcDbEntity
  8
0
100
AcDbCircle
 62
7
  6
CONTINUOUS
 10
170.2409039494
 20
224.8958140625
 40
1.3000000041
100
AcDbArc
 50
90.0000001525
 51
179.9999998751
  0
ARC
  5
534
100
AcDbEntity
  8
0
100
AcDbCircle
 62
7
  6
CONTINUOUS
 10
204.1913181972
 20
209.8953998147
 40
1.000414337
100
AcDbArc
 50
90.0237250306
 51
179.9999754961
  0
ARC
  5
535
100
AcDbEntity
  8
0
100
AcDbCircle
 62
7
  6
CONTINUOUS
 10
207.1904896948
 20
209.8953998147
 40
1.000414337
100
AcDbArc
 50
0.0000244972
 51
89.9999755027
  0
ARC
  5
536
100
AcDbEntity
  8
0
100
AcDbCircle
 62
7
  6
CONTINUOUS
 10
170.2409046999
 20
224.895813312
 40
1.0000007539
100
AcDbArc
 50
90.0000428141
 51
180.0000000086
  0
ARC
  5
537
100
AcDbEntity
  8
0
100
AcDbCircle
 62
7
  6
CONTINUOUS
 10
194.2409031928
 20
209.095813312
 40
1.0000007532
100
AcDbArc
 50
0.0
 51
90.0000000058
  0
ARC
  5
538
100
AcDbEntity
  8
0
100
AcDbCircle
 62
7
  6
CONTINUOUS
 10
188.8409031921
 20
224.8958133124
 40
1.0000007535
100
AcDbArc
 50
0.0000000086
 51
89.9999999915
  0
CIRCLE
  5
539
100
AcDbEntity
  8
0
100
AcDbCircle
 62
7
  6
CONTINUOUS
 10
185.7409039461
 20
218.8958140659
 40
1.0
  0
CIRCLE
  5
53A
100
AcDbEntity
  8
0
100
AcDbCircle
 62
7
  6
CONTINUOUS
 10
178.7409039461
 20
218.8958140659
 40
1.0
  0
ARC
  5
53B
100
AcDbEntity
  8
0
100
AcDbCircle
 62
7
  6
CONTINUOUS
 10
190.3409039472
 20
210.5958140667
 40
0.5000000016
100
AcDbArc
 50
180.0000001605
 51
269.9999997708
  0
SPLINE
  5
53C
100
AcDbEntity
  8
0
100
AcDbSpline
 62
7
  6
CONTINUOUS
 70
0
 71
3
 72
12
 73
8
 74
0
 42
0.0000001
 43
0.0000001
 44
0.0000000001
 40
0.0
 40
0.0
 40
0.0
 40
0.0
 40
0.0468812858
 40
0.0937625706
 40
0.3845616342
 40
0.5825642653
 40
1.0
 40
1.0
 40
1.0
 40
1.0
 10
51.9533080204
 20
142.1628684923
 30
0.0
 10
51.9530850919
 20
142.1703416126
 30
0.0
 10
51.9521723338
 20
142.1861435229
 30
0.0
 10
51.9451073862
 20
142.2484931166
 30
0.0
 10
51.9183333025
 20
142.3395951858
 30
0.0
 10
51.8162546162
 20
142.4970381942
 30
0.0
 10
51.7027336765
 20
142.5802877714
 30
0.0
 10
51.6138107196
 20
142.613757516
 30
0.0
  0
SPLINE
  5
53D
100
AcDbEntity
  8
0
100
AcDbSpline
 62
7
  6
CONTINUOUS
 70
0
 71
3
 72
17
 73
13
 74
0
 42
0.0000001
 43
0.0000001
 44
0.0000000001
 40
0.0
 40
0.0
 40
0.0
 40
0.0
 40
0.1943364161
 40
0.3820095921
 40
0.5546573498
 40
0.7058650634
 40
0.8299957624
 40
0.9224742
 40
0.9555751386
 40
0.9795456106
 40
0.994270135
 40
1.0
 40
1.0
 40
1.0
 40
1.0
 10
96.3909039468
 20
234.3238317553
 30
0.0
 10
96.3260048725
 20
234.3238317553
 30
0.0
 10
96.1984337971
 20
234.3234362114
 30
0.0
 10
96.013202085
 20
234.321720835
 30
0.0
 10
95.8424273983
 20
234.3189109416
 30
0.0
 10
95.692774198
 20
234.3151901182
 30
0.0
 10
95.5702724304
 20
234.3106529487
 30
0.0
 10
95.4864454123
 20
234.306206995
 30
0.0
 10
95.4374257654
 20
234.3019873156
 30
0.0
 10
95.4123372511
 20
234.2992198013
 30
0.0
 10
95.4000549658
 20
234.2965239711
 30
0.0
 10
95.3909039467
 20
234.2943321953
 30
0.0
 10
95.3909039467
 20
234.2924186942
 30
0.0
  0
SPLINE
  5
53E
100
AcDbEntity
  8
0
100
AcDbSpline
 62
7
  6
CONTINUOUS
 70
0
 71
3
 72
17
 73
13
 74
0
 42
0.0000001
 43
0.0000001
 44
0.0000000001
 40
0.0
 40
0.0
 40
0.0
 40
0.0
 40
0.005729865
 40
0.0204543894
 40
0.0444248614
 40
0.0775258
 40
0.1700042376
 40
0.2941349366
 40
0.4453426502
 40
0.6179904079
 40
0.8056635839
 40
1.0
 40
1.0
 40
1.0
 40
1.0
 10
121.0909039461
 20
234.2924186942
 30
0.0
 10
121.0909039461
 20
234.2943321953
 30
0.0
 10
121.081752927
 20
234.2965239711
 30
0.0
 10
121.0694706417
 20
234.2992198013
 30
0.0
 10
121.0443821274
 20
234.3019873156
 30
0.0
 10
120.9953624805
 20
234.306206995
 30
0.0
 10
120.9115354624
 20
234.3106529487
 30
0.0
 10
120.7890336949
 20
234.3151901182
 30
0.0
 10
120.6393804945
 20
234.3189109416
 30
0.0
 10
120.4686058079
 20
234.321720835
 30
0.0
 10
120.2833740957
 20
234.3234362114
 30
0.0
 10
120.1558030204
 20
234.3238317553
 30
0.0
 10
120.0909039461
 20
234.3238317553
 30
0.0
  0
SPLINE
  5
53F
100
AcDbEntity
  8
0
100
AcDbSpline
 62
7
  6
CONTINUOUS
 70
0
 71
3
 72
16
 73
12
 74
0
 42
0.0000001
 43
0.0000001
 44
0.0000000001
 40
0.0
 40
0.0
 40
0.0
 40
0.0
 40
0.0077901146
 40
0.0244697331
 40
0.0500791174
 40
0.0844751685
 40
0.1784790763
 40
0.3028010089
 40
0.4530181872
 40
0.6236878541
 40
1.0
 40
1.0
 40
1.0
 40
1.0
 10
193.8605249298
 20
107.8523482782
 30
0.0
 10
193.8588607975
 20
107.8543452884
 30
0.0
 10
193.8499895481
 20
107.8559488856
 30
0.0
 10
193.8342429344
 20
107.8591121844
 30
0.0
 10
193.8084144822
 20
107.8616240749
 30
0.0
 10
193.7573976008
 20
107.8658526728
 30
0.0
 10
193.6730156851
 20
107.870116187
 30
0.0
 10
193.5501829314
 20
107.8745746193
 30
0.0
 10
193.4016368287
 20
107.8781817085
 30
0.0
 10
193.1690263992
 20
107.8819351827
 30
0.0
 10
192.9864948427
 20
107.8829569078
 30
0.0
 10
192.8609225699
 20
107.8829569231
 30
0.0
  0
SPLINE
  5
540
100
AcDbEntity
  8
0
100
AcDbSpline
 62
7
  6
CONTINUOUS
 70
0
 71
3
 72
18
 73
14
 74
0
 42
0.0000001
 43
0.0000001
 44
0.0000000001
 40
0.0
 40
0.0
 40
0.0
 40
0.0
 40
0.0077787448
 40
0.0244292416
 40
0.0500301946
 40
0.0844544123
 40
0.1273764828
 40
0.1783835336
 40
0.302821043
 40
0.4530678992
 40
0.6236399507
 40
0.8084325549
 40
1.0
 40
1.0
 40
1.0
 40
1.0
 10
57.5957790554
 20
103.8217382663
 30
0.0
 10
57.5991023483
 20
103.8257264985
 30
0.0
 10
57.6167997328
 20
103.8289647395
 30
0.0
 10
57.6482693698
 20
103.8352814785
 30
0.0
 10
57.6999216165
 20
103.8403017399
 30
0.0
 10
57.7680944271
 20
103.8459709336
 30
0.0
 10
57.8537122637
 20
103.851189717
 30
0.0
 10
57.9992155021
 20
103.858444105
 30
0.0
 10
58.2164805349
 20
103.8661264234
 30
0.0
 10
58.5135351995
 20
103.8734269359
 30
0.0
 10
58.8509337436
 20
103.8788508008
 30
0.0
 10
59.2159298968
 20
103.8821991878
 30
0.0
 10
59.4671054384
 20
103.8829569121
 30
0.0
 10
59.5949533843
 20
103.882956923
 30
0.0
  0
SPLINE
  5
541
100
AcDbEntity
  8
0
100
AcDbSpline
 62
7
  6
CONTINUOUS
 70
0
 71
3
 72
9
 73
5
 74
0
 42
0.0000001
 43
0.0000001
 44
0.0000000001
 40
0.0
 40
0.0
 40
0.0
 40
0.0
 40
0.5000003534
 40
1.0
 40
1.0
 40
1.0
 40
1.0
 10
210.62009673
 20
107.9968005554
 30
0.0
 10
210.2578941371
 20
107.801064037
 30
0.0
 10
209.4813824
 20
107.4999401821
 30
0.0
 10
208.6550789552
 20
107.3958140659
 30
0.0
 10
208.2433715059
 20
107.3958140659
 30
0.0
  0
SPLINE
  5
542
100
AcDbEntity
  8
0
100
AcDbSpline
 62
7
  6
CONTINUOUS
 70
0
 71
3
 72
9
 73
5
 74
0
 42
0.0000001
 43
0.0000001
 44
0.0000000001
 40
0.0
 40
0.0
 40
0.0
 40
0.0
 40
0.5000000003
 40
1.0
 40
1.0
 40
1.0
 40
1.0
 10
210.62009673
 20
107.9968005554
 30
0.0
 10
211.0433688163
 20
108.2255394052
 30
0.0
 10
211.8276687758
 20
108.8090477221
 30
0.0
 10
212.4111774146
 20
109.5933474399
 30
0.0
 10
212.639916444
 20
110.0166194285
 30
0.0
  0
SPLINE
  5
543
100
AcDbEntity
  8
0
100
AcDbSpline
 62
7
  6
CONTINUOUS
 70
0
 71
3
 72
10
 73
6
 74
0
 42
0.0000001
 43
0.0000001
 44
0.0000000001
 40
0.0
 40
0.0
 40
0.0
 40
0.0
 40
0.2617114012
 40
0.5147705961
 40
1.0
 40
1.0
 40
1.0
 40
1.0
 10
211.7218387618
 20
109.9851912725
 30
0.0
 10
211.8837368941
 20
110.2057058202
 30
0.0
 10
212.1677270907
 20
110.6659531611
 30
0.0
 10
212.5807340089
 20
111.6289185007
 30
0.0
 10
212.7141226595
 20
112.4057503761
 30
0.0
 10
212.7213452499
 20
112.9129052022
 30
0.0
  0
SPLINE
  5
544
100
AcDbEntity
  8
0
100
AcDbSpline
 62
7
  6
CONTINUOUS
 70
0
 71
3
 72
9
 73
5
 74
0
 42
0.0000001
 43
0.0000001
 44
0.0000000001
 40
0.0
 40
0.0
 40
0.0
 40
0.0
 40
0.1149998302
 40
1.0
 40
1.0
 40
1.0
 40
1.0
 10
212.7213452499
 20
227.8761480192
 30
0.0
 10
212.6830229822
 20
227.837842659
 30
0.0
 10
212.3513098056
 20
227.5032310813
 30
0.0
 10
212.0166890079
 20
227.171521049
 30
0.0
 10
211.7218387618
 20
226.8766707254
 30
0.0
  0
SPLINE
  5
545
100
AcDbEntity
  8
0
100
AcDbSpline
 62
7
  6
CONTINUOUS
 70
0
 71
3
 72
14
 73
10
 74
0
 42
0.0000001
 43
0.0000001
 44
0.0000000001
 40
0.0
 40
0.0
 40
0.0
 40
0.0
 40
0.4079940146
 40
0.5800348652
 40
0.7260411742
 40
0.8431307534
 40
0.928603446
 40
0.9809693127
 40
1.0
 40
1.0
 40
1.0
 40
1.0
 10
121.1160267862
 20
234.3307856438
 30
0.0
 10
121.1807885307
 20
234.3298808919
 30
0.0
 10
121.2729435407
 20
234.3281922546
 30
0.0
 10
121.3879452362
 20
234.3246376037
 30
0.0
 10
121.4574194374
 20
234.3219812568
 30
0.0
 10
121.5114594001
 20
234.3186097066
 30
0.0
 10
121.5546480506
 20
234.3163102167
 30
0.0
 10
121.5742442289
 20
234.3117701001
 30
0.0
 10
121.590927148
 20
234.3108411017
 30
0.0
 10
121.590903992
 20
234.3078201148
 30
0.0
  0
SPLINE
  5
546
100
AcDbEntity
  8
0
100
AcDbSpline
 62
7
  6
CONTINUOUS
 70
0
 71
3
 72
14
 73
10
 74
0
 42
0.0000001
 43
0.0000001
 44
0.0000000001
 40
0.0
 40
0.0
 40
0.0
 40
0.0
 40
0.0190096245
 40
0.0713281252
 40
0.1567628451
 40
0.2738440738
 40
0.4198643761
 40
0.5919313958
 40
1.0
 40
1.0
 40
1.0
 40
1.0
 10
94.8909039464
 20
234.3078140659
 30
0.0
 10
94.8908808162
 20
234.3108316659
 30
0.0
 10
94.9075425851
 20
234.3117704153
 30
0.0
 10
94.9271287177
 20
234.3163040278
 30
0.0
 10
94.9702991377
 20
234.3186079122
 30
0.0
 10
95.0243337388
 20
234.3219785185
 30
0.0
 10
95.0938118674
 20
234.3246360252
 30
0.0
 10
95.2088301263
 20
234.3281914317
 30
0.0
 10
95.3009997959
 20
234.3298805846
 30
0.0
 10
95.3657724486
 20
234.3307855212
 30
0.0
  0
SPLINE
  5
547
100
AcDbEntity
  8
0
100
AcDbSpline
 62
7
  6
CONTINUOUS
 70
0
 71
3
 72
14
 73
10
 74
0
 42
0.0000001
 43
0.0000001
 44
0.0000000001
 40
0.0
 40
0.0
 40
0.0
 40
0.0
 40
0.4079940145
 40
0.580034865
 40
0.726041174
 40
0.8431307533
 40
0.9286034461
 40
0.980969313
 40
1.0
 40
1.0
 40
1.0
 40
1.0
 10
95.3657811067
 20
232.3317726678
 30
0.0
 10
95.3010193621
 20
232.3308679158
 30
0.0
 10
95.208864352
 20
232.3291792786
 30
0.0
 10
95.0938626563
 20
232.3256246277
 30
0.0
 10
95.0243884549
 20
232.3229682808
 30
0.0
 10
94.9703484922
 20
232.3195967306
 30
0.0
 10
94.9271598412
 20
232.3172972407
 30
0.0
 10
94.9075636635
 20
232.3127571242
 30
0.0
 10
94.8908807439
 20
232.3118281257
 30
0.0
 10
94.8909039
 20
232.3088071388
 30
0.0
  0
SPLINE
  5
548
100
AcDbEntity
  8
0
100
AcDbSpline
 62
7
  6
CONTINUOUS
 70
0
 71
3
 72
14
 73
10
 74
0
 42
0.0000001
 43
0.0000001
 44
0.0000000001
 40
0.0
 40
0.0
 40
0.0
 40
0.0
 40
0.0190306873
 40
0.071396554
 40
0.1568692466
 40
0.2739588258
 40
0.4199651348
 40
0.5920059854
 40
1.0
 40
1.0
 40
1.0
 40
1.0
 10
121.590903992
 20
232.3088071387
 30
0.0
 10
121.590927148
 20
232.3118281256
 30
0.0
 10
121.5742442289
 20
232.3127571241
 30
0.0
 10
121.5546480506
 20
232.3172972407
 30
0.0
 10
121.5114594001
 20
232.3195967305
 30
0.0
 10
121.4574194374
 20
232.3229682808
 30
0.0
 10
121.3879452362
 20
232.3256246277
 30
0.0
 10
121.2729435407
 20
232.3291792786
 30
0.0
 10
121.1807885307
 20
232.3308679158
 30
0.0
 10
121.1160267862
 20
232.3317726678
 30
0.0
  0
SPLINE
  5
549
100
AcDbEntity
  8
0
100
AcDbSpline
 62
7
  6
CONTINUOUS
 70
0
 71
3
 72
10
 73
6
 74
0
 42
0.0000001
 43
0.0000001
 44
0.0000000001
 40
0.0
 40
0.0
 40
0.0
 40
0.0
 40
0.4852294348
 40
0.7382887435
 40
1.0
 40
1.0
 40
1.0
 40
1.0
 10
207.7238128098
 20
107.9153727621
 30
0.0
 10
208.2309675837
 20
107.9225953518
 30
0.0
 10
209.0077964162
 20
108.0559884847
 30
0.0
 10
209.9707712929
 20
108.4689758054
 30
0.0
 10
210.4310093934
 20
108.7529813369
 30
0.0
 10
210.6515238576
 20
108.9148792501
 30
0.0
  0
SPLINE
  5
54A
100
AcDbEntity
  8
0
100
AcDbSpline
 62
7
  6
CONTINUOUS
 70
0
 71
3
 72
14
 73
10
 74
0
 42
0.0000001
 43
0.0000001
 44
0.0000000001
 40
0.0
 40
0.0
 40
0.0
 40
0.0
 40
0.0250756616
 40
0.0853901551
 40
0.1794291906
 40
0.303642435
 40
0.4536888464
 40
0.6241602029
 40
1.0
 40
1.0
 40
1.0
 40
1.0
 10
46.246027877
 20
103.9305335589
 30
0.0
 10
46.2488681527
 20
103.933607509
 30
0.0
 10
46.2484882391
 20
103.9495653278
 30
0.0
 10
46.2528746484
 20
103.9778923566
 30
0.0
 10
46.2541145081
 20
104.0251280592
 30
0.0
 10
46.2566163962
 20
104.086241209
 30
0.0
 10
46.2581755489
 20
104.1605655374
 30
0.0
 10
46.2600041784
 20
104.2767302545
 30
0.0
 10
46.2604627612
 20
104.3679337932
 30
0.0
 10
46.2604626358
 20
104.4306633177
 30
0.0
  0
SPLINE
  5
54B
100
AcDbEntity
  8
0
100
AcDbSpline
 62
7
  6
CONTINUOUS
 70
0
 71
3
 72
9
 73
5
 74
0
 42
0.0000001
 43
0.0000001
 44
0.0000000001
 40
0.0
 40
0.0
 40
0.0
 40
0.0
 40
0.1149709257
 40
1.0
 40
1.0
 40
1.0
 40
1.0
 10
25.7605240437
 20
227.876125037
 30
0.0
 10
25.7988270655
 20
227.837822347
 30
0.0
 10
26.133342914
 20
227.5060363668
 30
0.0
 10
26.465124945
 20
227.1715108329
 30
0.0
 10
26.7599691301
 20
226.8766556497
 30
0.0
  0
ELLIPSE
  5
54C
100
AcDbEntity
  8
0
100
AcDbEllipse
 62
7
  6
CONTINUOUS
 10
114.590903946
 20
234.0578079469
 30
0.0
 11
2.0
 21
0.0
 31
0.0
 40
0.0314130633
 41
-1.5707963268
 42
0.0
  0
ELLIPSE
  5
54D
100
AcDbEntity
  8
0
100
AcDbEllipse
 62
7
  6
CONTINUOUS
 10
101.890903946
 20
234.0578079469
 30
0.0
 11
2.0
 21
0.0
 31
0.0
 40
0.0314130633
 41
3.1415926536
 42
4.7123889804
  0
ELLIPSE
  5
54E
100
AcDbEntity
  8
0
100
AcDbEllipse
 62
7
  6
CONTINUOUS
 10
192.9594434909
 20
107.8360665087
 30
0.0
 11
1.0000039766
 21
0.0
 31
0.0
 40
0.0301204819
 41
6.5351551537
 42
7.8539777606
  0
ELLIPSE
  5
54F
100
AcDbEntity
  8
0
100
AcDbEllipse
 62
7
  6
CONTINUOUS
 10
208.2384351678
 20
112.3982828442
 30
0.0
 11
3.5390244245
 21
-3.5390244245
 31
0.0
 40
0.999013706
 41
0.2896798004
 42
0.7849047731
  0
ENDSEC
  0
SECTION
  2
OBJECTS
  0
DICTIONARY
  5
C
100
AcDbDictionary
280
0
281
1
  3
ACAD_GROUP
350
D
  3
ACAD_MLINESTYLE
350
17
  3
ACAD_LAYOUT
350
1A
  3
ACAD_PLOTSETTINGS
350
19
  3
ACAD_PLOTSTYLENAME
350
E
  0
DICTIONARY
  5
D
102
{ACAD_REACTORS
330
C
102
}
100
AcDbDictionary
280
0
281
1
  0
ACDBDICTIONARYWDFLT
  5
E
102
{ACAD_REACTORS
330
C
102
}
100
AcDbDictionary
281
1
  3
Normal
350
F
100
AcDbDictionaryWithDefault
340
F
  0
DICTIONARY
  5
17
102
{ACAD_REACTORS
330
C
102
}
100
AcDbDictionary
280
0
281
1
  3
Standard
350
18
  0
DICTIONARY
  5
19
102
{ACAD_REACTORS
330
C
102
}
100
AcDbDictionary
281
1
  0
DICTIONARY
  5
1A
102
{ACAD_REACTORS
330
C
102
}
100
AcDbDictionary
281
1
  3
Model
350
550
  3
Layout1
350
551
  0
ACDBPLACEHOLDER
  5
F
102
{ACAD_REACTORS
330
E
102
}
  0
MLINESTYLE
  5
18
102
{ACAD_REACTORS
330
17
102
}
100
AcDbMlineStyle
  2
STANDARD
 70
0
  3

 62
256
 51
90.0
 52
90.0
 71
2
 49
0.5
 62
256
  6
BYLAYER
 49
-0.5
 62
256
  6
BYLAYER
  0
LAYOUT
  5
550
102
{ACAD_REACTORS
330
1A
102
}
100
AcDbPlotSettings
  1

  2
none_device
  4

  6

 40
0.0
 41
0.0
 42
0.0
 43
0.0
 44
210.0
 45
297.0
 46
0.0
 47
0.0
 48
0.0
 49
0.0
140
0.0
141
0.0
142
1.0
143
1.0
 70
1024
 72
1
 73
0
 74
0
  7

 75
0
147
1.0
148
0.0
149
0.0
100
AcDbLayout
  1
Model
 70
0
 71
0
 10
0.0
 20
0.0
 11
210.0
 21
297.0
 12
0.0
 22
0.0
 32
0.0
 14
0.0
 24
0.0
 34
0.0
 15
0.0
 25
0.0
 35
0.0
146
0.0
 13
0.0
 23
0.0
 33
0.0
 16
1.0
 26
0.0
 36
0.0
 17
0.0
 27
1.0
 37
0.0
 76
0
330
210
345
0
346
0
  0
LAYOUT
  5
551
102
{ACAD_REACTORS
330
1A
102
}
100
AcDbPlotSettings
  1

  2
none_device
  4

  6

 40
0.0
 41
0.0
 42
0.0
 43
0.0
 44
210.0
 45
297.0
 46
0.0
 47
0.0
 48
0.0
 49
0.0
140
0.0
141
0.0
142
1.0
143
1.0
 70
0
 72
1
 73
0
 74
0
  7

 75
0
147
1.0
148
0.0
149
0.0
100
AcDbLayout
  1
Layout1
 70
0
 71
1
 10
0.0
 20
0.0
 11
210.0
 21
297.0
 12
0.0
 22
0.0
 32
0.0
 14
0.0
 24
0.0
 34
0.0
 15
0.0
 25
0.0
 35
0.0
146
0.0
 13
0.0
 23
0.0
 33
0.0
 16
1.0
 26
0.0
 36
0.0
 17
0.0
 27
1.0
 37
0.0
 76
0
330
211
345
0
346
0
  0
ENDSEC
  0
EOF
