999
DXF file: C:\Users\sesa63760\Dev\_Creo\CAD\MCADID0003808_3D-CAD\drw0001_7.dxf
999
Pro/ENGINEER 2019471 by Parametric Technology Corporation
  0
SECTION
  2
HEADER
  9
$ACADVER
  1
AC1024
  9
$DWGCODEPAGE
  3
ANSI_1252
  9
$EXTMAX
 10
71.6896868687
 20
101.3897
 30
0.0
  9
$EXTMIN
 10
0.0
 20
0.0
 30
0.0
  9
$LIMMIN
 10
0.0
 20
0.0
  9
$LIMMAX
 10
71.6896868687
 20
101.3897
  9
$VIEWCTR
 10
35.8448434343
 20
50.69485
  9
$VIEWSIZE
 40
101.3897
  9
$CLAYER
  8
0
  9
$LTSCALE
 40
6.6091063704
  9
$CELTYPE
  6
BYLAYER
  9
$DIMSCALE
 40
1.0
  9
$DIMASZ
 40
0.8534486532
  9
$DIMEXO
 40
1.0
  9
$DIMDLI
 40
4.5662916741
  9
$DIMEXE
 40
1.0
  9
$DIMCEN
 40
1.0814901333
  9
$DIMLFAC
 40
1.0
  9
$DIMBLK
  1
_FILLED
  9
$DIMALT
 70
0
  9
$DIMALTF
 40
0.0393700787
  9
$DIMTXT
 40
1.1948281145
  9
$DIMTOL
 70
1
  9
$DIMLIM
 70
0
  9
$DIMTFAC
 40
1.0
  9
$DIMTP
 40
0.01
  9
$DIMTM
 40
0.01
  9
$DIMGAP
 40
0.625
  9
$DIMDSEP
 70
46
  9
$AUNITS
 70
0
  9
$PDMODE
 70
3
  9
$PDSIZE
 40
0.3125
  9
$HANDSEED
  5
2CC
  9
$TILEMODE
 70
1
  9
$MEASUREMENT
 70
1
  9
$INSUNITS
 70
4
  0
ENDSEC
  0
SECTION
  2
CLASSES
  0
CLASS
  1
ACDBDICTIONARYWDFLT
  2
AcDbDictionaryWithDefault
  3
AutoCAD 2000
 90
0
 91
1
280
0
281
0
  0
CLASS
  1
ACDBPLACEHOLDER
  2
AcDbPlaceHolder
  3
AutoCAD 2000
 90
0
 91
1
280
0
281
0
  0
CLASS
  1
LAYOUT
  2
AcDbLayout
  3
AutoCAD 2000
 90
0
 91
0
280
0
281
0
  0
ENDSEC
  0
SECTION
  2
TABLES
  0
TABLE
  2
VPORT
  5
8
100
AcDbSymbolTable
 70
2
  0
VPORT
  5
1F4
100
AcDbSymbolTableRecord
100
AcDbViewportTableRecord
  2
*ACTIVE
 70
0
 10
0.0
 20
0.0
 11
1.0
 21
1.0
 12
35.8448434343
 22
50.69485
 13
0.0
 23
0.0
 14
1.0
 24
1.0
 15
0.0
 25
0.0
 16
0.0
 26
0.0
 36
1.0
 17
0.0
 27
0.0
 37
0.0
 40
101.3897
 41
0.7070707071
 42
50.0
 43
0.0
 44
0.0
 50
0.0
 51
0.0
 71
0
 72
100
 73
1
 74
1
 75
0
 76
0
 77
0
 78
0
  0
ENDTAB
  0
TABLE
  2
LTYPE
  5
5
100
AcDbSymbolTable
 70
6
  0
LTYPE
  5
14
100
AcDbSymbolTableRecord
100
AcDbLinetypeTableRecord
  2
BYBLOCK
 70
0
  3

 72
65
 73
0
 40
0.0
  0
LTYPE
  5
15
100
AcDbSymbolTableRecord
100
AcDbLinetypeTableRecord
  2
BYLAYER
 70
0
  3

 72
65
 73
0
 40
0.0
  0
LTYPE
  5
16
100
AcDbSymbolTableRecord
100
AcDbLinetypeTableRecord
  2
CONTINUOUS
 70
64
  3
Solid line
 72
65
 73
0
 40
0.0
  0
LTYPE
  5
1F5
100
AcDbSymbolTableRecord
100
AcDbLinetypeTableRecord
  2
CENTER
 70
64
  3
____ _ ____ _ ____ _ ____ _ ____ _ ____ _ ____
 72
65
 73
4
 40
0.6
 49
0.375
 74
0
 49
-0.075
 74
0
 49
0.075
 74
0
 49
-0.075
 74
0
  0
LTYPE
  5
1F6
100
AcDbSymbolTableRecord
100
AcDbLinetypeTableRecord
  2
HIDDEN
 70
64
  3
- - - - - - - - - - - - - - - - - - - -
 72
65
 73
2
 40
0.2
 49
0.1
 74
0
 49
-0.1
 74
0
  0
LTYPE
  5
1F7
100
AcDbSymbolTableRecord
100
AcDbLinetypeTableRecord
  2
PHANTOM
 70
64
  3
_____ _ _ _____ _ _ _____ _ _ _____
 72
65
 73
6
 40
0.8
 49
0.45
 74
0
 49
-0.05
 74
0
 49
0.1
 74
0
 49
-0.05
 74
0
 49
0.1
 74
0
 49
-0.05
 74
0
  0
LTYPE
  5
1F8
100
AcDbSymbolTableRecord
100
AcDbLinetypeTableRecord
  2
DOT
 70
64
  3
. . . . . . . . . . . . . . . . . . . .
 72
65
 73
2
 40
0.2
 49
0.1
 74
0
 49
-0.1
 74
0
  0
LTYPE
  5
1F9
100
AcDbSymbolTableRecord
100
AcDbLinetypeTableRecord
  2
DASHED
 70
64
  3
- - - - - - - - - - - - - - - - - - - -
 72
65
 73
2
 40
0.2
 49
0.1
 74
0
 49
-0.1
 74
0
  0
ENDTAB
  0
TABLE
  2
LAYER
  5
2
100
AcDbSymbolTable
 70
36
  0
LAYER
  5
10
100
AcDbSymbolTableRecord
100
AcDbLayerTableRecord
  2
0
 70
0
 62
7
  6
CONTINUOUS
370
-3
390
F
  0
LAYER
  5
1FA
100
AcDbSymbolTableRecord
100
AcDbLayerTableRecord
  2
DEFAULT_1
 70
0
 62
7
  6
CENTER
370
-3
390
F
  0
LAYER
  5
1FB
100
AcDbSymbolTableRecord
100
AcDbLayerTableRecord
  2
DEFAULT_2
 70
0
 62
7
  6
HIDDEN
370
-3
390
F
  0
LAYER
  5
1FC
100
AcDbSymbolTableRecord
100
AcDbLayerTableRecord
  2
DEFAULT_3
 70
0
 62
7
  6
PHANTOM
370
-3
390
F
  0
LAYER
  5
1FD
100
AcDbSymbolTableRecord
100
AcDbLayerTableRecord
  2
00_COMPONENTS
 70
0
 62
7
  6
CONTINUOUS
370
-3
390
F
  0
LAYER
  5
1FE
100
AcDbSymbolTableRecord
100
AcDbLayerTableRecord
  2
01_1_DEFAULT_DATUMS
 70
0
 62
7
  6
CONTINUOUS
370
-3
390
F
  0
LAYER
  5
1FF
100
AcDbSymbolTableRecord
100
AcDbLayerTableRecord
  2
01_PLANES
 70
0
 62
7
  6
CONTINUOUS
370
-3
390
F
  0
LAYER
  5
200
100
AcDbSymbolTableRecord
100
AcDbLayerTableRecord
  2
02_COORD_SYS
 70
0
 62
7
  6
CONTINUOUS
370
-3
390
F
  0
LAYER
  5
201
100
AcDbSymbolTableRecord
100
AcDbLayerTableRecord
  2
03_AXES
 70
0
 62
7
  6
CONTINUOUS
370
-3
390
F
  0
LAYER
  5
202
100
AcDbSymbolTableRecord
100
AcDbLayerTableRecord
  2
04_POINTS
 70
0
 62
7
  6
CONTINUOUS
370
-3
390
F
  0
LAYER
  5
203
100
AcDbSymbolTableRecord
100
AcDbLayerTableRecord
  2
05_CURVES
 70
0
 62
7
  6
CONTINUOUS
370
-3
390
F
  0
LAYER
  5
204
100
AcDbSymbolTableRecord
100
AcDbLayerTableRecord
  2
06_SURFS
 70
0
 62
7
  6
CONTINUOUS
370
-3
390
F
  0
LAYER
  5
205
100
AcDbSymbolTableRecord
100
AcDbLayerTableRecord
  2
07_COSMETICS
 70
0
 62
7
  6
CONTINUOUS
370
-3
390
F
  0
LAYER
  5
206
100
AcDbSymbolTableRecord
100
AcDbLayerTableRecord
  2
10_NOTES
 70
0
 62
7
  6
CONTINUOUS
370
-3
390
F
  0
LAYER
  5
207
100
AcDbSymbolTableRecord
100
AcDbLayerTableRecord
  2
11_NOTES_PUB
 70
0
 62
7
  6
CONTINUOUS
370
-3
390
F
  0
LAYER
  5
208
100
AcDbSymbolTableRecord
100
AcDbLayerTableRecord
  2
13_REF_GTOL
 70
0
 62
7
  6
CONTINUOUS
370
-3
390
F
  0
LAYER
  5
209
100
AcDbSymbolTableRecord
100
AcDbLayerTableRecord
  2
16_MISC
 70
0
 62
7
  6
CONTINUOUS
370
-3
390
F
  0
LAYER
  5
20A
100
AcDbSymbolTableRecord
100
AcDbLayerTableRecord
  2
17_NO_PRINT
 70
0
 62
7
  6
CONTINUOUS
370
-3
390
F
  0
LAYER
  5
20B
100
AcDbSymbolTableRecord
100
AcDbLayerTableRecord
  2
18_DATUM_CAMS_JOINTS
 70
0
 62
7
  6
CONTINUOUS
370
-3
390
F
  0
LAYER
  5
20C
100
AcDbSymbolTableRecord
100
AcDbLayerTableRecord
  2
19_DATUM_FUNCTIONAL
 70
0
 62
7
  6
CONTINUOUS
370
-3
390
F
  0
LAYER
  5
20D
100
AcDbSymbolTableRecord
100
AcDbLayerTableRecord
  2
20_DATUM_KINEMATIC_SCHEME
 70
0
 62
7
  6
CONTINUOUS
370
-3
390
F
  0
ENDTAB
  0
TABLE
  2
STYLE
  5
3
100
AcDbSymbolTable
 70
1
  0
STYLE
  5
11
100
AcDbSymbolTableRecord
100
AcDbTextStyleTableRecord
  2
STANDARD
 70
0
 40
0.0
 41
1.0
 50
0.0
 71
0
 42
0.2
  3
ARIAL.TTF
  4

  0
STYLE
  5
20E
100
AcDbSymbolTableRecord
100
AcDbTextStyleTableRecord
  2
TEXTSTYLE_1
 70
0
 40
0.0
 41
0.8
 50
0.0
 71
0
 42
0.2
  3
gdt
  4

  0
ENDTAB
  0
TABLE
  2
VIEW
  5
6
100
AcDbSymbolTable
 70
0
  0
ENDTAB
  0
TABLE
  2
UCS
  5
7
100
AcDbSymbolTable
 70
0
  0
ENDTAB
  0
TABLE
  2
APPID
  5
9
100
AcDbSymbolTable
 70
1
  0
APPID
  5
20F
100
AcDbSymbolTableRecord
100
AcDbRegAppTableRecord
  2
ACAD
 70
0
  0
ENDTAB
  0
TABLE
  2
BLOCK_RECORD
  5
1
100
AcDbSymbolTable
 70
0
  0
BLOCK_RECORD
  5
210
100
AcDbSymbolTableRecord
100
AcDbBlockTableRecord
  2
*Model_Space
  0
BLOCK_RECORD
  5
211
100
AcDbSymbolTableRecord
100
AcDbBlockTableRecord
  2
*Paper_Space
  0
BLOCK_RECORD
  5
212
100
AcDbSymbolTableRecord
100
AcDbBlockTableRecord
  2
_FILLED
  0
ENDTAB
  0
TABLE
  2
DIMSTYLE
  5
A
100
AcDbSymbolTable
 70
1
100
AcDbDimStyleTable
 71
0
  0
DIMSTYLE
105
213
100
AcDbSymbolTableRecord
100
AcDbDimStyleTableRecord
  2
STANDARD
 70
0
  3

  4

 40
1.0
 41
0.8534486532
 42
1.0
 43
0.38
 44
1.0
 45
0.0
 46
0.0
 47
0.01
 48
0.01
140
1.1948281145
141
0.09
142
0.0
143
25.4
144
1.0
145
0.0
146
1.0
147
0.625
 71
1
 72
0
 73
0
 74
0
 75
0
 76
0
 77
1
 78
8
 79
2
170
0
171
1
172
0
173
0
174
0
175
0
176
0
177
0
178
0
270
2
179
2
271
2
272
2
273
2
274
2
275
0
280
0
281
0
282
0
283
1
284
8
285
0
286
0
287
3
288
0
340
11
278
46
341
212
342
212
343
212
344
212
  0
ENDTAB
  0
ENDSEC
  0
SECTION
  2
BLOCKS
  0
BLOCK
  5
20
100
AcDbEntity
  8
0
100
AcDbBlockBegin
  2
*Model_Space
 70
0
 10
0.0
 20
0.0
 30
0.0
  3
*Model_Space
  1

  0
ENDBLK
  5
21
100
AcDbEntity
  8
0
100
AcDbBlockEnd
  0
BLOCK
  5
1C
100
AcDbEntity
  8
0
100
AcDbBlockBegin
  2
*Paper_Space
 70
0
 10
0.0
 20
0.0
 30
0.0
  3
*Paper_Space
  1

  0
ENDBLK
  5
1D
100
AcDbEntity
  8
0
100
AcDbBlockEnd
  0
BLOCK
  5
214
100
AcDbEntity
  8
0
100
AcDbBlockBegin
  2
_FILLED
 70
64
 10
0.0
 20
0.0
  3
_FILLED
  1

  0
SOLID
  5
215
100
AcDbEntity
  8
0
  6
BYBLOCK
 62
0
100
AcDbTrace
 10
0.0
 20
0.0
 11
-1.0
 21
0.25
 12
-1.0
 22
-0.25
 13
-1.0
 23
-0.25
  0
ENDBLK
  5
216
100
AcDbEntity
  8
0
  6
BYBLOCK
 62
0
100
AcDbBlockEnd
  0
ENDSEC
  0
SECTION
  2
ENTITIES
  0
LINE
  5
217
100
AcDbEntity
  8
0
100
AcDbLine
 62
7
  6
BYLAYER
 10
40.9691237166
 20
7.50805
 11
30.968763152
 21
7.50805
  0
LINE
  5
218
100
AcDbEntity
  8
0
100
AcDbLine
 62
7
  6
BYLAYER
 10
41.1689434343
 20
8.50805
 11
30.7689434343
 21
8.50805
  0
LINE
  5
219
100
AcDbEntity
  8
0
100
AcDbLine
 62
7
  6
BYLAYER
 10
30.7689434343
 20
9.20805
 11
41.1689434343
 21
9.20805
  0
LINE
  5
21A
100
AcDbEntity
  8
0
100
AcDbLine
 62
7
  6
BYLAYER
 10
40.9689434343
 20
9.5544601615
 11
30.9689434343
 21
9.5544601615
  0
LINE
  5
21B
100
AcDbEntity
  8
0
100
AcDbLine
 62
7
  6
BYLAYER
 10
24.9689434343
 20
94.37805
 11
24.4689434343
 21
93.87805
  0
LINE
  5
21C
100
AcDbEntity
  8
0
100
AcDbLine
 62
7
  6
BYLAYER
 10
30.9689434343
 20
10.70805
 11
40.9689434343
 21
10.70805
  0
LINE
  5
21D
100
AcDbEntity
  8
0
100
AcDbLine
 62
7
  6
BYLAYER
 10
41.9689434343
 20
11.70805
 11
29.9689434343
 21
11.70805
  0
LINE
  5
21E
100
AcDbEntity
  8
0
100
AcDbLine
 62
7
  6
BYLAYER
 10
24.4689434343
 20
86.37805
 11
22.9689434343
 21
85.5120245962
  0
LINE
  5
21F
100
AcDbEntity
  8
0
100
AcDbLine
 62
7
  6
BYLAYER
 10
20.9689434343
 20
79.5639724516
 11
20.5380033267
 21
79.20805
  0
LINE
  5
220
100
AcDbEntity
  8
0
100
AcDbLine
 62
7
  6
BYLAYER
 10
43.963452961
 20
19.1525501668
 11
55.4579468021
 21
19.3531873031
  0
LINE
  5
221
100
AcDbEntity
  8
0
100
AcDbLine
 62
7
  6
BYLAYER
 10
29.9689434343
 20
17.50805
 11
41.9689434343
 21
17.50805
  0
LINE
  5
222
100
AcDbEntity
  8
0
100
AcDbLine
 62
7
  6
BYLAYER
 10
43.6630379033
 20
18.50805
 11
28.2748489654
 21
18.50805
  0
LINE
  5
223
100
AcDbEntity
  8
0
100
AcDbLine
 62
7
  6
BYLAYER
 10
43.9630379033
 20
18.80805
 11
27.9748489654
 21
18.80805
  0
LINE
  5
224
100
AcDbEntity
  8
0
100
AcDbLine
 62
7
  6
BYLAYER
 10
16.4799400666
 20
19.3531873031
 11
27.9787185479
 21
19.1524753782
  0
LINE
  5
225
100
AcDbEntity
  8
0
100
AcDbLine
 62
7
  6
BYLAYER
 10
28.0091518679
 20
19.4318512976
 11
27.7849966367
 21
19.4573813074
  0
LINE
  5
226
100
AcDbEntity
  8
0
100
AcDbLine
 62
7
  6
BYLAYER
 10
29.9689434343
 20
11.70805
 11
30.9689434343
 21
10.70805
  0
LINE
  5
227
100
AcDbEntity
  8
0
100
AcDbLine
 62
7
  6
BYLAYER
 10
27.9789195938
 20
19.1678944908
 11
27.9748489654
 21
19.1676007347
  0
LINE
  5
228
100
AcDbEntity
  8
0
100
AcDbLine
 62
7
  6
BYLAYER
 10
56.0144438305
 20
22.00805
 11
56.3809211068
 21
22.00805
  0
LINE
  5
229
100
AcDbEntity
  8
0
100
AcDbLine
 62
7
  6
BYLAYER
 10
56.3742854975
 20
22.25805
 11
55.9975098863
 21
22.25805
  0
LINE
  5
22A
100
AcDbEntity
  8
0
100
AcDbLine
 62
7
  6
BYLAYER
 10
19.8431104094
 20
78.0044601615
 11
19.7132398602
 21
77.6909249201
  0
LINE
  5
22B
100
AcDbEntity
  8
0
100
AcDbLine
 62
7
  6
BYLAYER
 10
20.5380033267
 20
79.20805
 11
19.8431104094
 21
78.0044601615
  0
LINE
  5
22C
100
AcDbEntity
  8
0
100
AcDbLine
 62
7
  6
BYLAYER
 10
15.3966469429
 20
72.6598948431
 11
15.4962638644
 21
20.3519145095
  0
LINE
  5
22D
100
AcDbEntity
  8
0
100
AcDbLine
 62
7
  6
BYLAYER
 10
15.975796935
 20
20.6632302985
 11
15.9757969399
 21
72.2838820664
  0
LINE
  5
22E
100
AcDbEntity
  8
0
100
AcDbLine
 62
7
  6
BYLAYER
 10
19.7132398602
 20
77.6909249201
 11
19.6689434343
 21
77.3544601615
  0
LINE
  5
22F
100
AcDbEntity
  8
0
100
AcDbLine
 62
7
  6
BYLAYER
 10
47.9689434343
 20
80.37805
 11
48.9689434343
 21
80.9554002692
  0
LINE
  5
230
100
AcDbEntity
  8
0
100
AcDbLine
 62
7
  6
BYLAYER
 10
19.6689434343
 20
77.3544601615
 11
19.6689434343
 21
73.2874507531
  0
LINE
  5
231
100
AcDbEntity
  8
0
100
AcDbLine
 62
7
  6
BYLAYER
 10
55.4579468021
 20
19.3531873031
 11
54.9798942162
 21
19.6635353438
  0
LINE
  5
232
100
AcDbEntity
  8
0
100
AcDbLine
 62
7
  6
BYLAYER
 10
41.1689434343
 20
9.20805
 11
40.9689434343
 21
9.5544601615
  0
LINE
  5
233
100
AcDbEntity
  8
0
100
AcDbLine
 62
7
  6
BYLAYER
 10
20.9689434343
 20
79.5639724516
 11
20.9689434343
 21
79.60805
  0
LINE
  5
234
100
AcDbEntity
  8
0
100
AcDbLine
 62
7
  6
BYLAYER
 10
22.9689434343
 20
85.5120245962
 11
22.9689434343
 21
80.9554002692
  0
LINE
  5
235
100
AcDbEntity
  8
0
100
AcDbLine
 62
7
  6
BYLAYER
 10
23.0766385889
 20
80.9554002692
 11
23.0766385889
 21
85.5120245962
  0
LINE
  5
236
100
AcDbEntity
  8
0
100
AcDbLine
 62
7
  6
BYLAYER
 10
55.9620899336
 20
20.6632302972
 11
56.4416230042
 21
20.3519145096
  0
LINE
  5
237
100
AcDbEntity
  8
0
100
AcDbLine
 62
7
  6
BYLAYER
 10
30.7689434343
 20
8.50805
 11
30.968763152
 21
7.50805
  0
LINE
  5
238
100
AcDbEntity
  8
0
100
AcDbLine
 62
7
  6
BYLAYER
 10
23.9689434343
 20
80.37805
 11
23.9689434343
 21
79.60805
  0
LINE
  5
239
100
AcDbEntity
  8
0
100
AcDbLine
 62
7
  6
BYLAYER
 10
24.4689434343
 20
93.87805
 11
24.4689434343
 21
86.37805
  0
LINE
  5
23A
100
AcDbEntity
  8
0
100
AcDbLine
 62
7
  6
BYLAYER
 10
27.9748489654
 20
19.1676007347
 11
27.9748489654
 21
18.80805
  0
LINE
  5
23B
100
AcDbEntity
  8
0
100
AcDbLine
 62
7
  6
BYLAYER
 10
28.0766385889
 20
85.5120245962
 11
28.0766385889
 21
80.9554002692
  0
LINE
  5
23C
100
AcDbEntity
  8
0
100
AcDbLine
 62
7
  6
BYLAYER
 10
29.9689434343
 20
17.50805
 11
29.9689434343
 21
11.70805
  0
LINE
  5
23D
100
AcDbEntity
  8
0
100
AcDbLine
 62
7
  6
BYLAYER
 10
54.9798403663
 20
73.2835776245
 11
55.5601844264
 21
73.6603530094
  0
LINE
  5
23E
100
AcDbEntity
  8
0
100
AcDbLine
 62
7
  6
BYLAYER
 10
56.5412399257
 20
72.6598948431
 11
55.9620899288
 21
72.2838820679
  0
LINE
  5
23F
100
AcDbEntity
  8
0
100
AcDbLine
 62
7
  6
BYLAYER
 10
55.9946987411
 20
44.6280650831
 11
55.9882683554
 21
44.6280650831
  0
LINE
  5
240
100
AcDbEntity
  8
0
100
AcDbLine
 62
7
  6
BYLAYER
 10
30.7689434343
 20
9.20805
 11
30.7689434343
 21
8.50805
  0
LINE
  5
241
100
AcDbEntity
  8
0
100
AcDbLine
 62
7
  6
BYLAYER
 10
30.9689434343
 20
10.70805
 11
30.9689434343
 21
9.5544601615
  0
LINE
  5
242
100
AcDbEntity
  8
0
100
AcDbLine
 62
7
  6
BYLAYER
 10
30.9689434343
 20
80.9554002692
 11
30.9689434343
 21
85.5120245962
  0
LINE
  5
243
100
AcDbEntity
  8
0
100
AcDbLine
 62
7
  6
BYLAYER
 10
27.9748753433
 20
19.1679722873
 11
27.9748489654
 21
19.1676007347
  0
LINE
  5
244
100
AcDbEntity
  8
0
100
AcDbLine
 62
7
  6
BYLAYER
 10
35.9689631937
 20
19.6542906793
 11
35.9689698138
 21
19.4670105592
  0
LINE
  5
245
100
AcDbEntity
  8
0
100
AcDbLine
 62
7
  6
BYLAYER
 10
40.9689434343
 20
85.5120245962
 11
40.9689434343
 21
80.9554002692
  0
LINE
  5
246
100
AcDbEntity
  8
0
100
AcDbLine
 62
7
  6
BYLAYER
 10
40.9689434343
 20
10.70805
 11
40.9689434343
 21
9.5544601615
  0
LINE
  5
247
100
AcDbEntity
  8
0
100
AcDbLine
 62
7
  6
BYLAYER
 10
41.1689434343
 20
9.20805
 11
41.1689434343
 21
8.50805
  0
LINE
  5
248
100
AcDbEntity
  8
0
100
AcDbLine
 62
7
  6
BYLAYER
 10
41.9689434343
 20
17.50805
 11
41.9689434343
 21
11.70805
  0
LINE
  5
249
100
AcDbEntity
  8
0
100
AcDbLine
 62
7
  6
BYLAYER
 10
43.9630379033
 20
19.1507773767
 11
43.9630349433
 21
19.1508852238
  0
LINE
  5
24A
100
AcDbEntity
  8
0
100
AcDbLine
 62
7
  6
BYLAYER
 10
43.8612482798
 20
80.9554002692
 11
43.8612482798
 21
85.5120245962
  0
LINE
  5
24B
100
AcDbEntity
  8
0
100
AcDbLine
 62
7
  6
BYLAYER
 10
43.9630379033
 20
19.150776103
 11
43.9630379033
 21
18.80805
  0
LINE
  5
24C
100
AcDbEntity
  8
0
100
AcDbLine
 62
7
  6
BYLAYER
 10
55.9946740727
 20
60.6280650831
 11
55.9882668837
 21
60.6280650831
  0
LINE
  5
24D
100
AcDbEntity
  8
0
100
AcDbLine
 62
7
  6
BYLAYER
 10
15.9757969399
 20
72.2838820664
 11
15.3966469429
 21
72.6598948431
  0
LINE
  5
24E
100
AcDbEntity
  8
0
100
AcDbLine
 62
7
  6
BYLAYER
 10
16.3777024423
 20
73.6603530094
 11
16.958046232
 21
73.2835776197
  0
LINE
  5
24F
100
AcDbEntity
  8
0
100
AcDbLine
 62
7
  6
BYLAYER
 10
47.4689434343
 20
93.87805
 11
47.4689434343
 21
86.37805
  0
LINE
  5
250
100
AcDbEntity
  8
0
100
AcDbLine
 62
7
  6
BYLAYER
 10
47.9689434343
 20
80.37805
 11
47.9689434343
 21
79.60805
  0
LINE
  5
251
100
AcDbEntity
  8
0
100
AcDbLine
 62
7
  6
BYLAYER
 10
48.8612482798
 20
85.5120245962
 11
48.8612482798
 21
80.9554002692
  0
LINE
  5
252
100
AcDbEntity
  8
0
100
AcDbLine
 62
7
  6
BYLAYER
 10
48.9689434343
 20
85.5120245962
 11
48.9689434343
 21
80.9554002692
  0
LINE
  5
253
100
AcDbEntity
  8
0
100
AcDbLine
 62
7
  6
BYLAYER
 10
50.9689434343
 20
79.5639724516
 11
50.9689434343
 21
79.60805
  0
LINE
  5
254
100
AcDbEntity
  8
0
100
AcDbLine
 62
7
  6
BYLAYER
 10
52.2689434343
 20
77.3544601615
 11
52.2689434343
 21
73.2874500003
  0
LINE
  5
255
100
AcDbEntity
  8
0
100
AcDbLine
 62
7
  6
BYLAYER
 10
55.5601923156
 20
73.6603983598
 11
55.5601844264
 21
73.6603530094
  0
LINE
  5
256
100
AcDbEntity
  8
0
100
AcDbLine
 62
7
  6
BYLAYER
 10
41.1689434343
 20
8.50805
 11
40.9691237166
 21
7.50805
  0
LWPOLYLINE
  5
257
100
AcDbEntity
  8
0
100
AcDbPolyline
 62
7
  6
BYLAYER
 90
4
 70
0
 10
43.9634817453
 20
19.1509011139
 10
43.9977321668
 20
19.3064085254
 10
44.1300702076
 20
19.4334399381
 10
44.1684287448
 20
19.4475098417
  0
LINE
  5
258
100
AcDbEntity
  8
0
100
AcDbLine
 62
7
  6
BYLAYER
 10
30.7689434343
 20
9.20805
 11
30.9689434343
 21
9.5544601615
  0
LINE
  5
259
100
AcDbEntity
  8
0
100
AcDbLine
 62
7
  6
BYLAYER
 10
15.4962638644
 20
20.3519145095
 11
15.975796935
 21
20.6632302985
  0
LINE
  5
25A
100
AcDbEntity
  8
0
100
AcDbLine
 62
7
  6
BYLAYER
 10
16.9579927579
 20
19.6635353416
 11
16.4799400666
 21
19.3531873031
  0
LINE
  5
25B
100
AcDbEntity
  8
0
100
AcDbLine
 62
7
  6
BYLAYER
 10
23.9689434343
 20
80.37805
 11
22.9689434343
 21
80.9554002692
  0
LINE
  5
25C
100
AcDbEntity
  8
0
100
AcDbLine
 62
7
  6
BYLAYER
 10
52.2246470085
 20
77.6909249201
 11
52.2689434343
 21
77.3544601615
  0
LINE
  5
25D
100
AcDbEntity
  8
0
100
AcDbLine
 62
7
  6
BYLAYER
 10
55.9620899288
 20
72.2838820679
 11
55.9620899336
 21
20.6632302972
  0
LINE
  5
25E
100
AcDbEntity
  8
0
100
AcDbLine
 62
7
  6
BYLAYER
 10
55.9882668822
 20
70.00805
 11
55.9882683554
 21
60.6280650831
  0
LINE
  5
25F
100
AcDbEntity
  8
0
100
AcDbLine
 62
7
  6
BYLAYER
 10
55.9882683554
 20
44.6280650831
 11
55.9882668822
 21
23.00805
  0
LINE
  5
260
100
AcDbEntity
  8
0
100
AcDbLine
 62
7
  6
BYLAYER
 10
55.9946987411
 20
60.6280650831
 11
55.9947197471
 21
69.75805
  0
LINE
  5
261
100
AcDbEntity
  8
0
100
AcDbLine
 62
7
  6
BYLAYER
 10
55.9947197471
 20
23.25805
 11
55.9946987411
 21
44.6280650831
  0
LINE
  5
262
100
AcDbEntity
  8
0
100
AcDbLine
 62
7
  6
BYLAYER
 10
56.4004624458
 20
69.75805
 11
56.4004624458
 21
23.25805
  0
LINE
  5
263
100
AcDbEntity
  8
0
100
AcDbLine
 62
7
  6
BYLAYER
 10
56.4070980551
 20
23.00805
 11
56.4070980551
 21
70.00805
  0
LINE
  5
264
100
AcDbEntity
  8
0
100
AcDbLine
 62
7
  6
BYLAYER
 10
56.4416230042
 20
20.3519145096
 11
56.5412399257
 21
72.6598948431
  0
LINE
  5
265
100
AcDbEntity
  8
0
100
AcDbLine
 62
7
  6
BYLAYER
 10
55.9975100434
 20
70.75805
 11
56.3742854975
 21
70.75805
  0
LINE
  5
266
100
AcDbEntity
  8
0
100
AcDbLine
 62
7
  6
BYLAYER
 10
56.3809211068
 20
71.00805
 11
56.0144438305
 21
71.00805
  0
LINE
  5
267
100
AcDbEntity
  8
0
100
AcDbLine
 62
7
  6
BYLAYER
 10
51.3114546245
 20
73.20805
 11
41.4514139164
 21
73.20805
  0
LINE
  5
268
100
AcDbEntity
  8
0
100
AcDbLine
 62
7
  6
BYLAYER
 10
30.4857213534
 20
73.20805
 11
20.6264322442
 21
73.20805
  0
LINE
  5
269
100
AcDbEntity
  8
0
100
AcDbLine
 62
7
  6
BYLAYER
 10
19.6689434343
 20
73.7178018347
 11
16.3777024423
 21
73.6603530094
  0
LINE
  5
26A
100
AcDbEntity
  8
0
100
AcDbLine
 62
7
  6
BYLAYER
 10
55.5601844264
 20
73.6603530094
 11
52.2689434343
 21
73.7178018347
  0
LINE
  5
26B
100
AcDbEntity
  8
0
100
AcDbLine
 62
7
  6
BYLAYER
 10
52.0947764593
 20
78.0044601615
 11
52.2246470085
 21
77.6909249201
  0
LINE
  5
26C
100
AcDbEntity
  8
0
100
AcDbLine
 62
7
  6
BYLAYER
 10
56.5412399257
 20
72.6598948431
 11
56.5413418951
 21
72.659296162
  0
LINE
  5
26D
100
AcDbEntity
  8
0
100
AcDbLine
 62
7
  6
BYLAYER
 10
19.6689434343
 20
77.3544601615
 11
52.2689434343
 21
77.3544601615
  0
LINE
  5
26E
100
AcDbEntity
  8
0
100
AcDbLine
 62
7
  6
BYLAYER
 10
52.0947764593
 20
78.0044601615
 11
19.8431104094
 21
78.0044601615
  0
LINE
  5
26F
100
AcDbEntity
  8
0
100
AcDbLine
 62
7
  6
BYLAYER
 10
20.5380033267
 20
79.20805
 11
51.399883542
 21
79.20805
  0
LINE
  5
270
100
AcDbEntity
  8
0
100
AcDbLine
 62
7
  6
BYLAYER
 10
50.9689434343
 20
79.5639724516
 11
20.9689434343
 21
79.5639724516
  0
LINE
  5
271
100
AcDbEntity
  8
0
100
AcDbLine
 62
7
  6
BYLAYER
 10
20.9689434343
 20
79.60805
 11
50.9689434343
 21
79.60805
  0
LINE
  5
272
100
AcDbEntity
  8
0
100
AcDbLine
 62
7
  6
BYLAYER
 10
51.399883542
 20
79.20805
 11
52.0947764593
 21
78.0044601615
  0
LINE
  5
273
100
AcDbEntity
  8
0
100
AcDbLine
 62
7
  6
BYLAYER
 10
41.9689434343
 20
11.70805
 11
40.9689434343
 21
10.70805
  0
LINE
  5
274
100
AcDbEntity
  8
0
100
AcDbLine
 62
7
  6
BYLAYER
 10
23.9689434343
 20
80.37805
 11
47.9689434343
 21
80.37805
  0
LINE
  5
275
100
AcDbEntity
  8
0
100
AcDbLine
 62
7
  6
BYLAYER
 10
48.9689434343
 20
80.9554002692
 11
48.8612482798
 21
80.9554002692
  0
LINE
  5
276
100
AcDbEntity
  8
0
100
AcDbLine
 62
7
  6
BYLAYER
 10
43.8612482798
 20
80.9554002692
 11
40.9689434343
 21
80.9554002692
  0
LINE
  5
277
100
AcDbEntity
  8
0
100
AcDbLine
 62
7
  6
BYLAYER
 10
30.9689434343
 20
80.9554002692
 11
28.0766385889
 21
80.9554002692
  0
LINE
  5
278
100
AcDbEntity
  8
0
100
AcDbLine
 62
7
  6
BYLAYER
 10
23.0766385889
 20
80.9554002692
 11
22.9689434343
 21
80.9554002692
  0
LINE
  5
279
100
AcDbEntity
  8
0
100
AcDbLine
 62
7
  6
BYLAYER
 10
50.9689434343
 20
79.5639724516
 11
51.399883542
 21
79.20805
  0
LINE
  5
27A
100
AcDbEntity
  8
0
100
AcDbLine
 62
7
  6
BYLAYER
 10
22.9689434343
 20
85.5120245962
 11
23.0766385889
 21
85.5120245962
  0
LINE
  5
27B
100
AcDbEntity
  8
0
100
AcDbLine
 62
7
  6
BYLAYER
 10
28.0766385889
 20
85.5120245962
 11
30.9689434343
 21
85.5120245962
  0
LINE
  5
27C
100
AcDbEntity
  8
0
100
AcDbLine
 62
7
  6
BYLAYER
 10
40.9689434343
 20
85.5120245962
 11
43.8612482798
 21
85.5120245962
  0
LINE
  5
27D
100
AcDbEntity
  8
0
100
AcDbLine
 62
7
  6
BYLAYER
 10
48.8612482798
 20
85.5120245962
 11
48.9689434343
 21
85.5120245962
  0
LINE
  5
27E
100
AcDbEntity
  8
0
100
AcDbLine
 62
7
  6
BYLAYER
 10
47.4689434343
 20
86.37805
 11
24.4689434343
 21
86.37805
  0
LINE
  5
27F
100
AcDbEntity
  8
0
100
AcDbLine
 62
7
  6
BYLAYER
 10
47.4689434343
 20
86.37805
 11
48.9689434343
 21
85.5120245962
  0
LINE
  5
280
100
AcDbEntity
  8
0
100
AcDbLine
 62
7
  6
BYLAYER
 10
46.9689434343
 20
94.37805
 11
47.4689434343
 21
93.87805
  0
LINE
  5
281
100
AcDbEntity
  8
0
100
AcDbLine
 62
7
  6
BYLAYER
 10
24.4689434343
 20
93.87805
 11
47.4689434343
 21
93.87805
  0
LINE
  5
282
100
AcDbEntity
  8
0
100
AcDbLine
 62
7
  6
BYLAYER
 10
24.9689553119
 20
94.37805
 11
46.9689315568
 21
94.37805
  0
ARC
  5
283
100
AcDbEntity
  8
0
100
AcDbCircle
 62
7
  6
BYLAYER
 10
21.8607339326
 20
862.4908901472
 40
789.329965071
100
AcDbArc
 50
270.6260886439
 51
271.0241801453
  0
ARC
  5
284
100
AcDbEntity
  8
0
100
AcDbCircle
 62
7
  6
BYLAYER
 10
49.7901215882
 20
842.578528696
 40
769.4156372188
100
AcDbArc
 50
268.9707700751
 51
269.3792322968
  0
ARC
  5
285
100
AcDbEntity
  8
0
100
AcDbCircle
 62
7
  6
BYLAYER
 10
43.6565386771
 20
-418.748318979
 40
438.2827554871
100
AcDbArc
 50
90.4887682064
 51
91.0050311898
  0
ARC
  5
286
100
AcDbEntity
  8
0
100
AcDbCircle
 62
7
  6
BYLAYER
 10
46.7927206954
 20
70.4806885381
 40
9.4096005303
100
AcDbArc
 50
1.7330033534
 51
2.0468996688
  0
ARC
  5
287
100
AcDbEntity
  8
0
100
AcDbCircle
 62
7
  6
BYLAYER
 10
41.9785741516
 20
76.7175762731
 40
4.5095050006
100
AcDbArc
 50
265.7668091744
 51
269.3577003411
  0
ARC
  5
288
100
AcDbEntity
  8
0
100
AcDbCircle
 62
7
  6
BYLAYER
 10
29.9610954554
 20
76.675802528
 40
4.4677132851
100
AcDbArc
 50
270.6242651979
 51
274.2499356808
  0
CIRCLE
  5
289
100
AcDbEntity
  8
0
100
AcDbCircle
 62
7
  6
BYLAYER
 10
35.9689434343
 20
26.30805
 40
2.5
  0
ARC
  5
28A
100
AcDbEntity
  8
0
100
AcDbCircle
 62
7
  6
BYLAYER
 10
16.4970072876
 20
20.3538277586
 40
1.0007707761
100
AcDbArc
 50
180.1095395297
 51
269.0228320314
  0
ARC
  5
28B
100
AcDbEntity
  8
0
100
AcDbCircle
 62
7
  6
BYLAYER
 10
55.4408799046
 20
20.3538280753
 40
1.0007707712
100
AcDbArc
 50
270.9771492961
 51
359.8904423063
  0
ARC
  5
28C
100
AcDbEntity
  8
0
100
AcDbCircle
 62
7
  6
BYLAYER
 10
16.9761518337
 20
20.6637129023
 40
1.0003541976
100
AcDbArc
 50
180.0276271147
 51
268.9592562535
  0
ARC
  5
28D
100
AcDbEntity
  8
0
100
AcDbCircle
 62
7
  6
BYLAYER
 10
54.9617351568
 20
20.6637127752
 40
1.0003540768
100
AcDbArc
 50
271.0407370567
 51
359.9723801613
  0
ARC
  5
28E
100
AcDbEntity
  8
0
100
AcDbCircle
 62
7
  6
BYLAYER
 10
16.9761488068
 20
72.2834025373
 40
1.0003510714
100
AcDbArc
 50
91.0380273381
 51
179.9725687997
  0
ARC
  5
28F
100
AcDbEntity
  8
0
100
AcDbCircle
 62
7
  6
BYLAYER
 10
54.9617382533
 20
72.2834024504
 40
1.0003510106
100
AcDbArc
 50
0.0274361779
 51
88.9619837257
  0
ARC
  5
290
100
AcDbEntity
  8
0
100
AcDbCircle
 62
7
  6
BYLAYER
 10
42.9689434343
 20
17.50805
 40
1.0
100
AcDbArc
 50
90.0
 51
180.0
  0
ARC
  5
291
100
AcDbEntity
  8
0
100
AcDbCircle
 62
7
  6
BYLAYER
 10
28.9689434343
 20
17.50805
 40
1.0
100
AcDbArc
 50
0.0
 51
90.0
  0
ARC
  5
292
100
AcDbEntity
  8
0
100
AcDbCircle
 62
7
  6
BYLAYER
 10
16.3955271245
 20
72.6616756712
 40
0.9988616278
100
AcDbArc
 50
91.0225228746
 51
180.1021482177
  0
ARC
  5
293
100
AcDbEntity
  8
0
100
AcDbCircle
 62
7
  6
BYLAYER
 10
55.5425332308
 20
72.6617229606
 40
0.9987860327
100
AcDbArc
 50
359.9375361651
 51
88.9873792758
  0
ARC
  5
294
100
AcDbEntity
  8
0
100
AcDbCircle
 62
7
  6
BYLAYER
 10
28.2748489654
 20
18.80805
 40
0.3
100
AcDbArc
 50
180.0
 51
270.0
  0
ARC
  5
295
100
AcDbEntity
  8
0
100
AcDbCircle
 62
7
  6
BYLAYER
 10
43.6630379033
 20
18.80805
 40
0.3
100
AcDbArc
 50
270.0
 51
360.0
  0
SPLINE
  5
296
100
AcDbEntity
  8
0
100
AcDbSpline
 62
7
  6
BYLAYER
 70
0
 71
3
 72
14
 73
10
 74
0
 42
0.0000001
 43
0.0000001
 44
0.0000000001
 40
0.0
 40
0.0
 40
0.0
 40
0.0
 40
0.2542182474
 40
0.377680034
 40
0.4998632451
 40
0.6220464078
 40
0.745508465
 40
0.8712838728
 40
1.0
 40
1.0
 40
1.0
 40
1.0
 10
43.8612482798
 20
85.5120245962
 30
0.0
 10
44.2613476913
 20
85.6897149831
 30
0.0
 10
44.8788506001
 20
85.9095458514
 30
0.0
 10
45.7274155695
 20
86.0633864331
 30
0.0
 10
46.3612580772
 20
86.1022754569
 30
0.0
 10
46.9950418814
 20
86.0634129967
 30
0.0
 10
47.6257459305
 20
85.9490012726
 30
0.0
 10
48.2510462873
 20
85.7646129305
 30
0.0
 10
48.658669404
 20
85.6019930335
 30
0.0
 10
48.8612482798
 20
85.5120245962
 30
0.0
  0
SPLINE
  5
297
100
AcDbEntity
  8
0
100
AcDbSpline
 62
7
  6
BYLAYER
 70
0
 71
3
 72
11
 73
7
 74
0
 42
0.0000001
 43
0.0000001
 44
0.0000000001
 40
0.0
 40
0.0
 40
0.0
 40
0.0
 40
0.2499954977
 40
0.500001546
 40
0.7500051938
 40
1.0
 40
1.0
 40
1.0
 40
1.0
 10
35.9689434343
 20
86.0893748271
 30
0.0
 10
36.3891682701
 20
86.0893748271
 30
0.0
 10
37.2298510701
 20
86.0637279296
 30
0.0
 10
38.4861277445
 20
85.9503783512
 30
0.0
 10
39.7340405102
 20
85.7671490598
 30
0.0
 10
40.5587122429
 20
85.6031196304
 30
0.0
 10
40.9689434343
 20
85.5120245962
 30
0.0
  0
SPLINE
  5
298
100
AcDbEntity
  8
0
100
AcDbSpline
 62
7
  6
BYLAYER
 70
0
 71
3
 72
11
 73
7
 74
0
 42
0.0000001
 43
0.0000001
 44
0.0000000001
 40
0.0
 40
0.0
 40
0.0
 40
0.0
 40
0.2499945922
 40
0.4999985588
 40
0.7500047589
 40
1.0
 40
1.0
 40
1.0
 40
1.0
 10
30.9689434343
 20
85.5120245962
 30
0.0
 10
31.3791741946
 20
85.6031195346
 30
0.0
 10
32.2038466847
 20
85.767145804
 30
0.0
 10
33.4517606706
 20
85.9503671434
 30
0.0
 10
34.7080366791
 20
86.0637226637
 30
0.0
 10
35.548719112
 20
86.0893748271
 30
0.0
 10
35.9689434343
 20
86.0893748271
 30
0.0
  0
SPLINE
  5
299
100
AcDbEntity
  8
0
100
AcDbSpline
 62
7
  6
BYLAYER
 70
0
 71
3
 72
14
 73
10
 74
0
 42
0.0000001
 43
0.0000001
 44
0.0000000001
 40
0.0
 40
0.0
 40
0.0
 40
0.0
 40
0.2542182474
 40
0.377680034
 40
0.4998632451
 40
0.6220464078
 40
0.745508465
 40
0.8712838728
 40
1.0
 40
1.0
 40
1.0
 40
1.0
 10
23.0766385889
 20
85.5120245962
 30
0.0
 10
23.4767380005
 20
85.6897149831
 30
0.0
 10
24.0942409093
 20
85.9095458514
 30
0.0
 10
24.9428058787
 20
86.0633864331
 30
0.0
 10
25.5766483864
 20
86.1022754569
 30
0.0
 10
26.2104321905
 20
86.0634129967
 30
0.0
 10
26.8411362396
 20
85.9490012726
 30
0.0
 10
27.4664365965
 20
85.7646129305
 30
0.0
 10
27.8740597131
 20
85.6019930335
 30
0.0
 10
28.0766385889
 20
85.5120245962
 30
0.0
  0
SPLINE
  5
29A
100
AcDbEntity
  8
0
100
AcDbSpline
 62
7
  6
BYLAYER
 70
0
 71
3
 72
11
 73
7
 74
0
 42
0.0000001
 43
0.0000001
 44
0.0000000001
 40
0.0
 40
0.0
 40
0.0
 40
0.0
 40
0.2443009477
 40
0.4911801959
 40
0.7426487675
 40
1.0
 40
1.0
 40
1.0
 40
1.0
 10
25.5766385889
 20
80.37805
 30
0.0
 10
25.3662365608
 20
80.37805
 30
0.0
 10
24.9427970524
 20
80.4043415801
 30
0.0
 10
24.3122361851
 20
80.5189089602
 30
0.0
 10
23.6868613174
 20
80.7030005711
 30
0.0
 10
23.2792018392
 20
80.8654387715
 30
0.0
 10
23.0766385889
 20
80.9554002692
 30
0.0
  0
SPLINE
  5
29B
100
AcDbEntity
  8
0
100
AcDbSpline
 62
7
  6
BYLAYER
 70
0
 71
3
 72
11
 73
7
 74
0
 42
0.0000001
 43
0.0000001
 44
0.0000000001
 40
0.0
 40
0.0
 40
0.0
 40
0.0
 40
0.2573591301
 40
0.5088322738
 40
0.755704068
 40
1.0
 40
1.0
 40
1.0
 40
1.0
 10
48.8612482798
 20
80.9554002692
 30
0.0
 10
48.6586753134
 20
80.8654344564
 30
0.0
 10
48.2510395344
 20
80.7028968423
 30
0.0
 10
47.6256815946
 20
80.5186745173
 30
0.0
 10
46.9950898854
 20
80.4041964425
 30
0.0
 10
46.5716496234
 20
80.37805
 30
0.0
 10
46.3612482798
 20
80.37805
 30
0.0
  0
SPLINE
  5
29C
100
AcDbEntity
  8
0
100
AcDbSpline
 62
7
  6
BYLAYER
 70
0
 71
3
 72
10
 73
6
 74
0
 42
0.0000001
 43
0.0000001
 44
0.0000000001
 40
0.0
 40
0.0
 40
0.0
 40
0.0
 40
0.2500346717
 40
0.5000810749
 40
1.0
 40
1.0
 40
1.0
 40
1.0
 10
35.9689434343
 20
80.37805
 30
0.0
 10
35.5487243178
 20
80.37805
 30
0.0
 10
34.7080250643
 20
80.4040677331
 30
0.0
 10
33.0335163867
 20
80.5554029733
 30
0.0
 10
31.7891501321
 20
80.7732669778
 30
0.0
 10
30.9689434343
 20
80.9554002692
 30
0.0
  0
SPLINE
  5
29D
100
AcDbEntity
  8
0
100
AcDbSpline
 62
7
  6
BYLAYER
 70
0
 71
3
 72
11
 73
7
 74
0
 42
0.0000001
 43
0.0000001
 44
0.0000000001
 40
0.0
 40
0.0
 40
0.0
 40
0.0
 40
0.2499948555
 40
0.4999984833
 40
0.7500047187
 40
1.0
 40
1.0
 40
1.0
 40
1.0
 10
40.9689434343
 20
80.9554002692
 30
0.0
 10
40.5587143835
 20
80.8643057104
 30
0.0
 10
39.734021019
 20
80.7003965168
 30
0.0
 10
38.4860957834
 20
80.5173191425
 30
0.0
 10
37.2298414022
 20
80.4038667754
 30
0.0
 10
36.3891656308
 20
80.37805
 30
0.0
 10
35.9689434343
 20
80.37805
 30
0.0
  0
SPLINE
  5
29E
100
AcDbEntity
  8
0
100
AcDbSpline
 62
7
  6
BYLAYER
 70
0
 71
3
 72
11
 73
7
 74
0
 42
0.0000001
 43
0.0000001
 44
0.0000000001
 40
0.0
 40
0.0
 40
0.0
 40
0.0
 40
0.2443009477
 40
0.4911801959
 40
0.7426487675
 40
1.0
 40
1.0
 40
1.0
 40
1.0
 10
46.3612482798
 20
80.37805
 30
0.0
 10
46.1508462516
 20
80.37805
 30
0.0
 10
45.7274067432
 20
80.4043415801
 30
0.0
 10
45.096845876
 20
80.5189089602
 30
0.0
 10
44.4714710082
 20
80.7030005711
 30
0.0
 10
44.06381153
 20
80.8654387715
 30
0.0
 10
43.8612482798
 20
80.9554002692
 30
0.0
  0
SPLINE
  5
29F
100
AcDbEntity
  8
0
100
AcDbSpline
 62
7
  6
BYLAYER
 70
0
 71
3
 72
11
 73
7
 74
0
 42
0.0000001
 43
0.0000001
 44
0.0000000001
 40
0.0
 40
0.0
 40
0.0
 40
0.0
 40
0.2573591301
 40
0.5088322738
 40
0.755704068
 40
1.0
 40
1.0
 40
1.0
 40
1.0
 10
28.0766385889
 20
80.9554002692
 30
0.0
 10
27.8740656226
 20
80.8654344564
 30
0.0
 10
27.4664298436
 20
80.7028968423
 30
0.0
 10
26.8410719037
 20
80.5186745173
 30
0.0
 10
26.2104801945
 20
80.4041964425
 30
0.0
 10
25.7870399326
 20
80.37805
 30
0.0
 10
25.5766385889
 20
80.37805
 30
0.0
  0
SPLINE
  5
2A0
100
AcDbEntity
  8
0
100
AcDbSpline
 62
7
  6
BYLAYER
 70
0
 71
3
 72
19
 73
15
 74
0
 42
0.0000001
 43
0.0000001
 44
0.0000000001
 40
0.0
 40
0.0
 40
0.0
 40
0.0
 40
0.0188999344
 40
0.0365044889
 40
0.055311538
 40
0.0835658109
 40
0.1273882786
 40
0.1929710289
 40
0.2826572168
 40
0.3983376812
 40
0.5348789539
 40
0.6834419088
 40
0.8393472111
 40
1.0
 40
1.0
 40
1.0
 40
1.0
 10
27.784106964
 20
19.449686769
 30
0.0
 10
27.7817427017
 20
19.4501076016
 30
0.0
 10
27.7728622534
 20
19.4520390741
 30
0.0
 10
27.784758526
 20
19.4489683758
 30
0.0
 10
27.790989158
 20
19.4467839658
 30
0.0
 10
27.802534411
 20
19.4426065746
 30
0.0
 10
27.8180894349
 20
19.4353835262
 30
0.0
 10
27.8406879284
 20
19.4235976443
 30
0.0
 10
27.868988647
 20
19.4038947927
 30
0.0
 10
27.900763459
 20
19.3740137892
 30
0.0
 10
27.9325886486
 20
19.3339917884
 30
0.0
 10
27.959259504
 20
19.2843095821
 30
0.0
 10
27.9763738598
 20
19.2272941676
 30
0.0
 10
27.9792892314
 20
19.1868046138
 30
0.0
 10
27.9786655514
 20
19.1664016162
 30
0.0
  0
SPLINE
  5
2A1
100
AcDbEntity
  8
0
100
AcDbSpline
 62
7
  6
BYLAYER
 70
0
 71
3
 72
22
 73
18
 74
0
 42
0.0000001
 43
0.0000001
 44
0.0000000001
 40
0.0
 40
0.0
 40
0.0
 40
0.0
 40
0.1946458401
 40
0.3821840418
 40
0.5547991203
 40
0.6334873179
 40
0.7061002759
 40
0.771955111
 40
0.8303735824
 40
0.8807847432
 40
0.9227557567
 40
0.9558669125
 40
0.9797881038
 40
0.988260967
 40
0.9944019987
 40
0.9982393839
 40
1.0
 40
1.0
 40
1.0
 40
1.0
 10
56.4004167715
 20
69.75805
 30
0.0
 10
56.4004167715
 20
69.8230262178
 30
0.0
 10
56.4000916376
 20
69.950606266
 30
0.0
 10
56.3986541525
 20
70.1358032276
 30
0.0
 10
56.3966552419
 20
70.2822838697
 30
0.0
 10
56.3945717523
 20
70.3903929564
 30
0.0
 10
56.3928654519
 20
70.462863781
 30
0.0
 10
56.390989215
 20
70.5285609603
 30
0.0
 10
56.3889607343
 20
70.5868403989
 30
0.0
 10
56.3868032216
 20
70.6371303114
 30
0.0
 10
56.3845431337
 20
70.6789750518
 30
0.0
 10
56.3822327315
 20
70.7119121386
 30
0.0
 10
56.3800901287
 20
70.7337486808
 30
0.0
 10
56.3783009129
 20
70.7463971681
 30
0.0
 10
56.3770032628
 20
70.7525866213
 30
0.0
 10
56.3760495283
 20
70.7560737853
 30
0.0
 10
56.3748275479
 20
70.75805
 30
0.0
 10
56.3742398232
 20
70.75805
 30
0.0
  0
SPLINE
  5
2A2
100
AcDbEntity
  8
0
100
AcDbSpline
 62
7
  6
BYLAYER
 70
0
 71
3
 72
22
 73
18
 74
0
 42
0.0000001
 43
0.0000001
 44
0.0000000001
 40
0.0
 40
0.0
 40
0.0
 40
0.0
 40
0.0017606201
 40
0.0055980193
 40
0.0117390711
 40
0.020211957
 40
0.0441331884
 40
0.0772443869
 40
0.119215475
 40
0.1696266951
 40
0.2280451875
 40
0.2939000716
 40
0.3665130782
 40
0.4452012889
 40
0.6178163096
 40
0.8053542715
 40
1.0
 40
1.0
 40
1.0
 40
1.0
 10
56.3742398232
 20
22.25805
 30
0.0
 10
56.3748275492
 20
22.25805
 30
0.0
 10
56.3760495285
 20
22.2600262266
 30
0.0
 10
56.3770032636
 20
22.2635133997
 30
0.0
 10
56.3783009143
 20
22.2697028741
 30
0.0
 10
56.3800901313
 20
22.2823513879
 30
0.0
 10
56.3822327379
 20
22.3041879659
 30
0.0
 10
56.3845431444
 20
22.3371251046
 30
0.0
 10
56.3868032314
 20
22.3789699041
 30
0.0
 10
56.3889607442
 20
22.4292598682
 30
0.0
 10
56.3909892262
 20
22.4875393498
 30
0.0
 10
56.3928654609
 20
22.5532365686
 30
0.0
 10
56.3945717594
 20
22.62570743
 30
0.0
 10
56.3966552489
 20
22.7338165177
 30
0.0
 10
56.3986541543
 20
22.8802970645
 30
0.0
 10
56.4000916402
 20
23.0654938891
 30
0.0
 10
56.4004167715
 20
23.1930738196
 30
0.0
 10
56.4004167715
 20
23.25805
 30
0.0
  0
SPLINE
  5
2A3
100
AcDbEntity
  8
0
100
AcDbSpline
 62
7
  6
BYLAYER
 70
0
 71
3
 72
22
 73
18
 74
0
 42
0.0000001
 43
0.0000001
 44
0.0000000001
 40
0.0
 40
0.0
 40
0.0
 40
0.0
 40
0.0017664895
 40
0.0056141436
 40
0.011766819
 40
0.0202486061
 40
0.0441624848
 40
0.077226773
 40
0.1192160053
 40
0.169667439
 40
0.2280574831
 40
0.2938607874
 40
0.3665072267
 40
0.4452505646
 40
0.6178654305
 40
0.8051963433
 40
1.0
 40
1.0
 40
1.0
 40
1.0
 10
56.0144438305
 20
22.00805
 30
0.0
 10
56.0138541448
 20
22.00805
 30
0.0
 10
56.0126290321
 20
22.0100325849
 30
0.0
 10
56.0116751964
 20
22.0135284651
 30
0.0
 10
56.0103777436
 20
22.0197287531
 30
0.0
 10
56.0085917749
 20
22.0323821496
 30
0.0
 10
56.0064526451
 20
22.0542036761
 30
0.0
 10
56.0041391262
 20
22.087128598
 30
0.0
 10
56.0018823525
 20
22.1289774502
 30
0.0
 10
55.9997258699
 20
22.1792774505
 30
0.0
 10
55.997694317
 20
22.2375435498
 30
0.0
 10
55.995815237
 20
22.3032251691
 30
0.0
 10
55.9941124865
 20
22.375708504
 30
0.0
 10
55.992030888
 20
22.4838471891
 30
0.0
 10
55.9900288323
 20
22.6302769919
 30
0.0
 10
55.9885927615
 20
22.8154574764
 30
0.0
 10
55.9882668822
 20
22.9430210681
 30
0.0
 10
55.9882668822
 20
23.00805
 30
0.0
  0
SPLINE
  5
2A4
100
AcDbEntity
  8
0
100
AcDbSpline
 62
7
  6
BYLAYER
 70
0
 71
3
 72
22
 73
18
 74
0
 42
0.0000001
 43
0.0000001
 44
0.0000000001
 40
0.0
 40
0.0
 40
0.0
 40
0.0
 40
0.1948036567
 40
0.3821345695
 40
0.5547494354
 40
0.6334927733
 40
0.7061392126
 40
0.7719425169
 40
0.830332561
 40
0.8807839947
 40
0.922773227
 40
0.9558375152
 40
0.9797513939
 40
0.988233181
 40
0.9943858564
 40
0.9982335105
 40
1.0
 40
1.0
 40
1.0
 40
1.0
 10
55.9882668822
 20
70.00805
 30
0.0
 10
55.9882668822
 20
70.0730789319
 30
0.0
 10
55.9885927615
 20
70.2006425236
 30
0.0
 10
55.9900288323
 20
70.3858230081
 30
0.0
 10
55.992030888
 20
70.5322528109
 30
0.0
 10
55.9941124865
 20
70.640391496
 30
0.0
 10
55.995815237
 20
70.7128748309
 30
0.0
 10
55.997694317
 20
70.7785564502
 30
0.0
 10
55.9997258699
 20
70.8368225495
 30
0.0
 10
56.0018823525
 20
70.8871225498
 30
0.0
 10
56.0041391262
 20
70.928971402
 30
0.0
 10
56.0064526451
 20
70.9618963239
 30
0.0
 10
56.0085917749
 20
70.9837178504
 30
0.0
 10
56.0103777436
 20
70.9963712469
 30
0.0
 10
56.0116751964
 20
71.0025715349
 30
0.0
 10
56.0126290321
 20
71.0060674151
 30
0.0
 10
56.0138541448
 20
71.00805
 30
0.0
 10
56.0144438305
 20
71.00805
 30
0.0
  0
SPLINE
  5
2A5
100
AcDbEntity
  8
0
100
AcDbSpline
 62
7
  6
BYLAYER
 70
0
 71
3
 72
9
 73
5
 74
0
 42
0.0000001
 43
0.0000001
 44
0.0000000001
 40
0.0
 40
0.0
 40
0.0
 40
0.0
 40
0.5610489358
 40
1.0
 40
1.0
 40
1.0
 40
1.0
 10
56.4070980551
 20
23.00805
 30
0.0
 10
56.4070980551
 20
22.8567931117
 30
0.0
 10
56.4054784014
 20
22.5872013455
 30
0.0
 10
56.4005756416
 20
22.3176207806
 30
0.0
 10
56.3963165644
 20
22.1993577315
 30
0.0
  0
SPLINE
  5
2A6
100
AcDbEntity
  8
0
100
AcDbSpline
 62
7
  6
BYLAYER
 70
0
 71
3
 72
16
 73
12
 74
0
 42
0.0000001
 43
0.0000001
 44
0.0000000001
 40
0.0
 40
0.0
 40
0.0
 40
0.0
 40
0.2269064141
 40
0.4266746166
 40
0.5979101648
 40
0.7393783436
 40
0.8504710078
 40
0.9307811433
 40
0.9800724621
 40
0.9933001804
 40
1.0
 40
1.0
 40
1.0
 40
1.0
 10
56.3963165644
 20
22.1993577315
 30
0.0
 10
56.3957920705
 20
22.1847939546
 30
0.0
 10
56.3947304247
 20
22.1574102813
 30
0.0
 10
56.3929641613
 20
22.1190514796
 30
0.0
 10
56.3911308755
 20
22.0861817262
 30
0.0
 10
56.3892589798
 20
22.0590441781
 30
0.0
 10
56.3873320947
 20
22.0377035111
 30
0.0
 10
56.3855001354
 20
22.0224581517
 30
0.0
 10
56.3837097074
 20
22.0132521501
 30
0.0
 10
56.3823410866
 20
22.0092095892
 30
0.0
 10
56.3813514072
 20
22.00805
 30
0.0
 10
56.3809211068
 20
22.00805
 30
0.0
  0
SPLINE
  5
2A7
100
AcDbEntity
  8
0
100
AcDbSpline
 62
7
  6
BYLAYER
 70
0
 71
3
 72
17
 73
13
 74
0
 42
0.0000001
 43
0.0000001
 44
0.0000000001
 40
0.0
 40
0.0
 40
0.0
 40
0.0
 40
0.0062865788
 40
0.0194101521
 40
0.0402520924
 40
0.0689326559
 40
0.1497542832
 40
0.2615406093
 40
0.4037619561
 40
0.5753011536
 40
0.7745799879
 40
1.0
 40
1.0
 40
1.0
 40
1.0
 10
56.3809211068
 20
71.00805
 30
0.0
 10
56.3814315689
 20
71.00805
 30
0.0
 10
56.3825511771
 20
71.0064874238
 30
0.0
 10
56.3834271748
 20
71.0035512909
 30
0.0
 10
56.3846017686
 20
70.9984880314
 30
0.0
 10
56.3862254058
 20
70.9880874109
 30
0.0
 10
56.3881726636
 20
70.9701738462
 30
0.0
 10
56.3902937618
 20
70.9430888855
 30
0.0
 10
56.3923786645
 20
70.9085883711
 30
0.0
 10
56.3943882456
 20
70.8669810278
 30
0.0
 10
56.3963069054
 20
70.8186038388
 30
0.0
 10
56.3974436766
 20
70.7841376041
 30
0.0
 10
56.3980004775
 20
70.765842259
 30
0.0
  0
SPLINE
  5
2A8
100
AcDbEntity
  8
0
100
AcDbSpline
 62
7
  6
BYLAYER
 70
0
 71
3
 72
9
 73
5
 74
0
 42
0.0000001
 43
0.0000001
 44
0.0000000001
 40
0.0
 40
0.0
 40
0.0
 40
0.0
 40
0.4499682753
 40
1.0
 40
1.0
 40
1.0
 40
1.0
 10
56.3980004775
 20
70.765842259
 30
0.0
 10
56.4014583656
 20
70.6522231024
 30
0.0
 10
56.4057309847
 20
70.3996203508
 30
0.0
 10
56.4070980551
 20
70.1469999646
 30
0.0
 10
56.4070980551
 20
70.00805
 30
0.0
  0
SPLINE
  5
2A9
100
AcDbEntity
  8
0
100
AcDbSpline
 62
7
  6
BYLAYER
 70
0
 71
3
 72
16
 73
12
 74
0
 42
0.0000001
 43
0.0000001
 44
0.0000000001
 40
0.0
 40
0.0
 40
0.0
 40
0.0
 40
0.0073375046
 40
0.0203357869
 40
0.0679282683
 40
0.1461091037
 40
0.2554630965
 40
0.3959358235
 40
0.5673301424
 40
0.7689969816
 40
1.0
 40
1.0
 40
1.0
 40
1.0
 10
52.2689614634
 20
73.2874559988
 30
0.0
 10
52.2689614634
 20
73.2850931998
 30
0.0
 10
52.264055527
 20
73.2793884853
 30
0.0
 10
52.2441485672
 20
73.2711008703
 30
0.0
 10
52.1999342877
 20
73.2613662241
 30
0.0
 10
52.1251242192
 20
73.2514144324
 30
0.0
 10
52.0198262338
 20
73.2415325432
 30
0.0
 10
51.8845475757
 20
73.23218307
 30
0.0
 10
51.7193953301
 20
73.2233571396
 30
0.0
 10
51.5250536417
 20
73.2151324536
 30
0.0
 10
51.3858052092
 20
73.2103718318
 30
0.0
 10
51.3114546245
 20
73.20805
 30
0.0
  0
SPLINE
  5
2AA
100
AcDbEntity
  8
0
100
AcDbSpline
 62
7
  6
BYLAYER
 70
0
 71
3
 72
14
 73
10
 74
0
 42
0.0000001
 43
0.0000001
 44
0.0000000001
 40
0.0
 40
0.0
 40
0.0
 40
0.0
 40
0.1627590422
 40
0.2782123904
 40
0.3528290611
 40
0.4096304699
 40
0.4891687769
 40
0.6110992517
 40
1.0
 40
1.0
 40
1.0
 40
1.0
 10
27.6925190546
 20
19.4589086716
 30
0.0
 10
27.6904137839
 20
19.4596167168
 30
0.0
 10
27.6868160942
 20
19.4609578136
 30
0.0
 10
27.6826573431
 20
19.4632139927
 30
0.0
 10
27.6799592045
 20
19.4656793909
 30
0.0
 10
27.6802714977
 20
19.4689046171
 30
0.0
 10
27.6832796383
 20
19.4711373232
 30
0.0
 10
27.6904815243
 20
19.4745319559
 30
0.0
 10
27.6973903673
 20
19.4761525475
 30
0.0
 10
27.7025745769
 20
19.47728879
 30
0.0
  0
SPLINE
  5
2AB
100
AcDbEntity
  8
0
100
AcDbSpline
 62
7
  6
BYLAYER
 70
0
 71
3
 72
21
 73
17
 74
0
 42
0.0000001
 43
0.0000001
 44
0.0000000001
 40
0.0
 40
0.0
 40
0.0
 40
0.0
 40
0.0046020007
 40
0.0113553105
 40
0.0202599688
 40
0.0313049207
 40
0.0597074105
 40
0.0963252292
 40
0.1408443304
 40
0.1928756172
 40
0.2519694303
 40
0.3176032131
 40
0.4661635503
 40
0.6333769054
 40
0.8134226722
 40
1.0
 40
1.0
 40
1.0
 40
1.0
 10
27.7025745769
 20
19.47728879
 30
0.0
 10
27.7149638639
 20
19.480004196
 30
0.0
 10
27.7459973281
 20
19.4844353983
 30
0.0
 10
27.8015554755
 20
19.4899079473
 30
0.0
 10
27.8749834532
 20
19.4950668491
 30
0.0
 10
28.0080553121
 20
19.5021592014
 30
0.0
 10
28.2175844303
 20
19.5094654945
 30
0.0
 10
28.5194044764
 20
19.5163135592
 30
0.0
 10
28.8863903926
 20
19.5215532037
 30
0.0
 10
29.3153408168
 20
19.5251392791
 30
0.0
 10
29.802496061
 20
19.526997307
 30
0.0
 10
30.5556939851
 20
19.527136577
 30
0.0
 10
31.6068692969
 20
19.5224803691
 30
0.0
 10
32.973325264
 20
19.5104250825
 30
0.0
 10
34.4444959062
 20
19.4920070232
 30
0.0
 10
35.4548043256
 20
19.4759719069
 30
0.0
 10
35.9689437027
 20
19.4670099692
 30
0.0
  0
SPLINE
  5
2AC
100
AcDbEntity
  8
0
100
AcDbSpline
 62
7
  6
BYLAYER
 70
0
 71
3
 72
16
 73
12
 74
0
 42
0.0000001
 43
0.0000001
 44
0.0000000001
 40
0.0
 40
0.0
 40
0.0
 40
0.0
 40
0.2268837267
 40
0.4264984208
 40
0.5977159916
 40
0.7394174914
 40
0.8506295237
 40
0.9309155963
 40
0.9801277368
 40
0.9933215252
 40
1.0
 40
1.0
 40
1.0
 40
1.0
 10
56.1963171958
 20
70.8167763206
 30
0.0
 10
56.1957934084
 20
70.8313360318
 30
0.0
 10
56.1947325579
 20
70.8587034643
 30
0.0
 10
56.1929654953
 20
70.897042814
 30
0.0
 10
56.1911301133
 20
70.9299104675
 30
0.0
 10
56.18926008
 20
70.9570646966
 30
0.0
 10
56.1873311742
 20
70.9784226704
 30
0.0
 10
56.1854960446
 20
70.993665768
 30
0.0
 10
56.1837046338
 20
71.0028609
 30
0.0
 10
56.1823367252
 20
71.0068940335
 30
0.0
 10
56.1813499589
 20
71.00805
 30
0.0
 10
56.1809211068
 20
71.00805
 30
0.0
  0
SPLINE
  5
2AD
100
AcDbEntity
  8
0
100
AcDbSpline
 62
7
  6
BYLAYER
 70
0
 71
3
 72
17
 73
13
 74
0
 42
0.0000001
 43
0.0000001
 44
0.0000000001
 40
0.0
 40
0.0
 40
0.0
 40
0.0
 40
0.0062618433
 40
0.0193497918
 40
0.0401513401
 40
0.0687980955
 40
0.1496210208
 40
0.2615709913
 40
0.4038607656
 40
0.5752398183
 40
0.7744196735
 40
1.0
 40
1.0
 40
1.0
 40
1.0
 10
56.1809211068
 20
22.00805
 30
0.0
 10
56.1814307938
 20
22.00805
 30
0.0
 10
56.1825486248
 20
22.00961253
 30
0.0
 10
56.183425093
 20
22.0125475854
 30
0.0
 10
56.1846010227
 20
22.0176144852
 30
0.0
 10
56.186229001
 20
22.0280340552
 30
0.0
 10
56.1881823826
 20
22.046001939
 30
0.0
 10
56.190304684
 20
22.0731718476
 30
0.0
 10
56.1923921844
 20
22.1077620732
 30
0.0
 10
56.1944057906
 20
22.1494548379
 30
0.0
 10
56.196325678
 20
22.1979414768
 30
0.0
 10
56.1974608542
 20
22.2324964548
 30
0.0
 10
56.1980174224
 20
22.2508492821
 30
0.0
  0
SPLINE
  5
2AE
100
AcDbEntity
  8
0
100
AcDbSpline
 62
7
  6
BYLAYER
 70
0
 71
3
 72
22
 73
18
 74
0
 42
0.0000001
 43
0.0000001
 44
0.0000000001
 40
0.0
 40
0.0
 40
0.0
 40
0.0
 40
0.0036631571
 40
0.0090890293
 40
0.016329931
 40
0.0254046136
 40
0.0490791359
 40
0.0801264762
 40
0.1185095735
 40
0.1641725974
 40
0.2170544599
 40
0.2770700129
 40
0.3441159348
 40
0.418087524
 40
0.5863337672
 40
0.780768664
 40
1.0
 40
1.0
 40
1.0
 40
1.0
 10
15.9757969375
 20
72.2838821314
 30
0.0
 10
15.980347076
 20
72.2811402991
 30
0.0
 10
15.9928094947
 20
72.2764507005
 30
0.0
 10
16.0157240142
 20
72.2705797515
 30
0.0
 10
16.0467513466
 20
72.2647797427
 30
0.0
 10
16.1041333397
 20
72.2563859568
 30
0.0
 10
16.1961970768
 20
72.2468466112
 30
0.0
 10
16.3308222096
 20
72.2364886074
 30
0.0
 10
16.4974522899
 20
72.226652042
 30
0.0
 10
16.6958123506
 20
72.2173548945
 30
0.0
 10
16.9255983978
 20
72.208666487
 30
0.0
 10
17.1864327399
 20
72.2006076526
 30
0.0
 10
17.4778818235
 20
72.1931959369
 30
0.0
 10
17.9262847903
 20
72.183794754
 30
0.0
 10
18.5594583038
 20
72.1741303037
 30
0.0
 10
19.4033199321
 20
72.1657344321
 30
0.0
 10
20.0032181441
 20
72.1622222358
 30
0.0
 10
20.321148741
 20
72.1608446951
 30
0.0
  0
SPLINE
  5
2AF
100
AcDbEntity
  8
0
100
AcDbSpline
 62
7
  6
BYLAYER
 70
0
 71
3
 72
17
 73
13
 74
0
 42
0.0000001
 43
0.0000001
 44
0.0000000001
 40
0.0
 40
0.0
 40
0.0
 40
0.0
 40
0.1658549027
 40
0.3355195481
 40
0.5002411299
 40
0.6501467054
 40
0.7765368636
 40
0.829635432
 40
0.875620186
 40
0.9145858995
 40
0.9474548946
 40
1.0
 40
1.0
 40
1.0
 40
1.0
 10
30.009790434
 20
72.2083538262
 30
0.0
 10
30.009135277
 20
72.2683501878
 30
0.0
 10
30.0110896227
 20
72.3897793898
 30
0.0
 10
30.0240169718
 20
72.5703928315
 30
0.0
 10
30.0481951226
 20
72.7440701946
 30
0.0
 10
30.0822413839
 20
72.9001218792
 30
0.0
 10
30.1201531078
 20
73.0135160236
 30
0.0
 10
30.1552007607
 20
73.0872833207
 30
0.0
 10
30.180965962
 20
73.1301687237
 30
0.0
 10
30.2077505764
 20
73.163610452
 30
0.0
 10
30.2413176917
 20
73.193600243
 30
0.0
 10
30.2713739243
 20
73.2066615969
 30
0.0
 10
30.2903318933
 20
73.2080508366
 30
0.0
  0
SPLINE
  5
2B0
100
AcDbEntity
  8
0
100
AcDbSpline
 62
7
  6
BYLAYER
 70
0
 71
3
 72
10
 73
6
 74
0
 42
0.0000001
 43
0.0000001
 44
0.0000000001
 40
0.0
 40
0.0
 40
0.0
 40
0.0
 40
0.2087195762
 40
0.448598075
 40
1.0
 40
1.0
 40
1.0
 40
1.0
 10
20.321148741
 20
72.1608446951
 30
0.0
 10
20.9952241112
 20
72.1579346508
 30
0.0
 10
22.4440257857
 20
72.1563863082
 30
0.0
 10
25.6736179005
 20
72.1670168031
 30
0.0
 10
28.2290695702
 20
72.1888111833
 30
0.0
 10
30.0097723938
 20
72.2083537606
 30
0.0
  0
SPLINE
  5
2B1
100
AcDbEntity
  8
0
100
AcDbSpline
 62
7
  6
BYLAYER
 70
0
 71
3
 72
29
 73
25
 74
0
 42
0.0000001
 43
0.0000001
 44
0.0000000001
 40
0.0
 40
0.0
 40
0.0
 40
0.0
 40
0.1919045991
 40
0.3766646417
 40
0.4642140552
 40
0.5474377715
 40
0.6255626729
 40
0.697863541
 40
0.7636634025
 40
0.8223529471
 40
0.8733856585
 40
0.8958791066
 40
0.9162860081
 40
0.9345614459
 40
0.9506609942
 40
0.9645473561
 40
0.9761925872
 40
0.985570198
 40
0.9894018397
 40
0.9926606048
 40
0.9953464542
 40
0.9974605556
 40
0.9990070712
 40
1.0
 40
1.0
 40
1.0
 40
1.0
 10
35.9688435115
 20
20.6542899637
 30
0.0
 10
37.2479828167
 20
20.674617547
 30
0.0
 10
39.7587082591
 20
20.7102469137
 30
0.0
 10
42.8531265729
 20
20.7449768612
 30
0.0
 10
45.2231460946
 20
20.7651519695
 30
0.0
 10
46.8823493871
 20
20.7760976296
 30
0.0
 10
48.4399216928
 20
20.7830208393
 30
0.0
 10
49.8813535594
 20
20.7858698083
 30
0.0
 10
51.1932257225
 20
20.7846351681
 30
0.0
 10
52.3633061227
 20
20.7793459007
 30
0.0
 10
53.2446693803
 20
20.771357694
 30
0.0
 10
53.8707992801
 20
20.7626324861
 30
0.0
 10
54.2785546633
 20
20.7553956235
 30
0.0
 10
54.6436593792
 20
20.7472180729
 30
0.0
 10
54.9652591406
 20
20.7381187182
 30
0.0
 10
55.242611582
 20
20.7281435539
 30
0.0
 10
55.4750803299
 20
20.7173398836
 30
0.0
 10
55.640473002
 20
20.7071999276
 30
0.0
 10
55.7498962434
 20
20.6983285004
 30
0.0
 10
55.814766408
 20
20.6919552264
 30
0.0
 10
55.8680775919
 20
20.6854086242
 30
0.0
 10
55.9099220699
 20
20.6787790404
 30
0.0
 10
55.9401238362
 20
20.6720070074
 30
0.0
 10
55.9563875271
 20
20.6665911089
 30
0.0
 10
55.9620899312
 20
20.6632301013
 30
0.0
  0
SPLINE
  5
2B2
100
AcDbEntity
  8
0
100
AcDbSpline
 62
7
  6
BYLAYER
 70
0
 71
3
 72
29
 73
25
 74
0
 42
0.0000001
 43
0.0000001
 44
0.0000000001
 40
0.0
 40
0.0
 40
0.0
 40
0.0
 40
0.0009929292
 40
0.0025394441
 40
0.0046535432
 40
0.0073393889
 40
0.0105981486
 40
0.0144297834
 40
0.0238073756
 40
0.0354525825
 40
0.0493389146
 40
0.0654384278
 40
0.0837138264
 40
0.1041206848
 40
0.1266140863
 40
0.177646699
 40
0.2363361418
 40
0.3021359073
 40
0.3744366935
 40
0.4525615367
 40
0.5357852283
 40
0.6233346599
 40
0.8080949154
 40
1.0
 40
1.0
 40
1.0
 40
1.0
 10
15.9757969375
 20
20.663230922
 30
0.0
 10
15.9814993017
 20
20.6665918728
 30
0.0
 10
15.9977628349
 20
20.6720076818
 30
0.0
 10
16.0279642932
 20
20.6787796051
 30
0.0
 10
16.0698083123
 20
20.6854090806
 30
0.0
 10
16.1231188923
 20
20.6919555751
 30
0.0
 10
16.1879883041
 20
20.6983287432
 30
0.0
 10
16.29741025
 20
20.7072000208
 30
0.0
 10
16.4628009407
 20
20.7173398024
 30
0.0
 10
16.695266884
 20
20.7281432836
 30
0.0
 10
16.9726159606
 20
20.7381182704
 30
0.0
 10
17.2942118141
 20
20.7472174612
 30
0.0
 10
17.6593120981
 20
20.7553948605
 30
0.0
 10
18.0670625455
 20
20.762631586
 30
0.0
 10
18.6931849292
 20
20.7713566239
 30
0.0
 10
19.574537727
 20
20.7793446624
 30
0.0
 10
20.7446044513
 20
20.784633799
 30
0.0
 10
22.0564616332
 20
20.7858683723
 30
0.0
 10
23.4978775129
 20
20.7830194025
 30
0.0
 10
25.0554331462
 20
20.7760962579
 30
0.0
 10
26.7146194162
 20
20.7651507228
 30
0.0
 10
29.084616616
 20
20.7449758809
 30
0.0
 10
32.1790087647
 20
20.7102462953
 30
0.0
 10
34.6897137641
 20
20.6746176324
 30
0.0
 10
35.9688435115
 20
20.6542899637
 30
0.0
  0
SPLINE
  5
2B3
100
AcDbEntity
  8
0
100
AcDbSpline
 62
7
  6
BYLAYER
 70
0
 71
3
 72
9
 73
5
 74
0
 42
0.0000001
 43
0.0000001
 44
0.0000000001
 40
0.0
 40
0.0
 40
0.0
 40
0.0
 40
0.2519049082
 40
1.0
 40
1.0
 40
1.0
 40
1.0
 10
35.9689432492
 20
72.3329705374
 30
0.0
 10
35.4922497108
 20
72.3249189531
 30
0.0
 10
33.5999506279
 20
72.2896502304
 30
0.0
 10
31.7078028378
 20
72.2468394414
 30
0.0
 10
30.2921865106
 20
72.2203852643
 30
0.0
  0
SPLINE
  5
2B4
100
AcDbEntity
  8
0
100
AcDbSpline
 62
7
  6
BYLAYER
 70
0
 71
3
 72
9
 73
5
 74
0
 42
0.0000001
 43
0.0000001
 44
0.0000000001
 40
0.0
 40
0.0
 40
0.0
 40
0.0
 40
0.245199426
 40
1.0
 40
1.0
 40
1.0
 40
1.0
 10
41.6457000595
 20
72.2203850359
 30
0.0
 10
41.1817106989
 20
72.2290563836
 30
0.0
 10
39.2894667929
 20
72.266988286
 30
0.0
 10
37.3972937596
 20
72.3088447721
 30
0.0
 10
35.9689436149
 20
72.3329702875
 30
0.0
  0
SPLINE
  5
2B5
100
AcDbEntity
  8
0
100
AcDbSpline
 62
7
  6
BYLAYER
 70
0
 71
3
 72
16
 73
12
 74
0
 42
0.0000001
 43
0.0000001
 44
0.0000000001
 40
0.0
 40
0.0
 40
0.0
 40
0.0
 40
0.3788328504
 40
0.5502278666
 40
0.7008967369
 40
0.8253693661
 40
0.9189037978
 40
0.9528975738
 40
0.9778621054
 40
0.9936175678
 40
1.0
 40
1.0
 40
1.0
 40
1.0
 10
35.9689434462
 20
20.6542905054
 30
0.0
 10
35.9690834318
 20
20.5282841187
 30
0.0
 10
35.9706103929
 20
20.3452728753
 30
0.0
 10
35.9716462882
 20
20.1121447517
 30
0.0
 10
35.9721017702
 20
19.9636194049
 30
0.0
 10
35.9722790178
 20
19.8409915672
 30
0.0
 10
35.9722412418
 20
19.7571711962
 30
0.0
 10
35.9714835314
 20
19.7064515079
 30
0.0
 10
35.9704191465
 20
19.6816200221
 30
0.0
 10
35.969700566
 20
19.6659727284
 30
0.0
 10
35.9689392804
 20
19.6586355416
 30
0.0
 10
35.9689241694
 20
19.6565126863
 30
0.0
  0
SPLINE
  5
2B6
100
AcDbEntity
  8
0
100
AcDbSpline
 62
7
  6
BYLAYER
 70
0
 71
3
 72
30
 73
26
 74
0
 42
0.0000001
 43
0.0000001
 44
0.0000000001
 40
0.0
 40
0.0
 40
0.0
 40
0.0
 40
0.1918496538
 40
0.2855419164
 40
0.3765807397
 40
0.4641231553
 40
0.5473438715
 40
0.6254692406
 40
0.697773301
 40
0.7635784853
 40
0.822275607
 40
0.8733165655
 40
0.8958131311
 40
0.9162231705
 40
0.9345034383
 40
0.9506111372
 40
0.9645072246
 40
0.9761575414
 40
0.9855293611
 40
0.9893540263
 40
0.9926065786
 40
0.995290343
 40
0.9974100318
 40
0.9989737179
 40
1.0
 40
1.0
 40
1.0
 40
1.0
 10
35.9689242604
 20
19.6542906728
 30
0.0
 10
34.7529362667
 20
19.6755377856
 30
0.0
 10
32.9430514097
 20
19.7042351149
 30
0.0
 10
30.5560376713
 20
19.7357748586
 30
0.0
 10
28.8301519063
 20
19.7554280992
 30
0.0
 10
27.1706093571
 20
19.7710914826
 30
0.0
 10
25.5928957489
 20
19.7826131636
 30
0.0
 10
24.1117567093
 20
19.7898974162
 30
0.0
 10
22.7410032495
 20
19.7928889682
 30
0.0
 10
21.4934059609
 20
19.7915745288
 30
0.0
 10
20.3806127276
 20
19.7859880827
 30
0.0
 10
19.5423872249
 20
19.7775605003
 30
0.0
 10
18.9469044764
 20
19.7683516852
 30
0.0
 10
18.5591024093
 20
19.7607142522
 30
0.0
 10
18.2118319167
 20
19.7520881671
 30
0.0
 10
17.9058974357
 20
19.742499644
 30
0.0
 10
17.6420474237
 20
19.7319966529
 30
0.0
 10
17.4209827381
 20
19.7206138702
 30
0.0
 10
17.2638209151
 20
19.7099067693
 30
0.0
 10
17.1599689514
 20
19.7005135287
 30
0.0
 10
17.0984507638
 20
19.6937651909
 30
0.0
 10
17.0478600242
 20
19.6868434486
 30
0.0
 10
17.0080580948
 20
19.6798230908
 30
0.0
 10
16.9791229752
 20
19.6726888802
 30
0.0
 10
16.9635202088
 20
19.6669664991
 30
0.0
 10
16.9579927579
 20
19.6635353416
 30
0.0
  0
SPLINE
  5
2B7
100
AcDbEntity
  8
0
100
AcDbSpline
 62
7
  6
BYLAYER
 70
0
 71
3
 72
10
 73
6
 74
0
 42
0.0000001
 43
0.0000001
 44
0.0000000001
 40
0.0
 40
0.0
 40
0.0
 40
0.0
 40
0.5550576995
 40
0.7942528673
 40
1.0
 40
1.0
 40
1.0
 40
1.0
 10
41.6476375868
 20
73.2080499952
 30
0.0
 10
43.4046003357
 20
73.1870309484
 30
0.0
 10
45.9188006642
 20
73.1634057754
 30
0.0
 10
49.084386559
 20
73.1529719648
 30
0.0
 10
50.4929030842
 20
73.1554406108
 30
0.0
 10
51.1442049477
 20
73.1591303555
 30
0.0
  0
LINE
  5
2B8
100
AcDbEntity
  8
0
100
AcDbLine
 62
7
  6
BYLAYER
 10
51.1442049477
 20
73.1591303555
 11
51.3539566241
 21
73.1604132718
  0
SPLINE
  5
2B9
100
AcDbEntity
  8
0
100
AcDbSpline
 62
7
  6
BYLAYER
 70
0
 71
3
 72
20
 73
16
 74
0
 42
0.0000001
 43
0.0000001
 44
0.0000000001
 40
0.0
 40
0.0
 40
0.0
 40
0.0
 40
0.2195021703
 40
0.4137819302
 40
0.5817225852
 40
0.7224316227
 40
0.7823144006
 40
0.8350981359
 40
0.8807012608
 40
0.9190448396
 40
0.9500811972
 40
0.9738452192
 40
0.9904131009
 40
0.9960526487
 40
1.0
 40
1.0
 40
1.0
 40
1.0
 10
51.3539566241
 20
73.1604132718
 30
0.0
 10
51.6196730295
 20
73.1621613648
 30
0.0
 10
52.1205680199
 20
73.1663449801
 30
0.0
 10
52.824726288
 20
73.1755031807
 30
0.0
 10
53.4334494129
 20
73.1871181647
 30
0.0
 10
53.8794265647
 20
73.1992545863
 30
0.0
 10
54.1859492701
 20
73.2105563884
 30
0.0
 10
54.3773548369
 20
73.2191329034
 30
0.0
 10
54.5426325071
 20
73.2282344291
 30
0.0
 10
54.6814927207
 20
73.2378527192
 30
0.0
 10
54.7938355837
 20
73.2478794847
 30
0.0
 10
54.8795634815
 20
73.258369398
 30
0.0
 10
54.9345367244
 20
73.2678719939
 30
0.0
 10
54.9649747094
 20
73.276553659
 30
0.0
 10
54.9757866546
 20
73.2810474441
 30
0.0
 10
54.9798403663
 20
73.2835776245
 30
0.0
  0
SPLINE
  5
2BA
100
AcDbEntity
  8
0
100
AcDbSpline
 62
7
  6
BYLAYER
 70
0
 71
3
 72
30
 73
26
 74
0
 42
0.0000001
 43
0.0000001
 44
0.0000000001
 40
0.0
 40
0.0
 40
0.0
 40
0.0
 40
0.0010262814
 40
0.0025899667
 40
0.0047096549
 40
0.0073934187
 40
0.0106459706
 40
0.0144706357
 40
0.0238424554
 40
0.0354927727
 40
0.0493888607
 40
0.0654965601
 40
0.0837768284
 40
0.104186868
 40
0.1266834338
 40
0.1777243927
 40
0.2364215147
 40
0.3022266992
 40
0.3745307596
 40
0.4526561286
 40
0.5358768447
 40
0.6234192601
 40
0.7144580834
 40
0.8081503459
 40
1.0
 40
1.0
 40
1.0
 40
1.0
 10
54.9798942162
 20
19.6635353438
 30
0.0
 10
54.974366772
 20
19.6669665022
 30
0.0
 10
54.9587640158
 20
19.6726888835
 30
0.0
 10
54.9298289113
 20
19.6798230939
 30
0.0
 10
54.8900269948
 20
19.6868434516
 30
0.0
 10
54.8394362662
 20
19.6937651938
 30
0.0
 10
54.7779180871
 20
19.7005135316
 30
0.0
 10
54.6740661295
 20
19.7099067722
 30
0.0
 10
54.5169043085
 20
19.7206138727
 30
0.0
 10
54.295839621
 20
19.7319966548
 30
0.0
 10
54.0319896049
 20
19.7424996453
 30
0.0
 10
53.7260551216
 20
19.752088168
 30
0.0
 10
53.3787846303
 20
19.7607142527
 30
0.0
 10
52.9909825676
 20
19.7683516856
 30
0.0
 10
52.3954998283
 20
19.7775605004
 30
0.0
 10
51.5572743407
 20
19.7859880824
 30
0.0
 10
50.4444811301
 20
19.7915745284
 30
0.0
 10
49.1968838701
 20
19.7928889678
 30
0.0
 10
47.8261304442
 20
19.7898974161
 30
0.0
 10
46.3449914429
 20
19.7826131639
 30
0.0
 10
44.7672778765
 20
19.7710914835
 30
0.0
 10
43.1077353714
 20
19.7554281009
 30
0.0
 10
41.3818496516
 20
19.7357748613
 30
0.0
 10
38.9948359722
 20
19.704235119
 30
0.0
 10
37.1849511589
 20
19.6755377911
 30
0.0
 10
35.9689631937
 20
19.6542906793
 30
0.0
  0
SPLINE
  5
2BB
100
AcDbEntity
  8
0
100
AcDbSpline
 62
7
  6
BYLAYER
 70
0
 71
3
 72
18
 73
14
 74
0
 42
0.0000001
 43
0.0000001
 44
0.0000000001
 40
0.0
 40
0.0
 40
0.0
 40
0.0
 40
0.1924092877
 40
0.3787101662
 40
0.5505204015
 40
0.7016399766
 40
0.8265413315
 40
0.8776048137
 40
0.9202757517
 40
0.9540295587
 40
0.978650957
 40
0.994007694
 40
1.0
 40
1.0
 40
1.0
 40
1.0
 10
35.968980817
 20
19.1655488104
 30
0.0
 10
35.9690633187
 20
19.185073019
 30
0.0
 10
35.9692500921
 20
19.2235015503
 30
0.0
 10
35.9695140783
 20
19.2793637454
 30
0.0
 10
35.9696728686
 20
19.3310375899
 30
0.0
 10
35.9697573253
 20
19.3764779036
 30
0.0
 10
35.969836453
 20
19.4096741857
 30
0.0
 10
35.9698110602
 20
19.4318501845
 30
0.0
 10
35.9698000184
 20
19.4448079657
 30
0.0
 10
35.9696048725
 20
19.4550049529
 30
0.0
 10
35.9696806235
 20
19.4626163388
 30
0.0
 10
35.9690876178
 20
19.467035725
 30
0.0
 10
35.9693763821
 20
19.4694724732
 30
0.0
 10
35.9689857858
 20
19.4699384877
 30
0.0
  0
SPLINE
  5
2BC
100
AcDbEntity
  8
0
100
AcDbSpline
 62
7
  6
BYLAYER
 70
0
 71
3
 72
29
 73
25
 74
0
 42
0.0000001
 43
0.0000001
 44
0.0000000001
 40
0.0
 40
0.0
 40
0.0
 40
0.0
 40
0.194744744
 40
0.2897767518
 40
0.3819964579
 40
0.4705493009
 40
0.5545904167
 40
0.6332968816
 40
0.7059243167
 40
0.7717689619
 40
0.8302118327
 40
0.8806809077
 40
0.9027773992
 40
0.9227084548
 40
0.9404224486
 40
0.955882175
 40
0.9690547225
 40
0.9799079345
 40
0.9884146167
 40
0.9945669231
 40
0.9967630403
 40
0.9983786784
 40
0.9994315926
 40
1.0
 40
1.0
 40
1.0
 40
1.0
 10
35.9581530965
 20
19.1662777912
 30
0.0
 10
35.4397054893
 20
19.1755764273
 30
0.0
 10
34.6682366315
 20
19.1878828542
 30
0.0
 10
33.6512212588
 20
19.2018355626
 30
0.0
 10
32.9169106769
 20
19.2106005444
 30
0.0
 10
32.2118460483
 20
19.2174995685
 30
0.0
 10
31.5427470535
 20
19.2225189289
 30
0.0
 10
30.916040225
 20
19.2256514234
 30
0.0
 10
30.3377769299
 20
19.2268692629
 30
0.0
 10
29.8134666398
 20
19.226148851
 30
0.0
 10
29.3481624047
 20
19.2235203191
 30
0.0
 10
28.9993555452
 20
19.2196359981
 30
0.0
 10
28.7531078288
 20
19.2154151301
 30
0.0
 10
28.5940760826
 20
19.2119343979
 30
0.0
 10
28.4527323666
 20
19.208006113
 30
0.0
 10
28.3294037843
 20
19.2036519941
 30
0.0
 10
28.2243785897
 20
19.1988987199
 30
0.0
 10
28.1378920471
 20
19.1937844032
 30
0.0
 10
28.0702043096
 20
19.1883566955
 30
0.0
 10
28.0255389203
 20
19.1832205031
 30
0.0
 10
27.9994675079
 20
19.1786727333
 30
0.0
 10
27.9867688176
 20
19.1754214277
 30
0.0
 10
27.9789047719
 20
19.172616568
 30
0.0
 10
27.9750884045
 20
19.1694706671
 30
0.0
 10
27.9748753433
 20
19.1679722873
 30
0.0
  0
SPLINE
  5
2BD
100
AcDbEntity
  8
0
100
AcDbSpline
 62
7
  6
BYLAYER
 70
0
 71
3
 72
16
 73
12
 74
0
 42
0.0000001
 43
0.0000001
 44
0.0000000001
 40
0.0
 40
0.0
 40
0.0
 40
0.0
 40
0.2310035515
 40
0.432670729
 40
0.6040651552
 40
0.7445377717
 40
0.8538915136
 40
0.9320720445
 40
0.9796642782
 40
0.9926624969
 40
1.0
 40
1.0
 40
1.0
 40
1.0
 10
20.6264322442
 20
73.20805
 30
0.0
 10
20.5520813857
 20
73.2103718404
 30
0.0
 10
20.4128324817
 20
73.2151324794
 30
0.0
 10
20.2184902117
 20
73.2233571989
 30
0.0
 10
20.0533376329
 20
73.2321831674
 30
0.0
 10
19.9180588719
 20
73.241532687
 30
0.0
 10
19.8127609634
 20
73.2514146202
 30
0.0
 10
19.7379510494
 20
73.2613664698
 30
0.0
 10
19.6937369329
 20
73.2711011497
 30
0.0
 10
19.6738300503
 20
73.2793888268
 30
0.0
 10
19.6689241706
 20
73.2850935563
 30
0.0
 10
19.6689241706
 20
73.2874563581
 30
0.0
  0
SPLINE
  5
2BE
100
AcDbEntity
  8
0
100
AcDbSpline
 62
7
  6
BYLAYER
 70
0
 71
3
 72
13
 73
9
 74
0
 42
0.0000001
 43
0.0000001
 44
0.0000000001
 40
0.0
 40
0.0
 40
0.0
 40
0.0
 40
0.0620384782
 40
0.1476128391
 40
0.2544844925
 40
0.3798768876
 40
0.6737332285
 40
1.0
 40
1.0
 40
1.0
 40
1.0
 10
35.9687012455
 20
73.2870492928
 30
0.0
 10
35.9687156893
 20
73.2673191911
 30
0.0
 10
35.9694921926
 20
73.2203779455
 30
0.0
 10
35.970530118
 20
73.1394510384
 30
0.0
 10
35.9706342097
 20
73.0383668604
 30
0.0
 10
35.9702714993
 20
72.8710458205
 30
0.0
 10
35.9700464495
 20
72.6339489829
 30
0.0
 10
35.9689452584
 20
72.436732963
 30
0.0
 10
35.9689434608
 20
72.3329702901
 30
0.0
  0
SPLINE
  5
2BF
100
AcDbEntity
  8
0
100
AcDbSpline
 62
7
  6
BYLAYER
 70
0
 71
3
 72
15
 73
11
 74
0
 42
0.0000001
 43
0.0000001
 44
0.0000000001
 40
0.0
 40
0.0
 40
0.0
 40
0.0
 40
0.0597412822
 40
0.096874263
 40
0.1397320661
 40
0.2423580771
 40
0.3658590187
 40
0.5073293748
 40
0.6631510565
 40
1.0
 40
1.0
 40
1.0
 40
1.0
 10
30.4858185626
 20
73.208042499
 30
0.0
 10
30.4678787372
 20
73.1980862951
 30
0.0
 10
30.4441297703
 20
73.172887748
 30
0.0
 10
30.4190291298
 20
73.1321594649
 30
0.0
 10
30.3912989226
 20
73.0757364413
 30
0.0
 10
30.3603416465
 20
72.988441159
 30
0.0
 10
30.3310100509
 20
72.8654747346
 30
0.0
 10
30.3087423344
 20
72.7225566388
 30
0.0
 10
30.288900117
 20
72.5055991587
 30
0.0
 10
30.2869762252
 20
72.3359544091
 30
0.0
 10
30.2921862252
 20
72.220385259
 30
0.0
  0
SPLINE
  5
2C0
100
AcDbEntity
  8
0
100
AcDbSpline
 62
7
  6
BYLAYER
 70
0
 71
3
 72
14
 73
10
 74
0
 42
0.0000001
 43
0.0000001
 44
0.0000000001
 40
0.0
 40
0.0
 40
0.0
 40
0.0
 40
0.061835586
 40
0.143432061
 40
0.245904627
 40
0.3687777638
 40
0.5095043508
 40
0.6645338508
 40
1.0
 40
1.0
 40
1.0
 40
1.0
 10
41.4514096765
 20
73.2080520026
 30
0.0
 10
41.4700427493
 20
73.1977050398
 30
0.0
 10
41.5065371996
 20
73.1622480033
 30
0.0
 10
41.5489132675
 20
73.0883356532
 30
0.0
 10
41.5843667901
 20
72.988200772
 30
0.0
 10
41.6129865893
 20
72.8651697193
 30
0.0
 10
41.6340802374
 20
72.722283134
 30
0.0
 10
41.6515616321
 20
72.5053149212
 30
0.0
 10
41.6509027524
 20
72.3358823328
 30
0.0
 10
41.6457008277
 20
72.2203726911
 30
0.0
  0
SPLINE
  5
2C1
100
AcDbEntity
  8
0
100
AcDbSpline
 62
7
  6
BYLAYER
 70
0
 71
3
 72
28
 73
24
 74
0
 42
0.0000001
 43
0.0000001
 44
0.0000000001
 40
0.0
 40
0.0
 40
0.0
 40
0.0
 40
0.2051826437
 40
0.3952176688
 40
0.4831047923
 40
0.5655325862
 40
0.64199233
 40
0.7120304843
 40
0.775220767
 40
0.8311904846
 40
0.8795959996
 40
0.9008732181
 40
0.9201558061
 40
0.9374127803
 40
0.9526215691
 40
0.9657619852
 40
0.9768144201
 40
0.9857624538
 40
0.9926004819
 40
0.9952292042
 40
0.9973334038
 40
0.9989186057
 40
1.0
 40
1.0
 40
1.0
 40
1.0
 10
41.9280225612
 20
72.2083547552
 30
0.0
 10
42.8881907826
 20
72.1978131832
 30
0.0
 10
44.7376729588
 20
72.1801717516
 30
0.0
 10
46.9984918629
 20
72.1653563862
 30
0.0
 10
48.6848686828
 20
72.1591078473
 30
0.0
 10
49.8397390628
 20
72.1572481097
 30
0.0
 10
50.9110801612
 20
72.1580907234
 30
0.0
 10
51.8923866853
 20
72.1616186347
 30
0.0
 10
52.7777881715
 20
72.1678074301
 30
0.0
 10
53.5619246297
 20
72.1765944312
 30
0.0
 10
54.1498840238
 20
72.1863734784
 30
0.0
 10
54.5661248966
 20
72.195747326
 30
0.0
 10
54.8366009869
 20
72.2030872635
 30
0.0
 10
55.0786472423
 20
72.2110288287
 30
0.0
 10
55.291910562
 20
72.219543609
 30
0.0
 10
55.4760841752
 20
72.2286043552
 30
0.0
 10
55.6308937089
 20
72.2381514248
 30
0.0
 10
55.7560946671
 20
72.2481730484
 30
0.0
 10
55.8418147922
 20
72.2573912419
 30
0.0
 10
55.8953567151
 20
72.265484116
 30
0.0
 10
55.9244213815
 20
72.271083963
 30
0.0
 10
55.9459953798
 20
72.2767489415
 30
0.0
 10
55.9577576587
 20
72.2812681114
 30
0.0
 10
55.9620899312
 20
72.2838839954
 30
0.0
  0
SPLINE
  5
2C2
100
AcDbEntity
  8
0
100
AcDbSpline
 62
7
  6
BYLAYER
 70
0
 71
3
 72
17
 73
13
 74
0
 42
0.0000001
 43
0.0000001
 44
0.0000000001
 40
0.0
 40
0.0
 40
0.0
 40
0.0
 40
0.1658549273
 40
0.3355195887
 40
0.5002411766
 40
0.6501467747
 40
0.7765369029
 40
0.8296354509
 40
0.8756202131
 40
0.9145859307
 40
0.9474549044
 40
1.0
 40
1.0
 40
1.0
 40
1.0
 10
41.9280969911
 20
72.2083538118
 30
0.0
 10
41.9287521411
 20
72.2683501916
 30
0.0
 10
41.9267977778
 20
72.3897794263
 30
0.0
 10
41.9138704075
 20
72.5703929114
 30
0.0
 10
41.8896922065
 20
72.7440703112
 30
0.0
 10
41.8556459178
 20
72.900122013
 30
0.0
 10
41.8177341673
 20
73.01351616
 30
0.0
 10
41.7826864658
 20
73.087283431
 30
0.0
 10
41.7569212494
 20
73.1301688293
 30
0.0
 10
41.7301366333
 20
73.1636105599
 30
0.0
 10
41.6965694871
 20
73.1936003225
 30
0.0
 10
41.6665132398
 20
73.2066616036
 30
0.0
 10
41.6475552713
 20
73.2080508403
 30
0.0
  0
SPLINE
  5
2C3
100
AcDbEntity
  8
0
100
AcDbSpline
 62
7
  6
BYLAYER
 70
0
 71
3
 72
20
 73
16
 74
0
 42
0.0000001
 43
0.0000001
 44
0.0000000001
 40
0.0
 40
0.0
 40
0.0
 40
0.0
 40
0.0039474206
 40
0.0095870075
 40
0.0261548903
 40
0.0499188486
 40
0.0809551274
 40
0.1192986598
 40
0.1649017774
 40
0.2176855282
 40
0.2775683276
 40
0.4182773837
 40
0.5862180342
 40
0.7804977982
 40
1.0
 40
1.0
 40
1.0
 40
1.0
 10
16.958046232
 20
73.2835776197
 30
0.0
 10
16.9621000295
 20
73.2810474705
 30
0.0
 10
16.9729120403
 20
73.276553706
 30
0.0
 10
17.0033499889
 20
73.2678720757
 30
0.0
 10
17.0583228664
 20
73.2583694783
 30
0.0
 10
17.144050095
 20
73.2478795811
 30
0.0
 10
17.2563920724
 20
73.2378528261
 30
0.0
 10
17.3952513204
 20
73.2282345575
 30
0.0
 10
17.560527986
 20
73.219133052
 30
0.0
 10
17.75193248
 20
73.2105565542
 30
0.0
 10
18.0584534774
 20
73.1992547714
 30
0.0
 10
18.5044280903
 20
73.1871183573
 30
0.0
 10
19.1131477136
 20
73.1755033643
 30
0.0
 10
19.8173019439
 20
73.1663451393
 30
0.0
 10
20.3181940787
 20
73.1621615
 30
0.0
 10
20.5839089848
 20
73.160413392
 30
0.0
  0
LINE
  5
2C4
100
AcDbEntity
  8
0
100
AcDbLine
 62
7
  6
BYLAYER
 10
20.5839089848
 20
73.160413392
 11
20.7937740283
 21
73.1591298146
  0
SPLINE
  5
2C5
100
AcDbEntity
  8
0
100
AcDbSpline
 62
7
  6
BYLAYER
 70
0
 71
3
 72
10
 73
6
 74
0
 42
0.0000001
 43
0.0000001
 44
0.0000000001
 40
0.0
 40
0.0
 40
0.0
 40
0.0
 40
0.2057481118
 40
0.4449435076
 40
1.0
 40
1.0
 40
1.0
 40
1.0
 10
20.7937740283
 20
73.1591298146
 30
0.0
 10
21.4450727417
 20
73.1554403409
 30
0.0
 10
22.8535795695
 20
73.1529720657
 30
0.0
 10
26.01913508
 20
73.163406218
 30
0.0
 10
28.5333081773
 20
73.1870311617
 30
0.0
 10
30.2902502419
 20
73.2080499952
 30
0.0
  0
SPLINE
  5
2C6
100
AcDbEntity
  8
0
100
AcDbSpline
 62
7
  6
BYLAYER
 70
0
 71
3
 72
22
 73
18
 74
0
 42
0.0000001
 43
0.0000001
 44
0.0000000001
 40
0.0
 40
0.0
 40
0.0
 40
0.0
 40
0.0017606201
 40
0.0055980193
 40
0.0117390711
 40
0.020211957
 40
0.0441331884
 40
0.0772443869
 40
0.119215475
 40
0.1696266951
 40
0.2280451875
 40
0.2939000716
 40
0.3665130782
 40
0.4452012889
 40
0.6178163096
 40
0.8053542715
 40
1.0
 40
1.0
 40
1.0
 40
1.0
 10
56.020851021
 20
70.75805
 30
0.0
 10
56.0202632949
 20
70.75805
 30
0.0
 10
56.0190413157
 20
70.7560737734
 30
0.0
 10
56.0180875806
 20
70.7525866003
 30
0.0
 10
56.0167899299
 20
70.7463971259
 30
0.0
 10
56.0150007129
 20
70.733748612
 30
0.0
 10
56.0128581063
 20
70.7119120341
 30
0.0
 10
56.0105476998
 20
70.6789748954
 30
0.0
 10
56.0082876128
 20
70.6371300959
 30
0.0
 10
56.0061301
 20
70.5868401318
 30
0.0
 10
56.004101618
 20
70.5285606502
 30
0.0
 10
56.0022253833
 20
70.4628634314
 30
0.0
 10
56.0005190848
 20
70.39039257
 30
0.0
 10
55.9984355953
 20
70.2822834823
 30
0.0
 10
55.9964366898
 20
70.1358029355
 30
0.0
 10
55.994999204
 20
69.9506061109
 30
0.0
 10
55.9946740727
 20
69.8230261804
 30
0.0
 10
55.9946740727
 20
69.75805
 30
0.0
  0
SPLINE
  5
2C7
100
AcDbEntity
  8
0
100
AcDbSpline
 62
7
  6
BYLAYER
 70
0
 71
3
 72
17
 73
13
 74
0
 42
0.0000001
 43
0.0000001
 44
0.0000000001
 40
0.0
 40
0.0
 40
0.0
 40
0.0
 40
0.1967820883
 40
0.3774958953
 40
0.5395527581
 40
0.6806381102
 40
0.7987280353
 40
0.8921252765
 40
0.9291462228
 40
0.9595233717
 40
0.9831615205
 40
1.0
 40
1.0
 40
1.0
 40
1.0
 10
39.9177628026
 20
19.5184893835
 30
0.0
 10
40.1989067431
 20
19.5207402277
 30
0.0
 10
40.7382437394
 20
19.5243589069
 30
0.0
 10
41.50912772
 20
19.5271441517
 30
0.0
 10
42.2004400005
 20
19.5270531102
 30
0.0
 10
42.8022733797
 20
19.5241360502
 30
0.0
 10
43.3059823117
 20
19.5184445915
 30
0.0
 10
43.6609780141
 20
19.5111918832
 30
0.0
 10
43.8905877344
 20
19.5035098937
 30
0.0
 10
44.0205319088
 20
19.4976324612
 30
0.0
 10
44.1215573117
 20
19.4912006804
 30
0.0
 10
44.1791747612
 20
19.4858768972
 30
0.0
 10
44.2030207738
 20
19.4826900178
 30
0.0
  0
SPLINE
  5
2C8
100
AcDbEntity
  8
0
100
AcDbSpline
 62
7
  6
BYLAYER
 70
0
 71
3
 72
17
 73
13
 74
0
 42
0.0000001
 43
0.0000001
 44
0.0000000001
 40
0.0
 40
0.0
 40
0.0
 40
0.0
 40
0.206521662
 40
0.3556578963
 40
0.4091306037
 40
0.4490753118
 40
0.4940360894
 40
0.5411604797
 40
0.5826339839
 40
0.6377112498
 40
0.7901443128
 40
1.0
 40
1.0
 40
1.0
 40
1.0
 10
44.2030207738
 20
19.4826900178
 30
0.0
 10
44.2110592944
 20
19.4816157167
 30
0.0
 10
44.2248976265
 20
19.4795023935
 30
0.0
 10
44.2405816708
 20
19.47635084
 30
0.0
 10
44.2497705004
 20
19.4733013882
 30
0.0
 10
44.2545404476
 20
19.4714018009
 30
0.0
 10
44.2595383954
 20
19.4668519459
 30
0.0
 10
44.2542539381
 20
19.4624444352
 30
0.0
 10
44.2494087518
 20
19.4603257777
 30
0.0
 10
44.2400277078
 20
19.4569820551
 30
0.0
 10
44.2241616074
 20
19.4532569454
 30
0.0
 10
44.2101331967
 20
19.4506566868
 30
0.0
 10
44.2020051018
 20
19.4492977326
 30
0.0
  0
SPLINE
  5
2C9
100
AcDbEntity
  8
0
100
AcDbSpline
 62
7
  6
BYLAYER
 70
0
 71
3
 72
29
 73
25
 74
0
 42
0.0000001
 43
0.0000001
 44
0.0000000001
 40
0.0
 40
0.0
 40
0.0
 40
0.0
 40
0.0004977913
 40
0.0014938723
 40
0.0030613544
 40
0.0052147292
 40
0.011292723
 40
0.01973604
 40
0.0305352231
 40
0.0436625136
 40
0.059085113
 40
0.0767695459
 40
0.0966777109
 40
0.1187580125
 40
0.169217876
 40
0.2276789789
 40
0.293562495
 40
0.3662436299
 40
0.4450152267
 40
0.5291291905
 40
0.6177596454
 40
0.7100599335
 40
0.8051665031
 40
1.0
 40
1.0
 40
1.0
 40
1.0
 10
43.9630349241
 20
19.150885226
 30
0.0
 10
43.9629615856
 20
19.1522120828
 30
0.0
 10
43.9591640932
 20
19.1550636209
 30
0.0
 10
43.9517459833
 20
19.157367725
 30
0.0
 10
43.9392657846
 20
19.1602751838
 30
0.0
 10
43.9135228481
 20
19.1642610188
 30
0.0
 10
43.8691398866
 20
19.1688490582
 30
0.0
 10
43.8017568426
 20
19.1736774505
 30
0.0
 10
43.7154446535
 20
19.1782506615
 30
0.0
 10
43.6104926639
 20
19.1825502805
 30
0.0
 10
43.487130609
 20
19.1865912276
 30
0.0
 10
43.3456546938
 20
19.1903923849
 30
0.0
 10
43.1863941208
 20
19.1939733961
 30
0.0
 10
42.9396415459
 20
19.1986251557
 30
0.0
 10
42.5899592527
 20
19.2035705942
 30
0.0
 10
42.1233287662
 20
19.2080256022
 30
0.0
 10
41.5973636277
 20
19.2108829854
 30
0.0
 10
41.0171719145
 20
19.211860898
 30
0.0
 10
40.3883130159
 20
19.2110985063
 30
0.0
 10
39.7168804586
 20
19.2086857999
 30
0.0
 10
39.0093400303
 20
19.2045646762
 30
0.0
 10
38.2724655579
 20
19.1986657285
 30
0.0
 10
37.2521103953
 20
19.1877738602
 30
0.0
 10
36.4781834352
 20
19.1758861113
 30
0.0
 10
35.9581530965
 20
19.1662777912
 30
0.0
  0
ENDSEC
  0
SECTION
  2
OBJECTS
  0
DICTIONARY
  5
C
100
AcDbDictionary
280
0
281
1
  3
ACAD_GROUP
350
D
  3
ACAD_MLINESTYLE
350
17
  3
ACAD_LAYOUT
350
1A
  3
ACAD_PLOTSETTINGS
350
19
  3
ACAD_PLOTSTYLENAME
350
E
  0
DICTIONARY
  5
D
102
{ACAD_REACTORS
330
C
102
}
100
AcDbDictionary
280
0
281
1
  0
ACDBDICTIONARYWDFLT
  5
E
102
{ACAD_REACTORS
330
C
102
}
100
AcDbDictionary
281
1
  3
Normal
350
F
100
AcDbDictionaryWithDefault
340
F
  0
DICTIONARY
  5
17
102
{ACAD_REACTORS
330
C
102
}
100
AcDbDictionary
280
0
281
1
  3
Standard
350
18
  0
DICTIONARY
  5
19
102
{ACAD_REACTORS
330
C
102
}
100
AcDbDictionary
281
1
  0
DICTIONARY
  5
1A
102
{ACAD_REACTORS
330
C
102
}
100
AcDbDictionary
281
1
  3
Model
350
2CA
  3
Layout1
350
2CB
  0
ACDBPLACEHOLDER
  5
F
102
{ACAD_REACTORS
330
E
102
}
  0
MLINESTYLE
  5
18
102
{ACAD_REACTORS
330
17
102
}
100
AcDbMlineStyle
  2
STANDARD
 70
0
  3

 62
256
 51
90.0
 52
90.0
 71
2
 49
0.5
 62
256
  6
BYLAYER
 49
-0.5
 62
256
  6
BYLAYER
  0
LAYOUT
  5
2CA
102
{ACAD_REACTORS
330
1A
102
}
100
AcDbPlotSettings
  1

  2
none_device
  4

  6

 40
0.0
 41
0.0
 42
0.0
 43
0.0
 44
210.0
 45
297.0
 46
0.0
 47
0.0
 48
0.0
 49
0.0
140
0.0
141
0.0
142
1.0
143
1.0
 70
1024
 72
1
 73
0
 74
0
  7

 75
0
147
1.0
148
0.0
149
0.0
100
AcDbLayout
  1
Model
 70
0
 71
0
 10
0.0
 20
0.0
 11
210.0
 21
297.0
 12
0.0
 22
0.0
 32
0.0
 14
0.0
 24
0.0
 34
0.0
 15
0.0
 25
0.0
 35
0.0
146
0.0
 13
0.0
 23
0.0
 33
0.0
 16
1.0
 26
0.0
 36
0.0
 17
0.0
 27
1.0
 37
0.0
 76
0
330
210
345
0
346
0
  0
LAYOUT
  5
2CB
102
{ACAD_REACTORS
330
1A
102
}
100
AcDbPlotSettings
  1

  2
none_device
  4

  6

 40
0.0
 41
0.0
 42
0.0
 43
0.0
 44
210.0
 45
297.0
 46
0.0
 47
0.0
 48
0.0
 49
0.0
140
0.0
141
0.0
142
1.0
143
1.0
 70
0
 72
1
 73
0
 74
0
  7

 75
0
147
1.0
148
0.0
149
0.0
100
AcDbLayout
  1
Layout1
 70
0
 71
1
 10
0.0
 20
0.0
 11
210.0
 21
297.0
 12
0.0
 22
0.0
 32
0.0
 14
0.0
 24
0.0
 34
0.0
 15
0.0
 25
0.0
 35
0.0
146
0.0
 13
0.0
 23
0.0
 33
0.0
 16
1.0
 26
0.0
 36
0.0
 17
0.0
 27
1.0
 37
0.0
 76
0
330
211
345
0
346
0
  0
ENDSEC
  0
EOF
