999
DXF file: C:\Users\sesa63760\Dev\_Creo\CAD\MCADID0005646_3D-CAD\mcadid0005646_3d-simplified_4.dxf
999
Pro/ENGINEER 2019471 by Parametric Technology Corporation
  0
SECTION
  2
HEADER
  9
$ACADVER
  1
AC1024
  9
$DWGCODEPAGE
  3
ANSI_1252
  9
$EXTMAX
 10
70.0828068825
 20
99.117112591
 30
0.0
  9
$EXTMIN
 10
0.0
 20
0.0
 30
0.0
  9
$LIMMIN
 10
0.0
 20
0.0
  9
$LIMMAX
 10
70.0828068825
 20
99.117112591
  9
$VIEWCTR
 10
35.0414034413
 20
49.5585562955
  9
$VIEWSIZE
 40
99.117112591
  9
$CLAYER
  8
0
  9
$LTSCALE
 40
6.4609673393
  9
$CELTYPE
  6
BYLAYER
  9
$DIMSCALE
 40
1.0
  9
$DIMASZ
 40
0.8343191296
  9
$DIMEXO
 40
1.0
  9
$DIMDLI
 40
4.4639410708
  9
$DIMEXE
 40
1.0
  9
$DIMCEN
 40
1.057249201
  9
$DIMLFAC
 40
1.0
  9
$DIMBLK
  1
_FILLED
  9
$DIMALT
 70
0
  9
$DIMALTF
 40
0.0393700787
  9
$DIMTXT
 40
1.1680467814
  9
$DIMTOL
 70
1
  9
$DIMLIM
 70
0
  9
$DIMTFAC
 40
1.0
  9
$DIMTP
 40
0.01
  9
$DIMTM
 40
0.01
  9
$DIMGAP
 40
0.625
  9
$DIMDSEP
 70
46
  9
$AUNITS
 70
0
  9
$PDMODE
 70
3
  9
$PDSIZE
 40
0.3125
  9
$HANDSEED
  5
4E4
  9
$TILEMODE
 70
1
  9
$MEASUREMENT
 70
1
  9
$INSUNITS
 70
4
  0
ENDSEC
  0
SECTION
  2
CLASSES
  0
CLASS
  1
ACDBDICTIONARYWDFLT
  2
AcDbDictionaryWithDefault
  3
AutoCAD 2000
 90
0
 91
1
280
0
281
0
  0
CLASS
  1
ACDBPLACEHOLDER
  2
AcDbPlaceHolder
  3
AutoCAD 2000
 90
0
 91
1
280
0
281
0
  0
CLASS
  1
LAYOUT
  2
AcDbLayout
  3
AutoCAD 2000
 90
0
 91
0
280
0
281
0
  0
ENDSEC
  0
SECTION
  2
TABLES
  0
TABLE
  2
VPORT
  5
8
100
AcDbSymbolTable
 70
2
  0
VPORT
  5
1F4
100
AcDbSymbolTableRecord
100
AcDbViewportTableRecord
  2
*ACTIVE
 70
0
 10
0.0
 20
0.0
 11
1.0
 21
1.0
 12
35.0414034413
 22
49.5585562955
 13
0.0
 23
0.0
 14
1.0
 24
1.0
 15
0.0
 25
0.0
 16
0.0
 26
0.0
 36
1.0
 17
0.0
 27
0.0
 37
0.0
 40
99.117112591
 41
0.7070707071
 42
50.0
 43
0.0
 44
0.0
 50
0.0
 51
0.0
 71
0
 72
100
 73
1
 74
1
 75
0
 76
0
 77
0
 78
0
  0
ENDTAB
  0
TABLE
  2
LTYPE
  5
5
100
AcDbSymbolTable
 70
6
  0
LTYPE
  5
14
100
AcDbSymbolTableRecord
100
AcDbLinetypeTableRecord
  2
BYBLOCK
 70
0
  3

 72
65
 73
0
 40
0.0
  0
LTYPE
  5
15
100
AcDbSymbolTableRecord
100
AcDbLinetypeTableRecord
  2
BYLAYER
 70
0
  3

 72
65
 73
0
 40
0.0
  0
LTYPE
  5
16
100
AcDbSymbolTableRecord
100
AcDbLinetypeTableRecord
  2
CONTINUOUS
 70
64
  3
Solid line
 72
65
 73
0
 40
0.0
  0
LTYPE
  5
1F5
100
AcDbSymbolTableRecord
100
AcDbLinetypeTableRecord
  2
CENTER
 70
64
  3
____ _ ____ _ ____ _ ____ _ ____ _ ____ _ ____
 72
65
 73
4
 40
0.6
 49
0.375
 74
0
 49
-0.075
 74
0
 49
0.075
 74
0
 49
-0.075
 74
0
  0
LTYPE
  5
1F6
100
AcDbSymbolTableRecord
100
AcDbLinetypeTableRecord
  2
HIDDEN
 70
64
  3
- - - - - - - - - - - - - - - - - - - -
 72
65
 73
2
 40
0.2
 49
0.1
 74
0
 49
-0.1
 74
0
  0
LTYPE
  5
1F7
100
AcDbSymbolTableRecord
100
AcDbLinetypeTableRecord
  2
PHANTOM
 70
64
  3
_____ _ _ _____ _ _ _____ _ _ _____
 72
65
 73
6
 40
0.8
 49
0.45
 74
0
 49
-0.05
 74
0
 49
0.1
 74
0
 49
-0.05
 74
0
 49
0.1
 74
0
 49
-0.05
 74
0
  0
LTYPE
  5
1F8
100
AcDbSymbolTableRecord
100
AcDbLinetypeTableRecord
  2
DOT
 70
64
  3
. . . . . . . . . . . . . . . . . . . .
 72
65
 73
2
 40
0.2
 49
0.1
 74
0
 49
-0.1
 74
0
  0
LTYPE
  5
1F9
100
AcDbSymbolTableRecord
100
AcDbLinetypeTableRecord
  2
DASHED
 70
64
  3
- - - - - - - - - - - - - - - - - - - -
 72
65
 73
2
 40
0.2
 49
0.1
 74
0
 49
-0.1
 74
0
  0
ENDTAB
  0
TABLE
  2
LAYER
  5
2
100
AcDbSymbolTable
 70
36
  0
LAYER
  5
10
100
AcDbSymbolTableRecord
100
AcDbLayerTableRecord
  2
0
 70
0
 62
7
  6
CONTINUOUS
370
-3
390
F
  0
LAYER
  5
1FA
100
AcDbSymbolTableRecord
100
AcDbLayerTableRecord
  2
DEFAULT_1
 70
0
 62
7
  6
CENTER
370
-3
390
F
  0
LAYER
  5
1FB
100
AcDbSymbolTableRecord
100
AcDbLayerTableRecord
  2
DEFAULT_2
 70
0
 62
7
  6
HIDDEN
370
-3
390
F
  0
LAYER
  5
1FC
100
AcDbSymbolTableRecord
100
AcDbLayerTableRecord
  2
DEFAULT_3
 70
0
 62
7
  6
PHANTOM
370
-3
390
F
  0
LAYER
  5
1FD
100
AcDbSymbolTableRecord
100
AcDbLayerTableRecord
  2
00_COMPONENTS
 70
0
 62
7
  6
CONTINUOUS
370
-3
390
F
  0
LAYER
  5
1FE
100
AcDbSymbolTableRecord
100
AcDbLayerTableRecord
  2
00_COMPONENTS_1
 70
0
 62
7
  6
CONTINUOUS
370
-3
390
F
  0
LAYER
  5
1FF
100
AcDbSymbolTableRecord
100
AcDbLayerTableRecord
  2
00_COMPONENTS_2
 70
0
 62
7
  6
CONTINUOUS
370
-3
390
F
  0
LAYER
  5
200
100
AcDbSymbolTableRecord
100
AcDbLayerTableRecord
  2
00_COMPONENTS_3
 70
0
 62
7
  6
CONTINUOUS
370
-3
390
F
  0
LAYER
  5
201
100
AcDbSymbolTableRecord
100
AcDbLayerTableRecord
  2
00_COMPONENTS_4
 70
0
 62
7
  6
CONTINUOUS
370
-3
390
F
  0
LAYER
  5
202
100
AcDbSymbolTableRecord
100
AcDbLayerTableRecord
  2
00_COMPONENTS_5
 70
0
 62
7
  6
CONTINUOUS
370
-3
390
F
  0
LAYER
  5
203
100
AcDbSymbolTableRecord
100
AcDbLayerTableRecord
  2
00_COMPONENTS_6
 70
0
 62
7
  6
CONTINUOUS
370
-3
390
F
  0
LAYER
  5
204
100
AcDbSymbolTableRecord
100
AcDbLayerTableRecord
  2
00_COMPONENTS_7
 70
0
 62
7
  6
CONTINUOUS
370
-3
390
F
  0
LAYER
  5
205
100
AcDbSymbolTableRecord
100
AcDbLayerTableRecord
  2
01_1_DEFAULT_DATUMS
 70
0
 62
7
  6
CONTINUOUS
370
-3
390
F
  0
LAYER
  5
206
100
AcDbSymbolTableRecord
100
AcDbLayerTableRecord
  2
01_PLANES
 70
0
 62
7
  6
CONTINUOUS
370
-3
390
F
  0
LAYER
  5
207
100
AcDbSymbolTableRecord
100
AcDbLayerTableRecord
  2
02_COORD_SYS
 70
0
 62
7
  6
CONTINUOUS
370
-3
390
F
  0
LAYER
  5
208
100
AcDbSymbolTableRecord
100
AcDbLayerTableRecord
  2
03_AXES
 70
0
 62
7
  6
CONTINUOUS
370
-3
390
F
  0
LAYER
  5
209
100
AcDbSymbolTableRecord
100
AcDbLayerTableRecord
  2
03_AXES_4
 70
0
 62
7
  6
CONTINUOUS
370
-3
390
F
  0
LAYER
  5
20A
100
AcDbSymbolTableRecord
100
AcDbLayerTableRecord
  2
03_AXES_7
 70
0
 62
7
  6
CONTINUOUS
370
-3
390
F
  0
LAYER
  5
20B
100
AcDbSymbolTableRecord
100
AcDbLayerTableRecord
  2
04_POINTS
 70
0
 62
7
  6
CONTINUOUS
370
-3
390
F
  0
LAYER
  5
20C
100
AcDbSymbolTableRecord
100
AcDbLayerTableRecord
  2
05_CURVES
 70
0
 62
7
  6
CONTINUOUS
370
-3
390
F
  0
LAYER
  5
20D
100
AcDbSymbolTableRecord
100
AcDbLayerTableRecord
  2
06_SURFS
 70
0
 62
7
  6
CONTINUOUS
370
-3
390
F
  0
LAYER
  5
20E
100
AcDbSymbolTableRecord
100
AcDbLayerTableRecord
  2
07_COSMETICS
 70
0
 62
7
  6
CONTINUOUS
370
-3
390
F
  0
LAYER
  5
20F
100
AcDbSymbolTableRecord
100
AcDbLayerTableRecord
  2
10_NOTES
 70
0
 62
7
  6
CONTINUOUS
370
-3
390
F
  0
LAYER
  5
210
100
AcDbSymbolTableRecord
100
AcDbLayerTableRecord
  2
11_NOTES_PUB
 70
0
 62
7
  6
CONTINUOUS
370
-3
390
F
  0
LAYER
  5
211
100
AcDbSymbolTableRecord
100
AcDbLayerTableRecord
  2
13_REF_GTOL
 70
0
 62
7
  6
CONTINUOUS
370
-3
390
F
  0
LAYER
  5
212
100
AcDbSymbolTableRecord
100
AcDbLayerTableRecord
  2
13_REF_GTOL_6
 70
0
 62
7
  6
CONTINUOUS
370
-3
390
F
  0
LAYER
  5
213
100
AcDbSymbolTableRecord
100
AcDbLayerTableRecord
  2
16_MISC
 70
0
 62
7
  6
CONTINUOUS
370
-3
390
F
  0
LAYER
  5
214
100
AcDbSymbolTableRecord
100
AcDbLayerTableRecord
  2
17_NO_PRINT
 70
0
 62
7
  6
CONTINUOUS
370
-3
390
F
  0
LAYER
  5
215
100
AcDbSymbolTableRecord
100
AcDbLayerTableRecord
  2
18_DATUM_CAMS_JOINTS
 70
0
 62
7
  6
CONTINUOUS
370
-3
390
F
  0
LAYER
  5
216
100
AcDbSymbolTableRecord
100
AcDbLayerTableRecord
  2
19_DATUM_FUNCTIONAL
 70
0
 62
7
  6
CONTINUOUS
370
-3
390
F
  0
LAYER
  5
217
100
AcDbSymbolTableRecord
100
AcDbLayerTableRecord
  2
20_DATUM_KINEMATIC_SCHEME
 70
0
 62
7
  6
CONTINUOUS
370
-3
390
F
  0
LAYER
  5
218
100
AcDbSymbolTableRecord
100
AcDbLayerTableRecord
  2
INTFCLR_113966
 70
0
 62
7
  6
CONTINUOUS
370
-3
390
F
  0
LAYER
  5
219
100
AcDbSymbolTableRecord
100
AcDbLayerTableRecord
  2
INTF_BLANK
 70
0
 62
7
  6
CONTINUOUS
370
-3
390
F
  0
LAYER
  5
21A
100
AcDbSymbolTableRecord
100
AcDbLayerTableRecord
  2
SHELL1
 70
0
 62
7
  6
CONTINUOUS
370
-3
390
F
  0
LAYER
  5
21B
100
AcDbSymbolTableRecord
100
AcDbLayerTableRecord
  2
SHELL2
 70
0
 62
7
  6
CONTINUOUS
370
-3
390
F
  0
LAYER
  5
21C
100
AcDbSymbolTableRecord
100
AcDbLayerTableRecord
  2
SHELL980
 70
0
 62
7
  6
CONTINUOUS
370
-3
390
F
  0
LAYER
  5
21D
100
AcDbSymbolTableRecord
100
AcDbLayerTableRecord
  2
_BLACK_HOLE
 70
0
 62
7
  6
CONTINUOUS
370
-3
390
F
  0
LAYER
  5
21E
100
AcDbSymbolTableRecord
100
AcDbLayerTableRecord
  2
black
 70
0
 62
7
  6
CONTINUOUS
370
-3
390
F
  0
ENDTAB
  0
TABLE
  2
STYLE
  5
3
100
AcDbSymbolTable
 70
1
  0
STYLE
  5
11
100
AcDbSymbolTableRecord
100
AcDbTextStyleTableRecord
  2
STANDARD
 70
0
 40
0.0
 41
1.0
 50
0.0
 71
0
 42
0.2
  3
ARIAL.TTF
  4

  0
STYLE
  5
21F
100
AcDbSymbolTableRecord
100
AcDbTextStyleTableRecord
  2
TEXTSTYLE_1
 70
0
 40
0.0
 41
0.8
 50
0.0
 71
0
 42
0.2
  3
gdt
  4

  0
ENDTAB
  0
TABLE
  2
VIEW
  5
6
100
AcDbSymbolTable
 70
0
  0
ENDTAB
  0
TABLE
  2
UCS
  5
7
100
AcDbSymbolTable
 70
0
  0
ENDTAB
  0
TABLE
  2
APPID
  5
9
100
AcDbSymbolTable
 70
1
  0
APPID
  5
220
100
AcDbSymbolTableRecord
100
AcDbRegAppTableRecord
  2
ACAD
 70
0
  0
ENDTAB
  0
TABLE
  2
BLOCK_RECORD
  5
1
100
AcDbSymbolTable
 70
0
  0
BLOCK_RECORD
  5
221
100
AcDbSymbolTableRecord
100
AcDbBlockTableRecord
  2
*Model_Space
  0
BLOCK_RECORD
  5
222
100
AcDbSymbolTableRecord
100
AcDbBlockTableRecord
  2
*Paper_Space
  0
BLOCK_RECORD
  5
223
100
AcDbSymbolTableRecord
100
AcDbBlockTableRecord
  2
_FILLED
  0
ENDTAB
  0
TABLE
  2
DIMSTYLE
  5
A
100
AcDbSymbolTable
 70
1
100
AcDbDimStyleTable
 71
0
  0
DIMSTYLE
105
224
100
AcDbSymbolTableRecord
100
AcDbDimStyleTableRecord
  2
STANDARD
 70
0
  3

  4

 40
1.0
 41
0.8343191296
 42
1.0
 43
0.38
 44
1.0
 45
0.0
 46
0.0
 47
0.01
 48
0.01
140
1.1680467814
141
0.09
142
0.0
143
25.4
144
1.0
145
0.0
146
1.0
147
0.625
 71
1
 72
0
 73
0
 74
0
 75
0
 76
0
 77
1
 78
8
 79
2
170
0
171
1
172
0
173
0
174
0
175
0
176
0
177
0
178
0
270
2
179
2
271
2
272
2
273
2
274
2
275
0
280
0
281
0
282
0
283
1
284
8
285
0
286
0
287
3
288
0
340
11
278
46
341
223
342
223
343
223
344
223
  0
ENDTAB
  0
ENDSEC
  0
SECTION
  2
BLOCKS
  0
BLOCK
  5
20
100
AcDbEntity
  8
0
100
AcDbBlockBegin
  2
*Model_Space
 70
0
 10
0.0
 20
0.0
 30
0.0
  3
*Model_Space
  1

  0
ENDBLK
  5
21
100
AcDbEntity
  8
0
100
AcDbBlockEnd
  0
BLOCK
  5
1C
100
AcDbEntity
  8
0
100
AcDbBlockBegin
  2
*Paper_Space
 70
0
 10
0.0
 20
0.0
 30
0.0
  3
*Paper_Space
  1

  0
ENDBLK
  5
1D
100
AcDbEntity
  8
0
100
AcDbBlockEnd
  0
BLOCK
  5
225
100
AcDbEntity
  8
0
100
AcDbBlockBegin
  2
_FILLED
 70
64
 10
0.0
 20
0.0
  3
_FILLED
  1

  0
SOLID
  5
226
100
AcDbEntity
  8
0
  6
BYBLOCK
 62
0
100
AcDbTrace
 10
0.0
 20
0.0
 11
-1.0
 21
0.25
 12
-1.0
 22
-0.25
 13
-1.0
 23
-0.25
  0
ENDBLK
  5
227
100
AcDbEntity
  8
0
  6
BYBLOCK
 62
0
100
AcDbBlockEnd
  0
ENDSEC
  0
SECTION
  2
ENTITIES
  0
LINE
  5
228
100
AcDbEntity
  8
00_COMPONENTS_2
100
AcDbLine
 62
7
  6
BYLAYER
 10
38.3464045893
 20
7.0956727824
 11
33.5560869172
 21
7.0956727824
  0
LINE
  5
229
100
AcDbEntity
  8
00_COMPONENTS_2
100
AcDbLine
 62
7
  6
BYLAYER
 10
33.5131823728
 20
7.7306727811
 11
38.3893099584
 21
7.7306727827
  0
LINE
  5
22A
100
AcDbEntity
  8
0
100
AcDbLine
 62
7
  6
BYLAYER
 10
18.5360912557
 20
74.2717183069
 11
15.8220556553
 21
72.8747183069
  0
LINE
  5
22B
100
AcDbEntity
  8
00_COMPONENTS_3
100
AcDbLine
 62
7
  6
BYLAYER
 10
22.7180052258
 20
18.4391957617
 11
49.1846327364
 21
18.4391957617
  0
LINE
  5
22C
100
AcDbEntity
  8
00_COMPONENTS_3
100
AcDbLine
 62
7
  6
BYLAYER
 10
21.9420235688
 20
19.2265957617
 11
21.9457804794
 21
19.2265957617
  0
LINE
  5
22D
100
AcDbEntity
  8
00_COMPONENTS_3
100
AcDbLine
 62
7
  6
BYLAYER
 10
22.0448856443
 20
19.2265957617
 11
22.0561277838
 21
19.2265957617
  0
LINE
  5
22E
100
AcDbEntity
  8
00_COMPONENTS_3
100
AcDbLine
 62
7
  6
BYLAYER
 10
22.2535838634
 20
19.2265957617
 11
22.2722256724
 21
19.2265957617
  0
LINE
  5
22F
100
AcDbEntity
  8
00_COMPONENTS_3
100
AcDbLine
 62
7
  6
BYLAYER
 10
22.5665299066
 20
19.2265957617
 11
22.5924295097
 21
19.2265957617
  0
LINE
  5
230
100
AcDbEntity
  8
00_COMPONENTS_3
100
AcDbLine
 62
7
  6
BYLAYER
 10
22.9813420657
 20
19.2265957617
 11
23.0143023511
 21
19.2265957617
  0
LINE
  5
231
100
AcDbEntity
  8
00_COMPONENTS_3
100
AcDbLine
 62
7
  6
BYLAYER
 10
23.4948633696
 20
19.2265957617
 11
23.5346334898
 21
19.2265957617
  0
LINE
  5
232
100
AcDbEntity
  8
00_COMPONENTS_3
100
AcDbLine
 62
7
  6
BYLAYER
 10
24.1031856111
 20
19.2265957617
 11
24.1494628914
 21
19.2265957617
  0
LINE
  5
233
100
AcDbEntity
  8
00_COMPONENTS_3
100
AcDbLine
 62
7
  6
BYLAYER
 10
24.8016790906
 20
19.2265957617
 11
24.8541113329
 21
19.2265957617
  0
LINE
  5
234
100
AcDbEntity
  8
00_COMPONENTS_3
100
AcDbLine
 62
7
  6
BYLAYER
 10
25.585027851
 20
19.2265957617
 11
25.6432160144
 21
19.2265957617
  0
LINE
  5
235
100
AcDbEntity
  8
00_COMPONENTS_3
100
AcDbLine
 62
7
  6
BYLAYER
 10
26.4472701352
 20
19.2265957617
 11
26.5107713726
 21
19.2265957617
  0
LINE
  5
236
100
AcDbEntity
  8
00_COMPONENTS_3
100
AcDbLine
 62
7
  6
BYLAYER
 10
27.3818437589
 20
19.2265957617
 11
27.4501747875
 21
19.2265957617
  0
LINE
  5
237
100
AcDbEntity
  8
00_COMPONENTS_3
100
AcDbLine
 62
7
  6
BYLAYER
 10
28.3816360524
 20
19.2265957617
 11
28.4542768318
 21
19.2265957617
  0
LINE
  5
238
100
AcDbEntity
  8
00_COMPONENTS_3
100
AcDbLine
 62
7
  6
BYLAYER
 10
29.4390379927
 20
19.2265957617
 11
29.5154356828
 21
19.2265957617
  0
LINE
  5
239
100
AcDbEntity
  8
00_COMPONENTS_3
100
AcDbLine
 62
7
  6
BYLAYER
 10
30.5460021125
 20
19.2265957617
 11
30.6255752806
 21
19.2265957617
  0
LINE
  5
23A
100
AcDbEntity
  8
00_COMPONENTS_3
100
AcDbLine
 62
7
  6
BYLAYER
 10
31.6941037465
 20
19.2265957617
 11
31.7762467929
 21
19.2265957617
  0
LINE
  5
23B
100
AcDbEntity
  8
00_COMPONENTS_3
100
AcDbLine
 62
7
  6
BYLAYER
 10
32.874605148
 20
19.2265957617
 11
32.9586929144
 21
19.2265957617
  0
LINE
  5
23C
100
AcDbEntity
  8
00_COMPONENTS_3
100
AcDbLine
 62
7
  6
BYLAYER
 10
34.0785219885
 20
19.2265957617
 11
34.1639145163
 21
19.2265957617
  0
LINE
  5
23D
100
AcDbEntity
  8
00_COMPONENTS_3
100
AcDbLine
 62
7
  6
BYLAYER
 10
35.296691734
 20
19.2265957617
 11
35.3827391345
 21
19.2265957617
  0
LINE
  5
23E
100
AcDbEntity
  8
00_COMPONENTS_3
100
AcDbLine
 62
7
  6
BYLAYER
 10
36.519843377
 20
19.2265957617
 11
36.6058907775
 21
19.2265957617
  0
LINE
  5
23F
100
AcDbEntity
  8
00_COMPONENTS_3
100
AcDbLine
 62
7
  6
BYLAYER
 10
37.7386679952
 20
19.2265957617
 11
37.824060523
 21
19.2265957617
  0
LINE
  5
240
100
AcDbEntity
  8
00_COMPONENTS_3
100
AcDbLine
 62
7
  6
BYLAYER
 10
38.9438895971
 20
19.2265957617
 11
39.0279773635
 21
19.2265957617
  0
LINE
  5
241
100
AcDbEntity
  8
00_COMPONENTS_3
100
AcDbLine
 62
7
  6
BYLAYER
 10
40.1263357186
 20
19.2265957617
 11
40.208478765
 21
19.2265957617
  0
LINE
  5
242
100
AcDbEntity
  8
00_COMPONENTS_3
100
AcDbLine
 62
7
  6
BYLAYER
 10
41.2770072308
 20
19.2265957617
 11
41.356580399
 21
19.2265957617
  0
LINE
  5
243
100
AcDbEntity
  8
00_COMPONENTS_3
100
AcDbLine
 62
7
  6
BYLAYER
 10
42.3871468287
 20
19.2265957617
 11
42.4635445188
 21
19.2265957617
  0
LINE
  5
244
100
AcDbEntity
  8
00_COMPONENTS_3
100
AcDbLine
 62
7
  6
BYLAYER
 10
43.4483056796
 20
19.2265957617
 11
43.5209464591
 21
19.2265957617
  0
LINE
  5
245
100
AcDbEntity
  8
00_COMPONENTS_3
100
AcDbLine
 62
7
  6
BYLAYER
 10
44.452407724
 20
19.2265957617
 11
44.5207387526
 21
19.2265957617
  0
LINE
  5
246
100
AcDbEntity
  8
00_COMPONENTS_3
100
AcDbLine
 62
7
  6
BYLAYER
 10
45.3918111389
 20
19.2265957617
 11
45.4553123762
 21
19.2265957617
  0
LINE
  5
247
100
AcDbEntity
  8
00_COMPONENTS_3
100
AcDbLine
 62
7
  6
BYLAYER
 10
46.2593664971
 20
19.2265957617
 11
46.3175546605
 21
19.2265957617
  0
LINE
  5
248
100
AcDbEntity
  8
00_COMPONENTS_3
100
AcDbLine
 62
7
  6
BYLAYER
 10
47.0484711785
 20
19.2265957617
 11
47.1009034209
 21
19.2265957617
  0
LINE
  5
249
100
AcDbEntity
  8
00_COMPONENTS_3
100
AcDbLine
 62
7
  6
BYLAYER
 10
47.7531196201
 20
19.2265957617
 11
47.7993969004
 21
19.2265957617
  0
LINE
  5
24A
100
AcDbEntity
  8
00_COMPONENTS_3
100
AcDbLine
 62
7
  6
BYLAYER
 10
48.3679490217
 20
19.2265957617
 11
48.4077191419
 21
19.2265957617
  0
LINE
  5
24B
100
AcDbEntity
  8
00_COMPONENTS_3
100
AcDbLine
 62
7
  6
BYLAYER
 10
48.8882801603
 20
19.2265957617
 11
48.9212404458
 21
19.2265957617
  0
LINE
  5
24C
100
AcDbEntity
  8
00_COMPONENTS_3
100
AcDbLine
 62
7
  6
BYLAYER
 10
49.3101530018
 20
19.2265957617
 11
49.3360526049
 21
19.2265957617
  0
LINE
  5
24D
100
AcDbEntity
  8
00_COMPONENTS_3
100
AcDbLine
 62
7
  6
BYLAYER
 10
49.6303568391
 20
19.2265957617
 11
49.6489986481
 21
19.2265957617
  0
LINE
  5
24E
100
AcDbEntity
  8
00_COMPONENTS_3
100
AcDbLine
 62
7
  6
BYLAYER
 10
49.8464547277
 20
19.2265957617
 11
49.8576968672
 21
19.2265957617
  0
LINE
  5
24F
100
AcDbEntity
  8
00_COMPONENTS_3
100
AcDbLine
 62
7
  6
BYLAYER
 10
49.9568020321
 20
19.2265957617
 11
49.9605589427
 21
19.2265957617
  0
LINE
  5
250
100
AcDbEntity
  8
00_COMPONENTS_3
100
AcDbLine
 62
7
  6
BYLAYER
 10
22.1621633449
 20
19.1460208828
 11
22.2360314694
 21
19.080772409
  0
LINE
  5
251
100
AcDbEntity
  8
00_COMPONENTS_3
100
AcDbLine
 62
7
  6
BYLAYER
 10
22.0362354479
 20
19.1460208828
 11
22.0711173778
 21
19.1130732404
  0
LINE
  5
252
100
AcDbEntity
  8
00_COMPONENTS
100
AcDbLine
 62
7
  6
BYLAYER
 10
19.9512912517
 20
23.4683957617
 11
20.2052912517
 21
23.2143957617
  0
LINE
  5
253
100
AcDbEntity
  8
00_COMPONENTS_3
100
AcDbLine
 62
7
  6
BYLAYER
 10
22.7178912557
 20
18.4391957617
 11
22.3248106049
 21
18.832456507
  0
LINE
  5
254
100
AcDbEntity
  8
00_COMPONENTS_3
100
AcDbLine
 62
7
  6
BYLAYER
 10
22.3468845198
 20
18.8102512621
 11
22.353824674
 21
18.8032623434
  0
LINE
  5
255
100
AcDbEntity
  8
00_COMPONENTS_3
100
AcDbLine
 62
7
  6
BYLAYER
 10
22.0162095276
 20
19.1460208828
 11
22.0582322315
 21
19.1030180793
  0
LINE
  5
256
100
AcDbEntity
  8
00_COMPONENTS_3
100
AcDbLine
 62
7
  6
BYLAYER
 10
21.9304912557
 20
22.5031957617
 11
21.9418146501
 21
22.5031957617
  0
LINE
  5
257
100
AcDbEntity
  8
00_COMPONENTS_3
100
AcDbLine
 62
7
  6
BYLAYER
 10
21.9457804794
 20
22.5031957617
 11
22.0448856443
 21
22.5031957617
  0
LINE
  5
258
100
AcDbEntity
  8
00_COMPONENTS_3
100
AcDbLine
 62
7
  6
BYLAYER
 10
22.0561277838
 20
22.5031957617
 11
22.2535838634
 21
22.5031957617
  0
LINE
  5
259
100
AcDbEntity
  8
00_COMPONENTS_3
100
AcDbLine
 62
7
  6
BYLAYER
 10
22.2722256724
 20
22.5031957617
 11
22.5665299066
 21
22.5031957617
  0
LINE
  5
25A
100
AcDbEntity
  8
00_COMPONENTS_3
100
AcDbLine
 62
7
  6
BYLAYER
 10
22.5924295097
 20
22.5031957617
 11
22.9813420657
 21
22.5031957617
  0
LINE
  5
25B
100
AcDbEntity
  8
00_COMPONENTS_3
100
AcDbLine
 62
7
  6
BYLAYER
 10
23.0143023511
 20
22.5031957617
 11
23.4948633696
 21
22.5031957617
  0
LINE
  5
25C
100
AcDbEntity
  8
00_COMPONENTS_3
100
AcDbLine
 62
7
  6
BYLAYER
 10
23.5346334898
 20
22.5031957617
 11
24.1031856111
 21
22.5031957617
  0
LINE
  5
25D
100
AcDbEntity
  8
00_COMPONENTS_3
100
AcDbLine
 62
7
  6
BYLAYER
 10
24.1494628914
 20
22.5031957617
 11
24.8016790906
 21
22.5031957617
  0
LINE
  5
25E
100
AcDbEntity
  8
00_COMPONENTS_3
100
AcDbLine
 62
7
  6
BYLAYER
 10
24.8541113329
 20
22.5031957617
 11
25.585027851
 21
22.5031957617
  0
LINE
  5
25F
100
AcDbEntity
  8
00_COMPONENTS_3
100
AcDbLine
 62
7
  6
BYLAYER
 10
25.6432160144
 20
22.5031957617
 11
26.4472701352
 21
22.5031957617
  0
LINE
  5
260
100
AcDbEntity
  8
00_COMPONENTS_3
100
AcDbLine
 62
7
  6
BYLAYER
 10
26.5107713726
 20
22.5031957617
 11
27.3818437589
 21
22.5031957617
  0
LINE
  5
261
100
AcDbEntity
  8
00_COMPONENTS_3
100
AcDbLine
 62
7
  6
BYLAYER
 10
27.4501747875
 20
22.5031957617
 11
28.3816360524
 21
22.5031957617
  0
LINE
  5
262
100
AcDbEntity
  8
00_COMPONENTS_3
100
AcDbLine
 62
7
  6
BYLAYER
 10
28.4542768318
 20
22.5031957617
 11
29.4390379927
 21
22.5031957617
  0
LINE
  5
263
100
AcDbEntity
  8
00_COMPONENTS_3
100
AcDbLine
 62
7
  6
BYLAYER
 10
29.5154356827
 20
22.5031957617
 11
30.5460021125
 21
22.5031957617
  0
LINE
  5
264
100
AcDbEntity
  8
00_COMPONENTS_3
100
AcDbLine
 62
7
  6
BYLAYER
 10
30.6255752806
 20
22.5031957617
 11
31.6941037465
 21
22.5031957617
  0
LINE
  5
265
100
AcDbEntity
  8
00_COMPONENTS_3
100
AcDbLine
 62
7
  6
BYLAYER
 10
31.7762467929
 20
22.5031957617
 11
32.874605148
 21
22.5031957617
  0
LINE
  5
266
100
AcDbEntity
  8
00_COMPONENTS_3
100
AcDbLine
 62
7
  6
BYLAYER
 10
32.9586929144
 20
22.5031957617
 11
34.0785219885
 21
22.5031957617
  0
LINE
  5
267
100
AcDbEntity
  8
00_COMPONENTS_3
100
AcDbLine
 62
7
  6
BYLAYER
 10
34.1639145163
 20
22.5031957617
 11
35.296691734
 21
22.5031957617
  0
LINE
  5
268
100
AcDbEntity
  8
00_COMPONENTS_3
100
AcDbLine
 62
7
  6
BYLAYER
 10
35.3827391345
 20
22.5031957617
 11
36.519843377
 21
22.5031957617
  0
LINE
  5
269
100
AcDbEntity
  8
00_COMPONENTS_3
100
AcDbLine
 62
7
  6
BYLAYER
 10
36.6058907775
 20
22.5031957617
 11
37.7386679952
 21
22.5031957617
  0
LINE
  5
26A
100
AcDbEntity
  8
00_COMPONENTS_3
100
AcDbLine
 62
7
  6
BYLAYER
 10
37.824060523
 20
22.5031957617
 11
38.9438895971
 21
22.5031957617
  0
LINE
  5
26B
100
AcDbEntity
  8
00_COMPONENTS_3
100
AcDbLine
 62
7
  6
BYLAYER
 10
39.0279773635
 20
22.5031957617
 11
40.1263357186
 21
22.5031957617
  0
LINE
  5
26C
100
AcDbEntity
  8
00_COMPONENTS_3
100
AcDbLine
 62
7
  6
BYLAYER
 10
40.208478765
 20
22.5031957617
 11
41.2770072308
 21
22.5031957617
  0
LINE
  5
26D
100
AcDbEntity
  8
00_COMPONENTS_3
100
AcDbLine
 62
7
  6
BYLAYER
 10
41.356580399
 20
22.5031957617
 11
42.3871468287
 21
22.5031957617
  0
LINE
  5
26E
100
AcDbEntity
  8
00_COMPONENTS_3
100
AcDbLine
 62
7
  6
BYLAYER
 10
42.4635445188
 20
22.5031957617
 11
43.4483056797
 21
22.5031957617
  0
LINE
  5
26F
100
AcDbEntity
  8
00_COMPONENTS_3
100
AcDbLine
 62
7
  6
BYLAYER
 10
43.5209464591
 20
22.5031957617
 11
44.452407724
 21
22.5031957617
  0
LINE
  5
270
100
AcDbEntity
  8
00_COMPONENTS_3
100
AcDbLine
 62
7
  6
BYLAYER
 10
44.5207387526
 20
22.5031957617
 11
45.3918111388
 21
22.5031957617
  0
LINE
  5
271
100
AcDbEntity
  8
00_COMPONENTS_3
100
AcDbLine
 62
7
  6
BYLAYER
 10
45.4553123762
 20
22.5031957617
 11
46.2593664971
 21
22.5031957617
  0
LINE
  5
272
100
AcDbEntity
  8
00_COMPONENTS_3
100
AcDbLine
 62
7
  6
BYLAYER
 10
46.3175546605
 20
22.5031957617
 11
47.0484711785
 21
22.5031957617
  0
LINE
  5
273
100
AcDbEntity
  8
00_COMPONENTS_3
100
AcDbLine
 62
7
  6
BYLAYER
 10
47.1009034209
 20
22.5031957617
 11
47.7531196201
 21
22.5031957617
  0
LINE
  5
274
100
AcDbEntity
  8
00_COMPONENTS_3
100
AcDbLine
 62
7
  6
BYLAYER
 10
47.7993969004
 20
22.5031957617
 11
48.3679490217
 21
22.5031957617
  0
LINE
  5
275
100
AcDbEntity
  8
00_COMPONENTS_3
100
AcDbLine
 62
7
  6
BYLAYER
 10
48.4077191419
 20
22.5031957617
 11
48.8882801603
 21
22.5031957617
  0
LINE
  5
276
100
AcDbEntity
  8
00_COMPONENTS_3
100
AcDbLine
 62
7
  6
BYLAYER
 10
48.9212404458
 20
22.5031957617
 11
49.3101530018
 21
22.5031957617
  0
LINE
  5
277
100
AcDbEntity
  8
00_COMPONENTS_3
100
AcDbLine
 62
7
  6
BYLAYER
 10
49.3360526049
 20
22.5031957617
 11
49.6303568391
 21
22.5031957617
  0
LINE
  5
278
100
AcDbEntity
  8
00_COMPONENTS_3
100
AcDbLine
 62
7
  6
BYLAYER
 10
49.6489986481
 20
22.5031957617
 11
49.8464547277
 21
22.5031957617
  0
LINE
  5
279
100
AcDbEntity
  8
00_COMPONENTS_3
100
AcDbLine
 62
7
  6
BYLAYER
 10
49.8576968672
 20
22.5031957617
 11
49.9568020321
 21
22.5031957617
  0
LINE
  5
27A
100
AcDbEntity
  8
00_COMPONENTS_3
100
AcDbLine
 62
7
  6
BYLAYER
 10
49.9605589427
 20
22.5031957617
 11
49.9720912557
 21
22.5031957617
  0
LINE
  5
27B
100
AcDbEntity
  8
00_COMPONENTS
100
AcDbLine
 62
7
  6
BYLAYER
 10
20.2052912517
 20
23.2143957617
 11
51.6972912597
 21
23.2143957617
  0
LINE
  5
27C
100
AcDbEntity
  8
00_COMPONENTS
100
AcDbLine
 62
7
  6
BYLAYER
 10
19.9512912517
 20
23.4683957617
 11
51.9512912597
 21
23.4683957617
  0
LINE
  5
27D
100
AcDbEntity
  8
0
100
AcDbLine
 62
7
  6
BYLAYER
 10
10.7636912557
 20
65.0978165061
 11
10.7636912557
 21
89.6099957617
  0
LINE
  5
27E
100
AcDbEntity
  8
0
100
AcDbLine
 62
7
  6
BYLAYER
 10
12.0336912557
 20
74.3134517129
 11
12.0336912557
 21
75.6816185179
  0
LINE
  5
27F
100
AcDbEntity
  8
0
100
AcDbLine
 62
7
  6
BYLAYER
 10
12.0336912557
 20
83.1679842483
 11
12.0336912557
 21
84.5361510533
  0
LINE
  5
280
100
AcDbEntity
  8
0
100
AcDbLine
 62
7
  6
BYLAYER
 10
12.2876912557
 20
89.6099957617
 11
12.2876912557
 21
91.4133957617
  0
LINE
  5
281
100
AcDbEntity
  8
00_COMPONENTS_3
100
AcDbLine
 62
7
  6
BYLAYER
 10
23.1705451456
 20
18.8324563781
 11
23.1798262962
 21
18.8092769536
  0
LINE
  5
282
100
AcDbEntity
  8
0
100
AcDbLine
 62
7
  6
BYLAYER
 10
14.3234297867
 20
74.4209756045
 11
14.3234297867
 21
75.0675540452
  0
LINE
  5
283
100
AcDbEntity
  8
0
100
AcDbLine
 62
7
  6
BYLAYER
 10
14.3234297867
 20
83.2755081398
 11
14.3234297867
 21
83.9220865806
  0
LINE
  5
284
100
AcDbEntity
  8
0
100
AcDbLine
 62
7
  6
BYLAYER
 10
14.5136912557
 20
57.5297957617
 11
14.5136912557
 21
64.9719957617
  0
LINE
  5
285
100
AcDbEntity
  8
0
100
AcDbLine
 62
7
  6
BYLAYER
 10
15.6566912557
 20
57.5297957617
 11
15.6566912557
 21
55.1294957617
  0
LINE
  5
286
100
AcDbEntity
  8
0
100
AcDbLine
 62
7
  6
BYLAYER
 10
15.7420912557
 20
89.6099957617
 11
15.7420912557
 21
91.4133957617
  0
LINE
  5
287
100
AcDbEntity
  8
0
100
AcDbLine
 62
7
  6
BYLAYER
 10
16.1075412557
 20
55.1294957617
 11
16.1075412557
 21
53.5419957617
  0
LINE
  5
288
100
AcDbEntity
  8
00_COMPONENTS_3
100
AcDbLine
 62
7
  6
BYLAYER
 10
23.6311085101
 20
18.8324563781
 11
23.6370825591
 21
18.8126070369
  0
LINE
  5
289
100
AcDbEntity
  8
00_COMPONENTS
100
AcDbLine
 62
7
  6
BYLAYER
 10
16.9012912557
 20
45.6679957617
 11
16.9012912557
 21
47.1919957617
  0
LINE
  5
28A
100
AcDbEntity
  8
00_COMPONENTS
100
AcDbLine
 62
7
  6
BYLAYER
 10
17.5362912557
 20
44.3979957617
 11
17.5362912557
 21
45.6679957617
  0
LINE
  5
28B
100
AcDbEntity
  8
00_COMPONENTS
100
AcDbLine
 62
7
  6
BYLAYER
 10
18.4887912557
 20
38.1049705281
 11
18.4887912557
 21
44.3979957617
  0
LINE
  5
28C
100
AcDbEntity
  8
0
100
AcDbLine
 62
7
  6
BYLAYER
 10
18.5360912557
 20
89.6099957617
 11
18.5360912557
 21
86.5536343841
  0
LINE
  5
28D
100
AcDbEntity
  8
0
100
AcDbLine
 62
7
  6
BYLAYER
 10
18.5360912557
 20
85.6617573648
 11
18.5360912557
 21
83.5393426239
  0
LINE
  5
28E
100
AcDbEntity
  8
0
100
AcDbLine
 62
7
  6
BYLAYER
 10
18.5360912557
 20
81.0607919344
 11
18.5360912557
 21
77.6991018488
  0
LINE
  5
28F
100
AcDbEntity
  8
0
100
AcDbLine
 62
7
  6
BYLAYER
 10
18.5360912557
 20
76.8072248295
 11
18.5360912557
 21
74.2717183069
  0
LINE
  5
290
100
AcDbEntity
  8
00_COMPONENTS
100
AcDbLine
 62
7
  6
BYLAYER
 10
19.9512912517
 20
36.8059901597
 11
19.9512912517
 21
23.4683957617
  0
LINE
  5
291
100
AcDbEntity
  8
00_COMPONENTS
100
AcDbLine
 62
7
  6
BYLAYER
 10
18.4887912557
 20
38.1049705281
 11
19.5575912517
 21
37.4878985627
  0
LINE
  5
292
100
AcDbEntity
  8
00_COMPONENTS_3
100
AcDbLine
 62
7
  6
BYLAYER
 10
24.1854359045
 20
18.8324563781
 11
24.1888112921
 21
18.8166208798
  0
LINE
  5
293
100
AcDbEntity
  8
00_COMPONENTS_3
100
AcDbLine
 62
7
  6
BYLAYER
 10
24.0724800462
 20
19.1460208828
 11
24.0638252061
 21
19.1878917553
  0
LINE
  5
294
100
AcDbEntity
  8
0
100
AcDbLine
 62
7
  6
BYLAYER
 10
20.9652912557
 20
53.5419957617
 11
20.9652912557
 21
47.1919957617
  0
LINE
  5
295
100
AcDbEntity
  8
00_COMPONENTS_3
100
AcDbLine
 62
7
  6
BYLAYER
 10
21.9304912557
 20
23.2143957617
 11
21.9304912557
 21
22.5031957617
  0
LINE
  5
296
100
AcDbEntity
  8
00_COMPONENTS_3
100
AcDbLine
 62
7
  6
BYLAYER
 10
21.9418146501
 20
22.5031957617
 11
21.9418146501
 21
19.2263906262
  0
LINE
  5
297
100
AcDbEntity
  8
00_COMPONENTS_3
100
AcDbLine
 62
7
  6
BYLAYER
 10
21.9457804794
 20
22.5031957617
 11
21.9457804794
 21
19.2265957617
  0
LINE
  5
298
100
AcDbEntity
  8
00_COMPONENTS_3
100
AcDbLine
 62
7
  6
BYLAYER
 10
22.0362354479
 20
22.5031957617
 11
22.0362354479
 21
19.1460208828
  0
LINE
  5
299
100
AcDbEntity
  8
00_COMPONENTS_3
100
AcDbLine
 62
7
  6
BYLAYER
 10
22.0428132821
 20
22.5031957617
 11
22.0428132821
 21
19.2245607947
  0
LINE
  5
29A
100
AcDbEntity
  8
00_COMPONENTS_3
100
AcDbLine
 62
7
  6
BYLAYER
 10
22.0448856443
 20
19.2265957617
 11
22.0448856443
 21
22.5031957617
  0
LINE
  5
29B
100
AcDbEntity
  8
00_COMPONENTS_3
100
AcDbLine
 62
7
  6
BYLAYER
 10
22.0561277838
 20
22.5031957617
 11
22.0561277838
 21
19.2265957617
  0
LINE
  5
29C
100
AcDbEntity
  8
00_COMPONENTS_3
100
AcDbLine
 62
7
  6
BYLAYER
 10
22.1621633449
 20
22.5031957617
 11
22.1621633449
 21
19.1460208828
  0
LINE
  5
29D
100
AcDbEntity
  8
00_COMPONENTS_3
100
AcDbLine
 62
7
  6
BYLAYER
 10
22.2477307364
 20
22.5031957617
 11
22.2477307364
 21
19.2208474913
  0
LINE
  5
29E
100
AcDbEntity
  8
00_COMPONENTS_3
100
AcDbLine
 62
7
  6
BYLAYER
 10
22.2535838634
 20
19.2265957617
 11
22.2535838634
 21
22.5031957617
  0
LINE
  5
29F
100
AcDbEntity
  8
00_COMPONENTS_3
100
AcDbLine
 62
7
  6
BYLAYER
 10
22.2722256724
 20
22.5031957617
 11
22.2722256724
 21
19.2265957617
  0
LINE
  5
2A0
100
AcDbEntity
  8
00_COMPONENTS_3
100
AcDbLine
 62
7
  6
BYLAYER
 10
22.3705586331
 20
18.8324563781
 11
22.3705586331
 21
18.8460065877
  0
LINE
  5
2A1
100
AcDbEntity
  8
00_COMPONENTS_3
100
AcDbLine
 62
7
  6
BYLAYER
 10
22.3930348315
 20
22.5031957617
 11
22.3930348315
 21
19.1460208828
  0
LINE
  5
2A2
100
AcDbEntity
  8
00_COMPONENTS_3
100
AcDbLine
 62
7
  6
BYLAYER
 10
22.5196641702
 20
18.8324563781
 11
22.5196641702
 21
18.8627113275
  0
LINE
  5
2A3
100
AcDbEntity
  8
00_COMPONENTS_3
100
AcDbLine
 62
7
  6
BYLAYER
 10
22.5550074673
 20
22.5031957617
 11
22.5550074673
 21
19.2265957617
  0
LINE
  5
2A4
100
AcDbEntity
  8
00_COMPONENTS_3
100
AcDbLine
 62
7
  6
BYLAYER
 10
22.5665299066
 20
19.2265957617
 11
22.5665299066
 21
22.5031957617
  0
LINE
  5
2A5
100
AcDbEntity
  8
00_COMPONENTS_3
100
AcDbLine
 62
7
  6
BYLAYER
 10
22.5924295097
 20
22.5031957617
 11
22.5924295097
 21
19.2265957617
  0
LINE
  5
2A6
100
AcDbEntity
  8
00_COMPONENTS_3
100
AcDbLine
 62
7
  6
BYLAYER
 10
22.7270928361
 20
22.5031957617
 11
22.7270928361
 21
19.1460208828
  0
LINE
  5
2A7
100
AcDbEntity
  8
00_COMPONENTS_3
100
AcDbLine
 62
7
  6
BYLAYER
 10
22.7709924997
 20
18.8324563781
 11
22.7709924997
 21
18.8841865269
  0
LINE
  5
2A8
100
AcDbEntity
  8
00_COMPONENTS_3
100
AcDbLine
 62
7
  6
BYLAYER
 10
22.9623049133
 20
22.5031957617
 11
22.9623049133
 21
19.2265957617
  0
LINE
  5
2A9
100
AcDbEntity
  8
00_COMPONENTS_3
100
AcDbLine
 62
7
  6
BYLAYER
 10
22.9813420657
 20
19.2265957617
 11
22.9813420657
 21
22.5031957617
  0
LINE
  5
2AA
100
AcDbEntity
  8
00_COMPONENTS_3
100
AcDbLine
 62
7
  6
BYLAYER
 10
23.0143023511
 20
22.5031957617
 11
23.0143023511
 21
19.2265957617
  0
LINE
  5
2AB
100
AcDbEntity
  8
00_COMPONENTS_3
100
AcDbLine
 62
7
  6
BYLAYER
 10
23.1226308612
 20
18.8324563781
 11
23.1226308612
 21
18.9133326134
  0
LINE
  5
2AC
100
AcDbEntity
  8
00_COMPONENTS_3
100
AcDbLine
 62
7
  6
BYLAYER
 10
23.1617949758
 20
22.5031957617
 11
23.1617949758
 21
19.1460208828
  0
LINE
  5
2AD
100
AcDbEntity
  8
00_COMPONENTS_3
100
AcDbLine
 62
7
  6
BYLAYER
 10
24.8293085625
 20
18.8324563781
 11
24.8308135064
 21
18.821298265
  0
LINE
  5
2AE
100
AcDbEntity
  8
00_COMPONENTS_3
100
AcDbLine
 62
7
  6
BYLAYER
 10
24.7535236489
 20
19.1460208828
 11
24.7496648182
 21
19.1754338425
  0
LINE
  5
2AF
100
AcDbEntity
  8
00_COMPONENTS_3
100
AcDbLine
 62
7
  6
BYLAYER
 10
25.5578262244
 20
18.8324563781
 11
25.5582031775
 21
18.8265910881
  0
LINE
  5
2B0
100
AcDbEntity
  8
00_COMPONENTS_3
100
AcDbLine
 62
7
  6
BYLAYER
 10
25.5197890246
 20
19.1460208828
 11
25.518822478
 21
19.1614266374
  0
LINE
  5
2B1
100
AcDbEntity
  8
0
100
AcDbLine
 62
7
  6
BYLAYER
 10
23.4636912557
 20
64.9719957617
 11
23.4636912557
 21
72.5208923019
  0
LINE
  5
2B2
100
AcDbEntity
  8
0
100
AcDbLine
 62
7
  6
BYLAYER
 10
23.4636912557
 20
74.6255443119
 11
23.4636912557
 21
89.6099957617
  0
LINE
  5
2B3
100
AcDbEntity
  8
00_COMPONENTS_3
100
AcDbLine
 62
7
  6
BYLAYER
 10
23.466523295
 20
22.5031957617
 11
23.466523295
 21
19.2265957617
  0
LINE
  5
2B4
100
AcDbEntity
  8
00_COMPONENTS_3
100
AcDbLine
 62
7
  6
BYLAYER
 10
23.4948633696
 20
19.2265957617
 11
23.4948633696
 21
22.5031957617
  0
LINE
  5
2B5
100
AcDbEntity
  8
00_COMPONENTS_3
100
AcDbLine
 62
7
  6
BYLAYER
 10
23.5346334898
 20
22.5031957617
 11
23.5346334898
 21
19.2265957617
  0
LINE
  5
2B6
100
AcDbEntity
  8
00_COMPONENTS_3
100
AcDbLine
 62
7
  6
BYLAYER
 10
23.5719030745
 20
18.8324563781
 11
23.5719030745
 21
18.9560854375
  0
LINE
  5
2B7
100
AcDbEntity
  8
00_COMPONENTS_3
100
AcDbLine
 62
7
  6
BYLAYER
 10
23.6938329046
 20
22.5031957617
 11
23.6938329046
 21
19.1460208828
  0
LINE
  5
2B8
100
AcDbEntity
  8
00_COMPONENTS_3
100
AcDbLine
 62
7
  6
BYLAYER
 10
24.0638252061
 20
22.5031957617
 11
24.0638252061
 21
19.1878949958
  0
LINE
  5
2B9
100
AcDbEntity
  8
00_COMPONENTS_3
100
AcDbLine
 62
7
  6
BYLAYER
 10
24.1031856111
 20
19.2265957617
 11
24.1031856111
 21
22.5031957617
  0
LINE
  5
2BA
100
AcDbEntity
  8
00_COMPONENTS_3
100
AcDbLine
 62
7
  6
BYLAYER
 10
24.1153899067
 20
18.8324563781
 11
24.1153899067
 21
19.0261612637
  0
LINE
  5
2BB
100
AcDbEntity
  8
00_COMPONENTS_3
100
AcDbLine
 62
7
  6
BYLAYER
 10
24.1494628914
 20
22.5031957617
 11
24.1494628914
 21
19.2265957617
  0
LINE
  5
2BC
100
AcDbEntity
  8
00_COMPONENTS_3
100
AcDbLine
 62
7
  6
BYLAYER
 10
24.3191574927
 20
22.5031957617
 11
24.3191574927
 21
19.1460208828
  0
LINE
  5
2BD
100
AcDbEntity
  8
00_COMPONENTS_3
100
AcDbLine
 62
7
  6
BYLAYER
 10
24.7489550949
 20
18.8324563781
 11
24.7489550949
 21
19.1460208828
  0
LINE
  5
2BE
100
AcDbEntity
  8
00_COMPONENTS_3
100
AcDbLine
 62
7
  6
BYLAYER
 10
24.7496648182
 20
22.5031957617
 11
24.7496648182
 21
19.1754304194
  0
LINE
  5
2BF
100
AcDbEntity
  8
00_COMPONENTS_3
100
AcDbLine
 62
7
  6
BYLAYER
 10
24.8016790906
 20
19.2265957617
 11
24.8016790906
 21
22.5031957617
  0
LINE
  5
2C0
100
AcDbEntity
  8
00_COMPONENTS_3
100
AcDbLine
 62
7
  6
BYLAYER
 10
24.8541113329
 20
22.5031957617
 11
24.8541113329
 21
19.2265957617
  0
LINE
  5
2C1
100
AcDbEntity
  8
00_COMPONENTS_3
100
AcDbLine
 62
7
  6
BYLAYER
 10
25.0330096424
 20
22.5031957617
 11
25.0330096424
 21
19.1460208828
  0
LINE
  5
2C2
100
AcDbEntity
  8
00_COMPONENTS_3
100
AcDbLine
 62
7
  6
BYLAYER
 10
25.4677768254
 20
18.8324563781
 11
25.4677768254
 21
22.5031957617
  0
LINE
  5
2C3
100
AcDbEntity
  8
00_COMPONENTS_3
100
AcDbLine
 62
7
  6
BYLAYER
 10
25.5188224779
 20
22.5031957617
 11
25.5188224779
 21
19.1614383617
  0
LINE
  5
2C4
100
AcDbEntity
  8
00_COMPONENTS_3
100
AcDbLine
 62
7
  6
BYLAYER
 10
25.585027851
 20
19.2265957617
 11
25.585027851
 21
22.5031957617
  0
LINE
  5
2C5
100
AcDbEntity
  8
00_COMPONENTS_3
100
AcDbLine
 62
7
  6
BYLAYER
 10
25.6432160144
 20
22.5031957617
 11
25.6432160144
 21
19.2265957617
  0
LINE
  5
2C6
100
AcDbEntity
  8
00_COMPONENTS_3
100
AcDbLine
 62
7
  6
BYLAYER
 10
25.8299565079
 20
22.5031957617
 11
25.8299565079
 21
19.1460208828
  0
LINE
  5
2C7
100
AcDbEntity
  8
0
100
AcDbLine
 62
7
  6
BYLAYER
 10
26.0036912557
 20
64.9719957617
 11
26.0036912557
 21
89.6099957617
  0
LINE
  5
2C8
100
AcDbEntity
  8
0
100
AcDbLine
 62
7
  6
BYLAYER
 10
26.0290912557
 20
89.6099957617
 11
26.0290912557
 21
64.9719957617
  0
LINE
  5
2C9
100
AcDbEntity
  8
00_COMPONENTS_3
100
AcDbLine
 62
7
  6
BYLAYER
 10
26.2663844309
 20
18.8324563781
 11
26.2663844309
 21
22.5031957617
  0
LINE
  5
2CA
100
AcDbEntity
  8
00_COMPONENTS_3
100
AcDbLine
 62
7
  6
BYLAYER
 10
26.3654444309
 20
18.8324563781
 11
26.3654444309
 21
22.5031957617
  0
LINE
  5
2CB
100
AcDbEntity
  8
00_COMPONENTS_3
100
AcDbLine
 62
7
  6
BYLAYER
 10
26.4472701352
 20
19.2265957617
 11
26.4472701352
 21
22.5031957617
  0
LINE
  5
2CC
100
AcDbEntity
  8
00_COMPONENTS_3
100
AcDbLine
 62
7
  6
BYLAYER
 10
26.5107713726
 20
22.5031957617
 11
26.5107713726
 21
19.2265957617
  0
LINE
  5
2CD
100
AcDbEntity
  8
00_COMPONENTS
100
AcDbLine
 62
7
  6
BYLAYER
 10
51.9512912597
 20
36.8059901597
 11
19.9512912517
 21
36.8059901597
  0
LINE
  5
2CE
100
AcDbEntity
  8
00_COMPONENTS
100
AcDbLine
 62
7
  6
BYLAYER
 10
19.5575912517
 20
37.4878985627
 11
52.3449912597
 21
37.4878985627
  0
LINE
  5
2CF
100
AcDbEntity
  8
00_COMPONENTS_3
100
AcDbLine
 62
7
  6
BYLAYER
 10
49.9605589427
 20
19.2265957617
 11
49.9607678614
 21
19.2264005895
  0
LINE
  5
2D0
100
AcDbEntity
  8
00_COMPONENTS_3
100
AcDbLine
 62
7
  6
BYLAYER
 10
49.6489986481
 20
19.2265957617
 11
49.6548517751
 21
19.2208514745
  0
LINE
  5
2D1
100
AcDbEntity
  8
00_COMPONENTS_3
100
AcDbLine
 62
7
  6
BYLAYER
 10
49.8576968672
 20
19.2265957617
 11
49.8597692293
 21
19.2245605405
  0
LINE
  5
2D2
100
AcDbEntity
  8
00_COMPONENTS_3
100
AcDbLine
 62
7
  6
BYLAYER
 10
49.0820600118
 20
18.806661597
 11
49.0855089668
 21
18.8032627501
  0
LINE
  5
2D3
100
AcDbEntity
  8
00_COMPONENTS_3
100
AcDbLine
 62
7
  6
BYLAYER
 10
49.340676823
 20
18.8047762982
 11
49.3421793865
 21
18.8032623447
  0
LINE
  5
2D4
100
AcDbEntity
  8
00_COMPONENTS_3
100
AcDbLine
 62
7
  6
BYLAYER
 10
26.7039328422
 20
22.5031957617
 11
26.7039328422
 21
19.1460208828
  0
LINE
  5
2D5
100
AcDbEntity
  8
00_COMPONENTS_3
100
AcDbLine
 62
7
  6
BYLAYER
 10
27.1387000252
 20
18.8324563781
 11
27.1387000252
 21
22.5031957617
  0
LINE
  5
2D6
100
AcDbEntity
  8
00_COMPONENTS_3
100
AcDbLine
 62
7
  6
BYLAYER
 10
27.2460167199
 20
22.5031957617
 11
27.2460167199
 21
18.8324563781
  0
LINE
  5
2D7
100
AcDbEntity
  8
00_COMPONENTS_3
100
AcDbLine
 62
7
  6
BYLAYER
 10
27.2840539197
 20
19.1460208828
 11
27.2840539197
 21
22.5031957617
  0
LINE
  5
2D8
100
AcDbEntity
  8
00_COMPONENTS_3
100
AcDbLine
 62
7
  6
BYLAYER
 10
27.3818437589
 20
19.2265957617
 11
27.3818437589
 21
22.5031957617
  0
LINE
  5
2D9
100
AcDbEntity
  8
00_COMPONENTS_3
100
AcDbLine
 62
7
  6
BYLAYER
 10
27.4501747875
 20
22.5031957617
 11
27.4501747875
 21
19.2265957617
  0
LINE
  5
2DA
100
AcDbEntity
  8
00_COMPONENTS_3
100
AcDbLine
 62
7
  6
BYLAYER
 10
27.6482871578
 20
22.5031957617
 11
27.6482871578
 21
19.1460208828
  0
LINE
  5
2DB
100
AcDbEntity
  8
00_COMPONENTS_3
100
AcDbLine
 62
7
  6
BYLAYER
 10
28.07808476
 20
18.8324563781
 11
28.07808476
 21
22.5031957617
  0
LINE
  5
2DC
100
AcDbEntity
  8
00_COMPONENTS_3
100
AcDbLine
 62
7
  6
BYLAYER
 10
28.1928414045
 20
22.5031957617
 11
28.1928414045
 21
18.8324563781
  0
LINE
  5
2DD
100
AcDbEntity
  8
00_COMPONENTS_3
100
AcDbLine
 62
7
  6
BYLAYER
 10
28.268626318
 20
19.1460208828
 11
28.268626318
 21
22.5031957617
  0
LINE
  5
2DE
100
AcDbEntity
  8
00_COMPONENTS_3
100
AcDbLine
 62
7
  6
BYLAYER
 10
28.3816360524
 20
19.2265957617
 11
28.3816360524
 21
22.5031957617
  0
LINE
  5
2DF
100
AcDbEntity
  8
00_COMPONENTS_3
100
AcDbLine
 62
7
  6
BYLAYER
 10
28.4542768318
 20
22.5031957617
 11
28.4542768318
 21
19.2265957617
  0
LINE
  5
2E0
100
AcDbEntity
  8
00_COMPONENTS_3
100
AcDbLine
 62
7
  6
BYLAYER
 10
28.655832348
 20
22.5031957617
 11
28.655832348
 21
19.1460208828
  0
LINE
  5
2E1
100
AcDbEntity
  8
00_COMPONENTS
100
AcDbLine
 62
7
  6
BYLAYER
 10
28.7180869228
 20
44.3979957617
 11
28.7180869228
 21
38.9356469674
  0
LINE
  5
2E2
100
AcDbEntity
  8
00_COMPONENTS_3
100
AcDbLine
 62
7
  6
BYLAYER
 10
29.0773893501
 20
18.8324563781
 11
29.0773893501
 21
22.5031957617
  0
LINE
  5
2E3
100
AcDbEntity
  8
00_COMPONENTS_3
100
AcDbLine
 62
7
  6
BYLAYER
 10
29.1987125771
 20
22.5031957617
 11
29.1987125771
 21
18.8324563781
  0
LINE
  5
2E4
100
AcDbEntity
  8
00_COMPONENTS_3
100
AcDbLine
 62
7
  6
BYLAYER
 10
29.3116684354
 20
19.1460208828
 11
29.3116684354
 21
22.5031957617
  0
LINE
  5
2E5
100
AcDbEntity
  8
00_COMPONENTS_3
100
AcDbLine
 62
7
  6
BYLAYER
 10
29.4390379927
 20
19.2265957617
 11
29.4390379927
 21
22.5031957617
  0
LINE
  5
2E6
100
AcDbEntity
  8
0
100
AcDbLine
 62
7
  6
BYLAYER
 10
29.4404932435
 20
62.4912624284
 11
29.4404932435
 21
57.5297957617
  0
LINE
  5
2E7
100
AcDbEntity
  8
00_COMPONENTS_3
100
AcDbLine
 62
7
  6
BYLAYER
 10
29.5154356828
 20
22.5031957617
 11
29.5154356828
 21
19.2265957617
  0
LINE
  5
2E8
100
AcDbEntity
  8
00_COMPONENTS_3
100
AcDbLine
 62
7
  6
BYLAYER
 10
29.7189003856
 20
22.5031957617
 11
29.7189003856
 21
19.1460208828
  0
LINE
  5
2E9
100
AcDbEntity
  8
0
100
AcDbLine
 62
7
  6
BYLAYER
 10
13.0685386515
 20
77.1122182884
 11
13.8049136198
 21
75.6816185179
  0
LINE
  5
2EA
100
AcDbEntity
  8
00_COMPONENTS_2
100
AcDbLine
 62
7
  6
BYLAYER
 10
32.591105517
 20
18.4391957617
 11
33.2596864153
 21
7.8416800992
  0
LINE
  5
2EB
100
AcDbEntity
  8
00_COMPONENTS_2
100
AcDbLine
 62
7
  6
BYLAYER
 10
33.5131823728
 20
7.7306727811
 11
32.8375982606
 21
18.4391957617
  0
LINE
  5
2EC
100
AcDbEntity
  8
0
100
AcDbLine
 62
7
  6
BYLAYER
 10
30.0529638541
 20
64.9719957617
 11
30.0529638541
 21
62.4912624284
  0
LINE
  5
2ED
100
AcDbEntity
  8
00_COMPONENTS_3
100
AcDbLine
 62
7
  6
BYLAYER
 10
30.1290084844
 20
18.8324563781
 11
30.1290084844
 21
22.5031957617
  0
LINE
  5
2EE
100
AcDbEntity
  8
00_COMPONENTS_3
100
AcDbLine
 62
7
  6
BYLAYER
 10
30.2559749508
 20
22.5031957617
 11
30.2559749508
 21
18.8324563781
  0
LINE
  5
2EF
100
AcDbEntity
  8
00_COMPONENTS_3
100
AcDbLine
 62
7
  6
BYLAYER
 10
30.4052420916
 20
19.1460208828
 11
30.4052420916
 21
22.5031957617
  0
LINE
  5
2F0
100
AcDbEntity
  8
00_COMPONENTS_3
100
AcDbLine
 62
7
  6
BYLAYER
 10
30.5460021125
 20
19.2265957617
 11
30.5460021125
 21
22.5031957617
  0
LINE
  5
2F1
100
AcDbEntity
  8
00_COMPONENTS_3
100
AcDbLine
 62
7
  6
BYLAYER
 10
30.6255752806
 20
22.5031957617
 11
30.6255752806
 21
19.2265957617
  0
LINE
  5
2F2
100
AcDbEntity
  8
00_COMPONENTS_3
100
AcDbLine
 62
7
  6
BYLAYER
 10
30.829400681
 20
22.5031957617
 11
30.829400681
 21
19.1460208828
  0
LINE
  5
2F3
100
AcDbEntity
  8
00_COMPONENTS_3
100
AcDbLine
 62
7
  6
BYLAYER
 10
31.2249387061
 20
18.8324563781
 11
31.2249387061
 21
22.5031957617
  0
LINE
  5
2F4
100
AcDbEntity
  8
00_COMPONENTS_3
100
AcDbLine
 62
7
  6
BYLAYER
 10
31.3565821205
 20
22.5031957617
 11
31.3565821205
 21
18.8324563781
  0
LINE
  5
2F5
100
AcDbEntity
  8
00_COMPONENTS_3
100
AcDbLine
 62
7
  6
BYLAYER
 10
31.5410245307
 20
19.1460208828
 11
31.5410245307
 21
22.5031957617
  0
LINE
  5
2F6
100
AcDbEntity
  8
00_COMPONENTS_3
100
AcDbLine
 62
7
  6
BYLAYER
 10
31.6941037465
 20
19.2265957617
 11
31.6941037465
 21
22.5031957617
  0
LINE
  5
2F7
100
AcDbEntity
  8
00_COMPONENTS_3
100
AcDbLine
 62
7
  6
BYLAYER
 10
31.7762467929
 20
22.5031957617
 11
31.7762467929
 21
19.2265957617
  0
LINE
  5
2F8
100
AcDbEntity
  8
00_COMPONENTS_3
100
AcDbLine
 62
7
  6
BYLAYER
 10
31.9788816563
 20
22.5031957617
 11
31.9788816563
 21
19.1460208828
  0
LINE
  5
2F9
100
AcDbEntity
  8
00_COMPONENTS_3
100
AcDbLine
 62
7
  6
BYLAYER
 10
32.3568393246
 20
18.8324563781
 11
32.3568393246
 21
22.5031957617
  0
LINE
  5
2FA
100
AcDbEntity
  8
00_COMPONENTS_3
100
AcDbLine
 62
7
  6
BYLAYER
 10
32.4921578011
 20
22.5031957617
 11
32.4921578011
 21
18.8324563781
  0
LINE
  5
2FB
100
AcDbEntity
  8
0
100
AcDbLine
 62
7
  6
BYLAYER
 10
32.6400912557
 20
64.9719957617
 11
32.6400912557
 21
89.6099957617
  0
LINE
  5
2FC
100
AcDbEntity
  8
0
100
AcDbLine
 62
7
  6
BYLAYER
 10
32.6457912557
 20
64.9719957617
 11
32.6457912557
 21
89.6099957617
  0
LINE
  5
2FD
100
AcDbEntity
  8
00_COMPONENTS_3
100
AcDbLine
 62
7
  6
BYLAYER
 10
32.7103717626
 20
19.1460208828
 11
32.7103717626
 21
22.5031957617
  0
LINE
  5
2FE
100
AcDbEntity
  8
00_COMPONENTS_3
100
AcDbLine
 62
7
  6
BYLAYER
 10
32.874605148
 20
19.2265957617
 11
32.874605148
 21
22.5031957617
  0
LINE
  5
2FF
100
AcDbEntity
  8
00_COMPONENTS
100
AcDbLine
 62
7
  6
BYLAYER
 10
32.8821975785
 20
45.6679957617
 11
32.8821975785
 21
44.3979957617
  0
LINE
  5
300
100
AcDbEntity
  8
00_COMPONENTS_3
100
AcDbLine
 62
7
  6
BYLAYER
 10
32.9586929144
 20
22.5031957617
 11
32.9586929144
 21
19.2265957617
  0
LINE
  5
301
100
AcDbEntity
  8
00_COMPONENTS
100
AcDbLine
 62
7
  6
BYLAYER
 10
17.5362912557
 20
44.3979957617
 11
54.3662912557
 21
44.3979957617
  0
LINE
  5
302
100
AcDbEntity
  8
00_COMPONENTS
100
AcDbLine
 62
7
  6
BYLAYER
 10
16.9012912557
 20
45.6679957617
 11
55.0012912557
 21
45.6679957617
  0
LINE
  5
303
100
AcDbEntity
  8
0
100
AcDbLine
 62
7
  6
BYLAYER
 10
13.0685386515
 20
85.9667508238
 11
13.8049136198
 21
84.5361510533
  0
LINE
  5
304
100
AcDbEntity
  8
0
100
AcDbLine
 62
7
  6
BYLAYER
 10
18.5360912557
 20
77.6991018488
 11
18.432233101
 21
77.961660783
  0
LINE
  5
305
100
AcDbEntity
  8
00_COMPONENTS_3
100
AcDbLine
 62
7
  6
BYLAYER
 10
33.1585950673
 20
22.5031957617
 11
33.1585950673
 21
19.1460208828
  0
LINE
  5
306
100
AcDbEntity
  8
00_COMPONENTS_3
100
AcDbLine
 62
7
  6
BYLAYER
 10
33.5160958926
 20
18.8324563781
 11
33.5160958926
 21
22.5031957617
  0
LINE
  5
307
100
AcDbEntity
  8
00_COMPONENTS_3
100
AcDbLine
 62
7
  6
BYLAYER
 10
33.6540595759
 20
22.5031957617
 11
33.6540595759
 21
18.8324563781
  0
LINE
  5
308
100
AcDbEntity
  8
00_COMPONENTS_3
100
AcDbLine
 62
7
  6
BYLAYER
 10
33.9043843487
 20
19.1460208828
 11
33.9043843487
 21
22.5031957617
  0
LINE
  5
309
100
AcDbEntity
  8
00_COMPONENTS_3
100
AcDbLine
 62
7
  6
BYLAYER
 10
34.0785219885
 20
19.2265957617
 11
34.0785219885
 21
22.5031957617
  0
LINE
  5
30A
100
AcDbEntity
  8
00_COMPONENTS_3
100
AcDbLine
 62
7
  6
BYLAYER
 10
34.1639145163
 20
22.5031957617
 11
34.1639145163
 21
19.2265957617
  0
LINE
  5
30B
100
AcDbEntity
  8
00_COMPONENTS_3
100
AcDbLine
 62
7
  6
BYLAYER
 10
34.3595625826
 20
22.5031957617
 11
34.3595625826
 21
19.1460208828
  0
LINE
  5
30C
100
AcDbEntity
  8
0
100
AcDbLine
 62
7
  6
BYLAYER
 10
34.3637912557
 20
64.9719957617
 11
34.3637912557
 21
57.5297957617
  0
LINE
  5
30D
100
AcDbEntity
  8
00_COMPONENTS_3
100
AcDbLine
 62
7
  6
BYLAYER
 10
34.6938857678
 20
18.8324563781
 11
34.6938857678
 21
22.5031957617
  0
LINE
  5
30E
100
AcDbEntity
  8
00_COMPONENTS_3
100
AcDbLine
 62
7
  6
BYLAYER
 10
34.833444671
 20
22.5031957617
 11
34.833444671
 21
18.8324563781
  0
LINE
  5
30F
100
AcDbEntity
  8
00_COMPONENTS_3
100
AcDbLine
 62
7
  6
BYLAYER
 10
35.1139751324
 20
19.1460208828
 11
35.1139751324
 21
22.5031957617
  0
LINE
  5
310
100
AcDbEntity
  8
00_COMPONENTS_3
100
AcDbLine
 62
7
  6
BYLAYER
 10
35.296691734
 20
19.2265957617
 11
35.296691734
 21
22.5031957617
  0
LINE
  5
311
100
AcDbEntity
  8
00_COMPONENTS_3
100
AcDbLine
 62
7
  6
BYLAYER
 10
35.3827391345
 20
22.5031957617
 11
35.3827391345
 21
19.2265957617
  0
LINE
  5
312
100
AcDbEntity
  8
00_COMPONENTS_3
100
AcDbLine
 62
7
  6
BYLAYER
 10
35.5726441141
 20
22.5031957617
 11
35.5726441141
 21
19.1460208828
  0
LINE
  5
313
100
AcDbEntity
  8
00_COMPONENTS_3
100
AcDbLine
 62
7
  6
BYLAYER
 10
35.881245258
 20
18.8324563781
 11
35.881245258
 21
22.5031957617
  0
LINE
  5
314
100
AcDbEntity
  8
00_COMPONENTS
100
AcDbLine
 62
7
  6
BYLAYER
 10
35.9512912557
 20
7.0956727824
 11
35.9512912557
 21
-26.2256042383
  0
LINE
  5
315
100
AcDbEntity
  8
00_COMPONENTS_3
100
AcDbLine
 62
7
  6
BYLAYER
 10
36.0213372535
 20
22.5031957617
 11
36.0213372535
 21
18.8324563781
  0
LINE
  5
316
100
AcDbEntity
  8
00_COMPONENTS_3
100
AcDbLine
 62
7
  6
BYLAYER
 10
36.3299383973
 20
19.1460208828
 11
36.3299383973
 21
22.5031957617
  0
LINE
  5
317
100
AcDbEntity
  8
0
100
AcDbLine
 62
7
  6
BYLAYER
 10
53.4179860782
 20
86.4758863755
 11
53.3086834525
 21
86.2635376158
  0
LINE
  5
318
100
AcDbEntity
  8
00_COMPONENTS
100
AcDbLine
 62
7
  6
BYLAYER
 10
55.0012912557
 20
47.1919957617
 11
16.9012912557
 21
47.1919957617
  0
LINE
  5
319
100
AcDbEntity
  8
0
100
AcDbLine
 62
7
  6
BYLAYER
 10
18.593899059
 20
77.4090050804
 11
18.4845964333
 21
77.6213538401
  0
LINE
  5
31A
100
AcDbEntity
  8
0
100
AcDbLine
 62
7
  6
BYLAYER
 10
18.5360912557
 20
86.5536343841
 11
18.432233101
 21
86.8161933184
  0
LINE
  5
31B
100
AcDbEntity
  8
00_COMPONENTS_3
100
AcDbLine
 62
7
  6
BYLAYER
 10
36.519843377
 20
19.2265957617
 11
36.519843377
 21
22.5031957617
  0
LINE
  5
31C
100
AcDbEntity
  8
00_COMPONENTS_3
100
AcDbLine
 62
7
  6
BYLAYER
 10
36.6058907775
 20
22.5031957617
 11
36.6058907775
 21
19.2265957617
  0
LINE
  5
31D
100
AcDbEntity
  8
00_COMPONENTS_3
100
AcDbLine
 62
7
  6
BYLAYER
 10
36.7886073791
 20
22.5031957617
 11
36.7886073791
 21
19.1460208828
  0
LINE
  5
31E
100
AcDbEntity
  8
00_COMPONENTS_3
100
AcDbLine
 62
7
  6
BYLAYER
 10
37.0691378405
 20
18.8324563781
 11
37.0691378405
 21
22.5031957617
  0
LINE
  5
31F
100
AcDbEntity
  8
00_COMPONENTS_3
100
AcDbLine
 62
7
  6
BYLAYER
 10
37.2086967437
 20
22.5031957617
 11
37.2086967437
 21
18.8324563781
  0
LINE
  5
320
100
AcDbEntity
  8
0
100
AcDbLine
 62
7
  6
BYLAYER
 10
37.5387912557
 20
64.9719957617
 11
37.5387912557
 21
57.5297957617
  0
LINE
  5
321
100
AcDbEntity
  8
00_COMPONENTS_3
100
AcDbLine
 62
7
  6
BYLAYER
 10
37.5430199289
 20
19.1460208828
 11
37.5430199289
 21
22.5031957617
  0
LINE
  5
322
100
AcDbEntity
  8
00_COMPONENTS_3
100
AcDbLine
 62
7
  6
BYLAYER
 10
37.7386679952
 20
19.2265957617
 11
37.7386679952
 21
22.5031957617
  0
LINE
  5
323
100
AcDbEntity
  8
00_COMPONENTS_3
100
AcDbLine
 62
7
  6
BYLAYER
 10
37.824060523
 20
22.5031957617
 11
37.824060523
 21
19.2265957617
  0
LINE
  5
324
100
AcDbEntity
  8
00_COMPONENTS_3
100
AcDbLine
 62
7
  6
BYLAYER
 10
37.9981981628
 20
22.5031957617
 11
37.9981981628
 21
19.1460208828
  0
LINE
  5
325
100
AcDbEntity
  8
00_COMPONENTS_3
100
AcDbLine
 62
7
  6
BYLAYER
 10
38.2485229356
 20
18.8324563781
 11
38.2485229356
 21
22.5031957617
  0
LINE
  5
326
100
AcDbEntity
  8
00_COMPONENTS_3
100
AcDbLine
 62
7
  6
BYLAYER
 10
38.3864866189
 20
22.5031957617
 11
38.3864866189
 21
18.8324563781
  0
LINE
  5
327
100
AcDbEntity
  8
00_COMPONENTS_3
100
AcDbLine
 62
7
  6
BYLAYER
 10
38.7439874442
 20
19.1460208828
 11
38.7439874442
 21
22.5031957617
  0
LINE
  5
328
100
AcDbEntity
  8
00_COMPONENTS_3
100
AcDbLine
 62
7
  6
BYLAYER
 10
38.9438895971
 20
19.2265957617
 11
38.9438895971
 21
22.5031957617
  0
LINE
  5
329
100
AcDbEntity
  8
00_COMPONENTS
100
AcDbLine
 62
7
  6
BYLAYER
 10
39.020384933
 20
44.3979957617
 11
39.020384933
 21
45.6679957617
  0
LINE
  5
32A
100
AcDbEntity
  8
00_COMPONENTS_3
100
AcDbLine
 62
7
  6
BYLAYER
 10
39.0279773635
 20
22.5031957617
 11
39.0279773635
 21
19.2265957617
  0
LINE
  5
32B
100
AcDbEntity
  8
00_COMPONENTS_3
100
AcDbLine
 62
7
  6
BYLAYER
 10
39.1922107489
 20
22.5031957617
 11
39.1922107489
 21
19.1460208828
  0
LINE
  5
32C
100
AcDbEntity
  8
00_COMPONENTS_3
100
AcDbLine
 62
7
  6
BYLAYER
 10
39.4104247104
 20
18.8324563781
 11
39.4104247104
 21
22.5031957617
  0
LINE
  5
32D
100
AcDbEntity
  8
00_COMPONENTS_3
100
AcDbLine
 62
7
  6
BYLAYER
 10
39.5457431869
 20
22.5031957617
 11
39.5457431869
 21
18.8324563781
  0
LINE
  5
32E
100
AcDbEntity
  8
0
100
AcDbLine
 62
7
  6
BYLAYER
 10
53.4703494104
 20
86.8161933184
 11
53.3664912557
 21
86.5536343841
  0
LINE
  5
32F
100
AcDbEntity
  8
0
100
AcDbLine
 62
7
  6
BYLAYER
 10
53.4179860782
 20
77.6213538401
 11
53.3086834525
 21
77.4090050804
  0
LINE
  5
330
100
AcDbEntity
  8
0
100
AcDbLine
 62
7
  6
BYLAYER
 10
58.0976688917
 20
84.5361510533
 11
58.83404386
 21
85.9667508238
  0
LINE
  5
331
100
AcDbEntity
  8
0
100
AcDbLine
 62
7
  6
BYLAYER
 10
18.593899059
 20
86.2635376158
 11
18.4845964333
 21
86.4758863755
  0
LINE
  5
332
100
AcDbEntity
  8
00_COMPONENTS_3
100
AcDbLine
 62
7
  6
BYLAYER
 10
39.9237008552
 20
19.1460208828
 11
39.9237008552
 21
22.5031957617
  0
LINE
  5
333
100
AcDbEntity
  8
00_COMPONENTS_3
100
AcDbLine
 62
7
  6
BYLAYER
 10
40.1263357186
 20
19.2265957617
 11
40.1263357186
 21
22.5031957617
  0
LINE
  5
334
100
AcDbEntity
  8
00_COMPONENTS_3
100
AcDbLine
 62
7
  6
BYLAYER
 10
40.208478765
 20
22.5031957617
 11
40.208478765
 21
19.2265957617
  0
LINE
  5
335
100
AcDbEntity
  8
00_COMPONENTS_3
100
AcDbLine
 62
7
  6
BYLAYER
 10
40.3615579808
 20
22.5031957617
 11
40.3615579808
 21
19.1460208828
  0
LINE
  5
336
100
AcDbEntity
  8
00_COMPONENTS_3
100
AcDbLine
 62
7
  6
BYLAYER
 10
40.546000391
 20
18.8324563781
 11
40.546000391
 21
22.5031957617
  0
LINE
  5
337
100
AcDbEntity
  8
00_COMPONENTS_3
100
AcDbLine
 62
7
  6
BYLAYER
 10
40.6776438054
 20
22.5031957617
 11
40.6776438054
 21
18.8324563781
  0
LINE
  5
338
100
AcDbEntity
  8
00_COMPONENTS_3
100
AcDbLine
 62
7
  6
BYLAYER
 10
41.0731818305
 20
19.1460208828
 11
41.0731818305
 21
22.5031957617
  0
LINE
  5
339
100
AcDbEntity
  8
00_COMPONENTS_3
100
AcDbLine
 62
7
  6
BYLAYER
 10
41.2770072308
 20
19.2265957617
 11
41.2770072308
 21
22.5031957617
  0
LINE
  5
33A
100
AcDbEntity
  8
00_COMPONENTS_3
100
AcDbLine
 62
7
  6
BYLAYER
 10
41.356580399
 20
22.5031957617
 11
41.356580399
 21
19.2265957617
  0
LINE
  5
33B
100
AcDbEntity
  8
00_COMPONENTS_3
100
AcDbLine
 62
7
  6
BYLAYER
 10
41.4973404199
 20
22.5031957617
 11
41.4973404199
 21
19.1460208828
  0
LINE
  5
33C
100
AcDbEntity
  8
00_COMPONENTS_3
100
AcDbLine
 62
7
  6
BYLAYER
 10
41.6466075607
 20
18.8324563781
 11
41.6466075607
 21
22.5031957617
  0
LINE
  5
33D
100
AcDbEntity
  8
00_COMPONENTS_3
100
AcDbLine
 62
7
  6
BYLAYER
 10
41.7735740271
 20
22.5031957617
 11
41.7735740271
 21
18.8324563781
  0
LINE
  5
33E
100
AcDbEntity
  8
0
100
AcDbLine
 62
7
  6
BYLAYER
 10
41.8496186574
 20
62.4912624284
 11
41.8496186574
 21
64.9719957617
  0
LINE
  5
33F
100
AcDbEntity
  8
00_COMPONENTS_3
100
AcDbLine
 62
7
  6
BYLAYER
 10
42.1836821259
 20
19.1460208828
 11
42.1836821259
 21
22.5031957617
  0
LINE
  5
340
100
AcDbEntity
  8
00_COMPONENTS_3
100
AcDbLine
 62
7
  6
BYLAYER
 10
42.3871468287
 20
19.2265957617
 11
42.3871468287
 21
22.5031957617
  0
LINE
  5
341
100
AcDbEntity
  8
0
100
AcDbLine
 62
7
  6
BYLAYER
 10
42.4620892679
 20
57.5297957617
 11
42.4620892679
 21
62.4912624284
  0
LINE
  5
342
100
AcDbEntity
  8
00_COMPONENTS_3
100
AcDbLine
 62
7
  6
BYLAYER
 10
42.4635445188
 20
22.5031957617
 11
42.4635445188
 21
19.2265957617
  0
LINE
  5
343
100
AcDbEntity
  8
00_COMPONENTS_3
100
AcDbLine
 62
7
  6
BYLAYER
 10
42.5909140761
 20
22.5031957617
 11
42.5909140761
 21
19.1460208828
  0
LINE
  5
344
100
AcDbEntity
  8
00_COMPONENTS_3
100
AcDbLine
 62
7
  6
BYLAYER
 10
42.7038699344
 20
18.8324563781
 11
42.7038699344
 21
22.5031957617
  0
LINE
  5
345
100
AcDbEntity
  8
00_COMPONENTS_3
100
AcDbLine
 62
7
  6
BYLAYER
 10
42.8251931614
 20
22.5031957617
 11
42.8251931613
 21
18.8324563781
  0
LINE
  5
346
100
AcDbEntity
  8
00_COMPONENTS_2
100
AcDbLine
 62
7
  6
BYLAYER
 10
39.064986869
 20
18.4391957617
 11
38.3893099584
 21
7.7306727827
  0
LINE
  5
347
100
AcDbEntity
  8
00_COMPONENTS_2
100
AcDbLine
 62
7
  6
BYLAYER
 10
38.6428058449
 20
7.841677924
 11
39.3114786514
 21
18.4391957617
  0
LINE
  5
348
100
AcDbEntity
  8
0
100
AcDbLine
 62
7
  6
BYLAYER
 10
53.4703494104
 20
77.961660783
 11
53.3664912557
 21
77.6991018488
  0
LINE
  5
349
100
AcDbEntity
  8
0
100
AcDbLine
 62
7
  6
BYLAYER
 10
16.1075412557
 20
53.5419957617
 11
55.7950412557
 21
53.5419957617
  0
LINE
  5
34A
100
AcDbEntity
  8
0
100
AcDbLine
 62
7
  6
BYLAYER
 10
15.6566912557
 20
55.1294957617
 11
56.2458912557
 21
55.1294957617
  0
LINE
  5
34B
100
AcDbEntity
  8
00_COMPONENTS
100
AcDbLine
 62
7
  6
BYLAYER
 10
43.1844955887
 20
44.3979957617
 11
43.1844955887
 21
38.9356469674
  0
LINE
  5
34C
100
AcDbEntity
  8
00_COMPONENTS_3
100
AcDbLine
 62
7
  6
BYLAYER
 10
43.2467501635
 20
19.1460208828
 11
43.2467501635
 21
22.5031957617
  0
LINE
  5
34D
100
AcDbEntity
  8
00_COMPONENTS_3
100
AcDbLine
 62
7
  6
BYLAYER
 10
43.4483056796
 20
19.2265957617
 11
43.4483056796
 21
22.5031957617
  0
LINE
  5
34E
100
AcDbEntity
  8
00_COMPONENTS_3
100
AcDbLine
 62
7
  6
BYLAYER
 10
43.5209464591
 20
22.5031957617
 11
43.5209464591
 21
19.2265957617
  0
LINE
  5
34F
100
AcDbEntity
  8
00_COMPONENTS_3
100
AcDbLine
 62
7
  6
BYLAYER
 10
43.6339561935
 20
22.5031957617
 11
43.6339561935
 21
19.1460208828
  0
LINE
  5
350
100
AcDbEntity
  8
00_COMPONENTS_3
100
AcDbLine
 62
7
  6
BYLAYER
 10
43.709741107
 20
18.8324563781
 11
43.709741107
 21
22.5031957617
  0
LINE
  5
351
100
AcDbEntity
  8
00_COMPONENTS_3
100
AcDbLine
 62
7
  6
BYLAYER
 10
43.8244977515
 20
22.5031957617
 11
43.8244977515
 21
18.8324563781
  0
LINE
  5
352
100
AcDbEntity
  8
00_COMPONENTS_3
100
AcDbLine
 62
7
  6
BYLAYER
 10
44.2542953537
 20
19.1460208828
 11
44.2542953537
 21
22.5031957617
  0
LINE
  5
353
100
AcDbEntity
  8
00_COMPONENTS_3
100
AcDbLine
 62
7
  6
BYLAYER
 10
44.452407724
 20
19.2265957617
 11
44.452407724
 21
22.5031957617
  0
LINE
  5
354
100
AcDbEntity
  8
00_COMPONENTS_3
100
AcDbLine
 62
7
  6
BYLAYER
 10
44.5207387526
 20
22.5031957617
 11
44.5207387526
 21
19.2265957617
  0
LINE
  5
355
100
AcDbEntity
  8
00_COMPONENTS_3
100
AcDbLine
 62
7
  6
BYLAYER
 10
44.6185285918
 20
22.5031957617
 11
44.6185285918
 21
19.1460208828
  0
LINE
  5
356
100
AcDbEntity
  8
00_COMPONENTS_3
100
AcDbLine
 62
7
  6
BYLAYER
 10
44.6565657916
 20
18.8324563781
 11
44.6565657916
 21
22.5031957617
  0
LINE
  5
357
100
AcDbEntity
  8
00_COMPONENTS_3
100
AcDbLine
 62
7
  6
BYLAYER
 10
44.7638824863
 20
22.5031957617
 11
44.7638824863
 21
18.8324563781
  0
LINE
  5
358
100
AcDbEntity
  8
00_COMPONENTS_3
100
AcDbLine
 62
7
  6
BYLAYER
 10
45.1986496693
 20
19.1460208828
 11
45.1986496693
 21
22.5031957617
  0
LINE
  5
359
100
AcDbEntity
  8
00_COMPONENTS_3
100
AcDbLine
 62
7
  6
BYLAYER
 10
45.3918111389
 20
19.2265957617
 11
45.3918111389
 21
22.5031957617
  0
LINE
  5
35A
100
AcDbEntity
  8
00_COMPONENTS_3
100
AcDbLine
 62
7
  6
BYLAYER
 10
45.4553123762
 20
22.5031957617
 11
45.4553123762
 21
19.2265957617
  0
LINE
  5
35B
100
AcDbEntity
  8
00_COMPONENTS_3
100
AcDbLine
 62
7
  6
BYLAYER
 10
45.5371380806
 20
22.5031957617
 11
45.5371380806
 21
18.8324563781
  0
LINE
  5
35C
100
AcDbEntity
  8
00_COMPONENTS_3
100
AcDbLine
 62
7
  6
BYLAYER
 10
45.6361980806
 20
22.5031957617
 11
45.6361980806
 21
18.8324563781
  0
LINE
  5
35D
100
AcDbEntity
  8
0
100
AcDbLine
 62
7
  6
BYLAYER
 10
45.8734912557
 20
64.9719957617
 11
45.8734912557
 21
89.6099957617
  0
LINE
  5
35E
100
AcDbEntity
  8
0
100
AcDbLine
 62
7
  6
BYLAYER
 10
45.8988912557
 20
64.9719957617
 11
45.8988912557
 21
89.6099957617
  0
LINE
  5
35F
100
AcDbEntity
  8
00_COMPONENTS_3
100
AcDbLine
 62
7
  6
BYLAYER
 10
46.0726260036
 20
19.1460208828
 11
46.0726260036
 21
22.5031957617
  0
LINE
  5
360
100
AcDbEntity
  8
0
100
AcDbLine
 62
7
  6
BYLAYER
 10
58.0976688917
 20
75.6816185179
 11
58.83404386
 21
77.1122182884
  0
LINE
  5
361
100
AcDbEntity
  8
0
100
AcDbLine
 62
7
  6
BYLAYER
 10
14.5136912557
 20
57.5297957617
 11
57.3888912557
 21
57.5297957617
  0
LINE
  5
362
100
AcDbEntity
  8
00_COMPONENTS_3
100
AcDbLine
 62
7
  6
BYLAYER
 10
46.2593664971
 20
19.2265957617
 11
46.2593664971
 21
22.5031957617
  0
LINE
  5
363
100
AcDbEntity
  8
00_COMPONENTS_3
100
AcDbLine
 62
7
  6
BYLAYER
 10
46.3175546605
 20
22.5031957617
 11
46.3175546605
 21
19.2265957617
  0
LINE
  5
364
100
AcDbEntity
  8
00_COMPONENTS_3
100
AcDbLine
 62
7
  6
BYLAYER
 10
46.3837600336
 20
19.1614383617
 11
46.3837600336
 21
22.5031957617
  0
LINE
  5
365
100
AcDbEntity
  8
00_COMPONENTS_3
100
AcDbLine
 62
7
  6
BYLAYER
 10
46.434805686
 20
22.5031957617
 11
46.434805686
 21
18.8324563781
  0
LINE
  5
366
100
AcDbEntity
  8
00_COMPONENTS_3
100
AcDbLine
 62
7
  6
BYLAYER
 10
46.869572869
 20
19.1460208828
 11
46.869572869
 21
22.5031957617
  0
LINE
  5
367
100
AcDbEntity
  8
00_COMPONENTS_3
100
AcDbLine
 62
7
  6
BYLAYER
 10
47.0484711785
 20
19.2265957617
 11
47.0484711785
 21
22.5031957617
  0
LINE
  5
368
100
AcDbEntity
  8
00_COMPONENTS_3
100
AcDbLine
 62
7
  6
BYLAYER
 10
47.1009034209
 20
22.5031957617
 11
47.1009034209
 21
19.2265957617
  0
LINE
  5
369
100
AcDbEntity
  8
00_COMPONENTS_3
100
AcDbLine
 62
7
  6
BYLAYER
 10
47.1529176933
 20
19.1754304194
 11
47.1529176933
 21
22.5031957617
  0
LINE
  5
36A
100
AcDbEntity
  8
00_COMPONENTS_3
100
AcDbLine
 62
7
  6
BYLAYER
 10
47.1536274166
 20
19.1460208828
 11
47.1536274166
 21
18.8324563781
  0
LINE
  5
36B
100
AcDbEntity
  8
00_COMPONENTS_3
100
AcDbLine
 62
7
  6
BYLAYER
 10
47.5834250188
 20
19.1460208828
 11
47.5834250188
 21
22.5031957617
  0
LINE
  5
36C
100
AcDbEntity
  8
00_COMPONENTS_3
100
AcDbLine
 62
7
  6
BYLAYER
 10
47.7531196201
 20
19.2265957617
 11
47.7531196201
 21
22.5031957617
  0
LINE
  5
36D
100
AcDbEntity
  8
00_COMPONENTS_3
100
AcDbLine
 62
7
  6
BYLAYER
 10
47.7871926048
 20
19.0261612638
 11
47.7871926048
 21
18.8324563781
  0
LINE
  5
36E
100
AcDbEntity
  8
00_COMPONENTS_3
100
AcDbLine
 62
7
  6
BYLAYER
 10
47.7993969004
 20
22.5031957617
 11
47.7993969004
 21
19.2265957617
  0
LINE
  5
36F
100
AcDbEntity
  8
00_COMPONENTS_3
100
AcDbLine
 62
7
  6
BYLAYER
 10
47.8387573054
 20
19.1878949958
 11
47.8387573054
 21
22.5031957617
  0
LINE
  5
370
100
AcDbEntity
  8
00_COMPONENTS_3
100
AcDbLine
 62
7
  6
BYLAYER
 10
48.2087496069
 20
19.1460208828
 11
48.2087496069
 21
22.5031957617
  0
LINE
  5
371
100
AcDbEntity
  8
00_COMPONENTS_3
100
AcDbLine
 62
7
  6
BYLAYER
 10
48.330679437
 20
18.9560854377
 11
48.330679437
 21
18.8324563781
  0
LINE
  5
372
100
AcDbEntity
  8
00_COMPONENTS_3
100
AcDbLine
 62
7
  6
BYLAYER
 10
48.3679490217
 20
19.2265957617
 11
48.3679490217
 21
22.5031957617
  0
LINE
  5
373
100
AcDbEntity
  8
00_COMPONENTS_3
100
AcDbLine
 62
7
  6
BYLAYER
 10
48.4077191419
 20
22.5031957617
 11
48.4077191419
 21
19.2265957617
  0
LINE
  5
374
100
AcDbEntity
  8
00_COMPONENTS_3
100
AcDbLine
 62
7
  6
BYLAYER
 10
48.4360592164
 20
19.2265957617
 11
48.4360592164
 21
22.5031957617
  0
LINE
  5
375
100
AcDbEntity
  8
0
100
AcDbLine
 62
7
  6
BYLAYER
 10
48.4388912557
 20
89.6099957617
 11
48.4388912557
 21
74.6255443119
  0
LINE
  5
376
100
AcDbEntity
  8
0
100
AcDbLine
 62
7
  6
BYLAYER
 10
48.4388912557
 20
72.5208923019
 11
48.4388912557
 21
64.9719957617
  0
LINE
  5
377
100
AcDbEntity
  8
00_COMPONENTS_3
100
AcDbLine
 62
7
  6
BYLAYER
 10
48.7407875357
 20
19.1460208828
 11
48.7407875357
 21
22.5031957617
  0
LINE
  5
378
100
AcDbEntity
  8
00_COMPONENTS_3
100
AcDbLine
 62
7
  6
BYLAYER
 10
48.7799516502
 20
18.9133326135
 11
48.7799516502
 21
18.8324563781
  0
LINE
  5
379
100
AcDbEntity
  8
00_COMPONENTS_3
100
AcDbLine
 62
7
  6
BYLAYER
 10
48.8882801603
 20
19.2265957617
 11
48.8882801603
 21
22.5031957617
  0
LINE
  5
37A
100
AcDbEntity
  8
00_COMPONENTS_3
100
AcDbLine
 62
7
  6
BYLAYER
 10
48.9212404458
 20
22.5031957617
 11
48.9212404458
 21
19.2265957617
  0
LINE
  5
37B
100
AcDbEntity
  8
00_COMPONENTS_3
100
AcDbLine
 62
7
  6
BYLAYER
 10
48.9402775982
 20
19.2265957617
 11
48.9402775982
 21
22.5031957617
  0
LINE
  5
37C
100
AcDbEntity
  8
00_COMPONENTS_3
100
AcDbLine
 62
7
  6
BYLAYER
 10
49.1315900118
 20
18.884186527
 11
49.1315900118
 21
18.8324563781
  0
LINE
  5
37D
100
AcDbEntity
  8
00_COMPONENTS_3
100
AcDbLine
 62
7
  6
BYLAYER
 10
49.1754896753
 20
19.1460208828
 11
49.1754896753
 21
22.5031957617
  0
LINE
  5
37E
100
AcDbEntity
  8
00_COMPONENTS_3
100
AcDbLine
 62
7
  6
BYLAYER
 10
49.3101530018
 20
19.2265957617
 11
49.3101530018
 21
22.5031957617
  0
LINE
  5
37F
100
AcDbEntity
  8
00_COMPONENTS_3
100
AcDbLine
 62
7
  6
BYLAYER
 10
49.3360526049
 20
22.5031957617
 11
49.3360526049
 21
19.2265957617
  0
LINE
  5
380
100
AcDbEntity
  8
00_COMPONENTS_3
100
AcDbLine
 62
7
  6
BYLAYER
 10
49.3475750442
 20
19.2265957617
 11
49.3475750442
 21
22.5031957617
  0
LINE
  5
381
100
AcDbEntity
  8
00_COMPONENTS_3
100
AcDbLine
 62
7
  6
BYLAYER
 10
49.3829183412
 20
18.8627113275
 11
49.3829183412
 21
18.8324563781
  0
LINE
  5
382
100
AcDbEntity
  8
00_COMPONENTS_3
100
AcDbLine
 62
7
  6
BYLAYER
 10
46.3837600335
 20
19.1614264057
 11
46.3827934869
 21
19.1460208828
  0
LINE
  5
383
100
AcDbEntity
  8
00_COMPONENTS_3
100
AcDbLine
 62
7
  6
BYLAYER
 10
46.344379334
 20
18.8265941001
 11
46.3447562871
 21
18.8324563781
  0
LINE
  5
384
100
AcDbEntity
  8
00_COMPONENTS_3
100
AcDbLine
 62
7
  6
BYLAYER
 10
22.0428132821
 20
19.2245605285
 11
22.0448856443
 21
19.2265957617
  0
LINE
  5
385
100
AcDbEntity
  8
00_COMPONENTS_3
100
AcDbLine
 62
7
  6
BYLAYER
 10
22.2477307364
 20
19.2208518521
 11
22.2535838634
 21
19.2265957617
  0
LINE
  5
386
100
AcDbEntity
  8
00_COMPONENTS_3
100
AcDbLine
 62
7
  6
BYLAYER
 10
21.9418146501
 20
19.2264006127
 11
21.9420235688
 21
19.2265957617
  0
LINE
  5
387
100
AcDbEntity
  8
0
100
AcDbLine
 62
7
  6
BYLAYER
 10
14.5136912557
 20
62.4912624284
 11
30.0529638541
 21
62.4912624284
  0
LINE
  5
388
100
AcDbEntity
  8
0
100
AcDbLine
 62
7
  6
BYLAYER
 10
41.8496186574
 20
62.4912624284
 11
57.3888912557
 21
62.4912624284
  0
LINE
  5
389
100
AcDbEntity
  8
00_COMPONENTS_3
100
AcDbLine
 62
7
  6
BYLAYER
 10
49.50954768
 20
19.1460208828
 11
49.50954768
 21
22.5031957617
  0
LINE
  5
38A
100
AcDbEntity
  8
00_COMPONENTS_3
100
AcDbLine
 62
7
  6
BYLAYER
 10
49.5320238784
 20
18.8460065877
 11
49.5320238784
 21
18.8324563781
  0
LINE
  5
38B
100
AcDbEntity
  8
00_COMPONENTS_3
100
AcDbLine
 62
7
  6
BYLAYER
 10
49.6303568391
 20
19.2265957617
 11
49.6303568391
 21
22.5031957617
  0
LINE
  5
38C
100
AcDbEntity
  8
00_COMPONENTS_3
100
AcDbLine
 62
7
  6
BYLAYER
 10
49.6489986481
 20
22.5031957617
 11
49.6489986481
 21
19.2265957617
  0
LINE
  5
38D
100
AcDbEntity
  8
00_COMPONENTS_3
100
AcDbLine
 62
7
  6
BYLAYER
 10
49.6548517751
 20
19.2208474913
 11
49.6548517751
 21
22.5031957617
  0
LINE
  5
38E
100
AcDbEntity
  8
00_COMPONENTS_3
100
AcDbLine
 62
7
  6
BYLAYER
 10
49.7404191666
 20
19.1460208828
 11
49.7404191666
 21
22.5031957617
  0
LINE
  5
38F
100
AcDbEntity
  8
00_COMPONENTS_3
100
AcDbLine
 62
7
  6
BYLAYER
 10
49.8464547277
 20
19.2265957617
 11
49.8464547277
 21
22.5031957617
  0
LINE
  5
390
100
AcDbEntity
  8
00_COMPONENTS_3
100
AcDbLine
 62
7
  6
BYLAYER
 10
49.8576968672
 20
22.5031957617
 11
49.8576968672
 21
19.2265957617
  0
LINE
  5
391
100
AcDbEntity
  8
00_COMPONENTS_3
100
AcDbLine
 62
7
  6
BYLAYER
 10
49.8597692293
 20
19.2245607947
 11
49.8597692293
 21
22.5031957617
  0
LINE
  5
392
100
AcDbEntity
  8
00_COMPONENTS_3
100
AcDbLine
 62
7
  6
BYLAYER
 10
49.8663470636
 20
19.1460208828
 11
49.8663470636
 21
22.5031957617
  0
LINE
  5
393
100
AcDbEntity
  8
00_COMPONENTS_3
100
AcDbLine
 62
7
  6
BYLAYER
 10
49.9568020321
 20
19.2265957617
 11
49.9568020321
 21
22.5031957617
  0
LINE
  5
394
100
AcDbEntity
  8
00_COMPONENTS_3
100
AcDbLine
 62
7
  6
BYLAYER
 10
49.9605589427
 20
22.5031957617
 11
49.9605589427
 21
19.2265957617
  0
LINE
  5
395
100
AcDbEntity
  8
00_COMPONENTS_3
100
AcDbLine
 62
7
  6
BYLAYER
 10
49.9720912557
 20
23.2143957617
 11
49.9720912557
 21
22.5031957617
  0
LINE
  5
396
100
AcDbEntity
  8
0
100
AcDbLine
 62
7
  6
BYLAYER
 10
50.9372912557
 20
47.1919957617
 11
50.9372912557
 21
53.5419957617
  0
LINE
  5
397
100
AcDbEntity
  8
00_COMPONENTS
100
AcDbLine
 62
7
  6
BYLAYER
 10
51.9512912597
 20
23.4683957617
 11
51.9512912597
 21
36.8059901597
  0
LINE
  5
398
100
AcDbEntity
  8
00_COMPONENTS_3
100
AcDbLine
 62
7
  6
BYLAYER
 10
47.1529176933
 20
19.1754339377
 11
47.1490588625
 21
19.1460208828
  0
LINE
  5
399
100
AcDbEntity
  8
00_COMPONENTS_3
100
AcDbLine
 62
7
  6
BYLAYER
 10
47.0717690051
 20
18.8212998104
 11
47.073273949
 21
18.8324563781
  0
LINE
  5
39A
100
AcDbEntity
  8
0
100
AcDbLine
 62
7
  6
BYLAYER
 10
57.3888912557
 20
64.9719957617
 11
14.5136912557
 21
64.9719957617
  0
LINE
  5
39B
100
AcDbEntity
  8
0
100
AcDbLine
 62
7
  6
BYLAYER
 10
26.0036912557
 20
64.9973957617
 11
26.0290912557
 21
64.9973957617
  0
LINE
  5
39C
100
AcDbEntity
  8
0
100
AcDbLine
 62
7
  6
BYLAYER
 10
45.8734912557
 20
64.9973957617
 11
45.8988912557
 21
64.9973957617
  0
LINE
  5
39D
100
AcDbEntity
  8
0
100
AcDbLine
 62
7
  6
BYLAYER
 10
23.4636912557
 20
65.0978165061
 11
10.7636912557
 21
65.0978165061
  0
LINE
  5
39E
100
AcDbEntity
  8
0
100
AcDbLine
 62
7
  6
BYLAYER
 10
48.4388912557
 20
65.0978165061
 11
61.1388912557
 21
65.0978165061
  0
LINE
  5
39F
100
AcDbEntity
  8
0
100
AcDbLine
 62
7
  6
BYLAYER
 10
14.6217901953
 20
74.1161883922
 11
13.8154297867
 21
74.4453836505
  0
LINE
  5
3A0
100
AcDbEntity
  8
0
100
AcDbLine
 62
7
  6
BYLAYER
 10
14.3234297867
 20
74.4209756045
 11
14.9762262624
 21
74.1544725592
  0
LINE
  5
3A1
100
AcDbEntity
  8
0
100
AcDbLine
 62
7
  6
BYLAYER
 10
14.3234297867
 20
75.0675540452
 11
16.0312025554
 21
74.3703587318
  0
LINE
  5
3A2
100
AcDbEntity
  8
0
100
AcDbLine
 62
7
  6
BYLAYER
 10
53.3664912557
 20
74.2717183069
 11
53.3664912557
 21
76.8072248295
  0
LINE
  5
3A3
100
AcDbEntity
  8
0
100
AcDbLine
 62
7
  6
BYLAYER
 10
53.3664912557
 20
77.6991018488
 11
53.3664912557
 21
81.0607919344
  0
LINE
  5
3A4
100
AcDbEntity
  8
0
100
AcDbLine
 62
7
  6
BYLAYER
 10
53.3664912557
 20
83.5393426239
 11
53.3664912557
 21
85.6617573648
  0
LINE
  5
3A5
100
AcDbEntity
  8
0
100
AcDbLine
 62
7
  6
BYLAYER
 10
53.3664912557
 20
86.5536343841
 11
53.3664912557
 21
89.6099957617
  0
LINE
  5
3A6
100
AcDbEntity
  8
00_COMPONENTS
100
AcDbLine
 62
7
  6
BYLAYER
 10
53.4137912557
 20
44.3979957617
 11
53.4137912557
 21
38.1049705281
  0
LINE
  5
3A7
100
AcDbEntity
  8
00_COMPONENTS
100
AcDbLine
 62
7
  6
BYLAYER
 10
54.3662912557
 20
45.6679957617
 11
54.3662912557
 21
44.3979957617
  0
LINE
  5
3A8
100
AcDbEntity
  8
00_COMPONENTS
100
AcDbLine
 62
7
  6
BYLAYER
 10
55.0012912557
 20
47.1919957617
 11
55.0012912557
 21
45.6679957617
  0
LINE
  5
3A9
100
AcDbEntity
  8
0
100
AcDbLine
 62
7
  6
BYLAYER
 10
55.7950412557
 20
53.5419957617
 11
55.7950412557
 21
55.1294957617
  0
LINE
  5
3AA
100
AcDbEntity
  8
00_COMPONENTS_3
100
AcDbLine
 62
7
  6
BYLAYER
 10
47.8387573054
 20
19.1878919337
 11
47.8301024653
 21
19.1460208828
  0
LINE
  5
3AB
100
AcDbEntity
  8
00_COMPONENTS_3
100
AcDbLine
 62
7
  6
BYLAYER
 10
47.7137712194
 20
18.8166190704
 11
47.717146607
 21
18.8324563781
  0
LINE
  5
3AC
100
AcDbEntity
  8
00_COMPONENTS
100
AcDbLine
 62
7
  6
BYLAYER
 10
52.3449912597
 20
37.4878985627
 11
53.4137912557
 21
38.1049705281
  0
LINE
  5
3AD
100
AcDbEntity
  8
0
100
AcDbLine
 62
7
  6
BYLAYER
 10
56.1604912557
 20
89.6099957617
 11
56.1604912557
 21
91.4133957617
  0
LINE
  5
3AE
100
AcDbEntity
  8
0
100
AcDbLine
 62
7
  6
BYLAYER
 10
56.2458912557
 20
55.1294957617
 11
56.2458912557
 21
57.5297957617
  0
LINE
  5
3AF
100
AcDbEntity
  8
0
100
AcDbLine
 62
7
  6
BYLAYER
 10
57.3888912557
 20
64.9719957617
 11
57.3888912557
 21
57.5297957617
  0
LINE
  5
3B0
100
AcDbEntity
  8
00_COMPONENTS_3
100
AcDbLine
 62
7
  6
BYLAYER
 10
48.2654999524
 20
18.8126053534
 11
48.2714740014
 21
18.8324563781
  0
LINE
  5
3B1
100
AcDbEntity
  8
00_COMPONENTS_3
100
AcDbLine
 62
7
  6
BYLAYER
 10
48.7227562152
 20
18.8092779204
 11
48.7320373659
 21
18.8324563781
  0
LINE
  5
3B2
100
AcDbEntity
  8
0
100
AcDbLine
 62
7
  6
BYLAYER
 10
48.4388912557
 20
72.5208923019
 11
45.8988912557
 21
72.5208923019
  0
LINE
  5
3B3
100
AcDbEntity
  8
0
100
AcDbLine
 62
7
  6
BYLAYER
 10
26.0036912557
 20
72.5208923019
 11
23.4636912557
 21
72.5208923019
  0
LINE
  5
3B4
100
AcDbEntity
  8
0
100
AcDbLine
 62
7
  6
BYLAYER
 10
14.6217901953
 20
82.9707209276
 11
13.8154297867
 21
83.2999161859
  0
LINE
  5
3B5
100
AcDbEntity
  8
0
100
AcDbLine
 62
7
  6
BYLAYER
 10
14.3234297867
 20
83.2755081398
 11
14.9762262624
 21
83.0090050946
  0
LINE
  5
3B6
100
AcDbEntity
  8
0
100
AcDbLine
 62
7
  6
BYLAYER
 10
59.6148912557
 20
89.6099957617
 11
59.6148912557
 21
91.4133957617
  0
LINE
  5
3B7
100
AcDbEntity
  8
0
100
AcDbLine
 62
7
  6
BYLAYER
 10
59.8688912557
 20
84.5361510533
 11
59.8688912557
 21
83.1679842483
  0
LINE
  5
3B8
100
AcDbEntity
  8
0
100
AcDbLine
 62
7
  6
BYLAYER
 10
59.8688912557
 20
75.6816185179
 11
59.8688912557
 21
74.3134517129
  0
LINE
  5
3B9
100
AcDbEntity
  8
0
100
AcDbLine
 62
7
  6
BYLAYER
 10
61.1388912557
 20
65.0978165061
 11
61.1388912557
 21
89.6099957617
  0
LINE
  5
3BA
100
AcDbEntity
  8
0
100
AcDbLine
 62
7
  6
BYLAYER
 10
26.0036912557
 20
72.8747183069
 11
15.8220556553
 21
72.8747183069
  0
LINE
  5
3BB
100
AcDbEntity
  8
0
100
AcDbLine
 62
7
  6
BYLAYER
 10
45.8988912557
 20
72.8747183069
 11
56.0805268562
 21
72.8747183069
  0
LINE
  5
3BC
100
AcDbEntity
  8
0
100
AcDbLine
 62
7
  6
BYLAYER
 10
26.0036912557
 20
74.2717183069
 11
18.5360912557
 21
74.2717183069
  0
LINE
  5
3BD
100
AcDbEntity
  8
0
100
AcDbLine
 62
7
  6
BYLAYER
 10
45.8988912557
 20
74.2717183069
 11
53.3664912557
 21
74.2717183069
  0
LINE
  5
3BE
100
AcDbEntity
  8
0
100
AcDbLine
 62
7
  6
BYLAYER
 10
23.4636912557
 20
74.6255443119
 11
26.0036912557
 21
74.6255443119
  0
LINE
  5
3BF
100
AcDbEntity
  8
0
100
AcDbLine
 62
7
  6
BYLAYER
 10
45.8988912557
 20
74.6255443119
 11
48.4388912557
 21
74.6255443119
  0
LINE
  5
3C0
100
AcDbEntity
  8
0
100
AcDbLine
 62
7
  6
BYLAYER
 10
12.0336912557
 20
75.6816185179
 11
13.8049136198
 21
75.6816185179
  0
LINE
  5
3C1
100
AcDbEntity
  8
0
100
AcDbLine
 62
7
  6
BYLAYER
 10
58.0976688917
 20
75.6816185179
 11
59.8688912557
 21
75.6816185179
  0
LINE
  5
3C2
100
AcDbEntity
  8
0
100
AcDbLine
 62
7
  6
BYLAYER
 10
14.3234297867
 20
83.9220865806
 11
16.0312025554
 21
83.2248912672
  0
LINE
  5
3C3
100
AcDbEntity
  8
00_COMPONENTS
100
AcDbLine
 62
7
  6
BYLAYER
 10
51.6972912597
 20
23.2143957617
 11
51.9512912597
 21
23.4683957617
  0
LINE
  5
3C4
100
AcDbEntity
  8
0
100
AcDbLine
 62
7
  6
BYLAYER
 10
15.8220556553
 20
72.8747183069
 11
10.7636912557
 21
71.5728682013
  0
LINE
  5
3C5
100
AcDbEntity
  8
0
100
AcDbLine
 62
7
  6
BYLAYER
 10
61.1388912557
 20
71.5728682013
 11
56.0805268562
 21
72.8747183069
  0
LINE
  5
3C6
100
AcDbEntity
  8
00_COMPONENTS_3
100
AcDbLine
 62
7
  6
BYLAYER
 10
49.8443796086
 20
19.1029607711
 11
49.8863729839
 21
19.1460208828
  0
LINE
  5
3C7
100
AcDbEntity
  8
00_COMPONENTS_3
100
AcDbLine
 62
7
  6
BYLAYER
 10
49.1846912557
 20
18.4391957617
 11
49.5777717938
 21
18.8324562849
  0
LINE
  5
3C8
100
AcDbEntity
  8
00_COMPONENTS_3
100
AcDbLine
 62
7
  6
BYLAYER
 10
49.8314936105
 20
19.1130219318
 11
49.8663470636
 21
19.1460208828
  0
LINE
  5
3C9
100
AcDbEntity
  8
00_COMPONENTS_3
100
AcDbLine
 62
7
  6
BYLAYER
 10
49.6665846403
 20
19.0807156776
 11
49.7404191666
 21
19.1460208828
  0
LINE
  5
3CA
100
AcDbEntity
  8
0
100
AcDbLine
 62
7
  6
BYLAYER
 10
13.0685386515
 20
74.5797860623
 11
10.7636912557
 21
73.9865971205
  0
LINE
  5
3CB
100
AcDbEntity
  8
0
100
AcDbLine
 62
7
  6
BYLAYER
 10
10.7636912557
 20
76.5190293466
 11
13.0685386515
 21
77.1122182884
  0
LINE
  5
3CC
100
AcDbEntity
  8
0
100
AcDbLine
 62
7
  6
BYLAYER
 10
23.4636912557
 20
81.0607919345
 11
18.5360912557
 21
81.0607919345
  0
LINE
  5
3CD
100
AcDbEntity
  8
0
100
AcDbLine
 62
7
  6
BYLAYER
 10
48.4388912557
 20
81.0607919345
 11
53.3664912557
 21
81.0607919345
  0
LINE
  5
3CE
100
AcDbEntity
  8
0
100
AcDbLine
 62
7
  6
BYLAYER
 10
61.1388912557
 20
73.9865971205
 11
58.83404386
 21
74.5797860623
  0
LINE
  5
3CF
100
AcDbEntity
  8
0
100
AcDbLine
 62
7
  6
BYLAYER
 10
58.83404386
 20
77.1122182884
 11
61.1388912557
 21
76.5190293466
  0
LINE
  5
3D0
100
AcDbEntity
  8
0
100
AcDbLine
 62
7
  6
BYLAYER
 10
56.0805268562
 20
72.8747183069
 11
53.3664912557
 21
74.2717183069
  0
LINE
  5
3D1
100
AcDbEntity
  8
0
100
AcDbLine
 62
7
  6
BYLAYER
 10
10.7636912557
 20
79.0604418289
 11
18.5360912557
 21
81.0607919344
  0
LINE
  5
3D2
100
AcDbEntity
  8
0
100
AcDbLine
 62
7
  6
BYLAYER
 10
23.4636912557
 20
83.5393426239
 11
18.5360912557
 21
83.5393426239
  0
LINE
  5
3D3
100
AcDbEntity
  8
0
100
AcDbLine
 62
7
  6
BYLAYER
 10
48.4388912557
 20
83.5393426239
 11
53.3664912557
 21
83.5393426239
  0
LINE
  5
3D4
100
AcDbEntity
  8
0
100
AcDbLine
 62
7
  6
BYLAYER
 10
12.0336912557
 20
84.5361510533
 11
13.8049136198
 21
84.5361510533
  0
LINE
  5
3D5
100
AcDbEntity
  8
0
100
AcDbLine
 62
7
  6
BYLAYER
 10
58.0976688917
 20
84.5361510533
 11
59.8688912557
 21
84.5361510533
  0
LINE
  5
3D6
100
AcDbEntity
  8
0
100
AcDbLine
 62
7
  6
BYLAYER
 10
61.1388912557
 20
79.0604418289
 11
53.3664912557
 21
81.0607919344
  0
LINE
  5
3D7
100
AcDbEntity
  8
0
100
AcDbLine
 62
7
  6
BYLAYER
 10
18.5360912557
 20
83.5393426239
 11
10.7636912557
 21
81.5389925183
  0
LINE
  5
3D8
100
AcDbEntity
  8
0
100
AcDbLine
 62
7
  6
BYLAYER
 10
13.0685386515
 20
83.4343185977
 11
10.7636912557
 21
82.8411296558
  0
LINE
  5
3D9
100
AcDbEntity
  8
0
100
AcDbLine
 62
7
  6
BYLAYER
 10
61.1388912557
 20
81.5389925183
 11
53.3664912557
 21
83.5393426239
  0
LINE
  5
3DA
100
AcDbEntity
  8
0
100
AcDbLine
 62
7
  6
BYLAYER
 10
61.1388912557
 20
82.8411296558
 11
58.83404386
 21
83.4343185977
  0
LINE
  5
3DB
100
AcDbEntity
  8
0
100
AcDbLine
 62
7
  6
BYLAYER
 10
10.7636912557
 20
85.373561882
 11
13.0685386515
 21
85.9667508238
  0
LINE
  5
3DC
100
AcDbEntity
  8
0
100
AcDbLine
 62
7
  6
BYLAYER
 10
45.8988912557
 20
89.5845957617
 11
45.8734912557
 21
89.5845957617
  0
LINE
  5
3DD
100
AcDbEntity
  8
0
100
AcDbLine
 62
7
  6
BYLAYER
 10
26.0290912557
 20
89.5845957617
 11
26.0036912557
 21
89.5845957617
  0
LINE
  5
3DE
100
AcDbEntity
  8
0
100
AcDbLine
 62
7
  6
BYLAYER
 10
10.7636912557
 20
89.6099957617
 11
61.1388912557
 21
89.6099957617
  0
LINE
  5
3DF
100
AcDbEntity
  8
0
100
AcDbLine
 62
7
  6
BYLAYER
 10
59.6148912557
 20
91.4133957617
 11
56.1604912557
 21
91.4133957617
  0
LINE
  5
3E0
100
AcDbEntity
  8
0
100
AcDbLine
 62
7
  6
BYLAYER
 10
15.7420912557
 20
91.4133957617
 11
12.2876912557
 21
91.4133957617
  0
LINE
  5
3E1
100
AcDbEntity
  8
0
100
AcDbLine
 62
7
  6
BYLAYER
 10
58.83404386
 20
85.9667508238
 11
61.1388912557
 21
85.373561882
  0
ARC
  5
3E2
100
AcDbEntity
  8
00_COMPONENTS_3
100
AcDbCircle
 62
7
  6
BYLAYER
 10
-77.8430156767
 20
34.0562453763
 40
125.1174106861
100
AcDbArc
 50
353.0111594654
 51
353.1558046422
  0
ARC
  5
3E3
100
AcDbEntity
  8
00_COMPONENTS_3
100
AcDbCircle
 62
7
  6
BYLAYER
 10
-94.5692057763
 20
33.7684413153
 40
122.7274707547
100
AcDbArc
 50
353.0097510865
 51
353.1572130204
  0
ARC
  5
3E4
100
AcDbEntity
  8
00_COMPONENTS_3
100
AcDbCircle
 62
7
  6
BYLAYER
 10
-17.9001709246
 20
34.7017268212
 40
66.8833483249
100
AcDbArc
 50
346.2746555045
 51
346.5510055787
  0
ARC
  5
3E5
100
AcDbEntity
  8
00_COMPONENTS_3
100
AcDbCircle
 62
7
  6
BYLAYER
 10
-35.5664521258
 20
34.4082804873
 40
65.6342426493
100
AcDbArc
 50
346.2720258466
 51
346.5536352355
  0
ARC
  5
3E6
100
AcDbEntity
  8
00_COMPONENTS_3
100
AcDbCircle
 62
7
  6
BYLAYER
 10
1.2300278105
 20
35.755715184
 40
49.4716979961
100
AcDbArc
 50
339.9963745351
 51
340.3823751031
  0
ARC
  5
3E7
100
AcDbEntity
  8
00_COMPONENTS_3
100
AcDbCircle
 62
7
  6
BYLAYER
 10
-16.4482259802
 20
35.4530556728
 40
48.5786714574
100
AcDbArc
 50
339.9928265768
 51
340.3859230591
  0
ARC
  5
3E8
100
AcDbEntity
  8
00_COMPONENTS_3
100
AcDbCircle
 62
7
  6
BYLAYER
 10
10.1199005414
 20
37.1861854815
 40
42.3367680565
100
AcDbArc
 50
334.3090035561
 51
334.7789905985
  0
ARC
  5
3E9
100
AcDbEntity
  8
00_COMPONENTS_3
100
AcDbCircle
 62
7
  6
BYLAYER
 10
-7.2335364696
 20
36.8710219157
 40
41.6035252496
100
AcDbArc
 50
334.3048618796
 51
334.783132273
  0
ARC
  5
3EA
100
AcDbEntity
  8
00_COMPONENTS_3
100
AcDbCircle
 62
7
  6
BYLAYER
 10
20.5174572087
 20
47.7407696682
 40
40.9901509619
100
AcDbArc
 50
315.1502366514
 51
315.6811285837
  0
ARC
  5
3EB
100
AcDbEntity
  8
00_COMPONENTS_3
100
AcDbCircle
 62
7
  6
BYLAYER
 10
6.9671990234
 20
47.7353418724
 40
40.9819440509
100
AcDbArc
 50
315.1495267211
 51
315.7646143779
  0
ARC
  5
3EC
100
AcDbEntity
  8
00_COMPONENTS_3
100
AcDbCircle
 62
7
  6
BYLAYER
 10
19.8466153456
 20
45.661851988
 40
40.0039396876
100
AcDbArc
 50
317.8812932159
 51
318.4838987081
  0
ARC
  5
3ED
100
AcDbEntity
  8
00_COMPONENTS_3
100
AcDbCircle
 62
7
  6
BYLAYER
 10
5.5953340207
 20
45.2726004874
 40
39.4201513812
100
AcDbArc
 50
317.8768310631
 51
318.4883608578
  0
ARC
  5
3EE
100
AcDbEntity
  8
00_COMPONENTS_3
100
AcDbCircle
 62
7
  6
BYLAYER
 10
14.8901762865
 20
38.9496736628
 40
39.3697090743
100
AcDbArc
 50
329.2707297781
 51
329.8001619501
  0
ARC
  5
3EF
100
AcDbEntity
  8
00_COMPONENTS_3
100
AcDbCircle
 62
7
  6
BYLAYER
 10
19.0903681913
 20
43.2528822683
 40
38.8911628815
100
AcDbArc
 50
321.1033840208
 51
321.6944916875
  0
ARC
  5
3F0
100
AcDbEntity
  8
00_COMPONENTS_3
100
AcDbCircle
 62
7
  6
BYLAYER
 10
-1.9232729772
 20
38.6190949909
 40
38.7176939256
100
AcDbArc
 50
329.2662718627
 51
329.8046198631
  0
ARC
  5
3F1
100
AcDbEntity
  8
00_COMPONENTS_3
100
AcDbCircle
 62
7
  6
BYLAYER
 10
17.5865157559
 20
40.9925970361
 40
38.5211280442
100
AcDbArc
 50
324.8812912762
 51
325.449506197
  0
ARC
  5
3F2
100
AcDbEntity
  8
00_COMPONENTS_3
100
AcDbCircle
 62
7
  6
BYLAYER
 10
3.847047281
 20
42.8846882581
 40
38.3010161792
100
AcDbArc
 50
321.0988300493
 51
321.6990456572
  0
ARC
  5
3F3
100
AcDbEntity
  8
00_COMPONENTS_3
100
AcDbCircle
 62
7
  6
BYLAYER
 10
1.4840308432
 20
40.6441606242
 40
37.9111379354
100
AcDbArc
 50
324.8767199482
 51
325.4540775223
  0
ARC
  5
3F4
100
AcDbEntity
  8
00_COMPONENTS_3
100
AcDbCircle
 62
7
  6
BYLAYER
 10
26.3761515637
 20
23.393653297
 40
6.0869923349
100
AcDbArc
 50
223.8712610526
 51
224.252460465
  0
ARC
  5
3F5
100
AcDbEntity
  8
00_COMPONENTS_3
100
AcDbCircle
 62
7
  6
BYLAYER
 10
19.2638688186
 20
16.2260218211
 40
4.0264638639
100
AcDbArc
 50
46.4856423474
 51
47.2074737369
  0
ARC
  5
3F6
100
AcDbEntity
  8
00_COMPONENTS_3
100
AcDbCircle
 62
7
  6
BYLAYER
 10
23.1247794286
 20
19.6447845958
 40
1.1084792022
100
AcDbArc
 50
227.1242772437
 51
227.6566549636
  0
ARC
  5
3F7
100
AcDbEntity
  8
00_COMPONENTS
100
AcDbCircle
 62
7
  6
BYLAYER
 10
19.1638912517
 20
36.8059901597
 40
0.7874
100
AcDbArc
 50
0.0
 51
60.0
  0
ARC
  5
3F8
100
AcDbEntity
  8
00_COMPONENTS_3
100
AcDbCircle
 62
7
  6
BYLAYER
 10
14.8243386327
 20
62.1777701337
 40
53.1807005144
100
AcDbArc
 50
305.4069802387
 51
305.9859595278
  0
ARC
  5
3F9
100
AcDbEntity
  8
00_COMPONENTS_3
100
AcDbCircle
 62
7
  6
BYLAYER
 10
15.6596549564
 20
61.9613755895
 40
52.9831442515
100
AcDbArc
 50
305.5102050576
 51
306.0898856119
  0
ARC
  5
3FA
100
AcDbEntity
  8
00_COMPONENTS_3
100
AcDbCircle
 62
7
  6
BYLAYER
 10
13.988731757
 20
61.9613755889
 40
52.9831442508
100
AcDbArc
 50
305.5102050577
 51
306.089885612
  0
ARC
  5
3FB
100
AcDbEntity
  8
00_COMPONENTS_3
100
AcDbCircle
 62
7
  6
BYLAYER
 10
16.4864611248
 20
61.3187667803
 40
52.3981074081
100
AcDbArc
 50
305.8222364412
 51
306.4039905539
  0
ARC
  5
3FC
100
AcDbEntity
  8
00_COMPONENTS_3
100
AcDbCircle
 62
7
  6
BYLAYER
 10
13.1573314603
 20
61.3187667804
 40
52.3981074079
100
AcDbArc
 50
305.8222364407
 51
306.4039905534
  0
ARC
  5
3FD
100
AcDbEntity
  8
00_COMPONENTS_3
100
AcDbCircle
 62
7
  6
BYLAYER
 10
12.330717726
 20
60.2694683954
 40
51.448411025
100
AcDbArc
 50
306.3502291889
 51
306.9353331789
  0
ARC
  5
3FE
100
AcDbEntity
  8
00_COMPONENTS_3
100
AcDbCircle
 62
7
  6
BYLAYER
 10
17.2927171694
 20
60.2694683952
 40
51.4484110248
100
AcDbArc
 50
306.350229189
 51
306.935333179
  0
ARC
  5
3FF
100
AcDbEntity
  8
00_COMPONENTS_3
100
AcDbCircle
 62
7
  6
BYLAYER
 10
18.0621448508
 20
58.8453617267
 40
50.1718724031
100
AcDbArc
 50
307.1063867117
 51
307.6959386816
  0
ARC
  5
400
100
AcDbEntity
  8
00_COMPONENTS_3
100
AcDbCircle
 62
7
  6
BYLAYER
 10
11.5050394416
 20
58.8453617265
 40
50.1718724025
100
AcDbArc
 50
307.1063867113
 51
307.6959386812
  0
ARC
  5
401
100
AcDbEntity
  8
00_COMPONENTS_3
100
AcDbCircle
 62
7
  6
BYLAYER
 10
18.7734001195
 20
57.0897159438
 40
48.6210966993
100
AcDbArc
 50
308.1083722202
 51
308.7031798851
  0
ARC
  5
402
100
AcDbEntity
  8
00_COMPONENTS_3
100
AcDbCircle
 62
7
  6
BYLAYER
 10
10.671092275
 20
57.0897159439
 40
48.6210966992
100
AcDbArc
 50
308.1083722199
 51
308.7031798847
  0
ARC
  5
403
100
AcDbEntity
  8
00_COMPONENTS_3
100
AcDbCircle
 62
7
  6
BYLAYER
 10
19.5889311799
 20
54.826523391
 40
46.5654544806
100
AcDbArc
 50
309.3779403891
 51
309.9822043183
  0
ARC
  5
404
100
AcDbEntity
  8
00_COMPONENTS_3
100
AcDbCircle
 62
7
  6
BYLAYER
 10
10.0030845075
 20
54.8265232081
 40
46.5654542425
100
AcDbArc
 50
309.3779403868
 51
309.9822043192
  0
ARC
  5
405
100
AcDbEntity
  8
00_COMPONENTS_3
100
AcDbCircle
 62
7
  6
BYLAYER
 10
9.0974715945
 20
52.5859956189
 40
44.6894597458
100
AcDbArc
 50
310.9492114656
 51
311.5588862386
  0
ARC
  5
406
100
AcDbEntity
  8
00_COMPONENTS_3
100
AcDbCircle
 62
7
  6
BYLAYER
 10
20.3132945972
 20
52.3342112898
 40
44.3555025536
100
AcDbArc
 50
310.9483235913
 51
311.4352600876
  0
ARC
  5
407
100
AcDbEntity
  8
00_COMPONENTS_3
100
AcDbCircle
 62
7
  6
BYLAYER
 10
8.1048224773
 20
50.198083374
 40
42.7882934242
100
AcDbArc
 50
312.8579531484
 51
313.4717254455
  0
ARC
  5
408
100
AcDbEntity
  8
00_COMPONENTS_3
100
AcDbCircle
 62
7
  6
BYLAYER
 10
20.543661553
 20
50.0741272036
 40
42.6188590447
100
AcDbArc
 50
312.8574661607
 51
313.4091527654
  0
ARC
  5
409
100
AcDbEntity
  8
0
100
AcDbCircle
 62
7
  6
BYLAYER
 10
15.619197635
 20
81.6488585868
 40
2.0796641761
100
AcDbArc
 50
128.5403706278
 51
133.7507702357
  0
ARC
  5
40A
100
AcDbEntity
  8
0
100
AcDbCircle
 62
7
  6
BYLAYER
 10
15.619197635
 20
72.7943260515
 40
2.079664176
100
AcDbArc
 50
128.5403706277
 51
133.7507702358
  0
ARC
  5
40B
100
AcDbEntity
  8
00_COMPONENTS_3
100
AcDbCircle
 62
7
  6
BYLAYER
 10
168.8443376444
 20
34.0562453627
 40
125.1174105742
100
AcDbArc
 50
186.8441953576
 51
186.9888405346
  0
ARC
  5
40C
100
AcDbEntity
  8
00_COMPONENTS_3
100
AcDbCircle
 62
7
  6
BYLAYER
 10
147.3730485617
 20
33.768441296
 40
122.7274705947
100
AcDbArc
 50
186.8427869795
 51
186.9902489136
  0
ARC
  5
40D
100
AcDbEntity
  8
00_COMPONENTS_3
100
AcDbCircle
 62
7
  6
BYLAYER
 10
108.6831861631
 20
34.7017268652
 40
66.8833485125
100
AcDbArc
 50
193.4489944216
 51
193.725344495
  0
ARC
  5
40E
100
AcDbEntity
  8
00_COMPONENTS_3
100
AcDbCircle
 62
7
  6
BYLAYER
 10
88.5886020016
 20
34.4082804654
 40
65.6342425557
100
AcDbArc
 50
193.4463647644
 51
193.7279741537
  0
ARC
  5
40F
100
AcDbEntity
  8
00_COMPONENTS_3
100
AcDbCircle
 62
7
  6
BYLAYER
 10
89.1909886877
 20
35.7557151687
 40
49.4716979502
100
AcDbArc
 50
199.617624897
 51
200.0036254653
  0
ARC
  5
410
100
AcDbEntity
  8
00_COMPONENTS_3
100
AcDbCircle
 62
7
  6
BYLAYER
 10
69.8323744378
 20
35.4530556642
 40
48.5786714319
100
AcDbArc
 50
199.6140769408
 51
200.0071734233
  0
ARC
  5
411
100
AcDbEntity
  8
00_COMPONENTS_3
100
AcDbCircle
 62
7
  6
BYLAYER
 10
79.7981811035
 20
37.1861855209
 40
42.3367681483
100
AcDbArc
 50
205.221009402
 51
205.6909964434
  0
ARC
  5
412
100
AcDbEntity
  8
00_COMPONENTS_3
100
AcDbCircle
 62
7
  6
BYLAYER
 10
61.120619837
 20
36.8710218712
 40
41.603525146
100
AcDbArc
 50
205.2168677265
 51
205.6951381211
  0
ARC
  5
413
100
AcDbEntity
  8
00_COMPONENTS_3
100
AcDbCircle
 62
7
  6
BYLAYER
 10
65.3529618905
 20
48.146310495
 40
41.5678255921
100
AcDbArc
 50
224.2397203675
 51
224.8461385332
  0
ARC
  5
414
100
AcDbEntity
  8
00_COMPONENTS_3
100
AcDbCircle
 62
7
  6
BYLAYER
 10
51.4481585241
 20
47.8029242258
 40
41.0786732296
100
AcDbArc
 50
224.3194726144
 51
224.8492201423
  0
ARC
  5
415
100
AcDbEntity
  8
00_COMPONENTS_3
100
AcDbCircle
 62
7
  6
BYLAYER
 10
66.7423363924
 20
45.6618518466
 40
40.0039394748
100
AcDbArc
 50
221.5161012913
 51
222.1187067867
  0
ARC
  5
416
100
AcDbEntity
  8
00_COMPONENTS_3
100
AcDbCircle
 62
7
  6
BYLAYER
 10
51.6208789356
 20
45.2726003363
 40
39.420151154
100
AcDbArc
 50
221.5116391412
 51
222.1231689394
  0
ARC
  5
417
100
AcDbEntity
  8
00_COMPONENTS_3
100
AcDbCircle
 62
7
  6
BYLAYER
 10
74.3878614076
 20
38.9496736262
 40
39.3697090016
100
AcDbArc
 50
210.1998380499
 51
210.7292702229
  0
ARC
  5
418
100
AcDbEntity
  8
00_COMPONENTS_3
100
AcDbCircle
 62
7
  6
BYLAYER
 10
68.5167463787
 20
43.2528822789
 40
38.8911628983
100
AcDbArc
 50
218.305508313
 51
218.8966159794
  0
ARC
  5
419
100
AcDbEntity
  8
00_COMPONENTS_3
100
AcDbCircle
 62
7
  6
BYLAYER
 10
56.4504000977
 20
38.6190949055
 40
38.7176937568
100
AcDbArc
 50
210.195380136
 51
210.7337281388
  0
ARC
  5
41A
100
AcDbEntity
  8
00_COMPONENTS_3
100
AcDbCircle
 62
7
  6
BYLAYER
 10
70.9192403571
 20
40.9925969441
 40
38.5211278828
100
AcDbArc
 50
214.5504938022
 51
215.1187087253
  0
ARC
  5
41B
100
AcDbEntity
  8
00_COMPONENTS_3
100
AcDbCircle
 62
7
  6
BYLAYER
 10
52.3510030188
 20
42.8846881263
 40
38.3010159671
100
AcDbArc
 50
218.300954342
 51
218.9011699532
  0
ARC
  5
41C
100
AcDbEntity
  8
00_COMPONENTS_3
100
AcDbCircle
 62
7
  6
BYLAYER
 10
53.8153777736
 20
40.6441605131
 40
37.9111377402
100
AcDbArc
 50
214.5459224769
 51
215.1232800539
  0
ARC
  5
41D
100
AcDbEntity
  8
00_COMPONENTS_3
100
AcDbCircle
 62
7
  6
BYLAYER
 10
45.994781248
 20
22.9403944722
 40
5.4352329457
100
AcDbArc
 50
315.7246835256
 51
316.1515830522
  0
ARC
  5
41E
100
AcDbEntity
  8
00_COMPONENTS_3
100
AcDbCircle
 62
7
  6
BYLAYER
 10
52.9360929435
 20
15.9088288211
 40
4.4612500727
100
AcDbArc
 50
132.8276865741
 51
133.4791817569
  0
ARC
  5
41F
100
AcDbEntity
  8
00_COMPONENTS
100
AcDbCircle
 62
7
  6
BYLAYER
 10
52.7386912597
 20
36.8059901597
 40
0.7874
100
AcDbArc
 50
120.0
 51
180.0
  0
ARC
  5
420
100
AcDbEntity
  8
00_COMPONENTS_3
100
AcDbCircle
 62
7
  6
BYLAYER
 10
57.0782438774
 20
62.1777701333
 40
53.1807005133
100
AcDbArc
 50
234.0140404732
 51
234.5930197623
  0
ARC
  5
421
100
AcDbEntity
  8
00_COMPONENTS_3
100
AcDbCircle
 62
7
  6
BYLAYER
 10
56.2429275542
 20
61.9613755897
 40
52.9831442511
100
AcDbArc
 50
233.910114389
 51
234.4897949433
  0
ARC
  5
422
100
AcDbEntity
  8
00_COMPONENTS_3
100
AcDbCircle
 62
7
  6
BYLAYER
 10
57.9138507541
 20
61.9613755895
 40
52.983144251
100
AcDbArc
 50
233.9101143888
 51
234.4897949431
  0
ARC
  5
423
100
AcDbEntity
  8
00_COMPONENTS_3
100
AcDbCircle
 62
7
  6
BYLAYER
 10
55.4161213853
 20
61.3187667804
 40
52.3981074074
100
AcDbArc
 50
233.5960094474
 51
234.17776356
  0
ARC
  5
424
100
AcDbEntity
  8
00_COMPONENTS_3
100
AcDbCircle
 62
7
  6
BYLAYER
 10
58.7452510496
 20
61.3187667797
 40
52.3981074064
100
AcDbArc
 50
233.5960094476
 51
234.1777635603
  0
ARC
  5
425
100
AcDbEntity
  8
00_COMPONENTS_3
100
AcDbCircle
 62
7
  6
BYLAYER
 10
54.6098653412
 20
60.2694683954
 40
51.4484110245
100
AcDbArc
 50
233.0646668219
 51
233.6497708119
  0
ARC
  5
426
100
AcDbEntity
  8
00_COMPONENTS_3
100
AcDbCircle
 62
7
  6
BYLAYER
 10
59.5718647849
 20
60.2694683954
 40
51.4484110246
100
AcDbArc
 50
233.0646668217
 51
233.6497708117
  0
ARC
  5
427
100
AcDbEntity
  8
00_COMPONENTS_3
100
AcDbCircle
 62
7
  6
BYLAYER
 10
53.8404376588
 20
58.8453617262
 40
50.1718724016
100
AcDbArc
 50
232.3040613198
 51
232.8936132897
  0
ARC
  5
428
100
AcDbEntity
  8
00_COMPONENTS_3
100
AcDbCircle
 62
7
  6
BYLAYER
 10
60.3975430689
 20
58.8453617261
 40
50.1718724016
100
AcDbArc
 50
232.3040613195
 51
232.8936132893
  0
ARC
  5
429
100
AcDbEntity
  8
00_COMPONENTS_3
100
AcDbCircle
 62
7
  6
BYLAYER
 10
61.2314902357
 20
57.0897159435
 40
48.6210966984
100
AcDbArc
 50
231.2968201157
 51
231.8916277806
  0
ARC
  5
42A
100
AcDbEntity
  8
00_COMPONENTS_3
100
AcDbCircle
 62
7
  6
BYLAYER
 10
53.1291823894
 20
57.0897159429
 40
48.621096697
100
AcDbArc
 50
231.2968201166
 51
231.8916277815
  0
ARC
  5
42B
100
AcDbEntity
  8
00_COMPONENTS_3
100
AcDbCircle
 62
7
  6
BYLAYER
 10
62.2923278523
 20
55.300024039
 40
47.1806842309
100
AcDbArc
 50
230.0217354783
 51
230.6181198159
  0
ARC
  5
42C
100
AcDbEntity
  8
00_COMPONENTS_3
100
AcDbCircle
 62
7
  6
BYLAYER
 10
52.7064809009
 20
55.3000238876
 40
47.1806840335
100
AcDbArc
 50
230.0217354779
 51
230.618119818
  0
ARC
  5
42D
100
AcDbEntity
  8
00_COMPONENTS_3
100
AcDbCircle
 62
7
  6
BYLAYER
 10
63.203089708
 20
53.0397387695
 40
45.2929991323
100
AcDbArc
 50
228.4451758256
 51
229.0467264702
  0
ARC
  5
42E
100
AcDbEntity
  8
00_COMPONENTS_3
100
AcDbCircle
 62
7
  6
BYLAYER
 10
51.8947942078
 20
52.6832892009
 40
44.8193836137
100
AcDbArc
 50
228.5672598197
 51
229.0491564885
  0
ARC
  5
42F
100
AcDbEntity
  8
00_COMPONENTS_3
100
AcDbCircle
 62
7
  6
BYLAYER
 10
64.2035796361
 20
50.6307691527
 40
43.3815021352
100
AcDbArc
 50
226.5324710259
 51
227.1378503798
  0
ARC
  5
430
100
AcDbEntity
  8
00_COMPONENTS_3
100
AcDbCircle
 62
7
  6
BYLAYER
 10
51.7019402306
 20
50.4402587121
 40
43.1205648711
100
AcDbArc
 50
226.594056683
 51
227.1393243901
  0
SPLINE
  5
431
100
AcDbEntity
  8
00_COMPONENTS_3
100
AcDbSpline
 62
7
  6
BYLAYER
 70
0
 71
3
 72
9
 73
5
 74
0
 42
0.0000001
 43
0.0000001
 44
0.0000000001
 40
0.0
 40
0.0
 40
0.0
 40
0.0
 40
0.4431104617
 40
1.0
 40
1.0
 40
1.0
 40
1.0
 10
48.4360588866
 20
19.1987411848
 30
0.0
 10
48.4360589226
 20
19.1905896777
 30
0.0
 10
48.4321221978
 20
19.1722993533
 30
0.0
 10
48.4251069026
 20
19.1552886736
 30
0.0
 10
48.4207411421
 20
19.1460208828
 30
0.0
  0
SPLINE
  5
432
100
AcDbEntity
  8
00_COMPONENTS_3
100
AcDbSpline
 62
7
  6
BYLAYER
 70
0
 71
3
 72
10
 73
6
 74
0
 42
0.0000001
 43
0.0000001
 44
0.0000000001
 40
0.0
 40
0.0
 40
0.0
 40
0.0
 40
0.188028039
 40
0.4200626538
 40
1.0
 40
1.0
 40
1.0
 40
1.0
 10
48.9402776143
 20
19.2078910216
 30
0.0
 10
48.9402779214
 20
19.203702484
 30
0.0
 10
48.9387241391
 20
19.1943669452
 30
0.0
 10
48.9315103422
 20
19.1732614203
 30
0.0
 10
48.922978695
 20
19.1571859377
 30
0.0
 10
48.9164797761
 20
19.1460208828
 30
0.0
  0
SPLINE
  5
433
100
AcDbEntity
  8
00_COMPONENTS_3
100
AcDbSpline
 62
7
  6
BYLAYER
 70
0
 71
3
 72
12
 73
8
 74
0
 42
0.0000001
 43
0.0000001
 44
0.0000000001
 40
0.0
 40
0.0
 40
0.0
 40
0.0
 40
0.0600602998
 40
0.1413112664
 40
0.3641210272
 40
0.6553848153
 40
1.0
 40
1.0
 40
1.0
 40
1.0
 10
49.6548514002
 20
19.2208471524
 30
0.0
 10
49.6548516798
 20
19.2190749252
 30
0.0
 10
49.653967016
 20
19.2149325135
 30
0.0
 10
49.6499788663
 20
19.2049531116
 30
0.0
 10
49.6410502357
 20
19.1897306522
 30
0.0
 10
49.6266439086
 20
19.1689003511
 30
0.0
 10
49.6152199368
 20
19.1540001202
 30
0.0
 10
49.6089163943
 20
19.1460208828
 30
0.0
  0
SPLINE
  5
434
100
AcDbEntity
  8
00_COMPONENTS_3
100
AcDbSpline
 62
7
  6
BYLAYER
 70
0
 71
3
 72
11
 73
7
 74
0
 42
0.0000001
 43
0.0000001
 44
0.0000000001
 40
0.0
 40
0.0
 40
0.0
 40
0.0
 40
0.1657570939
 40
0.3930165368
 40
0.6742723501
 40
1.0
 40
1.0
 40
1.0
 40
1.0
 10
49.3475745244
 20
19.2152770467
 30
0.0
 10
49.3475738648
 20
19.210975201
 30
0.0
 10
49.3449798042
 20
19.2008903414
 30
0.0
 10
49.3378068623
 20
19.1849559477
 30
0.0
 10
49.3270089073
 20
19.1661372674
 30
0.0
 10
49.3183401181
 20
19.152983176
 30
0.0
 10
49.3135454968
 20
19.1460208828
 30
0.0
  0
SPLINE
  5
435
100
AcDbEntity
  8
00_COMPONENTS_3
100
AcDbSpline
 62
7
  6
BYLAYER
 70
0
 71
3
 72
15
 73
11
 74
0
 42
0.0000001
 43
0.0000001
 44
0.0000000001
 40
0.0
 40
0.0
 40
0.0
 40
0.0
 40
0.3931592308
 40
0.5607810297
 40
0.7053951383
 40
0.8241217858
 40
0.9141560053
 40
0.9731743351
 40
0.9905553999
 40
1.0
 40
1.0
 40
1.0
 40
1.0
 10
21.9880459483
 20
19.1751221792
 30
0.0
 10
21.9817708832
 20
19.1816577578
 30
0.0
 10
21.972849365
 20
19.1910070753
 30
0.0
 10
21.9617376571
 20
19.2028741131
 30
0.0
 10
21.9550177002
 20
19.2101834607
 30
0.0
 10
21.9495716805
 20
19.2162486937
 30
0.0
 10
21.9455782467
 20
19.2209304147
 30
0.0
 10
21.9431467849
 20
19.2239416287
 30
0.0
 10
21.9421087866
 20
19.2255921154
 30
0.0
 10
21.9418161188
 20
19.2261720797
 30
0.0
 10
21.9418155721
 20
19.2263897301
 30
0.0
  0
SPLINE
  5
436
100
AcDbEntity
  8
00_COMPONENTS_3
100
AcDbSpline
 62
7
  6
BYLAYER
 70
0
 71
3
 72
14
 73
10
 74
0
 42
0.0000001
 43
0.0000001
 44
0.0000000001
 40
0.0
 40
0.0
 40
0.0
 40
0.0
 40
0.3638256921
 40
0.5240036085
 40
0.6662632471
 40
0.787763585
 40
0.8854592054
 40
0.9566308451
 40
1.0
 40
1.0
 40
1.0
 40
1.0
 10
22.1022379936
 20
19.1460208828
 30
0.0
 10
22.0942806236
 20
19.1550090275
 30
0.0
 10
22.0829297032
 20
19.1680550021
 30
0.0
 10
22.0688993625
 20
19.1849778707
 30
0.0
 10
22.0601944681
 20
19.1959344268
 30
0.0
 10
22.053065693
 20
19.2054827086
 30
0.0
 10
22.0476536811
 20
19.2134354636
 30
0.0
 10
22.044254123
 20
19.2194848007
 30
0.0
 10
22.0428127271
 20
19.2231298464
 30
0.0
 10
22.0428132636
 20
19.2245608124
 30
0.0
  0
SPLINE
  5
437
100
AcDbEntity
  8
00_COMPONENTS_3
100
AcDbSpline
 62
7
  6
BYLAYER
 70
0
 71
3
 72
12
 73
8
 74
0
 42
0.0000001
 43
0.0000001
 44
0.0000000001
 40
0.0
 40
0.0
 40
0.0
 40
0.0
 40
0.3446149955
 40
0.635878917
 40
0.8586886226
 40
0.9399396397
 40
1.0
 40
1.0
 40
1.0
 40
1.0
 10
22.2936661172
 20
19.1460208828
 30
0.0
 10
22.2873625779
 20
19.154000116
 30
0.0
 10
22.2759386053
 20
19.1689003456
 30
0.0
 10
22.261532284
 20
19.1897306455
 30
0.0
 10
22.2526036402
 20
19.2049531056
 30
0.0
 10
22.248615504
 20
19.2149325129
 30
0.0
 10
22.2477308279
 20
19.2190749261
 30
0.0
 10
22.2477311082
 20
19.2208471551
 30
0.0
  0
SPLINE
  5
438
100
AcDbEntity
  8
00_COMPONENTS_3
100
AcDbSpline
 62
7
  6
BYLAYER
 70
0
 71
3
 72
11
 73
7
 74
0
 42
0.0000001
 43
0.0000001
 44
0.0000000001
 40
0.0
 40
0.0
 40
0.0
 40
0.0
 40
0.3257274698
 40
0.606983413
 40
0.8342428396
 40
1.0
 40
1.0
 40
1.0
 40
1.0
 10
22.5890370147
 20
19.1460208828
 30
0.0
 10
22.5842423964
 20
19.1529831717
 30
0.0
 10
22.5755736069
 20
19.1661372604
 30
0.0
 10
22.5647756567
 20
19.1849559392
 30
0.0
 10
22.557602705
 20
19.2008903335
 30
0.0
 10
22.555008652
 20
19.2109751952
 30
0.0
 10
22.5550079919
 20
19.2152770425
 30
0.0
  0
SPLINE
  5
439
100
AcDbEntity
  8
00_COMPONENTS_3
100
AcDbSpline
 62
7
  6
BYLAYER
 70
0
 71
3
 72
10
 73
6
 74
0
 42
0.0000001
 43
0.0000001
 44
0.0000000001
 40
0.0
 40
0.0
 40
0.0
 40
0.0
 40
0.579937294
 40
0.8119719988
 40
1.0
 40
1.0
 40
1.0
 40
1.0
 10
22.9861027354
 20
19.1460208828
 30
0.0
 10
22.979603817
 20
19.1571859367
 30
0.0
 10
22.9710721716
 20
19.1732614212
 30
0.0
 10
22.9638583712
 20
19.1943669449
 30
0.0
 10
22.9623045883
 20
19.2037024852
 30
0.0
 10
22.9623048966
 20
19.207891022
 30
0.0
  0
SPLINE
  5
43A
100
AcDbEntity
  8
00_COMPONENTS_3
100
AcDbSpline
 62
7
  6
BYLAYER
 70
0
 71
3
 72
9
 73
5
 74
0
 42
0.0000001
 43
0.0000001
 44
0.0000000001
 40
0.0
 40
0.0
 40
0.0
 40
0.0
 40
0.5568893803
 40
1.0
 40
1.0
 40
1.0
 40
1.0
 10
23.4818413694
 20
19.1460208828
 30
0.0
 10
23.47747561
 20
19.1552886712
 30
0.0
 10
23.4704603156
 20
19.1722993515
 30
0.0
 10
23.4665235878
 20
19.1905896758
 30
0.0
 10
23.4665236231
 20
19.1987411861
 30
0.0
  0
SPLINE
  5
43B
100
AcDbEntity
  8
00_COMPONENTS_3
100
AcDbSpline
 62
7
  6
BYLAYER
 70
0
 71
3
 72
10
 73
6
 74
0
 42
0.0000001
 43
0.0000001
 44
0.0000000001
 40
0.0
 40
0.0
 40
0.0
 40
0.0
 40
0.6158778141
 40
0.8416364014
 40
1.0
 40
1.0
 40
1.0
 40
1.0
 10
49.0953315353
 20
18.8324563781
 30
0.0
 10
49.0918769653
 20
18.8275458298
 30
0.0
 10
49.0872941966
 20
18.8206727713
 30
0.0
 10
49.0831153149
 20
18.8118927006
 30
0.0
 10
49.0820613322
 20
18.8082062372
 30
0.0
 10
49.0820605656
 20
18.8066624105
 30
0.0
  0
SPLINE
  5
43C
100
AcDbEntity
  8
00_COMPONENTS_3
100
AcDbSpline
 62
7
  6
BYLAYER
 70
0
 71
3
 72
14
 73
10
 74
0
 42
0.0000001
 43
0.0000001
 44
0.0000000001
 40
0.0
 40
0.0
 40
0.0
 40
0.0
 40
0.0433692892
 40
0.1145408624
 40
0.2122364542
 40
0.3337368192
 40
0.4759964381
 40
0.6361742241
 40
1.0
 40
1.0
 40
1.0
 40
1.0
 10
49.8597692471
 20
19.2245608117
 30
0.0
 10
49.8597697884
 20
19.2231298413
 30
0.0
 10
49.8583283776
 20
19.219484795
 30
0.0
 10
49.854928831
 20
19.2134354539
 30
0.0
 10
49.8495168122
 20
19.2054827042
 30
0.0
 10
49.8423880402
 20
19.1959344222
 30
0.0
 10
49.833683148
 20
19.1849778693
 30
0.0
 10
49.8196528087
 20
19.1680550028
 30
0.0
 10
49.8083018897
 20
19.1550090295
 30
0.0
 10
49.8003445179
 20
19.1460208828
 30
0.0
  0
SPLINE
  5
43D
100
AcDbEntity
  8
00_COMPONENTS_3
100
AcDbSpline
 62
7
  6
BYLAYER
 70
0
 71
3
 72
13
 73
9
 74
0
 42
0.0000001
 43
0.0000001
 44
0.0000000001
 40
0.0
 40
0.0
 40
0.0
 40
0.0
 40
0.0362207656
 40
0.1030759174
 40
0.198744411
 40
0.3201565138
 40
0.6272887347
 40
1.0
 40
1.0
 40
1.0
 40
1.0
 10
49.4966401155
 20
18.8036437341
 30
0.0
 10
49.496640475
 20
18.8040916219
 30
0.0
 10
49.4972636477
 20
18.8052817889
 30
0.0
 10
49.4985452842
 20
18.8073274335
 30
0.0
 10
49.5006590659
 20
18.8101600201
 30
0.0
 10
49.5046850596
 20
18.8152266693
 30
0.0
 10
49.5111304787
 20
18.8227645281
 30
0.0
 10
49.5167226535
 20
18.8290382044
 30
0.0
 10
49.5198140565
 20
18.8324563781
 30
0.0
  0
SPLINE
  5
43E
100
AcDbEntity
  8
00_COMPONENTS_3
100
AcDbSpline
 62
7
  6
BYLAYER
 70
0
 71
3
 72
15
 73
11
 74
0
 42
0.0000001
 43
0.0000001
 44
0.0000000001
 40
0.0
 40
0.0
 40
0.0
 40
0.0
 40
0.0094446164
 40
0.0268257063
 40
0.0858443048
 40
0.1758786576
 40
0.2946053249
 40
0.4392194897
 40
0.6068413246
 40
1.0
 40
1.0
 40
1.0
 40
1.0
 10
49.9607669383
 20
19.226389729
 30
0.0
 10
49.9607663905
 20
19.2261720749
 30
0.0
 10
49.9604737158
 20
19.2255921021
 30
0.0
 10
49.9594356966
 20
19.2239415849
 30
0.0
 10
49.9570041859
 20
19.2209303214
 30
0.0
 10
49.9530106832
 20
19.2162485231
 30
0.0
 10
49.9475645725
 20
19.210183198
 30
0.0
 10
49.940844508
 20
19.2028737399
 30
0.0
 10
49.9297326332
 20
19.1910065327
 30
0.0
 10
49.9208109843
 20
19.1816570835
 30
0.0
 10
49.9145358305
 20
19.175121416
 30
0.0
  0
SPLINE
  5
43F
100
AcDbEntity
  8
00_COMPONENTS_3
100
AcDbSpline
 62
7
  6
BYLAYER
 70
0
 71
3
 72
13
 73
9
 74
0
 42
0.0000001
 43
0.0000001
 44
0.0000000001
 40
0.0
 40
0.0
 40
0.0
 40
0.0
 40
0.3727065576
 40
0.6798386101
 40
0.8012537874
 40
0.8969277416
 40
0.9637798946
 40
1.0
 40
1.0
 40
1.0
 40
1.0
 10
22.382768455
 20
18.8324563781
 30
0.0
 10
22.3858598008
 20
18.8290382676
 30
0.0
 10
22.3914519071
 20
18.8227646738
 30
0.0
 10
22.3978972719
 20
18.8152268849
 30
0.0
 10
22.4019233106
 20
18.8101601726
 30
0.0
 10
22.4040371445
 20
18.8073275959
 30
0.0
 10
22.4053188655
 20
18.8052819304
 30
0.0
 10
22.4059418148
 20
18.8040917798
 30
0.0
 10
22.4059422273
 20
18.8036439028
 30
0.0
  0
SPLINE
  5
440
100
AcDbEntity
  8
00_COMPONENTS_3
100
AcDbSpline
 62
7
  6
BYLAYER
 70
0
 71
3
 72
11
 73
7
 74
0
 42
0.0000001
 43
0.0000001
 44
0.0000000001
 40
0.0
 40
0.0
 40
0.0
 40
0.0
 40
0.3523748765
 40
0.6477239501
 40
0.8687690364
 40
1.0
 40
1.0
 40
1.0
 40
1.0
 10
22.54399089
 20
18.8324563781
 30
0.0
 10
22.5464385811
 20
18.8294233857
 30
0.0
 10
22.5508502565
 20
18.8237949415
 30
0.0
 10
22.5565226517
 20
18.8159714278
 30
0.0
 10
22.5601645134
 20
18.8099219191
 30
0.0
 10
22.5619074817
 20
18.8062298932
 30
0.0
 10
22.5619054413
 20
18.804778406
 30
0.0
  0
SPLINE
  5
441
100
AcDbEntity
  8
00_COMPONENTS_3
100
AcDbSpline
 62
7
  6
BYLAYER
 70
0
 71
3
 72
10
 73
6
 74
0
 42
0.0000001
 43
0.0000001
 44
0.0000000001
 40
0.0
 40
0.0
 40
0.0
 40
0.0
 40
0.6158599928
 40
0.8416086957
 40
1.0
 40
1.0
 40
1.0
 40
1.0
 10
22.8072509762
 20
18.8324563781
 30
0.0
 10
22.8107054039
 20
18.827546032
 30
0.0
 10
22.8152876955
 20
18.8206732786
 30
0.0
 10
22.8194673427
 20
18.8118934887
 30
0.0
 10
22.8205206082
 20
18.8082068028
 30
0.0
 10
22.8205215914
 20
18.806662725
 30
0.0
  0
SPLINE
  5
442
100
AcDbEntity
  8
00_COMPONENTS_3
100
AcDbSpline
 62
7
  6
BYLAYER
 70
0
 71
3
 72
11
 73
7
 74
0
 42
0.0000001
 43
0.0000001
 44
0.0000000001
 40
0.0
 40
0.0
 40
0.0
 40
0.0
 40
0.3523800753
 40
0.6477366105
 40
0.8687803675
 40
1.0
 40
1.0
 40
1.0
 40
1.0
 10
49.3585916215
 20
18.8324563781
 30
0.0
 10
49.3561438875
 20
18.8294233326
 30
0.0
 10
49.3517320107
 20
18.8237948663
 30
0.0
 10
49.3460597908
 20
18.8159709403
 30
0.0
 10
49.3424178431
 20
18.8099217706
 30
0.0
 10
49.3406745429
 20
18.8062297274
 30
0.0
 10
49.3406770245
 20
18.8047783622
 30
0.0
  0
SPLINE
  5
443
100
AcDbEntity
  8
00_COMPONENTS_3
100
AcDbSpline
 62
7
  6
BYLAYER
 70
0
 71
3
 72
10
 73
6
 74
0
 42
0.0000001
 43
0.0000001
 44
0.0000000001
 40
0.0
 40
0.0
 40
0.0
 40
0.0
 40
0.5330738309
 40
0.7818557648
 40
1.0
 40
1.0
 40
1.0
 40
1.0
 10
45.1986496693
 20
19.1460208828
 30
0.0
 10
45.2290889491
 20
19.1682058172
 30
0.0
 10
45.2767829495
 20
19.1972899907
 30
0.0
 10
45.3434137822
 20
19.2213778832
 30
0.0
 10
45.3763975104
 20
19.2265957617
 30
0.0
 10
45.3918111389
 20
19.2265957617
 30
0.0
  0
SPLINE
  5
444
100
AcDbEntity
  8
00_COMPONENTS_3
100
AcDbSpline
 62
7
  6
BYLAYER
 70
0
 71
3
 72
12
 73
8
 74
0
 42
0.0000001
 43
0.0000001
 44
0.0000000001
 40
0.0
 40
0.0
 40
0.0
 40
0.0
 40
0.288960713
 40
0.4133118692
 40
0.5295529912
 40
0.7561151377
 40
1.0
 40
1.0
 40
1.0
 40
1.0
 10
45.4553123762
 20
19.2265957617
 30
0.0
 10
45.4678411439
 20
19.2265957617
 30
0.0
 10
45.4861717137
 20
19.2241859676
 30
0.0
 10
45.506808286
 20
19.2137012273
 30
0.0
 10
45.5223399358
 20
19.2003905233
 30
0.0
 10
45.5348264124
 20
19.1772166571
 30
0.0
 10
45.5371380806
 20
19.1565952503
 30
0.0
 10
45.5371380806
 20
19.1460208828
 30
0.0
  0
SPLINE
  5
445
100
AcDbEntity
  8
00_COMPONENTS_3
100
AcDbSpline
 62
7
  6
BYLAYER
 70
0
 71
3
 72
11
 73
7
 74
0
 42
0.0000001
 43
0.0000001
 44
0.0000000001
 40
0.0
 40
0.0
 40
0.0
 40
0.0
 40
0.2636079822
 40
0.4895046772
 40
0.7198135638
 40
1.0
 40
1.0
 40
1.0
 40
1.0
 10
22.9623048966
 20
19.207891022
 30
0.0
 10
22.9623050931
 20
19.2105603039
 30
0.0
 10
22.9628215141
 20
19.2155826033
 30
0.0
 10
22.9665239504
 20
19.2221983721
 30
0.0
 10
22.9732595897
 20
19.2260578681
 30
0.0
 10
22.9785049111
 20
19.2265957617
 30
0.0
 10
22.9813420657
 20
19.2265957617
 30
0.0
  0
SPLINE
  5
446
100
AcDbEntity
  8
00_COMPONENTS_3
100
AcDbSpline
 62
7
  6
BYLAYER
 70
0
 71
3
 72
11
 73
7
 74
0
 42
0.0000001
 43
0.0000001
 44
0.0000000001
 40
0.0
 40
0.0
 40
0.0
 40
0.0
 40
0.2760926988
 40
0.5437945324
 40
0.7903031307
 40
1.0
 40
1.0
 40
1.0
 40
1.0
 10
46.0726260036
 20
19.1460208828
 30
0.0
 10
46.0879688185
 20
19.1571605713
 30
0.0
 10
46.1190783517
 20
19.1779113282
 30
0.0
 10
46.167062495
 20
19.2035384687
 30
0.0
 10
46.2136850383
 20
19.2211659805
 30
0.0
 10
46.2449658095
 20
19.2265957617
 30
0.0
 10
46.2593664971
 20
19.2265957617
 30
0.0
  0
SPLINE
  5
447
100
AcDbEntity
  8
00_COMPONENTS_3
100
AcDbSpline
 62
7
  6
BYLAYER
 70
0
 71
3
 72
11
 73
7
 74
0
 42
0.0000001
 43
0.0000001
 44
0.0000000001
 40
0.0
 40
0.0
 40
0.0
 40
0.0
 40
0.2875715938
 40
0.5248478755
 40
0.7516765581
 40
1.0
 40
1.0
 40
1.0
 40
1.0
 10
46.3175546605
 20
19.2265957617
 30
0.0
 10
46.3276407938
 20
19.2265957617
 30
0.0
 10
46.3463805609
 20
19.2243572584
 30
0.0
 10
46.3696309462
 20
19.2097853489
 30
0.0
 10
46.3819052653
 20
19.1869968247
 30
0.0
 10
46.3837600821
 20
19.1701479497
 30
0.0
 10
46.3837601031
 20
19.1614383852
 30
0.0
  0
SPLINE
  5
448
100
AcDbEntity
  8
00_COMPONENTS_3
100
AcDbSpline
 62
7
  6
BYLAYER
 70
0
 71
3
 72
11
 73
7
 74
0
 42
0.0000001
 43
0.0000001
 44
0.0000000001
 40
0.0
 40
0.0
 40
0.0
 40
0.0
 40
0.2839711329
 40
0.5552001873
 40
0.7994006395
 40
1.0
 40
1.0
 40
1.0
 40
1.0
 10
46.869572869
 20
19.1460208828
 30
0.0
 10
46.8847677329
 20
19.1570952926
 30
0.0
 10
46.9152633627
 20
19.1776929026
 30
0.0
 10
46.9617259288
 20
19.2032904106
 30
0.0
 10
47.0058335864
 20
19.220921604
 30
0.0
 10
47.0351890922
 20
19.2265957617
 30
0.0
 10
47.0484711785
 20
19.2265957617
 30
0.0
  0
SPLINE
  5
449
100
AcDbEntity
  8
00_COMPONENTS_3
100
AcDbSpline
 62
7
  6
BYLAYER
 70
0
 71
3
 72
11
 73
7
 74
0
 42
0.0000001
 43
0.0000001
 44
0.0000000001
 40
0.0
 40
0.0
 40
0.0
 40
0.0
 40
0.2856554169
 40
0.5209636125
 40
0.7476609822
 40
1.0
 40
1.0
 40
1.0
 40
1.0
 10
47.1009034209
 20
19.2265957617
 30
0.0
 10
47.1087847278
 20
19.2265957617
 30
0.0
 10
47.1234050541
 20
19.2249302919
 30
0.0
 10
47.1417252551
 20
19.2137252041
 30
0.0
 10
47.1514780273
 20
19.1957611734
 30
0.0
 10
47.1529179686
 20
19.1823925536
 30
0.0
 10
47.1529177564
 20
19.1754304548
 30
0.0
  0
SPLINE
  5
44A
100
AcDbEntity
  8
00_COMPONENTS_3
100
AcDbSpline
 62
7
  6
BYLAYER
 70
0
 71
3
 72
11
 73
7
 74
0
 42
0.0000001
 43
0.0000001
 44
0.0000000001
 40
0.0
 40
0.0
 40
0.0
 40
0.0
 40
0.2927490443
 40
0.5678932545
 40
0.8095216138
 40
1.0
 40
1.0
 40
1.0
 40
1.0
 10
47.5834250188
 20
19.1460208828
 30
0.0
 10
47.5983531472
 20
19.1570266901
 30
0.0
 10
47.6279991372
 20
19.1774592738
 30
0.0
 10
47.6725917692
 20
19.2030200137
 30
0.0
 10
47.7138378245
 20
19.2206290701
 30
0.0
 10
47.7410521898
 20
19.2265957617
 30
0.0
 10
47.7531196201
 20
19.2265957617
 30
0.0
  0
SPLINE
  5
44B
100
AcDbEntity
  8
00_COMPONENTS_3
100
AcDbSpline
 62
7
  6
BYLAYER
 70
0
 71
3
 72
11
 73
7
 74
0
 42
0.0000001
 43
0.0000001
 44
0.0000000001
 40
0.0
 40
0.0
 40
0.0
 40
0.0
 40
0.2837394035
 40
0.5171961992
 40
0.7436798395
 40
1.0
 40
1.0
 40
1.0
 40
1.0
 10
47.7993969004
 20
19.2265957617
 30
0.0
 10
47.8053273633
 20
19.2265957617
 30
0.0
 10
47.8163138026
 20
19.2253956693
 30
0.0
 10
47.8302068767
 20
19.2170953657
 30
0.0
 10
47.8376782009
 20
19.2034652136
 30
0.0
 10
47.8387574352
 20
19.1932525537
 30
0.0
 10
47.8387575991
 20
19.1878951829
 30
0.0
  0
SPLINE
  5
44C
100
AcDbEntity
  8
00_COMPONENTS_3
100
AcDbSpline
 62
7
  6
BYLAYER
 70
0
 71
3
 72
13
 73
9
 74
0
 42
0.0000001
 43
0.0000001
 44
0.0000000001
 40
0.0
 40
0.0
 40
0.0
 40
0.0
 40
0.1795673471
 40
0.2626277969
 40
0.3592416458
 40
0.4796623087
 40
0.6275119676
 40
1.0
 40
1.0
 40
1.0
 40
1.0
 10
23.6370829448
 20
18.8126075974
 30
0.0
 10
23.6370830501
 20
18.8103403234
 30
0.0
 10
23.6363763868
 20
18.8066759947
 30
0.0
 10
23.6325794944
 20
18.8038783426
 30
0.0
 10
23.6287911121
 20
18.8031014274
 30
0.0
 10
23.6241633229
 20
18.8034338339
 30
0.0
 10
23.6162908486
 20
18.8054045672
 30
0.0
 10
23.6102633206
 20
18.8081365893
 30
0.0
 10
23.6060736901
 20
18.810273557
 30
0.0
  0
SPLINE
  5
44D
100
AcDbEntity
  8
00_COMPONENTS_3
100
AcDbSpline
 62
7
  6
BYLAYER
 70
0
 71
3
 72
9
 73
5
 74
0
 42
0.0000001
 43
0.0000001
 44
0.0000000001
 40
0.0
 40
0.0
 40
0.0
 40
0.0
 40
0.2275225619
 40
1.0
 40
1.0
 40
1.0
 40
1.0
 10
23.6060736901
 20
18.810273557
 30
0.0
 10
23.6033192316
 20
18.8116784992
 30
0.0
 10
23.5914395707
 20
18.8182966921
 30
0.0
 10
23.5802759859
 20
18.8261235648
 30
0.0
 10
23.5719030745
 20
18.8324563781
 30
0.0
  0
SPLINE
  5
44E
100
AcDbEntity
  8
00_COMPONENTS_3
100
AcDbSpline
 62
7
  6
BYLAYER
 70
0
 71
3
 72
12
 73
8
 74
0
 42
0.0000001
 43
0.0000001
 44
0.0000000001
 40
0.0
 40
0.0
 40
0.0
 40
0.0
 40
0.3024622202
 40
0.5818581966
 40
0.8204748465
 40
0.9184504796
 40
1.0
 40
1.0
 40
1.0
 40
1.0
 10
48.2087496069
 20
19.1460208828
 30
0.0
 10
48.2232956869
 20
19.1569546594
 30
0.0
 10
48.2518813568
 20
19.1772242134
 30
0.0
 10
48.2942105147
 20
19.2026764333
 30
0.0
 10
48.3280005314
 20
19.2183460375
 30
0.0
 10
48.3522467047
 20
19.2252268976
 30
0.0
 10
48.3630427294
 20
19.2265957617
 30
0.0
 10
48.3679490217
 20
19.2265957617
 30
0.0
  0
SPLINE
  5
44F
100
AcDbEntity
  8
00_COMPONENTS_3
100
AcDbSpline
 62
7
  6
BYLAYER
 70
0
 71
3
 72
11
 73
7
 74
0
 42
0.0000001
 43
0.0000001
 44
0.0000000001
 40
0.0
 40
0.0
 40
0.0
 40
0.0
 40
0.281893533
 40
0.5136684611
 40
0.7398762031
 40
1.0
 40
1.0
 40
1.0
 40
1.0
 10
48.4077191419
 20
19.2265957617
 30
0.0
 10
48.4119653424
 20
19.2265957617
 30
0.0
 10
48.419822658
 20
19.2257673628
 30
0.0
 10
48.4298410043
 20
19.2199122954
 30
0.0
 10
48.4352870112
 20
19.2100776771
 30
0.0
 10
48.4360588693
 20
19.2026594648
 30
0.0
 10
48.4360588866
 20
19.1987411848
 30
0.0
  0
SPLINE
  5
450
100
AcDbEntity
  8
00_COMPONENTS_3
100
AcDbSpline
 62
7
  6
BYLAYER
 70
0
 71
3
 72
11
 73
7
 74
0
 42
0.0000001
 43
0.0000001
 44
0.0000000001
 40
0.0
 40
0.0
 40
0.0
 40
0.0
 40
0.2601239223
 40
0.4863319961
 40
0.7181066701
 40
1.0
 40
1.0
 40
1.0
 40
1.0
 10
23.4665236231
 20
19.1987411861
 30
0.0
 10
23.4665236401
 20
19.202659468
 30
0.0
 10
23.4672955056
 20
19.2100776859
 30
0.0
 10
23.4727415137
 20
19.2199123086
 30
0.0
 10
23.4827598644
 20
19.2257673652
 30
0.0
 10
23.4906171721
 20
19.2265957617
 30
0.0
 10
23.4948633696
 20
19.2265957617
 30
0.0
  0
SPLINE
  5
451
100
AcDbEntity
  8
00_COMPONENTS_3
100
AcDbSpline
 62
7
  6
BYLAYER
 70
0
 71
3
 72
12
 73
8
 74
0
 42
0.0000001
 43
0.0000001
 44
0.0000000001
 40
0.0
 40
0.0
 40
0.0
 40
0.0
 40
0.3136736668
 40
0.5980762802
 40
0.8334428371
 40
0.9261352449
 40
1.0
 40
1.0
 40
1.0
 40
1.0
 10
48.7407875357
 20
19.1460208828
 30
0.0
 10
48.7548407623
 20
19.1568790928
 30
0.0
 10
48.7821408299
 20
19.1769623892
 30
0.0
 10
48.8219428137
 20
19.2023284933
 30
0.0
 10
48.8529993483
 20
19.2181320355
 30
0.0
 10
48.8746847652
 20
19.2251487151
 30
0.0
 10
48.8840981428
 20
19.2265957617
 30
0.0
 10
48.8882801603
 20
19.2265957617
 30
0.0
  0
SPLINE
  5
452
100
AcDbEntity
  8
00_COMPONENTS_3
100
AcDbSpline
 62
7
  6
BYLAYER
 70
0
 71
3
 72
11
 73
7
 74
0
 42
0.0000001
 43
0.0000001
 44
0.0000000001
 40
0.0
 40
0.0
 40
0.0
 40
0.0
 40
0.2801864992
 40
0.5104957253
 40
0.7363923815
 40
1.0
 40
1.0
 40
1.0
 40
1.0
 10
48.9212404458
 20
19.2265957617
 30
0.0
 10
48.924077601
 20
19.2265957617
 30
0.0
 10
48.9293229271
 20
19.2260578639
 30
0.0
 10
48.9360585643
 20
19.2221983611
 30
0.0
 10
48.9397610097
 20
19.2155825976
 30
0.0
 10
48.9402774186
 20
19.2105602998
 30
0.0
 10
48.9402776143
 20
19.2078910216
 30
0.0
  0
SPLINE
  5
453
100
AcDbEntity
  8
00_COMPONENTS_3
100
AcDbSpline
 62
7
  6
BYLAYER
 70
0
 71
3
 72
12
 73
8
 74
0
 42
0.0000001
 43
0.0000001
 44
0.0000000001
 40
0.0
 40
0.0
 40
0.0
 40
0.0
 40
0.3265484998
 40
0.6167356387
 40
0.8484421515
 40
0.9350592736
 40
1.0
 40
1.0
 40
1.0
 40
1.0
 10
49.1754896753
 20
19.1460208828
 30
0.0
 10
49.1889448237
 20
19.1567999401
 30
0.0
 10
49.2147616564
 20
19.1766830148
 30
0.0
 10
49.2517458626
 20
19.2019394122
 30
0.0
 10
49.2798242055
 20
19.2178655762
 30
0.0
 10
49.2987621724
 20
19.225036255
 30
0.0
 10
49.3067244153
 20
19.2265957617
 30
0.0
 10
49.3101530018
 20
19.2265957617
 30
0.0
  0
SPLINE
  5
454
100
AcDbEntity
  8
00_COMPONENTS_3
100
AcDbSpline
 62
7
  6
BYLAYER
 70
0
 71
3
 72
9
 73
5
 74
0
 42
0.0000001
 43
0.0000001
 44
0.0000000001
 40
0.0
 40
0.0
 40
0.0
 40
0.0
 40
0.5077779917
 40
1.0
 40
1.0
 40
1.0
 40
1.0
 10
49.3360526049
 20
19.2265957617
 30
0.0
 10
49.3391056295
 20
19.2265957617
 30
0.0
 10
49.3460059421
 20
19.2250954385
 30
0.0
 10
49.3475749783
 20
19.2182365407
 30
0.0
 10
49.3475745244
 20
19.2152770467
 30
0.0
  0
SPLINE
  5
455
100
AcDbEntity
  8
00_COMPONENTS_3
100
AcDbSpline
 62
7
  6
BYLAYER
 70
0
 71
3
 72
13
 73
9
 74
0
 42
0.0000001
 43
0.0000001
 44
0.0000000001
 40
0.0
 40
0.0
 40
0.0
 40
0.0
 40
0.191671598
 40
0.279534547
 40
0.3775118473
 40
0.4961713599
 40
0.6402830295
 40
1.0
 40
1.0
 40
1.0
 40
1.0
 10
24.1888112661
 20
18.8166240056
 30
0.0
 10
24.1888114317
 20
18.8136375976
 30
0.0
 10
24.187986542
 20
18.8089393771
 30
0.0
 10
24.1835395044
 20
18.8048008184
 30
0.0
 10
24.1789327469
 20
18.8032703639
 30
0.0
 10
24.1732609704
 20
18.8031543689
 30
0.0
 10
24.1636781899
 20
18.804889744
 30
0.0
 10
24.1563362916
 20
18.8078775603
 30
0.0
 10
24.1512695441
 20
18.8102735405
 30
0.0
  0
SPLINE
  5
456
100
AcDbEntity
  8
00_COMPONENTS_3
100
AcDbSpline
 62
7
  6
BYLAYER
 70
0
 71
3
 72
9
 73
5
 74
0
 42
0.0000001
 43
0.0000001
 44
0.0000000001
 40
0.0
 40
0.0
 40
0.0
 40
0.0
 40
0.2316092171
 40
1.0
 40
1.0
 40
1.0
 40
1.0
 10
24.1512695441
 20
18.8102735405
 30
0.0
 10
24.148322754
 20
18.8116670283
 30
0.0
 10
24.1358295739
 20
18.8181688404
 30
0.0
 10
24.1241003405
 20
18.8260472049
 30
0.0
 10
24.1153899067
 20
18.8324563781
 30
0.0
  0
SPLINE
  5
457
100
AcDbEntity
  8
00_COMPONENTS_3
100
AcDbSpline
 62
7
  6
BYLAYER
 70
0
 71
3
 72
11
 73
7
 74
0
 42
0.0000001
 43
0.0000001
 44
0.0000000001
 40
0.0
 40
0.0
 40
0.0
 40
0.0
 40
0.128558192
 40
0.346547255
 40
0.6424417199
 40
1.0
 40
1.0
 40
1.0
 40
1.0
 10
49.3421793865
 20
18.8032623447
 30
0.0
 10
49.3434561892
 20
18.8032613195
 30
0.0
 10
49.3467398013
 20
18.8047188126
 30
0.0
 10
49.3521587199
 20
18.8079367574
 30
0.0
 10
49.3592308921
 20
18.8130021603
 30
0.0
 10
49.3643417877
 20
18.8169855225
 30
0.0
 10
49.3671114707
 20
18.8192080525
 30
0.0
  0
LINE
  5
458
100
AcDbEntity
  8
00_COMPONENTS_3
100
AcDbLine
 62
7
  6
BYLAYER
 10
49.3671114707
 20
18.8192080525
 11
49.3829183412
 21
18.8324563781
  0
SPLINE
  5
459
100
AcDbEntity
  8
00_COMPONENTS_3
100
AcDbSpline
 62
7
  6
BYLAYER
 70
0
 71
3
 72
14
 73
10
 74
0
 42
0.0000001
 43
0.0000001
 44
0.0000000001
 40
0.0
 40
0.0
 40
0.0
 40
0.0
 40
0.3586959494
 40
0.5194144389
 40
0.6635161302
 40
0.7872264282
 40
0.8865811389
 40
0.9580621773
 40
1.0
 40
1.0
 40
1.0
 40
1.0
 10
49.7404191666
 20
19.1460208828
 30
0.0
 10
49.7523903794
 20
19.1566315241
 30
0.0
 10
49.7698734759
 20
19.1718349801
 30
0.0
 10
49.792655991
 20
19.1907156418
 30
0.0
 10
49.8076207265
 20
19.2026164695
 30
0.0
 10
49.8207129835
 20
19.2124217194
 30
0.0
 10
49.8315854561
 20
19.2199002081
 30
0.0
 10
49.8397367325
 20
19.2245524743
 30
0.0
 10
49.8445844295
 20
19.2265957617
 30
0.0
 10
49.8464547277
 20
19.2265957617
 30
0.0
  0
SPLINE
  5
45A
100
AcDbEntity
  8
00_COMPONENTS_3
100
AcDbSpline
 62
7
  6
BYLAYER
 70
0
 71
3
 72
11
 73
7
 74
0
 42
0.0000001
 43
0.0000001
 44
0.0000000001
 40
0.0
 40
0.0
 40
0.0
 40
0.0
 40
0.2563202413
 40
0.4828041974
 40
0.7162608776
 40
1.0
 40
1.0
 40
1.0
 40
1.0
 10
24.0638249132
 20
19.1878951824
 30
0.0
 10
24.063825076
 20
19.1932525547
 30
0.0
 10
24.0649043055
 20
19.2034652254
 30
0.0
 10
24.0723756537
 20
19.2170953716
 30
0.0
 10
24.0862687222
 20
19.2253956737
 30
0.0
 10
24.0972551542
 20
19.2265957617
 30
0.0
 10
24.1031856111
 20
19.2265957617
 30
0.0
  0
SPLINE
  5
45B
100
AcDbEntity
  8
00_COMPONENTS_3
100
AcDbSpline
 62
7
  6
BYLAYER
 70
0
 71
3
 72
15
 73
11
 74
0
 42
0.0000001
 43
0.0000001
 44
0.0000000001
 40
0.0
 40
0.0
 40
0.0
 40
0.0
 40
0.3921062849
 40
0.5593888236
 40
0.703746964
 40
0.8223148094
 40
0.912414155
 40
0.9718958752
 40
0.9897975112
 40
1.0
 40
1.0
 40
1.0
 40
1.0
 10
49.9033539739
 20
19.1807161287
 30
0.0
 10
49.9101243346
 20
19.1869792129
 30
0.0
 10
49.9198209541
 20
19.1958732659
 30
0.0
 10
49.9321521297
 20
19.2069183916
 30
0.0
 10
49.9397610147
 20
19.2135864936
 30
0.0
 10
49.9460878413
 20
19.2189748357
 30
0.0
 10
49.9509904894
 20
19.2229209407
 30
0.0
 10
49.9541648934
 20
19.2253030127
 30
0.0
 10
49.9559305759
 20
19.2263220139
 30
0.0
 10
49.956562052
 20
19.2265957617
 30
0.0
 10
49.9568020321
 20
19.2265957617
 30
0.0
  0
SPLINE
  5
45C
100
AcDbEntity
  8
00_COMPONENTS_3
100
AcDbSpline
 62
7
  6
BYLAYER
 70
0
 71
3
 72
13
 73
9
 74
0
 42
0.0000001
 43
0.0000001
 44
0.0000000001
 40
0.0
 40
0.0
 40
0.0
 40
0.0
 40
0.1998290066
 40
0.2918215947
 40
0.3914834248
 40
0.5093222624
 40
0.6507275293
 40
1.0
 40
1.0
 40
1.0
 40
1.0
 10
24.8308136239
 20
18.8212956199
 30
0.0
 10
24.8308134294
 20
18.8175336352
 30
0.0
 10
24.8298451717
 20
18.8116991058
 30
0.0
 10
24.824731431
 20
18.8061162726
 30
0.0
 10
24.8192882433
 20
18.8036823198
 30
0.0
 10
24.8124876903
 20
18.8029928958
 30
0.0
 10
24.8010570594
 20
18.8043711772
 30
0.0
 10
24.7922805934
 20
18.8076056957
 30
0.0
 10
24.7862707064
 20
18.8102735181
 30
0.0
  0
SPLINE
  5
45D
100
AcDbEntity
  8
00_COMPONENTS_3
100
AcDbSpline
 62
7
  6
BYLAYER
 70
0
 71
3
 72
9
 73
5
 74
0
 42
0.0000001
 43
0.0000001
 44
0.0000000001
 40
0.0
 40
0.0
 40
0.0
 40
0.0
 40
0.235384853
 40
1.0
 40
1.0
 40
1.0
 40
1.0
 10
24.7862707064
 20
18.8102735181
 30
0.0
 10
24.783154227
 20
18.8116569408
 30
0.0
 10
24.7701450797
 20
18.8180532106
 30
0.0
 10
24.7579364653
 20
18.8259745553
 30
0.0
 10
24.7489550949
 20
18.8324563781
 30
0.0
  0
SPLINE
  5
45E
100
AcDbEntity
  8
00_COMPONENTS_3
100
AcDbSpline
 62
7
  6
BYLAYER
 70
0
 71
3
 72
11
 73
7
 74
0
 42
0.0000001
 43
0.0000001
 44
0.0000000001
 40
0.0
 40
0.0
 40
0.0
 40
0.0
 40
0.2523391871
 40
0.4790366711
 40
0.7143449309
 40
1.0
 40
1.0
 40
1.0
 40
1.0
 10
24.7496647557
 20
19.1754304545
 30
0.0
 10
24.7496645448
 20
19.1823925579
 30
0.0
 10
24.7511044802
 20
19.195761188
 30
0.0
 10
24.7608572778
 20
19.2137252166
 30
0.0
 10
24.7791774745
 20
19.224930298
 30
0.0
 10
24.7937977934
 20
19.2265957617
 30
0.0
 10
24.8016790906
 20
19.2265957617
 30
0.0
  0
SPLINE
  5
45F
100
AcDbEntity
  8
00_COMPONENTS_3
100
AcDbSpline
 62
7
  6
BYLAYER
 70
0
 71
3
 72
13
 73
9
 74
0
 42
0.0000001
 43
0.0000001
 44
0.0000000001
 40
0.0
 40
0.0
 40
0.0
 40
0.0
 40
0.2051986948
 40
0.300601768
 40
0.4021387948
 40
0.5198211787
 40
0.659322514
 40
1.0
 40
1.0
 40
1.0
 40
1.0
 10
25.5582033119
 20
18.8265867353
 30
0.0
 10
25.5582034682
 20
18.8220043287
 30
0.0
 10
25.5570649343
 20
18.814953269
 30
0.0
 10
25.5512750316
 20
18.8078232773
 30
0.0
 10
25.5449797028
 20
18.8043595417
 30
0.0
 10
25.5369814811
 20
18.8029659993
 30
0.0
 10
25.5235795593
 20
18.8038507092
 30
0.0
 10
25.5132553084
 20
18.8073198305
 30
0.0
 10
25.5062442491
 20
18.8102735688
 30
0.0
  0
SPLINE
  5
460
100
AcDbEntity
  8
00_COMPONENTS_3
100
AcDbSpline
 62
7
  6
BYLAYER
 70
0
 71
3
 72
9
 73
5
 74
0
 42
0.0000001
 43
0.0000001
 44
0.0000000001
 40
0.0
 40
0.0
 40
0.0
 40
0.0
 40
0.2388876133
 40
1.0
 40
1.0
 40
1.0
 40
1.0
 10
25.5062442491
 20
18.8102735688
 30
0.0
 10
25.5029817421
 20
18.8116480533
 30
0.0
 10
25.4895552913
 20
18.8179481475
 30
0.0
 10
25.4769588795
 20
18.8259054682
 30
0.0
 10
25.4677768254
 20
18.8324563781
 30
0.0
  0
SPLINE
  5
461
100
AcDbEntity
  8
00_COMPONENTS_3
100
AcDbSpline
 62
7
  6
BYLAYER
 70
0
 71
3
 72
11
 73
7
 74
0
 42
0.0000001
 43
0.0000001
 44
0.0000000001
 40
0.0
 40
0.0
 40
0.0
 40
0.0
 40
0.2483235862
 40
0.4751522878
 40
0.7124287646
 40
1.0
 40
1.0
 40
1.0
 40
1.0
 10
25.5188224075
 20
19.1614383856
 30
0.0
 10
25.5188224284
 20
19.1701479552
 30
0.0
 10
25.5206772505
 20
19.186996836
 30
0.0
 10
25.5329515803
 20
19.209785369
 30
0.0
 10
25.55620197
 20
19.2243572665
 30
0.0
 10
25.5749417302
 20
19.2265957617
 30
0.0
 10
25.585027851
 20
19.2265957617
 30
0.0
  0
SPLINE
  5
462
100
AcDbEntity
  8
00_COMPONENTS_3
100
AcDbSpline
 62
7
  6
BYLAYER
 70
0
 71
3
 72
15
 73
11
 74
0
 42
0.0000001
 43
0.0000001
 44
0.0000000001
 40
0.0
 40
0.0
 40
0.0
 40
0.0
 40
0.0102024831
 40
0.0281041658
 40
0.0875860499
 40
0.1776857304
 40
0.2962535455
 40
0.4406116562
 40
0.6078941877
 40
1.0
 40
1.0
 40
1.0
 40
1.0
 10
21.9457804794
 20
19.2265957617
 30
0.0
 10
21.9460204629
 20
19.2265957617
 30
0.0
 10
21.9466519481
 20
19.2263220065
 30
0.0
 10
21.9484176582
 20
19.2253029858
 30
0.0
 10
21.9515921165
 20
19.2229208682
 30
0.0
 10
21.9564948397
 20
19.2189746943
 30
0.0
 10
21.9628217605
 20
19.2135862673
 30
0.0
 10
21.97043075
 20
19.206918065
 30
0.0
 10
21.9827620904
 20
19.1958727824
 30
0.0
 10
21.9924588387
 20
19.186978605
 30
0.0
 10
21.999229287
 20
19.1807154355
 30
0.0
  0
SPLINE
  5
463
100
AcDbEntity
  8
00_COMPONENTS_3
100
AcDbSpline
 62
7
  6
BYLAYER
 70
0
 71
3
 72
14
 73
10
 74
0
 42
0.0000001
 43
0.0000001
 44
0.0000000001
 40
0.0
 40
0.0
 40
0.0
 40
0.0
 40
0.0419378996
 40
0.1134191287
 40
0.2127737735
 40
0.3364840207
 40
0.480585734
 40
0.6413040822
 40
1.0
 40
1.0
 40
1.0
 40
1.0
 10
22.0561277838
 20
19.2265957617
 30
0.0
 10
22.0579980854
 20
19.2265957617
 30
0.0
 10
22.0628457928
 20
19.2245524655
 30
0.0
 10
22.0709970754
 20
19.2199001938
 30
0.0
 10
22.0818695518
 20
19.2124217045
 30
0.0
 10
22.094961803
 20
19.202616454
 30
0.0
 10
22.1099265331
 20
19.1907156318
 30
0.0
 10
22.1327090426
 20
19.171834974
 30
0.0
 10
22.1501921332
 20
19.1566315231
 30
0.0
 10
22.1621633449
 20
19.1460208828
 30
0.0
  0
SPLINE
  5
464
100
AcDbEntity
  8
00_COMPONENTS_3
100
AcDbSpline
 62
7
  6
BYLAYER
 70
0
 71
3
 72
15
 73
11
 74
0
 42
0.0000001
 43
0.0000001
 44
0.0000000001
 40
0.0
 40
0.0
 40
0.0
 40
0.0
 40
0.0401950856
 40
0.084215333
 40
0.1585562263
 40
0.2677643425
 40
0.4104186712
 40
0.5827424951
 40
0.780594653
 40
1.0
 40
1.0
 40
1.0
 40
1.0
 10
22.5619054413
 20
18.804778406
 30
0.0
 10
22.5619048342
 20
18.8043464803
 30
0.0
 10
22.5615956192
 20
18.8032920221
 30
0.0
 10
22.5596377661
 20
18.8031907526
 30
0.0
 10
22.5574016706
 20
18.8040282918
 30
0.0
 10
22.55423988
 20
18.8056224339
 30
0.0
 10
22.5503896543
 20
18.8080480535
 30
0.0
 10
22.5458597129
 20
18.8111947952
 30
0.0
 10
22.5407889421
 20
18.8149925273
 30
0.0
 10
22.5372660194
 20
18.8177672061
 30
0.0
 10
22.5354274173
 20
18.8192430682
 30
0.0
  0
LINE
  5
465
100
AcDbEntity
  8
00_COMPONENTS_3
100
AcDbLine
 62
7
  6
BYLAYER
 10
22.5354274173
 20
18.8192430682
 11
22.5196641702
 21
18.8324563781
  0
SPLINE
  5
466
100
AcDbEntity
  8
00_COMPONENTS_3
100
AcDbSpline
 62
7
  6
BYLAYER
 70
0
 71
3
 72
13
 73
9
 74
0
 42
0.0000001
 43
0.0000001
 44
0.0000000001
 40
0.0
 40
0.0
 40
0.0
 40
0.0
 40
0.0544238312
 40
0.1340034113
 40
0.2374430115
 40
0.3616833651
 40
0.65858834
 40
1.0
 40
1.0
 40
1.0
 40
1.0
 10
22.2722256724
 20
19.2265957617
 30
0.0
 10
22.2748796801
 20
19.2265957617
 30
0.0
 10
22.2813259306
 20
19.2248582539
 30
0.0
 10
22.2918394441
 20
19.2200670158
 30
0.0
 10
22.3048600486
 20
19.2125859809
 30
0.0
 10
22.326266164
 20
19.1985796089
 30
0.0
 10
22.3561205989
 20
19.1763542193
 30
0.0
 10
22.380276299
 20
19.1567172941
 30
0.0
 10
22.3930348315
 20
19.1460208828
 30
0.0
  0
SPLINE
  5
467
100
AcDbEntity
  8
00_COMPONENTS_3
100
AcDbSpline
 62
7
  6
BYLAYER
 70
0
 71
3
 72
12
 73
8
 74
0
 42
0.0000001
 43
0.0000001
 44
0.0000000001
 40
0.0
 40
0.0
 40
0.0
 40
0.0
 40
0.0649408179
 40
0.1515581402
 40
0.3832645065
 40
0.6734515307
 40
1.0
 40
1.0
 40
1.0
 40
1.0
 10
22.5924295097
 20
19.2265957617
 30
0.0
 10
22.595858101
 20
19.2265957617
 30
0.0
 10
22.6038203587
 20
19.2250362478
 30
0.0
 10
22.6227583304
 20
19.2178655614
 30
0.0
 10
22.6508366695
 20
19.201939398
 30
0.0
 10
22.687820863
 20
19.1766830096
 30
0.0
 10
22.7136376891
 20
19.156799939
 30
0.0
 10
22.7270928361
 20
19.1460208828
 30
0.0
  0
SPLINE
  5
468
100
AcDbEntity
  8
00_COMPONENTS_3
100
AcDbSpline
 62
7
  6
BYLAYER
 70
0
 71
3
 72
13
 73
9
 74
0
 42
0.0000001
 43
0.0000001
 44
0.0000000001
 40
0.0
 40
0.0
 40
0.0
 40
0.0
 40
0.0665102623
 40
0.1232977444
 40
0.1946975466
 40
0.2951811724
 40
0.5917619169
 40
1.0
 40
1.0
 40
1.0
 40
1.0
 10
22.8205215914
 20
18.806662725
 30
0.0
 10
22.8205220169
 20
18.8059945397
 30
0.0
 10
22.820367167
 20
18.8046799582
 30
0.0
 10
22.8187688152
 20
18.8032853804
 30
0.0
 10
22.8163724749
 20
18.8031806953
 30
0.0
 10
22.811795344
 20
18.8042749501
 30
0.0
 10
22.8044966657
 20
18.8079708011
 30
0.0
 10
22.7985412066
 20
18.811770913
 30
0.0
 10
22.7951532893
 20
18.8140823415
 30
0.0
  0
SPLINE
  5
469
100
AcDbEntity
  8
00_COMPONENTS_3
100
AcDbSpline
 62
7
  6
BYLAYER
 70
0
 71
3
 72
9
 73
5
 74
0
 42
0.0000001
 43
0.0000001
 44
0.0000000001
 40
0.0
 40
0.0
 40
0.0
 40
0.0
 40
0.2290689795
 40
1.0
 40
1.0
 40
1.0
 40
1.0
 10
22.7951532893
 20
18.8140823415
 30
0.0
 10
22.7932383635
 20
18.815388812
 30
0.0
 10
22.7849767154
 20
18.8212357255
 30
0.0
 10
22.777023297
 20
18.827507006
 30
0.0
 10
22.7709924997
 20
18.8324563781
 30
0.0
  0
SPLINE
  5
46A
100
AcDbEntity
  8
00_COMPONENTS_3
100
AcDbSpline
 62
7
  6
BYLAYER
 70
0
 71
3
 72
12
 73
8
 74
0
 42
0.0000001
 43
0.0000001
 44
0.0000000001
 40
0.0
 40
0.0
 40
0.0
 40
0.0
 40
0.0738648526
 40
0.1665574649
 40
0.401923863
 40
0.6863263633
 40
1.0
 40
1.0
 40
1.0
 40
1.0
 10
23.0143023511
 20
19.2265957617
 30
0.0
 10
23.0184843742
 20
19.2265957617
 30
0.0
 10
23.0278977684
 20
19.2251487083
 30
0.0
 10
23.0495831908
 20
19.2181320206
 30
0.0
 10
23.0806397206
 20
19.2023284786
 30
0.0
 10
23.1204416901
 20
19.1769623839
 30
0.0
 10
23.1477417505
 20
19.1568790917
 30
0.0
 10
23.1617949758
 20
19.1460208828
 30
0.0
  0
SPLINE
  5
46B
100
AcDbEntity
  8
00_COMPONENTS_3
100
AcDbSpline
 62
7
  6
BYLAYER
 70
0
 71
3
 72
9
 73
5
 74
0
 42
0.0000001
 43
0.0000001
 44
0.0000000001
 40
0.0
 40
0.0
 40
0.0
 40
0.0
 40
0.4922222394
 40
1.0
 40
1.0
 40
1.0
 40
1.0
 10
22.5550079919
 20
19.2152770425
 30
0.0
 10
22.5550075377
 20
19.2182365382
 30
0.0
 10
22.5565765678
 20
19.2250954399
 30
0.0
 10
22.563476883
 20
19.2265957617
 30
0.0
 10
22.5665299066
 20
19.2265957617
 30
0.0
  0
SPLINE
  5
46C
100
AcDbEntity
  8
00_COMPONENTS_3
100
AcDbSpline
 62
7
  6
BYLAYER
 70
0
 71
3
 72
12
 73
8
 74
0
 42
0.0000001
 43
0.0000001
 44
0.0000000001
 40
0.0
 40
0.0
 40
0.0
 40
0.0
 40
0.0815496233
 40
0.1795254645
 40
0.4181419448
 40
0.6975378096
 40
1.0
 40
1.0
 40
1.0
 40
1.0
 10
23.5346334898
 20
19.2265957617
 30
0.0
 10
23.5395397882
 20
19.2265957617
 30
0.0
 10
23.5503358313
 20
19.2252268911
 30
0.0
 10
23.5745820108
 20
19.2183460224
 30
0.0
 10
23.6083720218
 20
19.202676418
 30
0.0
 10
23.6507011638
 20
19.1772242081
 30
0.0
 10
23.6792868261
 20
19.1569546582
 30
0.0
 10
23.6938329046
 20
19.1460208828
 30
0.0
  0
SPLINE
  5
46D
100
AcDbEntity
  8
00_COMPONENTS_3
100
AcDbSpline
 62
7
  6
BYLAYER
 70
0
 71
3
 72
11
 73
7
 74
0
 42
0.0000001
 43
0.0000001
 44
0.0000000001
 40
0.0
 40
0.0
 40
0.0
 40
0.0
 40
0.1904787043
 40
0.4321068847
 40
0.7072509849
 40
1.0
 40
1.0
 40
1.0
 40
1.0
 10
24.1494628914
 20
19.2265957617
 30
0.0
 10
24.1615303418
 20
19.2265957617
 30
0.0
 10
24.1887447144
 20
19.2206290561
 30
0.0
 10
24.2299907693
 20
19.2030199984
 30
0.0
 10
24.2745833839
 20
19.1774592683
 30
0.0
 10
24.3042293658
 20
19.157026689
 30
0.0
 10
24.3191574927
 20
19.1460208828
 30
0.0
  0
SPLINE
  5
46E
100
AcDbEntity
  8
00_COMPONENTS_3
100
AcDbSpline
 62
7
  6
BYLAYER
 70
0
 71
3
 72
17
 73
13
 74
0
 42
0.0000001
 43
0.0000001
 44
0.0000000001
 40
0.0
 40
0.0
 40
0.0
 40
0.0
 40
0.0094113163
 40
0.020164005
 40
0.0387912907
 40
0.0665298079
 40
0.1034864406
 40
0.149516853
 40
0.2671352266
 40
0.415240378
 40
0.5895013309
 40
1.0
 40
1.0
 40
1.0
 40
1.0
 10
22.4059422273
 20
18.8036439028
 30
0.0
 10
22.4059423313
 20
18.8035309107
 30
0.0
 10
22.4058508232
 20
18.8032474734
 30
0.0
 10
22.4053104045
 20
18.8032595907
 30
0.0
 10
22.4046948604
 20
18.8035048922
 30
0.0
 10
22.4037975321
 20
18.8039761749
 30
0.0
 10
22.4026807296
 20
18.804690239
 30
0.0
 10
22.4007066164
 20
18.8060745804
 30
0.0
 10
22.3977500965
 20
18.8083702352
 30
0.0
 10
22.3936747805
 20
18.8117324
 30
0.0
 10
22.3870052487
 20
18.8174717752
 30
0.0
 10
22.3817821996
 20
18.8221643568
 30
0.0
 10
22.3781390286
 20
18.8254835189
 30
0.0
  0
SPLINE
  5
46F
100
AcDbEntity
  8
00_COMPONENTS_3
100
AcDbSpline
 62
7
  6
BYLAYER
 70
0
 71
3
 72
11
 73
7
 74
0
 42
0.0000001
 43
0.0000001
 44
0.0000000001
 40
0.0
 40
0.0
 40
0.0
 40
0.0
 40
0.2005996856
 40
0.4447999506
 40
0.7160288961
 40
1.0
 40
1.0
 40
1.0
 40
1.0
 10
24.8541113329
 20
19.2265957617
 30
0.0
 10
24.8673934408
 20
19.2265957617
 30
0.0
 10
24.8967489545
 20
19.2209215904
 30
0.0
 10
24.9408566114
 20
19.2032903949
 30
0.0
 10
24.9873191588
 20
19.1776928971
 30
0.0
 10
25.0178147802
 20
19.1570952914
 30
0.0
 10
25.0330096425
 20
19.1460208828
 30
0.0
  0
SPLINE
  5
470
100
AcDbEntity
  8
00_COMPONENTS_3
100
AcDbSpline
 62
7
  6
BYLAYER
 70
0
 71
3
 72
12
 73
8
 74
0
 42
0.0000001
 43
0.0000001
 44
0.0000000001
 40
0.0
 40
0.0
 40
0.0
 40
0.0
 40
0.1623968619
 40
0.3332622775
 40
0.4571066787
 40
0.6105730258
 40
1.0
 40
1.0
 40
1.0
 40
1.0
 10
23.1798256657
 20
18.8092791188
 30
0.0
 10
23.1798246374
 20
18.8076623614
 30
0.0
 10
23.1788911626
 20
18.8038363879
 30
0.0
 10
23.1736959308
 20
18.8029944687
 30
0.0
 10
23.1693928587
 20
18.8038235479
 30
0.0
 10
23.1630359678
 20
18.8059081005
 30
0.0
 10
23.158217813
 20
18.8083838614
 30
0.0
 10
23.1548325213
 20
18.8102735065
 30
0.0
  0
SPLINE
  5
471
100
AcDbEntity
  8
00_COMPONENTS_3
100
AcDbSpline
 62
7
  6
BYLAYER
 70
0
 71
3
 72
9
 73
5
 74
0
 42
0.0000001
 43
0.0000001
 44
0.0000000001
 40
0.0
 40
0.0
 40
0.0
 40
0.0
 40
0.2230876551
 40
1.0
 40
1.0
 40
1.0
 40
1.0
 10
23.1548325213
 20
18.8102735065
 30
0.0
 10
23.1522920002
 20
18.8116916068
 30
0.0
 10
23.1411225265
 20
18.8184385386
 30
0.0
 10
23.1306040682
 20
18.8262037394
 30
0.0
 10
23.1226308612
 20
18.8324563781
 30
0.0
  0
SPLINE
  5
472
100
AcDbEntity
  8
00_COMPONENTS_3
100
AcDbSpline
 62
7
  6
BYLAYER
 70
0
 71
3
 72
11
 73
7
 74
0
 42
0.0000001
 43
0.0000001
 44
0.0000000001
 40
0.0
 40
0.0
 40
0.0
 40
0.0
 40
0.2096972008
 40
0.4562056043
 40
0.72390733
 40
1.0
 40
1.0
 40
1.0
 40
1.0
 10
25.6432160144
 20
19.2265957617
 30
0.0
 10
25.6576167247
 20
19.2265957617
 30
0.0
 10
25.6888975043
 20
19.2211659671
 30
0.0
 10
25.7355200468
 20
19.2035384525
 30
0.0
 10
25.7835041702
 20
19.1779113227
 30
0.0
 10
25.8146136947
 20
19.1571605701
 30
0.0
 10
25.8299565079
 20
19.1460208828
 30
0.0
  0
SPLINE
  5
473
100
AcDbEntity
  8
00_COMPONENTS_3
100
AcDbSpline
 62
7
  6
BYLAYER
 70
0
 71
3
 72
12
 73
8
 74
0
 42
0.0000001
 43
0.0000001
 44
0.0000000001
 40
0.0
 40
0.0
 40
0.0
 40
0.0
 40
0.2438848837
 40
0.4704471217
 40
0.5866883835
 40
0.7110396292
 40
1.0
 40
1.0
 40
1.0
 40
1.0
 10
26.3654444309
 20
19.1460208828
 30
0.0
 10
26.3654444309
 20
19.1565952513
 30
0.0
 10
26.367756104
 20
19.1772166603
 30
0.0
 10
26.3802425792
 20
19.2003905453
 30
0.0
 10
26.3957742572
 20
19.2137012379
 30
0.0
 10
26.4164108197
 20
19.2241859848
 30
0.0
 10
26.4347413824
 20
19.2265957617
 30
0.0
 10
26.4472701352
 20
19.2265957617
 30
0.0
  0
SPLINE
  5
474
100
AcDbEntity
  8
00_COMPONENTS_3
100
AcDbSpline
 62
7
  6
BYLAYER
 70
0
 71
3
 72
10
 73
6
 74
0
 42
0.0000001
 43
0.0000001
 44
0.0000000001
 40
0.0
 40
0.0
 40
0.0
 40
0.0
 40
0.2181445727
 40
0.4669263048
 40
1.0
 40
1.0
 40
1.0
 40
1.0
 10
26.5107713726
 20
19.2265957617
 30
0.0
 10
26.5261850249
 20
19.2265957617
 30
0.0
 10
26.5591687618
 20
19.22137787
 30
0.0
 10
26.625799591
 20
19.197289974
 30
0.0
 10
26.6734935702
 20
19.1682058114
 30
0.0
 10
26.7039328422
 20
19.1460208828
 30
0.0
  0
SPLINE
  5
475
100
AcDbEntity
  8
00_COMPONENTS_3
100
AcDbSpline
 62
7
  6
BYLAYER
 70
0
 71
3
 72
11
 73
7
 74
0
 42
0.0000001
 43
0.0000001
 44
0.0000000001
 40
0.0
 40
0.0
 40
0.0
 40
0.0
 40
0.2326342065
 40
0.4594432046
 40
0.7061455313
 40
1.0
 40
1.0
 40
1.0
 40
1.0
 10
27.2840539197
 20
19.1460208828
 30
0.0
 10
27.2853474218
 20
19.1567964251
 30
0.0
 10
27.2906454353
 20
19.1779874313
 30
0.0
 10
27.3103223164
 20
19.2055927276
 30
0.0
 10
27.342576528
 20
19.2234780701
 30
0.0
 10
27.3681347972
 20
19.2265957617
 30
0.0
 10
27.3818437589
 20
19.2265957617
 30
0.0
  0
SPLINE
  5
476
100
AcDbEntity
  8
00_COMPONENTS_3
100
AcDbSpline
 62
7
  6
BYLAYER
 70
0
 71
3
 72
10
 73
6
 74
0
 42
0.0000001
 43
0.0000001
 44
0.0000000001
 40
0.0
 40
0.0
 40
0.0
 40
0.0
 40
0.2257919352
 40
0.476481271
 40
1.0
 40
1.0
 40
1.0
 40
1.0
 10
27.4501747875
 20
19.2265957617
 30
0.0
 10
27.4664872806
 20
19.2265957617
 30
0.0
 10
27.5009306914
 20
19.221559081
 30
0.0
 10
27.5693678595
 20
19.1977353291
 30
0.0
 10
27.6178443352
 20
19.1684649447
 30
0.0
 10
27.6482871578
 20
19.1460208828
 30
0.0
  0
SPLINE
  5
477
100
AcDbEntity
  8
00_COMPONENTS_3
100
AcDbSpline
 62
7
  6
BYLAYER
 70
0
 71
3
 72
11
 73
7
 74
0
 42
0.0000001
 43
0.0000001
 44
0.0000000001
 40
0.0
 40
0.0
 40
0.0
 40
0.0
 40
0.2250796044
 40
0.4530464072
 40
0.7050062065
 40
1.0
 40
1.0
 40
1.0
 40
1.0
 10
28.268626318
 20
19.1460208828
 30
0.0
 10
28.2712511255
 20
19.1569956479
 30
0.0
 10
28.2795724917
 20
19.1785896507
 30
0.0
 10
28.3034950711
 20
19.2057368199
 30
0.0
 10
28.3391413588
 20
19.2233185576
 30
0.0
 10
28.3668466449
 20
19.2265957617
 30
0.0
 10
28.3816360524
 20
19.2265957617
 30
0.0
  0
SPLINE
  5
478
100
AcDbEntity
  8
00_COMPONENTS_3
100
AcDbSpline
 62
7
  6
BYLAYER
 70
0
 71
3
 72
10
 73
6
 74
0
 42
0.0000001
 43
0.0000001
 44
0.0000000001
 40
0.0
 40
0.0
 40
0.0
 40
0.0
 40
0.2329127067
 40
0.4853378274
 40
1.0
 40
1.0
 40
1.0
 40
1.0
 10
28.4542768318
 20
19.2265957617
 30
0.0
 10
28.4713667192
 20
19.2265957617
 30
0.0
 10
28.5070207617
 20
19.2217199644
 30
0.0
 10
28.5767606449
 20
19.1981485119
 30
0.0
 10
28.6256459637
 20
19.1687109259
 30
0.0
 10
28.655832348
 20
19.1460208828
 30
0.0
  0
SPLINE
  5
479
100
AcDbEntity
  8
00_COMPONENTS_3
100
AcDbSpline
 62
7
  6
BYLAYER
 70
0
 71
3
 72
11
 73
7
 74
0
 42
0.0000001
 43
0.0000001
 44
0.0000000001
 40
0.0
 40
0.0
 40
0.0
 40
0.0
 40
0.2207637577
 40
0.4505869244
 40
0.7061181238
 40
1.0
 40
1.0
 40
1.0
 40
1.0
 10
29.3116684354
 20
19.1460208828
 30
0.0
 10
29.3156439086
 20
19.1571730842
 30
0.0
 10
29.3269336676
 20
19.179010818
 30
0.0
 10
29.3547462442
 20
19.2057660992
 30
0.0
 10
29.3935669885
 20
19.2231770945
 30
0.0
 10
29.4232770629
 20
19.2265957617
 30
0.0
 10
29.4390379927
 20
19.2265957617
 30
0.0
  0
SPLINE
  5
47A
100
AcDbEntity
  8
00_COMPONENTS_3
100
AcDbSpline
 62
7
  6
BYLAYER
 70
0
 71
3
 72
9
 73
5
 74
0
 42
0.0000001
 43
0.0000001
 44
0.0000000001
 40
0.0
 40
0.0
 40
0.0
 40
0.0
 40
0.4924254951
 40
1.0
 40
1.0
 40
1.0
 40
1.0
 10
29.5154356828
 20
19.2265957617
 30
0.0
 10
29.5518070036
 20
19.2265957617
 30
0.0
 10
29.6255425217
 20
19.2075597881
 30
0.0
 10
29.6892337876
 20
19.1689427468
 30
0.0
 10
29.7189003856
 20
19.1460208828
 30
0.0
  0
SPLINE
  5
47B
100
AcDbEntity
  8
00_COMPONENTS_3
100
AcDbSpline
 62
7
  6
BYLAYER
 70
0
 71
3
 72
11
 73
7
 74
0
 42
0.0000001
 43
0.0000001
 44
0.0000000001
 40
0.0
 40
0.0
 40
0.0
 40
0.0
 40
0.218887623
 40
0.4509124375
 40
0.7087362252
 40
1.0
 40
1.0
 40
1.0
 40
1.0
 10
30.4052420916
 20
19.1460208828
 30
0.0
 10
30.4105633342
 20
19.1573170048
 30
0.0
 10
30.4246939385
 20
19.1792770362
 30
0.0
 10
30.4560881179
 20
19.2057276249
 30
0.0
 10
30.4978480933
 20
19.2230478916
 30
0.0
 10
30.5293866134
 20
19.2265957617
 30
0.0
 10
30.5460021125
 20
19.2265957617
 30
0.0
  0
SPLINE
  5
47C
100
AcDbEntity
  8
00_COMPONENTS_3
100
AcDbSpline
 62
7
  6
BYLAYER
 70
0
 71
3
 72
9
 73
5
 74
0
 42
0.0000001
 43
0.0000001
 44
0.0000000001
 40
0.0
 40
0.0
 40
0.0
 40
0.0
 40
0.5002097396
 40
1.0
 40
1.0
 40
1.0
 40
1.0
 10
30.6255752806
 20
19.2265957617
 30
0.0
 10
30.6626132925
 20
19.2265957617
 30
0.0
 10
30.7367296582
 20
19.2083471516
 30
0.0
 10
30.8005187555
 20
19.1691584895
 30
0.0
 10
30.829400681
 20
19.1460208828
 30
0.0
  0
SPLINE
  5
47D
100
AcDbEntity
  8
00_COMPONENTS_3
100
AcDbSpline
 62
7
  6
BYLAYER
 70
0
 71
3
 72
15
 73
11
 74
0
 42
0.0000001
 43
0.0000001
 44
0.0000000001
 40
0.0
 40
0.0
 40
0.0
 40
0.0
 40
0.093404065
 40
0.1794631162
 40
0.2691742326
 40
0.3772686904
 40
0.5104099641
 40
0.6641106114
 40
0.8297167104
 40
1.0
 40
1.0
 40
1.0
 40
1.0
 10
26.3654444309
 20
18.8324563781
 30
0.0
 10
26.3654444309
 20
18.8286132607
 30
0.0
 10
26.3646265197
 20
18.8211563194
 30
0.0
 10
26.3593425548
 20
18.8109974871
 30
0.0
 10
26.3491682139
 20
18.8043176102
 30
0.0
 10
26.3353436195
 20
18.802548681
 30
0.0
 10
26.3191767166
 20
18.8051652027
 30
0.0
 10
26.3016035681
 20
18.8115380155
 30
0.0
 10
26.2836902007
 20
18.8208385626
 30
0.0
 10
26.2720952897
 20
18.8283974868
 30
0.0
 10
26.2663844309
 20
18.8324563781
 30
0.0
  0
SPLINE
  5
47E
100
AcDbEntity
  8
00_COMPONENTS_3
100
AcDbSpline
 62
7
  6
BYLAYER
 70
0
 71
3
 72
11
 73
7
 74
0
 42
0.0000001
 43
0.0000001
 44
0.0000000001
 40
0.0
 40
0.0
 40
0.0
 40
0.0
 40
0.2187992313
 40
0.4531750571
 40
0.7123453181
 40
1.0
 40
1.0
 40
1.0
 40
1.0
 10
31.5410245307
 20
19.1460208828
 30
0.0
 10
31.5476619335
 20
19.1574238511
 30
0.0
 10
31.5644642372
 20
19.179423181
 30
0.0
 10
31.5991566567
 20
19.2056489535
 30
0.0
 10
31.6435919477
 20
19.222926798
 30
0.0
 10
31.6767575768
 20
19.2265957617
 30
0.0
 10
31.6941037465
 20
19.2265957617
 30
0.0
  0
SPLINE
  5
47F
100
AcDbEntity
  8
00_COMPONENTS_3
100
AcDbSpline
 62
7
  6
BYLAYER
 70
0
 71
3
 72
14
 73
10
 74
0
 42
0.0000001
 43
0.0000001
 44
0.0000000001
 40
0.0
 40
0.0
 40
0.0
 40
0.0
 40
0.0915327797
 40
0.1801600605
 40
0.2757663923
 40
0.3893898741
 40
0.5247811891
 40
0.6768157004
 40
1.0
 40
1.0
 40
1.0
 40
1.0
 10
27.2460167199
 20
18.8324563781
 30
0.0
 10
27.2455364483
 20
18.8285398895
 30
0.0
 10
27.2436233173
 20
18.8208667092
 30
0.0
 10
27.2365930465
 20
18.8108614661
 30
0.0
 10
27.2250433253
 20
18.8043815579
 30
0.0
 10
27.2100298516
 20
18.8025375441
 30
0.0
 10
27.1927906988
 20
18.8050972572
 30
0.0
 10
27.1678354859
 20
18.813771941
 30
0.0
 10
27.1500414067
 20
18.8243649023
 30
0.0
 10
27.1387000252
 20
18.8324563781
 30
0.0
  0
SPLINE
  5
480
100
AcDbEntity
  8
00_COMPONENTS_3
100
AcDbSpline
 62
7
  6
BYLAYER
 70
0
 71
3
 72
14
 73
10
 74
0
 42
0.0000001
 43
0.0000001
 44
0.0000000001
 40
0.0
 40
0.0
 40
0.0
 40
0.0
 40
0.0913186174
 40
0.1832881481
 40
0.2843214998
 40
0.4024625009
 40
0.5392440207
 40
0.6891063459
 40
1.0
 40
1.0
 40
1.0
 40
1.0
 10
28.1928414045
 20
18.8324563781
 30
0.0
 10
28.1918666674
 20
18.8284668341
 30
0.0
 10
28.1888337716
 20
18.8206407503
 30
0.0
 10
28.1802090878
 20
18.8107993649
 30
0.0
 10
28.1673716697
 20
18.8044378608
 30
0.0
 10
28.1512365987
 20
18.8025295332
 30
0.0
 10
28.1330604944
 20
18.8050383912
 30
0.0
 10
28.1074872807
 20
18.8136187361
 30
0.0
 10
28.0894224188
 20
18.8242740304
 30
0.0
 10
28.07808476
 20
18.8324563781
 30
0.0
  0
SPLINE
  5
481
100
AcDbEntity
  8
00_COMPONENTS_3
100
AcDbSpline
 62
7
  6
BYLAYER
 70
0
 71
3
 72
9
 73
5
 74
0
 42
0.0000001
 43
0.0000001
 44
0.0000000001
 40
0.0
 40
0.0
 40
0.0
 40
0.0
 40
0.5075647723
 40
1.0
 40
1.0
 40
1.0
 40
1.0
 10
31.7762467929
 20
19.2265957617
 30
0.0
 10
31.8136826032
 20
19.2265957617
 30
0.0
 10
31.8876950692
 20
19.2090933673
 30
0.0
 10
31.9510490301
 20
19.1693550098
 30
0.0
 10
31.9788816563
 20
19.1460208828
 30
0.0
  0
SPLINE
  5
482
100
AcDbEntity
  8
00_COMPONENTS_3
100
AcDbSpline
 62
7
  6
BYLAYER
 70
0
 71
3
 72
14
 73
10
 74
0
 42
0.0000001
 43
0.0000001
 44
0.0000000001
 40
0.0
 40
0.0
 40
0.0
 40
0.0
 40
0.0924492553
 40
0.1882479675
 40
0.2942763847
 40
0.4161613827
 40
0.5537157691
 40
0.7011050866
 40
1.0
 40
1.0
 40
1.0
 40
1.0
 10
29.1987125771
 20
18.8324563781
 30
0.0
 10
29.1972360074
 20
18.8284016314
 30
0.0
 10
29.1931008693
 20
18.8204818332
 30
0.0
 10
29.1830137287
 20
18.8107822312
 30
0.0
 10
29.1689678726
 20
18.8044877637
 30
0.0
 10
29.151803829
 20
18.802524
 30
0.0
 10
29.1328270416
 20
18.8049855263
 30
0.0
 10
29.1068215328
 20
18.8134768825
 30
0.0
 10
29.0886266124
 20
18.824187954
 30
0.0
 10
29.0773893501
 20
18.8324563781
 30
0.0
  0
SPLINE
  5
483
100
AcDbEntity
  8
00_COMPONENTS_3
100
AcDbSpline
 62
7
  6
BYLAYER
 70
0
 71
3
 72
11
 73
7
 74
0
 42
0.0000001
 43
0.0000001
 44
0.0000000001
 40
0.0
 40
0.0
 40
0.0
 40
0.0
 40
0.2200056739
 40
0.4567807686
 40
0.7166038234
 40
1.0
 40
1.0
 40
1.0
 40
1.0
 10
32.7103717626
 20
19.1460208828
 30
0.0
 10
32.7182740061
 20
19.1574957696
 30
0.0
 10
32.7375562539
 20
19.1794811422
 30
0.0
 10
32.7752688537
 20
19.2055456827
 30
0.0
 10
32.8220861752
 20
19.2228110057
 30
0.0
 10
32.8566580784
 20
19.2265957617
 30
0.0
 10
32.874605148
 20
19.2265957617
 30
0.0
  0
SPLINE
  5
484
100
AcDbEntity
  8
00_COMPONENTS_3
100
AcDbSpline
 62
7
  6
BYLAYER
 70
0
 71
3
 72
14
 73
10
 74
0
 42
0.0000001
 43
0.0000001
 44
0.0000000001
 40
0.0
 40
0.0
 40
0.0
 40
0.0
 40
0.0946144357
 40
0.1945221327
 40
0.3051523539
 40
0.4301634313
 40
0.5680129428
 40
0.7127234213
 40
1.0
 40
1.0
 40
1.0
 40
1.0
 10
30.2559749508
 20
18.8324563781
 30
0.0
 10
30.2539982537
 20
18.8283487184
 30
0.0
 10
30.2488063141
 20
18.8203805683
 30
0.0
 10
30.2373707207
 20
18.8107915171
 30
0.0
 10
30.2222015126
 20
18.8045331809
 30
0.0
 10
30.2041178511
 20
18.8025200874
 30
0.0
 10
30.184481009
 20
18.8049373725
 30
0.0
 10
30.1582306775
 20
18.8133445332
 30
0.0
 10
30.1400475759
 20
18.8241070116
 30
0.0
 10
30.1290084844
 20
18.8324563781
 30
0.0
  0
SPLINE
  5
485
100
AcDbEntity
  8
00_COMPONENTS_3
100
AcDbSpline
 62
7
  6
BYLAYER
 70
0
 71
3
 72
13
 73
9
 74
0
 42
0.0000001
 43
0.0000001
 44
0.0000000001
 40
0.0
 40
0.0
 40
0.0
 40
0.0
 40
0.0976914685
 40
0.2019989213
 40
0.317038877
 40
0.4448450562
 40
0.723571659
 40
1.0
 40
1.0
 40
1.0
 40
1.0
 10
31.3565821205
 20
18.8324563781
 30
0.0
 10
31.3541162376
 20
18.8283094149
 30
0.0
 10
31.3479288732
 20
18.8203238626
 30
0.0
 10
31.3352494315
 20
18.810816617
 30
0.0
 10
31.3190515437
 20
18.8045744696
 30
0.0
 10
31.2931946721
 20
18.8017631381
 30
0.0
 10
31.2594610541
 20
18.8097376524
 30
0.0
 10
31.2356814239
 20
18.8240318717
 30
0.0
 10
31.2249387061
 20
18.8324563781
 30
0.0
  0
SPLINE
  5
486
100
AcDbEntity
  8
00_COMPONENTS_3
100
AcDbSpline
 62
7
  6
BYLAYER
 70
0
 71
3
 72
9
 73
5
 74
0
 42
0.0000001
 43
0.0000001
 44
0.0000000001
 40
0.0
 40
0.0
 40
0.0
 40
0.0
 40
0.5145367667
 40
1.0
 40
1.0
 40
1.0
 40
1.0
 10
32.9586929144
 20
19.2265957617
 30
0.0
 10
32.9962541914
 20
19.2265957617
 30
0.0
 10
33.0696916624
 20
19.2098076459
 30
0.0
 10
33.1320742451
 20
19.1695275179
 30
0.0
 10
33.1585950673
 20
19.1460208828
 30
0.0
  0
SPLINE
  5
487
100
AcDbEntity
  8
00_COMPONENTS_3
100
AcDbSpline
 62
7
  6
BYLAYER
 70
0
 71
3
 72
11
 73
7
 74
0
 42
0.0000001
 43
0.0000001
 44
0.0000000001
 40
0.0
 40
0.0
 40
0.0
 40
0.0
 40
0.2091007742
 40
0.4571850917
 40
0.7334898872
 40
1.0
 40
1.0
 40
1.0
 40
1.0
 10
32.4921578011
 20
18.8324563781
 30
0.0
 10
32.4861143418
 20
18.8238658157
 30
0.0
 10
32.4679712693
 20
18.808097638
 30
0.0
 10
32.4304411079
 20
18.8003774159
 30
0.0
 10
32.3908018519
 20
18.8094920113
 30
0.0
 10
32.3671876949
 20
18.8239636477
 30
0.0
 10
32.3568393246
 20
18.8324563781
 30
0.0
  0
SPLINE
  5
488
100
AcDbEntity
  8
00_COMPONENTS_3
100
AcDbSpline
 62
7
  6
BYLAYER
 70
0
 71
3
 72
11
 73
7
 74
0
 42
0.0000001
 43
0.0000001
 44
0.0000000001
 40
0.0
 40
0.0
 40
0.0
 40
0.0
 40
0.2177029302
 40
0.4715230048
 40
0.7440147771
 40
1.0
 40
1.0
 40
1.0
 40
1.0
 10
33.6540595759
 20
18.8324563781
 30
0.0
 10
33.6470895636
 20
18.8238196699
 30
0.0
 10
33.6275251591
 20
18.8083153086
 30
0.0
 10
33.5890701975
 20
18.8003660396
 30
0.0
 10
33.5491525993
 20
18.8092428304
 30
0.0
 10
33.5259528502
 20
18.8239040496
 30
0.0
 10
33.5160958926
 20
18.8324563781
 30
0.0
  0
SPLINE
  5
489
100
AcDbEntity
  8
00_COMPONENTS_3
100
AcDbSpline
 62
7
  6
BYLAYER
 70
0
 71
3
 72
11
 73
7
 74
0
 42
0.0000001
 43
0.0000001
 44
0.0000000001
 40
0.0
 40
0.0
 40
0.0
 40
0.0
 40
0.2221525819
 40
0.4613283113
 40
0.7212940313
 40
1.0
 40
1.0
 40
1.0
 40
1.0
 10
33.9043843487
 20
19.1460208828
 30
0.0
 10
33.9134825933
 20
19.1575377486
 30
0.0
 10
33.935039843
 20
19.179475953
 30
0.0
 10
33.9754872394
 20
19.2054265814
 30
0.0
 10
34.0243668666
 20
19.222698466
 30
0.0
 10
34.0601085821
 20
19.2265957617
 30
0.0
 10
34.0785219885
 20
19.2265957617
 30
0.0
  0
SPLINE
  5
48A
100
AcDbEntity
  8
00_COMPONENTS_3
100
AcDbSpline
 62
7
  6
BYLAYER
 70
0
 71
3
 72
11
 73
7
 74
0
 42
0.0000001
 43
0.0000001
 44
0.0000000001
 40
0.0
 40
0.0
 40
0.0
 40
0.0
 40
0.226719593
 40
0.4857833039
 40
0.7541387206
 40
1.0
 40
1.0
 40
1.0
 40
1.0
 10
34.833444671
 20
18.8324563781
 30
0.0
 10
34.8256228647
 20
18.823807783
 30
0.0
 10
34.8048484308
 20
18.8085396013
 30
0.0
 10
34.7656707142
 20
18.8003587625
 30
0.0
 10
34.7257451441
 20
18.8090024291
 30
0.0
 10
34.7031559121
 20
18.8238555843
 30
0.0
 10
34.6938857678
 20
18.8324563781
 30
0.0
  0
SPLINE
  5
48B
100
AcDbEntity
  8
00_COMPONENTS_3
100
AcDbSpline
 62
7
  6
BYLAYER
 70
0
 71
3
 72
9
 73
5
 74
0
 42
0.0000001
 43
0.0000001
 44
0.0000000001
 40
0.0
 40
0.0
 40
0.0
 40
0.0
 40
0.5211477129
 40
1.0
 40
1.0
 40
1.0
 40
1.0
 10
34.1639145163
 20
19.2265957617
 30
0.0
 10
34.2013278472
 20
19.2265957617
 30
0.0
 10
34.2737386346
 20
19.2104976459
 30
0.0
 10
34.3346118614
 20
19.1696690309
 30
0.0
 10
34.3595625826
 20
19.1460208828
 30
0.0
  0
SPLINE
  5
48C
100
AcDbEntity
  8
00_COMPONENTS_3
100
AcDbSpline
 62
7
  6
BYLAYER
 70
0
 71
3
 72
9
 73
5
 74
0
 42
0.0000001
 43
0.0000001
 44
0.0000000001
 40
0.0
 40
0.0
 40
0.0
 40
0.0
 40
0.5277513629
 40
1.0
 40
1.0
 40
1.0
 40
1.0
 10
35.9512912557
 20
18.803232081
 30
0.0
 10
35.937677844
 20
18.803232081
 30
0.0
 10
35.9115813868
 20
18.8087780593
 30
0.0
 10
35.8898369755
 20
18.8238206095
 30
0.0
 10
35.881245258
 20
18.8324563781
 30
0.0
  0
SPLINE
  5
48D
100
AcDbEntity
  8
00_COMPONENTS_3
100
AcDbSpline
 62
7
  6
BYLAYER
 70
0
 71
3
 72
9
 73
5
 74
0
 42
0.0000001
 43
0.0000001
 44
0.0000000001
 40
0.0
 40
0.0
 40
0.0
 40
0.0
 40
0.4722490341
 40
1.0
 40
1.0
 40
1.0
 40
1.0
 10
36.0213372535
 20
18.8324563781
 30
0.0
 10
36.0127455286
 20
18.8238206022
 30
0.0
 10
35.9910011158
 20
18.80877805
 30
0.0
 10
35.9649046574
 20
18.803232081
 30
0.0
 10
35.9512912557
 20
18.803232081
 30
0.0
  0
SPLINE
  5
48E
100
AcDbEntity
  8
00_COMPONENTS_3
100
AcDbSpline
 62
7
  6
BYLAYER
 70
0
 71
3
 72
11
 73
7
 74
0
 42
0.0000001
 43
0.0000001
 44
0.0000000001
 40
0.0
 40
0.0
 40
0.0
 40
0.0
 40
0.2458566362
 40
0.5142160971
 40
0.7732760962
 40
1.0
 40
1.0
 40
1.0
 40
1.0
 10
37.2086967437
 20
18.8324563781
 30
0.0
 10
37.1994267743
 20
18.8238557466
 30
0.0
 10
37.1768376073
 20
18.8090026045
 30
0.0
 10
37.1369122817
 20
18.8003587657
 30
0.0
 10
37.0977343066
 20
18.8085394254
 30
0.0
 10
37.0769597956
 20
18.8238076185
 30
0.0
 10
37.0691378405
 20
18.8324563781
 30
0.0
  0
SPLINE
  5
48F
100
AcDbEntity
  8
00_COMPONENTS_3
100
AcDbSpline
 62
7
  6
BYLAYER
 70
0
 71
3
 72
9
 73
5
 74
0
 42
0.0000001
 43
0.0000001
 44
0.0000000001
 40
0.0
 40
0.0
 40
0.0
 40
0.0
 40
0.4667755204
 40
1.0
 40
1.0
 40
1.0
 40
1.0
 10
35.1139751324
 20
19.1460208828
 30
0.0
 10
35.1350414214
 20
19.169816038
 30
0.0
 10
35.191270983
 20
19.211827406
 30
0.0
 10
35.2603870841
 20
19.2265957617
 30
0.0
 10
35.296691734
 20
19.2265957617
 30
0.0
  0
SPLINE
  5
490
100
AcDbEntity
  8
00_COMPONENTS_3
100
AcDbSpline
 62
7
  6
BYLAYER
 70
0
 71
3
 72
11
 73
7
 74
0
 42
0.0000001
 43
0.0000001
 44
0.0000000001
 40
0.0
 40
0.0
 40
0.0
 40
0.0
 40
0.255980412
 40
0.5284763942
 40
0.782292926
 40
1.0
 40
1.0
 40
1.0
 40
1.0
 10
38.3864866189
 20
18.8324563781
 30
0.0
 10
38.3766298463
 20
18.8239042101
 30
0.0
 10
38.3534301567
 20
18.8092430058
 30
0.0
 10
38.3135127939
 20
18.8003660462
 30
0.0
 10
38.2750575688
 20
18.8083151321
 30
0.0
 10
38.2554930807
 20
18.8238195052
 30
0.0
 10
38.2485229356
 20
18.8324563781
 30
0.0
  0
SPLINE
  5
491
100
AcDbEntity
  8
00_COMPONENTS_3
100
AcDbSpline
 62
7
  6
BYLAYER
 70
0
 71
3
 72
9
 73
5
 74
0
 42
0.0000001
 43
0.0000001
 44
0.0000000001
 40
0.0
 40
0.0
 40
0.0
 40
0.0
 40
0.527391241
 40
1.0
 40
1.0
 40
1.0
 40
1.0
 10
35.3827391345
 20
19.2265957617
 30
0.0
 10
35.4197323813
 20
19.2265957617
 30
0.0
 10
35.4906911269
 20
19.2111695006
 30
0.0
 10
35.5495150047
 20
19.1697696959
 30
0.0
 10
35.5726441141
 20
19.1460208828
 30
0.0
  0
SPLINE
  5
492
100
AcDbEntity
  8
00_COMPONENTS_3
100
AcDbSpline
 62
7
  6
BYLAYER
 70
0
 71
3
 72
11
 73
7
 74
0
 42
0.0000001
 43
0.0000001
 44
0.0000000001
 40
0.0
 40
0.0
 40
0.0
 40
0.0
 40
0.2665051319
 40
0.5428143035
 40
0.7908952507
 40
1.0
 40
1.0
 40
1.0
 40
1.0
 10
39.5457431869
 20
18.8324563781
 30
0.0
 10
39.5353950095
 20
18.8239638061
 30
0.0
 10
39.511780907
 20
18.8094921865
 30
0.0
 10
39.4721418762
 20
18.8003774262
 30
0.0
 10
39.4346114479
 20
18.80809746
 30
0.0
 10
39.4164682848
 20
18.823865652
 30
0.0
 10
39.4104247104
 20
18.8324563781
 30
0.0
  0
SPLINE
  5
493
100
AcDbEntity
  8
00_COMPONENTS_3
100
AcDbSpline
 62
7
  6
BYLAYER
 70
0
 71
3
 72
13
 73
9
 74
0
 42
0.0000001
 43
0.0000001
 44
0.0000000001
 40
0.0
 40
0.0
 40
0.0
 40
0.0
 40
0.2764232685
 40
0.5551544612
 40
0.6829546512
 40
0.7979971946
 40
0.9023059525
 40
1.0
 40
1.0
 40
1.0
 40
1.0
 10
40.6776438054
 20
18.8324563781
 30
0.0
 10
40.6669012865
 20
18.8240320277
 30
0.0
 10
40.6431217159
 20
18.8097378757
 30
0.0
 10
40.6093884068
 20
18.8017630843
 30
0.0
 10
40.5835315508
 20
18.8045745258
 30
0.0
 10
40.5673335809
 20
18.8108161887
 30
0.0
 10
40.554653876
 20
18.8203236489
 30
0.0
 10
40.5484663385
 20
18.8283093061
 30
0.0
 10
40.546000391
 20
18.8324563781
 30
0.0
  0
SPLINE
  5
494
100
AcDbEntity
  8
00_COMPONENTS_3
100
AcDbSpline
 62
7
  6
BYLAYER
 70
0
 71
3
 72
9
 73
5
 74
0
 42
0.0000001
 43
0.0000001
 44
0.0000000001
 40
0.0
 40
0.0
 40
0.0
 40
0.0
 40
0.4726088869
 40
1.0
 40
1.0
 40
1.0
 40
1.0
 10
36.3299383973
 20
19.1460208828
 30
0.0
 10
36.3530675131
 20
19.1697697024
 30
0.0
 10
36.4118913928
 20
19.2111695075
 30
0.0
 10
36.4828501391
 20
19.2265957617
 30
0.0
 10
36.519843377
 20
19.2265957617
 30
0.0
  0
SPLINE
  5
495
100
AcDbEntity
  8
00_COMPONENTS_3
100
AcDbSpline
 62
7
  6
BYLAYER
 70
0
 71
3
 72
14
 73
10
 74
0
 42
0.0000001
 43
0.0000001
 44
0.0000000001
 40
0.0
 40
0.0
 40
0.0
 40
0.0
 40
0.2872713047
 40
0.4319799116
 40
0.569836167
 40
0.6948413962
 40
0.8054741806
 40
0.9053831054
 40
1.0
 40
1.0
 40
1.0
 40
1.0
 10
41.7735740271
 20
18.8324563781
 30
0.0
 10
41.7625351384
 20
18.8241071651
 30
0.0
 10
41.7443523214
 20
18.813344953
 30
0.0
 10
41.7181021565
 20
18.8049373876
 30
0.0
 10
41.6984653172
 20
18.8025200675
 30
0.0
 10
41.6803815609
 20
18.8045332386
 30
0.0
 10
41.6652122419
 20
18.8107910859
 30
0.0
 10
41.6537764059
 20
18.8203803538
 30
0.0
 10
41.6485843092
 20
18.8283486117
 30
0.0
 10
41.6466075607
 20
18.8324563781
 30
0.0
  0
SPLINE
  5
496
100
AcDbEntity
  8
00_COMPONENTS_3
100
AcDbSpline
 62
7
  6
BYLAYER
 70
0
 71
3
 72
9
 73
5
 74
0
 42
0.0000001
 43
0.0000001
 44
0.0000000001
 40
0.0
 40
0.0
 40
0.0
 40
0.0
 40
0.5332246062
 40
1.0
 40
1.0
 40
1.0
 40
1.0
 10
36.6058907775
 20
19.2265957617
 30
0.0
 10
36.6421954358
 20
19.2265957617
 30
0.0
 10
36.7113115365
 20
19.2118273991
 30
0.0
 10
36.7675410959
 20
19.1698160315
 30
0.0
 10
36.7886073791
 20
19.1460208828
 30
0.0
  0
SPLINE
  5
497
100
AcDbEntity
  8
00_COMPONENTS_3
100
AcDbSpline
 62
7
  6
BYLAYER
 70
0
 71
3
 72
14
 73
10
 74
0
 42
0.0000001
 43
0.0000001
 44
0.0000000001
 40
0.0
 40
0.0
 40
0.0
 40
0.0
 40
0.2988894748
 40
0.4462770775
 40
0.5838382283
 40
0.7057175548
 40
0.8117485047
 40
0.9075483754
 40
1.0
 40
1.0
 40
1.0
 40
1.0
 10
42.8251931613
 20
18.8324563781
 30
0.0
 10
42.8139561039
 20
18.8241881047
 30
0.0
 10
42.7957614553
 20
18.8134772949
 30
0.0
 10
42.769756112
 20
18.804985549
 30
0.0
 10
42.750779308
 20
18.8025239761
 30
0.0
 10
42.7336151758
 20
18.8044878275
 30
0.0
 10
42.719569179
 20
18.8107817957
 30
0.0
 10
42.7094818189
 20
18.8204816188
 30
0.0
 10
42.7053465419
 20
18.8284015275
 30
0.0
 10
42.7038699344
 20
18.8324563781
 30
0.0
  0
SPLINE
  5
498
100
AcDbEntity
  8
00_COMPONENTS_3
100
AcDbSpline
 62
7
  6
BYLAYER
 70
0
 71
3
 72
14
 73
10
 74
0
 42
0.0000001
 43
0.0000001
 44
0.0000000001
 40
0.0
 40
0.0
 40
0.0
 40
0.0
 40
0.3108880514
 40
0.4607488407
 40
0.5975371273
 40
0.7156726649
 40
0.8167084781
 40
0.9086790868
 40
1.0
 40
1.0
 40
1.0
 40
1.0
 10
43.8244977515
 20
18.8324563781
 30
0.0
 10
43.8131602974
 20
18.8242741782
 30
0.0
 10
43.7950956917
 20
18.8136191402
 30
0.0
 10
43.7695226435
 20
18.805038422
 30
0.0
 10
43.7513465016
 20
18.8025295054
 30
0.0
 10
43.7352113531
 20
18.8044379302
 30
0.0
 10
43.7223737589
 20
18.8107989252
 30
0.0
 10
43.7137488827
 20
18.8206405376
 30
0.0
 10
43.7107158686
 20
18.828466734
 30
0.0
 10
43.709741107
 20
18.8324563781
 30
0.0
  0
SPLINE
  5
499
100
AcDbEntity
  8
00_COMPONENTS_3
100
AcDbSpline
 62
7
  6
BYLAYER
 70
0
 71
3
 72
9
 73
5
 74
0
 42
0.0000001
 43
0.0000001
 44
0.0000000001
 40
0.0
 40
0.0
 40
0.0
 40
0.0
 40
0.4788524161
 40
1.0
 40
1.0
 40
1.0
 40
1.0
 10
37.5430199289
 20
19.1460208828
 30
0.0
 10
37.5679706568
 20
19.1696690374
 30
0.0
 10
37.6288438854
 20
19.2104976529
 30
0.0
 10
37.7012546735
 20
19.2265957617
 30
0.0
 10
37.7386679952
 20
19.2265957617
 30
0.0
  0
SPLINE
  5
49A
100
AcDbEntity
  8
00_COMPONENTS_3
100
AcDbSpline
 62
7
  6
BYLAYER
 70
0
 71
3
 72
14
 73
10
 74
0
 42
0.0000001
 43
0.0000001
 44
0.0000000001
 40
0.0
 40
0.0
 40
0.0
 40
0.0
 40
0.3231785367
 40
0.4752117209
 40
0.6106097773
 40
0.7242280398
 40
0.8198367079
 40
0.9084649725
 40
1.0
 40
1.0
 40
1.0
 40
1.0
 10
44.7638824863
 20
18.8324563781
 30
0.0
 10
44.7525413077
 20
18.8243650471
 30
0.0
 10
44.7347474658
 20
18.8137723359
 30
0.0
 10
44.7097924194
 20
18.8050972968
 30
0.0
 10
44.6925532066
 20
18.8025375126
 30
0.0
 10
44.6775396728
 20
18.8043816318
 30
0.0
 10
44.6659897322
 20
18.8108610226
 30
0.0
 10
44.6589593018
 20
18.8208665006
 30
0.0
 10
44.6570460749
 20
18.8285397935
 30
0.0
 10
44.6565657916
 20
18.8324563781
 30
0.0
  0
SPLINE
  5
49B
100
AcDbEntity
  8
00_COMPONENTS_3
100
AcDbSpline
 62
7
  6
BYLAYER
 70
0
 71
3
 72
11
 73
7
 74
0
 42
0.0000001
 43
0.0000001
 44
0.0000000001
 40
0.0
 40
0.0
 40
0.0
 40
0.0
 40
0.2787063417
 40
0.5386718132
 40
0.7778474438
 40
1.0
 40
1.0
 40
1.0
 40
1.0
 10
37.824060523
 20
19.2265957617
 30
0.0
 10
37.8424739539
 20
19.2265957617
 30
0.0
 10
37.8782156777
 20
19.222698455
 30
0.0
 10
37.9270953015
 20
19.2054265618
 30
0.0
 10
37.9675426773
 20
19.1794759474
 30
0.0
 10
37.9890999193
 20
19.1575377472
 30
0.0
 10
37.9981981628
 20
19.1460208828
 30
0.0
  0
SPLINE
  5
49C
100
AcDbEntity
  8
00_COMPONENTS_3
100
AcDbSpline
 62
7
  6
BYLAYER
 70
0
 71
3
 72
15
 73
11
 74
0
 42
0.0000001
 43
0.0000001
 44
0.0000000001
 40
0.0
 40
0.0
 40
0.0
 40
0.0
 40
0.1702789934
 40
0.3358834672
 40
0.4895830332
 40
0.6227309879
 40
0.7308205203
 40
0.8205337703
 40
0.9065936986
 40
1.0
 40
1.0
 40
1.0
 40
1.0
 10
45.6361980806
 20
18.8324563781
 30
0.0
 10
45.6304873665
 20
18.8283975896
 30
0.0
 10
45.6188926835
 20
18.8208387622
 30
0.0
 10
45.6009795591
 20
18.8115383837
 30
0.0
 10
45.5834063801
 20
18.8051652481
 30
0.0
 10
45.5672393912
 20
18.8025486472
 30
0.0
 10
45.5534147622
 20
18.8043176856
 30
0.0
 10
45.5432401478
 20
18.8109970413
 30
0.0
 10
45.5379560647
 20
18.8211561183
 30
0.0
 10
45.5371380806
 20
18.828613169
 30
0.0
 10
45.5371380806
 20
18.8324563781
 30
0.0
  0
SPLINE
  5
49D
100
AcDbEntity
  8
00_COMPONENTS_3
100
AcDbSpline
 62
7
  6
BYLAYER
 70
0
 71
3
 72
9
 73
5
 74
0
 42
0.0000001
 43
0.0000001
 44
0.0000000001
 40
0.0
 40
0.0
 40
0.0
 40
0.0
 40
0.4854633634
 40
1.0
 40
1.0
 40
1.0
 40
1.0
 10
38.7439874442
 20
19.1460208828
 30
0.0
 10
38.7705082735
 20
19.1695275243
 30
0.0
 10
38.8328908578
 20
19.2098076529
 30
0.0
 10
38.9063283295
 20
19.2265957617
 30
0.0
 10
38.9438895971
 20
19.2265957617
 30
0.0
  0
SPLINE
  5
49E
100
AcDbEntity
  8
00_COMPONENTS_3
100
AcDbSpline
 62
7
  6
BYLAYER
 70
0
 71
3
 72
15
 73
11
 74
0
 42
0.0000001
 43
0.0000001
 44
0.0000000001
 40
0.0
 40
0.0
 40
0.0
 40
0.0
 40
0.1756028664
 40
0.3448230478
 40
0.5006927322
 40
0.6349837817
 40
0.7426134105
 40
0.8290421945
 40
0.9102414304
 40
1.0
 40
1.0
 40
1.0
 40
1.0
 10
46.434805686
 20
18.8324563781
 30
0.0
 10
46.4294945335
 20
18.8286671517
 30
0.0
 10
46.4188047579
 20
18.8215794221
 30
0.0
 10
46.4024575347
 20
18.8126452313
 30
0.0
 10
46.386599472
 20
18.8061866983
 30
0.0
 10
46.3720978648
 20
18.8029169029
 30
0.0
 10
46.3596693855
 20
18.8033224991
 30
0.0
 10
46.3501484389
 20
18.8082125273
 30
0.0
 10
46.3450984184
 20
18.8168156858
 30
0.0
 10
46.3443791114
 20
18.8232518769
 30
0.0
 10
46.344379217
 20
18.8265867453
 30
0.0
  0
SPLINE
  5
49F
100
AcDbEntity
  8
00_COMPONENTS_3
100
AcDbSpline
 62
7
  6
BYLAYER
 70
0
 71
3
 72
11
 73
7
 74
0
 42
0.0000001
 43
0.0000001
 44
0.0000000001
 40
0.0
 40
0.0
 40
0.0
 40
0.0
 40
0.2833965508
 40
0.5432193544
 40
0.7799943513
 40
1.0
 40
1.0
 40
1.0
 40
1.0
 10
39.0279773635
 20
19.2265957617
 30
0.0
 10
39.0459244567
 20
19.2265957617
 30
0.0
 10
39.0804963678
 20
19.2228109949
 30
0.0
 10
39.1273136854
 20
19.2055456629
 30
0.0
 10
39.1650262658
 20
19.1794811366
 30
0.0
 10
39.1843085063
 20
19.1574957682
 30
0.0
 10
39.1922107489
 20
19.1460208828
 30
0.0
  0
SPLINE
  5
4A0
100
AcDbEntity
  8
00_COMPONENTS_3
100
AcDbSpline
 62
7
  6
BYLAYER
 70
0
 71
3
 72
14
 73
10
 74
0
 42
0.0000001
 43
0.0000001
 44
0.0000000001
 40
0.0
 40
0.0
 40
0.0
 40
0.0
 40
0.1818722216
 40
0.3556881168
 40
0.5147283459
 40
0.65116119
 40
0.8390174084
 40
0.9148175006
 40
1.0
 40
1.0
 40
1.0
 40
1.0
 10
47.1536274166
 20
18.8324563781
 30
0.0
 10
47.1487344666
 20
18.8289251536
 30
0.0
 10
47.1389525565
 20
18.8222930944
 30
0.0
 10
47.1241874425
 20
18.8137434951
 30
0.0
 10
47.1098507351
 20
18.8072949138
 30
0.0
 10
47.0948445755
 20
18.8027474167
 30
0.0
 10
47.0794250792
 20
18.8029586847
 30
0.0
 10
47.0723662381
 20
18.8130223664
 30
0.0
 10
47.071769026
 20
18.8184694594
 30
0.0
 10
47.0717688959
 20
18.8212956234
 30
0.0
  0
SPLINE
  5
4A1
100
AcDbEntity
  8
00_COMPONENTS_3
100
AcDbSpline
 62
7
  6
BYLAYER
 70
0
 71
3
 72
9
 73
5
 74
0
 42
0.0000001
 43
0.0000001
 44
0.0000000001
 40
0.0
 40
0.0
 40
0.0
 40
0.0
 40
0.492435359
 40
1.0
 40
1.0
 40
1.0
 40
1.0
 10
39.9237008552
 20
19.1460208828
 30
0.0
 10
39.9515334889
 20
19.1693550161
 30
0.0
 10
40.0148874511
 20
19.2090933744
 30
0.0
 10
40.0888999179
 20
19.2265957617
 30
0.0
 10
40.1263357186
 20
19.2265957617
 30
0.0
  0
SPLINE
  5
4A2
100
AcDbEntity
  8
00_COMPONENTS_3
100
AcDbSpline
 62
7
  6
BYLAYER
 70
0
 71
3
 72
14
 73
10
 74
0
 42
0.0000001
 43
0.0000001
 44
0.0000000001
 40
0.0
 40
0.0
 40
0.0
 40
0.0
 40
0.3640578005
 40
0.525387129
 40
0.6633732093
 40
0.7719295178
 40
0.8526856341
 40
0.921637643
 40
1.0
 40
1.0
 40
1.0
 40
1.0
 10
47.7871926048
 20
18.8324563781
 30
0.0
 10
47.7784994806
 20
18.8260599413
 30
0.0
 10
47.765518832
 20
18.8173431792
 30
0.0
 10
47.7479517113
 20
18.808452112
 30
0.0
 10
47.7365310431
 20
18.8043138822
 30
0.0
 10
47.7269005475
 20
18.8027485493
 30
0.0
 10
47.7190018713
 20
18.8042911174
 30
0.0
 10
47.7142984371
 20
18.8097872284
 30
0.0
 10
47.7137710828
 20
18.8143008716
 30
0.0
 10
47.713771225
 20
18.8166239925
 30
0.0
  0
SPLINE
  5
4A3
100
AcDbEntity
  8
00_COMPONENTS_3
100
AcDbSpline
 62
7
  6
BYLAYER
 70
0
 71
3
 72
11
 73
7
 74
0
 42
0.0000001
 43
0.0000001
 44
0.0000000001
 40
0.0
 40
0.0
 40
0.0
 40
0.0
 40
0.2876550564
 40
0.5468250641
 40
0.7812007933
 40
1.0
 40
1.0
 40
1.0
 40
1.0
 10
40.208478765
 20
19.2265957617
 30
0.0
 10
40.2258249572
 20
19.2265957617
 30
0.0
 10
40.2589905939
 20
19.2229267874
 30
0.0
 10
40.3034258802
 20
19.2056489335
 30
0.0
 10
40.3381182819
 20
19.1794231754
 30
0.0
 10
40.3549205788
 20
19.1574238498
 30
0.0
 10
40.3615579808
 20
19.1460208828
 30
0.0
  0
SPLINE
  5
4A4
100
AcDbEntity
  8
00_COMPONENTS_3
100
AcDbSpline
 62
7
  6
BYLAYER
 70
0
 71
3
 72
15
 73
11
 74
0
 42
0.0000001
 43
0.0000001
 44
0.0000000001
 40
0.0
 40
0.0
 40
0.0
 40
0.0
 40
0.3738980967
 40
0.5382545639
 40
0.6786041062
 40
0.7885337811
 40
0.8674476356
 40
0.8993267228
 40
0.9301103952
 40
1.0
 40
1.0
 40
1.0
 40
1.0
 10
48.330679437
 20
18.8324563781
 30
0.0
 10
48.3228563931
 20
18.8265394546
 30
0.0
 10
48.3112745878
 20
18.8183962088
 30
0.0
 10
48.2957475202
 20
18.8096660748
 30
0.0
 10
48.2857482174
 20
18.8052837729
 30
0.0
 10
48.277391672
 20
18.8030506466
 30
0.0
 10
48.2713572613
 20
18.8032727718
 30
0.0
 10
48.2680794423
 20
18.8051901563
 30
0.0
 10
48.2659061534
 20
18.8080017245
 30
0.0
 10
48.2654994405
 20
18.8107741157
 30
0.0
 10
48.2654995287
 20
18.8126075673
 30
0.0
  0
SPLINE
  5
4A5
100
AcDbEntity
  8
00_COMPONENTS_3
100
AcDbSpline
 62
7
  6
BYLAYER
 70
0
 71
3
 72
9
 73
5
 74
0
 42
0.0000001
 43
0.0000001
 44
0.0000000001
 40
0.0
 40
0.0
 40
0.0
 40
0.0
 40
0.4997903927
 40
1.0
 40
1.0
 40
1.0
 40
1.0
 10
41.0731818305
 20
19.1460208828
 30
0.0
 10
41.1020637638
 20
19.1691584957
 30
0.0
 10
41.1658528621
 20
19.2083471588
 30
0.0
 10
41.2399692286
 20
19.2265957617
 30
0.0
 10
41.2770072308
 20
19.2265957617
 30
0.0
  0
SPLINE
  5
4A6
100
AcDbEntity
  8
00_COMPONENTS_3
100
AcDbSpline
 62
7
  6
BYLAYER
 70
0
 71
3
 72
17
 73
13
 74
0
 42
0.0000001
 43
0.0000001
 44
0.0000000001
 40
0.0
 40
0.0
 40
0.0
 40
0.0
 40
0.1980939357
 40
0.383772732
 40
0.551369937
 40
0.6944430375
 40
0.8065011586
 40
0.8499121223
 40
0.8853057003
 40
0.9144891352
 40
0.9408030335
 40
1.0
 40
1.0
 40
1.0
 40
1.0
 10
48.7799516502
 20
18.8324563781
 30
0.0
 10
48.7763568479
 20
18.8296373117
 30
0.0
 10
48.7693086419
 20
18.8242807536
 30
0.0
 10
48.7588882345
 20
18.8169887523
 30
0.0
 10
48.7491710881
 20
18.8109190689
 30
0.0
 10
48.7405257547
 20
18.8064035444
 30
0.0
 10
48.7340436796
 20
18.8039480197
 30
0.0
 10
48.7296868442
 20
18.8032116449
 30
0.0
 10
48.7271757392
 20
18.8032727878
 30
0.0
 10
48.725139917
 20
18.8039371698
 30
0.0
 10
48.7231151285
 20
18.8057732762
 30
0.0
 10
48.7227577893
 20
18.807913954
 30
0.0
 10
48.722756852
 20
18.8092791238
 30
0.0
  0
SPLINE
  5
4A7
100
AcDbEntity
  8
00_COMPONENTS_3
100
AcDbSpline
 62
7
  6
BYLAYER
 70
0
 71
3
 72
11
 73
7
 74
0
 42
0.0000001
 43
0.0000001
 44
0.0000000001
 40
0.0
 40
0.0
 40
0.0
 40
0.0
 40
0.2912641486
 40
0.5490876818
 40
0.7811124008
 40
1.0
 40
1.0
 40
1.0
 40
1.0
 10
41.356580399
 20
19.2265957617
 30
0.0
 10
41.3731959193
 20
19.2265957617
 30
0.0
 10
41.4047344465
 20
19.2230478812
 30
0.0
 10
41.4464944165
 20
19.2057276046
 30
0.0
 10
41.4778885797
 20
19.1792770305
 30
0.0
 10
41.4920191779
 20
19.1573170035
 30
0.0
 10
41.4973404199
 20
19.1460208828
 30
0.0
  0
SPLINE
  5
4A8
100
AcDbEntity
  8
00_COMPONENTS_3
100
AcDbSpline
 62
7
  6
BYLAYER
 70
0
 71
3
 72
13
 73
9
 74
0
 42
0.0000001
 43
0.0000001
 44
0.0000000001
 40
0.0
 40
0.0
 40
0.0
 40
0.0
 40
0.4033551196
 40
0.5783742937
 40
0.7294239476
 40
0.8514054973
 40
0.9390591002
 40
1.0
 40
1.0
 40
1.0
 40
1.0
 10
49.5320238784
 20
18.8324563781
 30
0.0
 10
49.5274966612
 20
18.8282560485
 30
0.0
 10
49.5209978836
 20
18.8222919413
 30
0.0
 10
49.5125500369
 20
18.8148595655
 30
0.0
 10
49.5074955293
 20
18.8105095286
 30
0.0
 10
49.5027430378
 20
18.8067735533
 30
0.0
 10
49.5004762629
 20
18.8049564446
 30
0.0
 10
49.4966393667
 20
18.8027106888
 30
0.0
 10
49.4966401155
 20
18.8036437341
 30
0.0
  0
SPLINE
  5
4A9
100
AcDbEntity
  8
00_COMPONENTS_3
100
AcDbSpline
 62
7
  6
BYLAYER
 70
0
 71
3
 72
13
 73
9
 74
0
 42
0.0000001
 43
0.0000001
 44
0.0000000001
 40
0.0
 40
0.0
 40
0.0
 40
0.0
 40
0.341411691
 40
0.6383167828
 40
0.7625571992
 40
0.8659968688
 40
0.9455762534
 40
1.0
 40
1.0
 40
1.0
 40
1.0
 10
49.50954768
 20
19.1460208828
 30
0.0
 10
49.5223062137
 20
19.1567172951
 30
0.0
 10
49.5464619205
 20
19.1763542234
 30
0.0
 10
49.5763163613
 20
19.198579623
 30
0.0
 10
49.5977224911
 20
19.2125859952
 30
0.0
 10
49.6107430916
 20
19.2200670308
 30
0.0
 10
49.6212565978
 20
19.2248582617
 30
0.0
 10
49.6277028355
 20
19.2265957617
 30
0.0
 10
49.6303568391
 20
19.2265957617
 30
0.0
  0
SPLINE
  5
4AA
100
AcDbEntity
  8
00_COMPONENTS_3
100
AcDbSpline
 62
7
  6
BYLAYER
 70
0
 71
3
 72
9
 73
5
 74
0
 42
0.0000001
 43
0.0000001
 44
0.0000000001
 40
0.0
 40
0.0
 40
0.0
 40
0.0
 40
0.5075746382
 40
1.0
 40
1.0
 40
1.0
 40
1.0
 10
42.1836821259
 20
19.1460208828
 30
0.0
 10
42.2133487317
 20
19.1689427529
 30
0.0
 10
42.2770399985
 20
19.2075597953
 30
0.0
 10
42.3507755176
 20
19.2265957617
 30
0.0
 10
42.3871468287
 20
19.2265957617
 30
0.0
  0
SPLINE
  5
4AB
100
AcDbEntity
  8
00_COMPONENTS_3
100
AcDbSpline
 62
7
  6
BYLAYER
 70
0
 71
3
 72
9
 73
5
 74
0
 42
0.0000001
 43
0.0000001
 44
0.0000000001
 40
0.0
 40
0.0
 40
0.0
 40
0.0
 40
0.3901173518
 40
1.0
 40
1.0
 40
1.0
 40
1.0
 10
49.0855089668
 20
18.8032627501
 30
0.0
 10
49.0877718486
 20
18.8032876217
 30
0.0
 10
49.0933722281
 20
18.8054592803
 30
0.0
 10
49.0983735182
 20
18.8082748113
 30
0.0
 10
49.1013818385
 20
18.8101366314
 30
0.0
  0
LINE
  5
4AC
100
AcDbEntity
  8
00_COMPONENTS_3
100
AcDbLine
 62
7
  6
BYLAYER
 10
49.1013818385
 20
18.8101366314
 11
49.1073831321
 21
18.814051065
  0
SPLINE
  5
4AD
100
AcDbEntity
  8
00_COMPONENTS_3
100
AcDbSpline
 62
7
  6
BYLAYER
 70
0
 71
3
 72
9
 73
5
 74
0
 42
0.0000001
 43
0.0000001
 44
0.0000000001
 40
0.0
 40
0.0
 40
0.0
 40
0.0
 40
0.2290081102
 40
1.0
 40
1.0
 40
1.0
 40
1.0
 10
49.1073831321
 20
18.814051065
 30
0.0
 10
49.1093014264
 20
18.8153590455
 30
0.0
 10
49.1175795442
 20
18.8212148353
 30
0.0
 10
49.1255476788
 20
18.8274975389
 30
0.0
 10
49.1315900118
 20
18.8324563781
 30
0.0
  0
SPLINE
  5
4AE
100
AcDbEntity
  8
00_COMPONENTS_3
100
AcDbSpline
 62
7
  6
BYLAYER
 70
0
 71
3
 72
11
 73
7
 74
0
 42
0.0000001
 43
0.0000001
 44
0.0000000001
 40
0.0
 40
0.0
 40
0.0
 40
0.0
 40
0.2938822474
 40
0.5494131926
 40
0.7792362652
 40
1.0
 40
1.0
 40
1.0
 40
1.0
 10
42.4635445188
 20
19.2265957617
 30
0.0
 10
42.4793054684
 20
19.2265957617
 30
0.0
 10
42.5090155496
 20
19.2231770842
 30
0.0
 10
42.5478362875
 20
19.2057660788
 30
0.0
 10
42.5756488499
 20
19.1790108123
 30
0.0
 10
42.5869386033
 20
19.157173083
 30
0.0
 10
42.5909140761
 20
19.1460208828
 30
0.0
  0
SPLINE
  5
4AF
100
AcDbEntity
  8
00_COMPONENTS_3
100
AcDbSpline
 62
7
  6
BYLAYER
 70
0
 71
3
 72
10
 73
6
 74
0
 42
0.0000001
 43
0.0000001
 44
0.0000000001
 40
0.0
 40
0.0
 40
0.0
 40
0.0
 40
0.5146623063
 40
0.7670876408
 40
1.0
 40
1.0
 40
1.0
 40
1.0
 10
43.2467501635
 20
19.1460208828
 30
0.0
 10
43.2769365557
 20
19.1687109318
 30
0.0
 10
43.3258218974
 20
19.1981485296
 30
0.0
 10
43.3955617844
 20
19.2217199771
 30
0.0
 10
43.4312158177
 20
19.2265957617
 30
0.0
 10
43.4483056796
 20
19.2265957617
 30
0.0
  0
SPLINE
  5
4B0
100
AcDbEntity
  8
00_COMPONENTS_3
100
AcDbSpline
 62
7
  6
BYLAYER
 70
0
 71
3
 72
11
 73
7
 74
0
 42
0.0000001
 43
0.0000001
 44
0.0000000001
 40
0.0
 40
0.0
 40
0.0
 40
0.0
 40
0.2949941598
 40
0.5469537072
 40
0.7749204173
 40
1.0
 40
1.0
 40
1.0
 40
1.0
 10
43.5209464591
 20
19.2265957617
 30
0.0
 10
43.5357358848
 20
19.2265957617
 30
0.0
 10
43.5634411774
 20
19.2233185474
 30
0.0
 10
43.5990874575
 20
19.2057367993
 30
0.0
 10
43.6230100248
 20
19.178589645
 30
0.0
 10
43.6313313863
 20
19.1569956468
 30
0.0
 10
43.6339561935
 20
19.1460208828
 30
0.0
  0
SPLINE
  5
4B1
100
AcDbEntity
  8
00_COMPONENTS_3
100
AcDbSpline
 62
7
  6
BYLAYER
 70
0
 71
3
 72
10
 73
6
 74
0
 42
0.0000001
 43
0.0000001
 44
0.0000000001
 40
0.0
 40
0.0
 40
0.0
 40
0.0
 40
0.5235188636
 40
0.7742084075
 40
1.0
 40
1.0
 40
1.0
 40
1.0
 10
44.2542953537
 20
19.1460208828
 30
0.0
 10
44.2847381842
 20
19.1684649506
 30
0.0
 10
44.333214682
 20
19.1977353463
 30
0.0
 10
44.4016518537
 20
19.221559094
 30
0.0
 10
44.4360952556
 20
19.2265957617
 30
0.0
 10
44.452407724
 20
19.2265957617
 30
0.0
  0
SPLINE
  5
4B2
100
AcDbEntity
  8
00_COMPONENTS_3
100
AcDbSpline
 62
7
  6
BYLAYER
 70
0
 71
3
 72
11
 73
7
 74
0
 42
0.0000001
 43
0.0000001
 44
0.0000000001
 40
0.0
 40
0.0
 40
0.0
 40
0.0
 40
0.2938548269
 40
0.5405569069
 40
0.767365814
 40
1.0
 40
1.0
 40
1.0
 40
1.0
 10
44.5207387526
 20
19.2265957617
 30
0.0
 10
44.5344477309
 20
19.2265957617
 30
0.0
 10
44.5600060061
 20
19.2234780601
 30
0.0
 10
44.5922602088
 20
19.2055927071
 30
0.0
 10
44.6119370803
 20
19.1779874257
 30
0.0
 10
44.6172350898
 20
19.156796424
 30
0.0
 10
44.6185285918
 20
19.1460208828
 30
0.0
  0
SPLINE
  5
4B3
100
AcDbEntity
  8
00_COMPONENTS_2
100
AcDbSpline
 62
7
  6
BYLAYER
 70
0
 71
3
 72
20
 73
16
 74
0
 42
0.0000001
 43
0.0000001
 44
0.0000000001
 40
0.0
 40
0.0
 40
0.0
 40
0.0
 40
0.0943274732
 40
0.1882646185
 40
0.2811366338
 40
0.3036955018
 40
0.3254601281
 40
0.3455722082
 40
0.3630201125
 40
0.4376317792
 40
0.5040240495
 40
0.5933350523
 40
0.707289855
 40
0.8439263497
 40
1.0
 40
1.0
 40
1.0
 40
1.0
 10
33.5560946748
 20
7.0956846193
 30
0.0
 10
33.5280447548
 20
7.0956902551
 30
0.0
 10
33.4716162625
 20
7.1051317518
 30
0.0
 10
33.3968991706
 20
7.145726214
 30
0.0
 10
33.353882865
 20
7.1924664122
 30
0.0
 10
33.3327994069
 20
7.2274186221
 30
0.0
 10
33.3242789398
 20
7.2446059931
 30
0.0
 10
33.3174907107
 20
7.2608961204
 30
0.0
 10
33.306312519
 20
7.2923551365
 30
0.0
 10
33.2984598145
 20
7.3391426018
 30
0.0
 10
33.2913822939
 20
7.4071819843
 30
0.0
 10
33.2844057218
 20
7.4870991124
 30
0.0
 10
33.2766926083
 20
7.5878694151
 30
0.0
 10
33.2682500481
 20
7.708508133
 30
0.0
 10
33.2626082946
 20
7.7953667971
 30
0.0
 10
33.2596869961
 20
7.8416859912
 30
0.0
  0
SPLINE
  5
4B4
100
AcDbEntity
  8
00_COMPONENTS_2
100
AcDbSpline
 62
7
  6
BYLAYER
 70
0
 71
3
 72
18
 73
14
 74
0
 42
0.0000001
 43
0.0000001
 44
0.0000000001
 40
0.0
 40
0.0
 40
0.0
 40
0.0
 40
0.1561531397
 40
0.292855891
 40
0.4068546821
 40
0.4961861037
 40
0.562563058
 40
0.5923718238
 40
0.6372863702
 40
0.7188507056
 40
0.8116304368
 40
0.9055959675
 40
1.0
 40
1.0
 40
1.0
 40
1.0
 10
38.6428049621
 20
7.8416835709
 30
0.0
 10
38.6398823509
 20
7.7953493538
 30
0.0
 10
38.634237732
 20
7.7084622781
 30
0.0
 10
38.6257933626
 20
7.5877943025
 30
0.0
 10
38.6180732436
 20
7.4869908216
 30
0.0
 10
38.6111069408
 20
7.4071082674
 30
0.0
 10
38.6053790377
 20
7.3522371456
 30
0.0
 10
38.599269639
 20
7.3107230768
 30
0.0
 10
38.5887277644
 20
7.2653577498
 30
0.0
 10
38.5606630596
 20
7.2055135155
 30
0.0
 10
38.505621965
 20
7.1457828734
 30
0.0
 10
38.4309096035
 20
7.1051313361
 30
0.0
 10
38.3744592493
 20
7.0956729086
 30
0.0
 10
38.3463917479
 20
7.0956959069
 30
0.0
  0
SPLINE
  5
4B5
100
AcDbEntity
  8
00_COMPONENTS_2
100
AcDbSpline
 62
7
  6
BYLAYER
 70
0
 71
3
 72
14
 73
10
 74
0
 42
0.0000001
 43
0.0000001
 44
0.0000000001
 40
0.0
 40
0.0
 40
0.0
 40
0.0
 40
0.0826099254
 40
0.173562048
 40
0.2780423007
 40
0.3981426276
 40
0.5331876236
 40
0.6809619025
 40
1.0
 40
1.0
 40
1.0
 40
1.0
 10
33.259687565
 20
7.841675571
 30
0.0
 10
33.2602112542
 20
7.8334617385
 30
0.0
 10
33.2648702837
 20
7.8163042458
 30
0.0
 10
33.2812145335
 20
7.7934147616
 30
0.0
 10
33.3058149448
 20
7.773399247
 30
0.0
 10
33.3376770737
 20
7.7566358706
 30
0.0
 10
33.375751771
 20
7.7435102602
 30
0.0
 10
33.4345462594
 20
7.7312053347
 30
0.0
 10
33.4814318753
 20
7.7291704513
 30
0.0
 10
33.5131824397
 20
7.7306727719
 30
0.0
  0
SPLINE
  5
4B6
100
AcDbEntity
  8
00_COMPONENTS_2
100
AcDbSpline
 62
7
  6
BYLAYER
 70
0
 71
3
 72
23
 73
19
 74
0
 42
0.0000001
 43
0.0000001
 44
0.0000000001
 40
0.0
 40
0.0
 40
0.0
 40
0.0
 40
0.0014803232
 40
0.0048720165
 40
0.0103357484
 40
0.0178988932
 40
0.0275691293
 40
0.0393471312
 40
0.0691714134
 40
0.1072295394
 40
0.153367228
 40
0.2074059012
 40
0.26908883
 40
0.3381418177
 40
0.4142862426
 40
0.5865381372
 40
0.7830166153
 40
1.0
 40
1.0
 40
1.0
 40
1.0
 10
33.5560851702
 20
7.0956872114
 30
0.0
 10
33.5557709554
 20
7.0956923602
 30
0.0
 10
33.5551776937
 20
7.0968569619
 30
0.0
 10
33.5546173921
 20
7.0987612893
 30
0.0
 10
33.5538592224
 20
7.102281357
 30
0.0
 10
33.5530864703
 20
7.1069885894
 30
0.0
 10
33.5522288788
 20
7.1131067234
 30
0.0
 10
33.5509152525
 20
7.1239032538
 30
0.0
 10
33.5491850251
 20
7.1407324848
 30
0.0
 10
33.5470256108
 20
7.1648389965
 30
0.0
 10
33.5446688158
 20
7.1940911488
 30
0.0
 10
33.5421272952
 20
7.2283578838
 30
0.0
 10
33.5394136846
 20
7.2674898181
 30
0.0
 10
33.5365408185
 20
7.3113143112
 30
0.0
 10
33.5323410773
 20
7.3785745449
 30
0.0
 10
33.5268284619
 20
7.4728560769
 30
0.0
 10
33.5200351268
 20
7.5970113825
 30
0.0
 10
33.5155035344
 20
7.6846680355
 30
0.0
 10
33.5131822211
 20
7.7306727819
 30
0.0
  0
SPLINE
  5
4B7
100
AcDbEntity
  8
00_COMPONENTS_2
100
AcDbSpline
 62
7
  6
BYLAYER
 70
0
 71
3
 72
23
 73
19
 74
0
 42
0.0000001
 43
0.0000001
 44
0.0000000001
 40
0.0
 40
0.0
 40
0.0
 40
0.0
 40
0.2169834197
 40
0.4134620207
 40
0.5857139785
 40
0.6618584222
 40
0.7309114277
 40
0.7925943764
 40
0.8466330748
 40
0.8927707932
 40
0.9308289357
 40
0.9606531977
 40
0.9724311687
 40
0.9821013603
 40
0.9896644549
 40
0.9951281378
 40
0.998519781
 40
1.0
 40
1.0
 40
1.0
 40
1.0
 10
38.3893098707
 20
7.7306727819
 30
0.0
 10
38.3869882702
 20
7.6846680515
 30
0.0
 10
38.3824561506
 20
7.5970114093
 30
0.0
 10
38.3756622092
 20
7.4728561142
 30
0.0
 10
38.3701492873
 20
7.3785745751
 30
0.0
 10
38.3659493955
 20
7.3113143427
 30
0.0
 10
38.3630764594
 20
7.2674898507
 30
0.0
 10
38.3603628206
 20
7.2283579126
 30
0.0
 10
38.3578213153
 20
7.1940911674
 30
0.0
 10
38.3554645842
 20
7.1648390004
 30
0.0
 10
38.3533052603
 20
7.1407324804
 30
0.0
 10
38.3515751201
 20
7.1239032498
 30
0.0
 10
38.3502615517
 20
7.1131067371
 30
0.0
 10
38.3494040002
 20
7.1069886212
 30
0.0
 10
38.3486312744
 20
7.1022814279
 30
0.0
 10
38.3478731817
 20
7.0987613528
 30
0.0
 10
38.3473128958
 20
7.0968571065
 30
0.0
 10
38.3467197836
 20
7.0956924476
 30
0.0
 10
38.3464055912
 20
7.0956872845
 30
0.0
  0
SPLINE
  5
4B8
100
AcDbEntity
  8
00_COMPONENTS_2
100
AcDbSpline
 62
7
  6
BYLAYER
 70
0
 71
3
 72
14
 73
10
 74
0
 42
0.0000001
 43
0.0000001
 44
0.0000000001
 40
0.0
 40
0.0
 40
0.0
 40
0.0
 40
0.3189378959
 40
0.466653465
 40
0.6017019673
 40
0.7218301962
 40
0.8263688987
 40
0.9173725501
 40
1.0
 40
1.0
 40
1.0
 40
1.0
 10
38.3893099584
 20
7.7306727833
 30
0.0
 10
38.4210508128
 20
7.729170716
 30
0.0
 10
38.4679206096
 20
7.7312033781
 30
0.0
 10
38.5267016632
 20
7.7434988788
 30
0.0
 10
38.5647757611
 20
7.7566186663
 30
0.0
 10
38.5966498006
 20
7.7733787727
 30
0.0
 10
38.6212659435
 20
7.7933983492
 30
0.0
 10
38.6376174524
 20
7.8162986601
 30
0.0
 10
38.6422813575
 20
7.8334623218
 30
0.0
 10
38.6428049359
 20
7.8416779815
 30
0.0
  0
SPLINE
  5
4B9
100
AcDbEntity
  8
0
100
AcDbSpline
 62
7
  6
BYLAYER
 70
0
 71
3
 72
11
 73
7
 74
0
 42
0.0000001
 43
0.0000001
 44
0.0000000001
 40
0.0
 40
0.0
 40
0.0
 40
0.0
 40
0.2321786272
 40
0.4789529933
 40
0.7365927127
 40
1.0
 40
1.0
 40
1.0
 40
1.0
 10
14.3234297867
 20
83.9220865805
 30
0.0
 10
14.4461939068
 20
84.0200769908
 30
0.0
 10
14.7215631702
 20
84.1954031817
 30
0.0
 10
15.1851043847
 20
84.3843363159
 30
0.0
 10
15.6934034569
 20
84.5009949056
 30
0.0
 10
16.0464870934
 20
84.5271707972
 30
0.0
 10
16.2246912557
 20
84.5271707972
 30
0.0
  0
SPLINE
  5
4BA
100
AcDbEntity
  8
0
100
AcDbSpline
 62
7
  6
BYLAYER
 70
0
 71
3
 72
9
 73
5
 74
0
 42
0.0000001
 43
0.0000001
 44
0.0000000001
 40
0.0
 40
0.0
 40
0.0
 40
0.0
 40
0.2573487613
 40
1.0
 40
1.0
 40
1.0
 40
1.0
 10
16.2246912557
 20
84.5271707972
 30
0.0
 10
16.3487470219
 20
84.5271707972
 30
0.0
 10
16.8301838363
 20
84.5023164895
 30
0.0
 10
17.308810088
 20
84.378458053
 30
0.0
 10
17.6326990125
 20
84.2259521519
 30
0.0
  0
SPLINE
  5
4BB
100
AcDbEntity
  8
0
100
AcDbSpline
 62
7
  6
BYLAYER
 70
0
 71
3
 72
9
 73
5
 74
0
 42
0.0000001
 43
0.0000001
 44
0.0000000001
 40
0.0
 40
0.0
 40
0.0
 40
0.0
 40
0.2477717144
 40
1.0
 40
1.0
 40
1.0
 40
1.0
 10
13.7372557523
 20
74.2399819661
 30
0.0
 10
13.7423499007
 20
74.2574147868
 30
0.0
 10
13.7643222484
 20
74.3273543976
 30
0.0
 10
13.7918870268
 20
74.3955234166
 30
0.0
 10
13.8154297867
 20
74.4453836505
 30
0.0
  0
SPLINE
  5
4BC
100
AcDbEntity
  8
0
100
AcDbSpline
 62
7
  6
BYLAYER
 70
0
 71
3
 72
9
 73
5
 74
0
 42
0.0000001
 43
0.0000001
 44
0.0000000001
 40
0.0
 40
0.0
 40
0.0
 40
0.0
 40
0.2477717144
 40
1.0
 40
1.0
 40
1.0
 40
1.0
 10
13.7372557523
 20
83.0945145015
 30
0.0
 10
13.7423499007
 20
83.1119473222
 30
0.0
 10
13.7643222484
 20
83.1818869329
 30
0.0
 10
13.7918870268
 20
83.250055952
 30
0.0
 10
13.8154297867
 20
83.2999161859
 30
0.0
  0
SPLINE
  5
4BD
100
AcDbEntity
  8
0
100
AcDbSpline
 62
7
  6
BYLAYER
 70
0
 71
3
 72
14
 73
10
 74
0
 42
0.0000001
 43
0.0000001
 44
0.0000000001
 40
0.0
 40
0.0
 40
0.0
 40
0.0
 40
0.132142359
 40
0.2663158809
 40
0.4002889432
 40
0.5319213427
 40
0.6591968977
 40
0.7804309731
 40
1.0
 40
1.0
 40
1.0
 40
1.0
 10
15.5754943513
 20
83.0737346235
 30
0.0
 10
15.7503956737
 20
83.1187482459
 30
0.0
 10
16.0976418296
 20
83.2311266781
 30
0.0
 10
16.5964282206
 20
83.4585530301
 30
0.0
 10
17.0657824372
 20
83.7406548176
 30
0.0
 10
17.4920523041
 20
84.0690720349
 30
0.0
 10
17.8632429426
 20
84.4350240969
 30
0.0
 10
18.2564570648
 20
84.9403327614
 30
0.0
 10
18.4635928502
 20
85.3705582021
 30
0.0
 10
18.5360912557
 20
85.6617573648
 30
0.0
  0
SPLINE
  5
4BE
100
AcDbEntity
  8
0
100
AcDbSpline
 62
7
  6
BYLAYER
 70
0
 71
3
 72
13
 73
9
 74
0
 42
0.0000001
 43
0.0000001
 44
0.0000000001
 40
0.0
 40
0.0
 40
0.0
 40
0.0
 40
0.1056420789
 40
0.2162752006
 40
0.3325821657
 40
0.4549973815
 40
0.7173494177
 40
1.0
 40
1.0
 40
1.0
 40
1.0
 10
13.0685386515
 20
83.4343185977
 30
0.0
 10
13.1384987187
 20
83.373892989
 30
0.0
 10
13.2927412748
 20
83.2624995637
 30
0.0
 10
13.5532383542
 20
83.1304906349
 30
0.0
 10
13.8436500593
 20
83.031983699
 30
0.0
 10
14.2744437161
 20
82.9450997945
 30
0.0
 10
14.8630532834
 20
82.9314130634
 30
0.0
 10
15.3359648701
 20
83.012087922
 30
0.0
 10
15.5754943513
 20
83.0737346235
 30
0.0
  0
SPLINE
  5
4BF
100
AcDbEntity
  8
0
100
AcDbSpline
 62
7
  6
BYLAYER
 70
0
 71
3
 72
9
 73
5
 74
0
 42
0.0000001
 43
0.0000001
 44
0.0000000001
 40
0.0
 40
0.0
 40
0.0
 40
0.0
 40
0.2573487613
 40
1.0
 40
1.0
 40
1.0
 40
1.0
 10
16.2246912557
 20
75.6726382618
 30
0.0
 10
16.3487470219
 20
75.6726382618
 30
0.0
 10
16.8301838363
 20
75.6477839541
 30
0.0
 10
17.308810088
 20
75.5239255176
 30
0.0
 10
17.6326990125
 20
75.3714196165
 30
0.0
  0
SPLINE
  5
4C0
100
AcDbEntity
  8
0
100
AcDbSpline
 62
7
  6
BYLAYER
 70
0
 71
3
 72
11
 73
7
 74
0
 42
0.0000001
 43
0.0000001
 44
0.0000000001
 40
0.0
 40
0.0
 40
0.0
 40
0.0
 40
0.2321786272
 40
0.4789529933
 40
0.7365927127
 40
1.0
 40
1.0
 40
1.0
 40
1.0
 10
14.3234297867
 20
75.0675540452
 30
0.0
 10
14.4461939068
 20
75.1655444555
 30
0.0
 10
14.7215631702
 20
75.3408706464
 30
0.0
 10
15.1851043847
 20
75.5298037806
 30
0.0
 10
15.6934034569
 20
75.6464623702
 30
0.0
 10
16.0464870934
 20
75.6726382618
 30
0.0
 10
16.2246912557
 20
75.6726382618
 30
0.0
  0
SPLINE
  5
4C1
100
AcDbEntity
  8
0
100
AcDbSpline
 62
7
  6
BYLAYER
 70
0
 71
3
 72
14
 73
10
 74
0
 42
0.0000001
 43
0.0000001
 44
0.0000000001
 40
0.0
 40
0.0
 40
0.0
 40
0.0
 40
0.132142359
 40
0.2663158809
 40
0.4002889432
 40
0.5319213427
 40
0.6591968977
 40
0.7804309731
 40
1.0
 40
1.0
 40
1.0
 40
1.0
 10
15.5754943513
 20
74.2192020881
 30
0.0
 10
15.7503956737
 20
74.2642157105
 30
0.0
 10
16.0976418296
 20
74.3765941427
 30
0.0
 10
16.5964282206
 20
74.6040204948
 30
0.0
 10
17.0657824372
 20
74.8861222822
 30
0.0
 10
17.4920523041
 20
75.2145394995
 30
0.0
 10
17.8632429426
 20
75.5804915615
 30
0.0
 10
18.2564570648
 20
76.0858002261
 30
0.0
 10
18.4635928502
 20
76.5160256668
 30
0.0
 10
18.5360912557
 20
76.8072248295
 30
0.0
  0
SPLINE
  5
4C2
100
AcDbEntity
  8
0
100
AcDbSpline
 62
7
  6
BYLAYER
 70
0
 71
3
 72
13
 73
9
 74
0
 42
0.0000001
 43
0.0000001
 44
0.0000000001
 40
0.0
 40
0.0
 40
0.0
 40
0.0
 40
0.1056420789
 40
0.2162752006
 40
0.3325821657
 40
0.4549973815
 40
0.7173494177
 40
1.0
 40
1.0
 40
1.0
 40
1.0
 10
13.0685386515
 20
74.5797860623
 30
0.0
 10
13.1384987187
 20
74.5193604537
 30
0.0
 10
13.2927412748
 20
74.4079670283
 30
0.0
 10
13.5532383542
 20
74.2759580995
 30
0.0
 10
13.8436500593
 20
74.1774511637
 30
0.0
 10
14.2744437161
 20
74.0905672591
 30
0.0
 10
14.8630532834
 20
74.0768805281
 30
0.0
 10
15.3359648701
 20
74.1575553866
 30
0.0
 10
15.5754943513
 20
74.2192020881
 30
0.0
  0
SPLINE
  5
4C3
100
AcDbEntity
  8
0
100
AcDbSpline
 62
7
  6
BYLAYER
 70
0
 71
3
 72
15
 73
11
 74
0
 42
0.0000001
 43
0.0000001
 44
0.0000000001
 40
0.0
 40
0.0
 40
0.0
 40
0.0
 40
0.104125605
 40
0.2112476426
 40
0.3239422654
 40
0.4438838908
 40
0.5718527346
 40
0.707766468
 40
0.8509438515
 40
1.0
 40
1.0
 40
1.0
 40
1.0
 10
18.4323236811
 20
77.9617074013
 30
0.0
 10
18.381646296
 20
78.0601909816
 30
0.0
 10
18.2546457017
 20
78.2484816643
 30
0.0
 10
18.000065356
 20
78.4846120905
 30
0.0
 10
17.687727036
 20
78.671130111
 30
0.0
 10
17.3258937304
 20
78.8041220599
 30
0.0
 10
16.9233738375
 20
78.8812759371
 30
0.0
 10
16.4895282928
 20
78.9013662247
 30
0.0
 10
16.0345546141
 20
78.8640900168
 30
0.0
 10
15.7290403139
 20
78.8027291681
 30
0.0
 10
15.5754943513
 20
78.7632116854
 30
0.0
  0
SPLINE
  5
4C4
100
AcDbEntity
  8
0
100
AcDbSpline
 62
7
  6
BYLAYER
 70
0
 71
3
 72
11
 73
7
 74
0
 42
0.0000001
 43
0.0000001
 44
0.0000000001
 40
0.0
 40
0.0
 40
0.0
 40
0.0
 40
0.2538815877
 40
0.510686144
 40
0.7619495882
 40
1.0
 40
1.0
 40
1.0
 40
1.0
 10
15.5754943513
 20
87.6177442207
 30
0.0
 10
15.3250946513
 20
87.5532998964
 30
0.0
 10
14.8319036075
 20
87.3794636205
 30
0.0
 10
14.1481689527
 20
87.0057177271
 30
0.0
 10
13.5464772554
 20
86.5361916669
 30
0.0
 10
13.2108995362
 20
86.1629878074
 30
0.0
 10
13.0685386515
 20
85.9667508238
 30
0.0
  0
SPLINE
  5
4C5
100
AcDbEntity
  8
0
100
AcDbSpline
 62
7
  6
BYLAYER
 70
0
 71
3
 72
15
 73
11
 74
0
 42
0.0000001
 43
0.0000001
 44
0.0000000001
 40
0.0
 40
0.0
 40
0.0
 40
0.0
 40
0.104125605
 40
0.2112476426
 40
0.3239422654
 40
0.4438838908
 40
0.5718527346
 40
0.707766468
 40
0.8509438515
 40
1.0
 40
1.0
 40
1.0
 40
1.0
 10
18.4323236811
 20
86.8162399366
 30
0.0
 10
18.381646296
 20
86.914723517
 30
0.0
 10
18.2546457017
 20
87.1030141996
 30
0.0
 10
18.000065356
 20
87.3391446259
 30
0.0
 10
17.687727036
 20
87.5256626463
 30
0.0
 10
17.3258937304
 20
87.6586545953
 30
0.0
 10
16.9233738375
 20
87.7358084725
 30
0.0
 10
16.4895282928
 20
87.75589876
 30
0.0
 10
16.0345546141
 20
87.7186225522
 30
0.0
 10
15.7290403139
 20
87.6572617034
 30
0.0
 10
15.5754943513
 20
87.6177442207
 30
0.0
  0
SPLINE
  5
4C6
100
AcDbEntity
  8
0
100
AcDbSpline
 62
7
  6
BYLAYER
 70
0
 71
3
 72
11
 73
7
 74
0
 42
0.0000001
 43
0.0000001
 44
0.0000000001
 40
0.0
 40
0.0
 40
0.0
 40
0.0
 40
0.2538815877
 40
0.510686144
 40
0.7619495882
 40
1.0
 40
1.0
 40
1.0
 40
1.0
 10
15.5754943513
 20
78.7632116854
 30
0.0
 10
15.3250946513
 20
78.6987673611
 30
0.0
 10
14.8319036075
 20
78.5249310851
 30
0.0
 10
14.1481689527
 20
78.1511851918
 30
0.0
 10
13.5464772554
 20
77.6816591315
 30
0.0
 10
13.2108995362
 20
77.308455272
 30
0.0
 10
13.0685386515
 20
77.1122182884
 30
0.0
  0
SPLINE
  5
4C7
100
AcDbEntity
  8
0
100
AcDbSpline
 62
7
  6
BYLAYER
 70
0
 71
3
 72
14
 73
10
 74
0
 42
0.0000001
 43
0.0000001
 44
0.0000000001
 40
0.0
 40
0.0
 40
0.0
 40
0.0
 40
0.2805815934
 40
0.4161582185
 40
0.5462378553
 40
0.6696948191
 40
0.78608161
 40
0.8957563072
 40
1.0
 40
1.0
 40
1.0
 40
1.0
 10
55.6778912557
 20
84.5271707972
 30
0.0
 10
55.964146825
 20
84.5271707972
 30
0.0
 10
56.3914624863
 20
84.4765763217
 30
0.0
 10
56.9233606593
 20
84.3063861907
 30
0.0
 10
57.2827757783
 20
84.1344723945
 30
0.0
 10
57.5962899499
 20
83.9215844146
 30
0.0
 10
57.8549282225
 20
83.6732915709
 30
0.0
 10
58.050743593
 20
83.396380146
 30
0.0
 10
58.1367159397
 20
83.1934035375
 30
0.0
 10
58.1662851837
 20
83.0912450817
 30
0.0
  0
SPLINE
  5
4C8
100
AcDbEntity
  8
0
100
AcDbSpline
 62
7
  6
BYLAYER
 70
0
 71
3
 72
9
 73
5
 74
0
 42
0.0000001
 43
0.0000001
 44
0.0000000001
 40
0.0
 40
0.0
 40
0.0
 40
0.0
 40
0.24161918
 40
1.0
 40
1.0
 40
1.0
 40
1.0
 10
54.2699054914
 20
84.2259711439
 30
0.0
 10
54.3752986715
 20
84.2756002414
 30
0.0
 10
54.8240722696
 20
84.4537693754
 30
0.0
 10
55.3122474881
 20
84.5271707972
 30
0.0
 10
55.6778912557
 20
84.5271707972
 30
0.0
  0
SPLINE
  5
4C9
100
AcDbEntity
  8
0
100
AcDbSpline
 62
7
  6
BYLAYER
 70
0
 71
3
 72
14
 73
10
 74
0
 42
0.0000001
 43
0.0000001
 44
0.0000000001
 40
0.0
 40
0.0
 40
0.0
 40
0.0
 40
0.2805815934
 40
0.4161582185
 40
0.5462378553
 40
0.6696948191
 40
0.78608161
 40
0.8957563072
 40
1.0
 40
1.0
 40
1.0
 40
1.0
 10
55.6778912557
 20
75.6726382618
 30
0.0
 10
55.964146825
 20
75.6726382618
 30
0.0
 10
56.3914624863
 20
75.6220437863
 30
0.0
 10
56.9233606593
 20
75.4518536553
 30
0.0
 10
57.2827757783
 20
75.2799398591
 30
0.0
 10
57.5962899499
 20
75.0670518792
 30
0.0
 10
57.8549282225
 20
74.8187590355
 30
0.0
 10
58.050743593
 20
74.5418476106
 30
0.0
 10
58.1367159397
 20
74.3388710022
 30
0.0
 10
58.1662851836
 20
74.2367125463
 30
0.0
  0
SPLINE
  5
4CA
100
AcDbEntity
  8
0
100
AcDbSpline
 62
7
  6
BYLAYER
 70
0
 71
3
 72
9
 73
5
 74
0
 42
0.0000001
 43
0.0000001
 44
0.0000000001
 40
0.0
 40
0.0
 40
0.0
 40
0.0
 40
0.24161918
 40
1.0
 40
1.0
 40
1.0
 40
1.0
 10
54.2699054914
 20
75.3714386085
 30
0.0
 10
54.3752986715
 20
75.421067706
 30
0.0
 10
54.8240722696
 20
75.59923684
 30
0.0
 10
55.3122474881
 20
75.6726382618
 30
0.0
 10
55.6778912557
 20
75.6726382618
 30
0.0
  0
SPLINE
  5
4CB
100
AcDbEntity
  8
0
100
AcDbSpline
 62
7
  6
BYLAYER
 70
0
 71
3
 72
13
 73
9
 74
0
 42
0.0000001
 43
0.0000001
 44
0.0000000001
 40
0.0
 40
0.0
 40
0.0
 40
0.0
 40
0.2826505823
 40
0.5450026185
 40
0.6674178343
 40
0.7837247994
 40
0.8943579211
 40
1.0
 40
1.0
 40
1.0
 40
1.0
 10
56.3270881602
 20
83.0737346235
 30
0.0
 10
56.5666176414
 20
83.012087922
 30
0.0
 10
57.0395292281
 20
82.9314130634
 30
0.0
 10
57.6281387954
 20
82.9450997945
 30
0.0
 10
58.0589324522
 20
83.031983699
 30
0.0
 10
58.3493441573
 20
83.1304906349
 30
0.0
 10
58.6098412367
 20
83.2624995637
 30
0.0
 10
58.7640837928
 20
83.373892989
 30
0.0
 10
58.83404386
 20
83.4343185977
 30
0.0
  0
SPLINE
  5
4CC
100
AcDbEntity
  8
0
100
AcDbSpline
 62
7
  6
BYLAYER
 70
0
 71
3
 72
14
 73
10
 74
0
 42
0.0000001
 43
0.0000001
 44
0.0000000001
 40
0.0
 40
0.0
 40
0.0
 40
0.0
 40
0.2195690269
 40
0.3408031023
 40
0.4680786573
 40
0.5997110568
 40
0.7336841191
 40
0.867857641
 40
1.0
 40
1.0
 40
1.0
 40
1.0
 10
53.3664912557
 20
85.6617573648
 30
0.0
 10
53.4389896613
 20
85.3705582021
 30
0.0
 10
53.6461254467
 20
84.9403327614
 30
0.0
 10
54.0393395689
 20
84.4350240969
 30
0.0
 10
54.4105302074
 20
84.0690720349
 30
0.0
 10
54.8368000743
 20
83.7406548176
 30
0.0
 10
55.3061542909
 20
83.4585530302
 30
0.0
 10
55.8049406819
 20
83.2311266781
 30
0.0
 10
56.1521868378
 20
83.1187482459
 30
0.0
 10
56.3270881602
 20
83.0737346235
 30
0.0
  0
SPLINE
  5
4CD
100
AcDbEntity
  8
0
100
AcDbSpline
 62
7
  6
BYLAYER
 70
0
 71
3
 72
13
 73
9
 74
0
 42
0.0000001
 43
0.0000001
 44
0.0000000001
 40
0.0
 40
0.0
 40
0.0
 40
0.0
 40
0.2826505823
 40
0.5450026185
 40
0.6674178343
 40
0.7837247994
 40
0.8943579211
 40
1.0
 40
1.0
 40
1.0
 40
1.0
 10
56.3270881602
 20
74.2192020881
 30
0.0
 10
56.5666176414
 20
74.1575553866
 30
0.0
 10
57.0395292281
 20
74.0768805281
 30
0.0
 10
57.6281387954
 20
74.0905672591
 30
0.0
 10
58.0589324522
 20
74.1774511636
 30
0.0
 10
58.3493441573
 20
74.2759580995
 30
0.0
 10
58.6098412367
 20
74.4079670283
 30
0.0
 10
58.7640837928
 20
74.5193604537
 30
0.0
 10
58.83404386
 20
74.5797860623
 30
0.0
  0
SPLINE
  5
4CE
100
AcDbEntity
  8
0
100
AcDbSpline
 62
7
  6
BYLAYER
 70
0
 71
3
 72
14
 73
10
 74
0
 42
0.0000001
 43
0.0000001
 44
0.0000000001
 40
0.0
 40
0.0
 40
0.0
 40
0.0
 40
0.2195690269
 40
0.3408031023
 40
0.4680786573
 40
0.5997110568
 40
0.7336841191
 40
0.867857641
 40
1.0
 40
1.0
 40
1.0
 40
1.0
 10
53.3664912557
 20
76.8072248295
 30
0.0
 10
53.4389896613
 20
76.5160256668
 30
0.0
 10
53.6461254467
 20
76.085800226
 30
0.0
 10
54.0393395689
 20
75.5804915615
 30
0.0
 10
54.4105302074
 20
75.2145394995
 30
0.0
 10
54.8368000743
 20
74.8861222822
 30
0.0
 10
55.3061542909
 20
74.6040204948
 30
0.0
 10
55.8049406819
 20
74.3765941427
 30
0.0
 10
56.1521868378
 20
74.2642157105
 30
0.0
 10
56.3270881602
 20
74.2192020881
 30
0.0
  0
SPLINE
  5
4CF
100
AcDbEntity
  8
0
100
AcDbSpline
 62
7
  6
BYLAYER
 70
0
 71
3
 72
15
 73
11
 74
0
 42
0.0000001
 43
0.0000001
 44
0.0000000001
 40
0.0
 40
0.0
 40
0.0
 40
0.0
 40
0.1490561485
 40
0.292233532
 40
0.4281472654
 40
0.5561161092
 40
0.6760577346
 40
0.7887523574
 40
0.895874395
 40
1.0
 40
1.0
 40
1.0
 40
1.0
 10
56.3270881602
 20
78.7632116854
 30
0.0
 10
56.1735421976
 20
78.8027291681
 30
0.0
 10
55.8680278974
 20
78.8640900168
 30
0.0
 10
55.4130542187
 20
78.9013662247
 30
0.0
 10
54.979208674
 20
78.8812759371
 30
0.0
 10
54.576688781
 20
78.8041220599
 30
0.0
 10
54.2148554755
 20
78.671130111
 30
0.0
 10
53.9025171555
 20
78.4846120905
 30
0.0
 10
53.6479368098
 20
78.2484816643
 30
0.0
 10
53.5209362155
 20
78.0601909816
 30
0.0
 10
53.4702588304
 20
77.9617074013
 30
0.0
  0
SPLINE
  5
4D0
100
AcDbEntity
  8
0
100
AcDbSpline
 62
7
  6
BYLAYER
 70
0
 71
3
 72
11
 73
7
 74
0
 42
0.0000001
 43
0.0000001
 44
0.0000000001
 40
0.0
 40
0.0
 40
0.0
 40
0.0
 40
0.2380504118
 40
0.489313856
 40
0.7461184123
 40
1.0
 40
1.0
 40
1.0
 40
1.0
 10
58.83404386
 20
77.1122182884
 30
0.0
 10
58.6916829753
 20
77.308455272
 30
0.0
 10
58.3561052561
 20
77.6816591315
 30
0.0
 10
57.7544135588
 20
78.1511851918
 30
0.0
 10
57.070678904
 20
78.5249310851
 30
0.0
 10
56.5774878602
 20
78.6987673611
 30
0.0
 10
56.3270881602
 20
78.7632116854
 30
0.0
  0
SPLINE
  5
4D1
100
AcDbEntity
  8
0
100
AcDbSpline
 62
7
  6
BYLAYER
 70
0
 71
3
 72
15
 73
11
 74
0
 42
0.0000001
 43
0.0000001
 44
0.0000000001
 40
0.0
 40
0.0
 40
0.0
 40
0.0
 40
0.1490561485
 40
0.292233532
 40
0.4281472654
 40
0.5561161092
 40
0.6760577346
 40
0.7887523574
 40
0.895874395
 40
1.0
 40
1.0
 40
1.0
 40
1.0
 10
56.3270881602
 20
87.6177442208
 30
0.0
 10
56.1735421976
 20
87.6572617034
 30
0.0
 10
55.8680278974
 20
87.7186225522
 30
0.0
 10
55.4130542187
 20
87.75589876
 30
0.0
 10
54.979208674
 20
87.7358084725
 30
0.0
 10
54.576688781
 20
87.6586545953
 30
0.0
 10
54.2148554755
 20
87.5256626463
 30
0.0
 10
53.9025171555
 20
87.3391446259
 30
0.0
 10
53.6479368098
 20
87.1030141996
 30
0.0
 10
53.5209362155
 20
86.914723517
 30
0.0
 10
53.4702588304
 20
86.8162399366
 30
0.0
  0
SPLINE
  5
4D2
100
AcDbEntity
  8
0
100
AcDbSpline
 62
7
  6
BYLAYER
 70
0
 71
3
 72
11
 73
7
 74
0
 42
0.0000001
 43
0.0000001
 44
0.0000000001
 40
0.0
 40
0.0
 40
0.0
 40
0.0
 40
0.2380504118
 40
0.489313856
 40
0.7461184123
 40
1.0
 40
1.0
 40
1.0
 40
1.0
 10
58.83404386
 20
85.9667508238
 30
0.0
 10
58.6916829753
 20
86.1629878074
 30
0.0
 10
58.3561052561
 20
86.5361916669
 30
0.0
 10
57.7544135588
 20
87.0057177271
 30
0.0
 10
57.070678904
 20
87.3794636205
 30
0.0
 10
56.5774878602
 20
87.5532998964
 30
0.0
 10
56.3270881602
 20
87.6177442208
 30
0.0
  0
SPLINE
  5
4D3
100
AcDbEntity
  8
00_COMPONENTS
100
AcDbSpline
 62
7
  6
BYLAYER
 70
0
 71
3
 72
15
 73
11
 74
0
 42
0.0000001
 43
0.0000001
 44
0.0000000001
 40
0.0
 40
0.0
 40
0.0
 40
0.0
 40
0.1262633288
 40
0.251511948
 40
0.3759715474
 40
0.5
 40
0.6240284526
 40
0.748488052
 40
0.8737366712
 40
1.0
 40
1.0
 40
1.0
 40
1.0
 10
18.4887912557
 20
38.9356469674
 30
0.0
 10
18.9066368952
 20
38.8050870384
 30
0.0
 10
19.7470295407
 20
38.5697683063
 30
0.0
 10
21.0246437479
 20
38.3054630225
 30
0.0
 10
22.3115076452
 20
38.1419179943
 30
0.0
 10
23.6034390893
 20
38.0865476
 30
0.0
 10
24.8953705334
 20
38.1419179943
 30
0.0
 10
26.1822344307
 20
38.3054630225
 30
0.0
 10
27.4598486378
 20
38.5697683063
 30
0.0
 10
28.3002412833
 20
38.8050870384
 30
0.0
 10
28.7180869228
 20
38.9356469674
 30
0.0
  0
SPLINE
  5
4D4
100
AcDbEntity
  8
00_COMPONENTS
100
AcDbSpline
 62
7
  6
BYLAYER
 70
0
 71
3
 72
15
 73
11
 74
0
 42
0.0000001
 43
0.0000001
 44
0.0000000001
 40
0.0
 40
0.0
 40
0.0
 40
0.0
 40
0.1250002153
 40
0.2500024236
 40
0.3750010983
 40
0.5
 40
0.6249989017
 40
0.7499975764
 40
0.8749997847
 40
1.0
 40
1.0
 40
1.0
 40
1.0
 10
28.7180869228
 20
38.9356469674
 30
0.0
 10
29.3116439577
 20
38.8045050619
 30
0.0
 10
30.5048100482
 20
38.5685184599
 30
0.0
 10
32.3100932705
 20
38.3048043344
 30
0.0
 10
34.1274274558
 20
38.141764349
 30
0.0
 10
35.9512912557
 20
38.0865923634
 30
0.0
 10
37.7751550557
 20
38.141764349
 30
0.0
 10
39.5924892409
 20
38.3048043344
 30
0.0
 10
41.3977724633
 20
38.5685184599
 30
0.0
 10
42.5909385538
 20
38.8045050619
 30
0.0
 10
43.1844955887
 20
38.9356469674
 30
0.0
  0
SPLINE
  5
4D5
100
AcDbEntity
  8
00_COMPONENTS
100
AcDbSpline
 62
7
  6
BYLAYER
 70
0
 71
3
 72
15
 73
11
 74
0
 42
0.0000001
 43
0.0000001
 44
0.0000000001
 40
0.0
 40
0.0
 40
0.0
 40
0.0
 40
0.1262633288
 40
0.251511948
 40
0.3759715474
 40
0.5
 40
0.6240284526
 40
0.748488052
 40
0.8737366712
 40
1.0
 40
1.0
 40
1.0
 40
1.0
 10
43.1844955887
 20
38.9356469674
 30
0.0
 10
43.6023412282
 20
38.8050870384
 30
0.0
 10
44.4427338737
 20
38.5697683063
 30
0.0
 10
45.7203480808
 20
38.3054630225
 30
0.0
 10
47.0072119781
 20
38.1419179943
 30
0.0
 10
48.2991434222
 20
38.0865476
 30
0.0
 10
49.5910748663
 20
38.1419179943
 30
0.0
 10
50.8779387636
 20
38.3054630225
 30
0.0
 10
52.1555529707
 20
38.5697683063
 30
0.0
 10
52.9959456163
 20
38.8050870384
 30
0.0
 10
53.4137912557
 20
38.9356469674
 30
0.0
  0
ELLIPSE
  5
4D6
100
AcDbEntity
  8
0
100
AcDbEllipse
 62
7
  6
BYLAYER
 10
15.1832912557
 20
86.1076958745
 30
0.0
 11
3.4193096007
 21
0.0
 31
0.0
 40
0.6644630244
 41
-0.1975579181
 42
0.1975579181
  0
ELLIPSE
  5
4D7
100
AcDbEntity
  8
0
100
AcDbEllipse
 62
7
  6
BYLAYER
 10
15.6455334533
 20
76.355137727
 30
0.0
 11
3.4193096007
 21
-0.0
 31
0.0
 40
0.6644630244
 41
0.5315947947
 42
0.5911452022
  0
ELLIPSE
  5
4D8
100
AcDbEntity
  8
0
100
AcDbEllipse
 62
7
  6
BYLAYER
 10
16.6439765999
 20
83.2699349402
 30
0.0
 11
3.4193096007
 21
0.0
 31
0.0
 40
0.6644630244
 41
7.3215210918
 42
8.8336327586
  0
ELLIPSE
  5
4D9
100
AcDbEntity
  8
0
100
AcDbEllipse
 62
7
  6
BYLAYER
 10
15.6455334533
 20
85.2096702624
 30
0.0
 11
3.4193096007
 21
0.0
 31
0.0
 40
0.6644630244
 41
0.5315947947
 42
0.5911452022
  0
ELLIPSE
  5
4DA
100
AcDbEntity
  8
0
100
AcDbEllipse
 62
7
  6
BYLAYER
 10
15.1832912557
 20
77.2531633391
 30
0.0
 11
3.4193096007
 21
-0.0
 31
0.0
 40
0.6644630244
 41
-0.1975579181
 42
0.1975579181
  0
ELLIPSE
  5
4DB
100
AcDbEntity
  8
0
100
AcDbEllipse
 62
7
  6
BYLAYER
 10
16.6439765999
 20
74.4154024049
 30
0.0
 11
3.4193096007
 21
0.0
 31
0.0
 40
0.6644630244
 41
7.3215210918
 42
8.8336327586
  0
ELLIPSE
  5
4DC
100
AcDbEntity
  8
0
100
AcDbEllipse
 62
7
  6
BYLAYER
 10
56.7192912557
 20
86.1076958745
 30
0.0
 11
3.4193096007
 21
-0.0
 31
0.0
 40
0.6644630244
 41
2.9440347355
 42
3.3391505717
  0
ELLIPSE
  5
4DD
100
AcDbEntity
  8
0
100
AcDbEllipse
 62
7
  6
BYLAYER
 10
56.2570490582
 20
85.2096702624
 30
0.0
 11
3.4193096007
 21
0.0
 31
0.0
 40
0.6644630244
 41
2.5504474514
 42
2.6099721559
  0
ELLIPSE
  5
4DE
100
AcDbEntity
  8
0
100
AcDbEllipse
 62
7
  6
BYLAYER
 10
55.2586059116
 20
83.2699349402
 30
0.0
 11
3.4193096007
 21
0.0
 31
0.0
 40
0.6644630244
 41
0.5911452022
 42
2.1032571002
  0
ELLIPSE
  5
4DF
100
AcDbEntity
  8
0
100
AcDbEllipse
 62
7
  6
BYLAYER
 10
56.7192912557
 20
77.2531633391
 30
0.0
 11
3.4193096007
 21
-0.0
 31
0.0
 40
0.6644630244
 41
2.9440347355
 42
3.3391505717
  0
ELLIPSE
  5
4E0
100
AcDbEntity
  8
0
100
AcDbEllipse
 62
7
  6
BYLAYER
 10
56.2570490582
 20
76.355137727
 30
0.0
 11
3.4193096007
 21
0.0
 31
0.0
 40
0.6644630244
 41
2.5504474514
 42
2.6099721559
  0
ELLIPSE
  5
4E1
100
AcDbEntity
  8
0
100
AcDbEllipse
 62
7
  6
BYLAYER
 10
55.2586059116
 20
74.4154024049
 30
0.0
 11
3.4193096007
 21
0.0
 31
0.0
 40
0.6644630244
 41
0.5911452022
 42
2.1032571002
  0
ENDSEC
  0
SECTION
  2
OBJECTS
  0
DICTIONARY
  5
C
100
AcDbDictionary
280
0
281
1
  3
ACAD_GROUP
350
D
  3
ACAD_MLINESTYLE
350
17
  3
ACAD_LAYOUT
350
1A
  3
ACAD_PLOTSETTINGS
350
19
  3
ACAD_PLOTSTYLENAME
350
E
  0
DICTIONARY
  5
D
102
{ACAD_REACTORS
330
C
102
}
100
AcDbDictionary
280
0
281
1
  0
ACDBDICTIONARYWDFLT
  5
E
102
{ACAD_REACTORS
330
C
102
}
100
AcDbDictionary
281
1
  3
Normal
350
F
100
AcDbDictionaryWithDefault
340
F
  0
DICTIONARY
  5
17
102
{ACAD_REACTORS
330
C
102
}
100
AcDbDictionary
280
0
281
1
  3
Standard
350
18
  0
DICTIONARY
  5
19
102
{ACAD_REACTORS
330
C
102
}
100
AcDbDictionary
281
1
  0
DICTIONARY
  5
1A
102
{ACAD_REACTORS
330
C
102
}
100
AcDbDictionary
281
1
  3
Model
350
4E2
  3
Layout1
350
4E3
  0
ACDBPLACEHOLDER
  5
F
102
{ACAD_REACTORS
330
E
102
}
  0
MLINESTYLE
  5
18
102
{ACAD_REACTORS
330
17
102
}
100
AcDbMlineStyle
  2
STANDARD
 70
0
  3

 62
256
 51
90.0
 52
90.0
 71
2
 49
0.5
 62
256
  6
BYLAYER
 49
-0.5
 62
256
  6
BYLAYER
  0
LAYOUT
  5
4E2
102
{ACAD_REACTORS
330
1A
102
}
100
AcDbPlotSettings
  1

  2
none_device
  4

  6

 40
0.0
 41
0.0
 42
0.0
 43
0.0
 44
210.0
 45
297.0
 46
0.0
 47
0.0
 48
0.0
 49
0.0
140
0.0
141
0.0
142
1.0
143
1.0
 70
1024
 72
1
 73
0
 74
0
  7

 75
0
147
1.0
148
0.0
149
0.0
100
AcDbLayout
  1
Model
 70
0
 71
0
 10
0.0
 20
0.0
 11
210.0
 21
297.0
 12
0.0
 22
0.0
 32
0.0
 14
0.0
 24
0.0
 34
0.0
 15
0.0
 25
0.0
 35
0.0
146
0.0
 13
0.0
 23
0.0
 33
0.0
 16
1.0
 26
0.0
 36
0.0
 17
0.0
 27
1.0
 37
0.0
 76
0
330
221
345
0
346
0
  0
LAYOUT
  5
4E3
102
{ACAD_REACTORS
330
1A
102
}
100
AcDbPlotSettings
  1

  2
none_device
  4

  6

 40
0.0
 41
0.0
 42
0.0
 43
0.0
 44
210.0
 45
297.0
 46
0.0
 47
0.0
 48
0.0
 49
0.0
140
0.0
141
0.0
142
1.0
143
1.0
 70
0
 72
1
 73
0
 74
0
  7

 75
0
147
1.0
148
0.0
149
0.0
100
AcDbLayout
  1
Layout1
 70
0
 71
1
 10
0.0
 20
0.0
 11
210.0
 21
297.0
 12
0.0
 22
0.0
 32
0.0
 14
0.0
 24
0.0
 34
0.0
 15
0.0
 25
0.0
 35
0.0
146
0.0
 13
0.0
 23
0.0
 33
0.0
 16
1.0
 26
0.0
 36
0.0
 17
0.0
 27
1.0
 37
0.0
 76
0
330
222
345
0
346
0
  0
ENDSEC
  0
EOF
