999
DXF file: C:\Users\sesa63760\Dev\_Creo\CAD\MCADID0004028_3D-CAD\drw0001_7.dxf
999
Pro/ENGINEER 2019471 by Parametric Technology Corporation
  0
SECTION
  2
HEADER
  9
$ACADVER
  1
AC1024
  9
$DWGCODEPAGE
  3
ANSI_1252
  9
$EXTMAX
 10
41.2626262626
 20
58.3571428571
 30
0.0
  9
$EXTMIN
 10
0.0
 20
0.0
 30
0.0
  9
$LIMMIN
 10
0.0
 20
0.0
  9
$LIMMAX
 10
41.2626262626
 20
58.3571428571
  9
$VIEWCTR
 10
20.6313131313
 20
29.1785714286
  9
$VIEWSIZE
 40
58.3571428571
  9
$CLAYER
  8
0
  9
$LTSCALE
 40
3.804021164
  9
$CELTYPE
  6
BYLAYER
  9
$DIMSCALE
 40
1.0
  9
$DIMASZ
 40
0.4912217412
  9
$DIMEXO
 40
1.0
  9
$DIMDLI
 40
2.6282328042
  9
$DIMEXE
 40
1.0
  9
$DIMCEN
 40
0.6224761905
  9
$DIMLFAC
 40
1.0
  9
$DIMBLK
  1
_FILLED
  9
$DIMALT
 70
0
  9
$DIMALTF
 40
0.0393700787
  9
$DIMTXT
 40
0.6877104377
  9
$DIMTOL
 70
1
  9
$DIMLIM
 70
0
  9
$DIMTFAC
 40
1.0
  9
$DIMTP
 40
0.01
  9
$DIMTM
 40
0.01
  9
$DIMGAP
 40
0.625
  9
$DIMDSEP
 70
46
  9
$AUNITS
 70
0
  9
$PDMODE
 70
3
  9
$PDSIZE
 40
0.3125
  9
$HANDSEED
  5
33A
  9
$TILEMODE
 70
1
  9
$MEASUREMENT
 70
1
  9
$INSUNITS
 70
4
  0
ENDSEC
  0
SECTION
  2
CLASSES
  0
CLASS
  1
ACDBDICTIONARYWDFLT
  2
AcDbDictionaryWithDefault
  3
AutoCAD 2000
 90
0
 91
1
280
0
281
0
  0
CLASS
  1
ACDBPLACEHOLDER
  2
AcDbPlaceHolder
  3
AutoCAD 2000
 90
0
 91
1
280
0
281
0
  0
CLASS
  1
LAYOUT
  2
AcDbLayout
  3
AutoCAD 2000
 90
0
 91
0
280
0
281
0
  0
ENDSEC
  0
SECTION
  2
TABLES
  0
TABLE
  2
VPORT
  5
8
100
AcDbSymbolTable
 70
2
  0
VPORT
  5
1F4
100
AcDbSymbolTableRecord
100
AcDbViewportTableRecord
  2
*ACTIVE
 70
0
 10
0.0
 20
0.0
 11
1.0
 21
1.0
 12
20.6313131313
 22
29.1785714286
 13
0.0
 23
0.0
 14
1.0
 24
1.0
 15
0.0
 25
0.0
 16
0.0
 26
0.0
 36
1.0
 17
0.0
 27
0.0
 37
0.0
 40
58.3571428571
 41
0.7070707071
 42
50.0
 43
0.0
 44
0.0
 50
0.0
 51
0.0
 71
0
 72
100
 73
1
 74
1
 75
0
 76
0
 77
0
 78
0
  0
ENDTAB
  0
TABLE
  2
LTYPE
  5
5
100
AcDbSymbolTable
 70
6
  0
LTYPE
  5
14
100
AcDbSymbolTableRecord
100
AcDbLinetypeTableRecord
  2
BYBLOCK
 70
0
  3

 72
65
 73
0
 40
0.0
  0
LTYPE
  5
15
100
AcDbSymbolTableRecord
100
AcDbLinetypeTableRecord
  2
BYLAYER
 70
0
  3

 72
65
 73
0
 40
0.0
  0
LTYPE
  5
16
100
AcDbSymbolTableRecord
100
AcDbLinetypeTableRecord
  2
CONTINUOUS
 70
64
  3
Solid line
 72
65
 73
0
 40
0.0
  0
LTYPE
  5
1F5
100
AcDbSymbolTableRecord
100
AcDbLinetypeTableRecord
  2
CENTER
 70
64
  3
____ _ ____ _ ____ _ ____ _ ____ _ ____ _ ____
 72
65
 73
4
 40
0.6
 49
0.375
 74
0
 49
-0.075
 74
0
 49
0.075
 74
0
 49
-0.075
 74
0
  0
LTYPE
  5
1F6
100
AcDbSymbolTableRecord
100
AcDbLinetypeTableRecord
  2
HIDDEN
 70
64
  3
- - - - - - - - - - - - - - - - - - - -
 72
65
 73
2
 40
0.2
 49
0.1
 74
0
 49
-0.1
 74
0
  0
LTYPE
  5
1F7
100
AcDbSymbolTableRecord
100
AcDbLinetypeTableRecord
  2
PHANTOM
 70
64
  3
_____ _ _ _____ _ _ _____ _ _ _____
 72
65
 73
6
 40
0.8
 49
0.45
 74
0
 49
-0.05
 74
0
 49
0.1
 74
0
 49
-0.05
 74
0
 49
0.1
 74
0
 49
-0.05
 74
0
  0
LTYPE
  5
1F8
100
AcDbSymbolTableRecord
100
AcDbLinetypeTableRecord
  2
DOT
 70
64
  3
. . . . . . . . . . . . . . . . . . . .
 72
65
 73
2
 40
0.2
 49
0.1
 74
0
 49
-0.1
 74
0
  0
LTYPE
  5
1F9
100
AcDbSymbolTableRecord
100
AcDbLinetypeTableRecord
  2
DASHED
 70
64
  3
- - - - - - - - - - - - - - - - - - - -
 72
65
 73
2
 40
0.2
 49
0.1
 74
0
 49
-0.1
 74
0
  0
ENDTAB
  0
TABLE
  2
LAYER
  5
2
100
AcDbSymbolTable
 70
36
  0
LAYER
  5
10
100
AcDbSymbolTableRecord
100
AcDbLayerTableRecord
  2
0
 70
0
 62
7
  6
CONTINUOUS
370
-3
390
F
  0
LAYER
  5
1FA
100
AcDbSymbolTableRecord
100
AcDbLayerTableRecord
  2
DEFAULT_1
 70
0
 62
7
  6
CENTER
370
-3
390
F
  0
LAYER
  5
1FB
100
AcDbSymbolTableRecord
100
AcDbLayerTableRecord
  2
DEFAULT_2
 70
0
 62
7
  6
HIDDEN
370
-3
390
F
  0
LAYER
  5
1FC
100
AcDbSymbolTableRecord
100
AcDbLayerTableRecord
  2
DEFAULT_3
 70
0
 62
7
  6
PHANTOM
370
-3
390
F
  0
LAYER
  5
1FD
100
AcDbSymbolTableRecord
100
AcDbLayerTableRecord
  2
00_COMPONENTS
 70
0
 62
7
  6
CONTINUOUS
370
-3
390
F
  0
LAYER
  5
1FE
100
AcDbSymbolTableRecord
100
AcDbLayerTableRecord
  2
01_1_DEFAULT_DATUMS
 70
0
 62
7
  6
CONTINUOUS
370
-3
390
F
  0
LAYER
  5
1FF
100
AcDbSymbolTableRecord
100
AcDbLayerTableRecord
  2
01_PLANES
 70
0
 62
7
  6
CONTINUOUS
370
-3
390
F
  0
LAYER
  5
200
100
AcDbSymbolTableRecord
100
AcDbLayerTableRecord
  2
02_COORD_SYS
 70
0
 62
7
  6
CONTINUOUS
370
-3
390
F
  0
LAYER
  5
201
100
AcDbSymbolTableRecord
100
AcDbLayerTableRecord
  2
03_AXES
 70
0
 62
7
  6
CONTINUOUS
370
-3
390
F
  0
LAYER
  5
202
100
AcDbSymbolTableRecord
100
AcDbLayerTableRecord
  2
04_POINTS
 70
0
 62
7
  6
CONTINUOUS
370
-3
390
F
  0
LAYER
  5
203
100
AcDbSymbolTableRecord
100
AcDbLayerTableRecord
  2
05_CURVES
 70
0
 62
7
  6
CONTINUOUS
370
-3
390
F
  0
LAYER
  5
204
100
AcDbSymbolTableRecord
100
AcDbLayerTableRecord
  2
06_SURFS
 70
0
 62
7
  6
CONTINUOUS
370
-3
390
F
  0
LAYER
  5
205
100
AcDbSymbolTableRecord
100
AcDbLayerTableRecord
  2
07_COSMETICS
 70
0
 62
7
  6
CONTINUOUS
370
-3
390
F
  0
LAYER
  5
206
100
AcDbSymbolTableRecord
100
AcDbLayerTableRecord
  2
10_NOTES
 70
0
 62
7
  6
CONTINUOUS
370
-3
390
F
  0
LAYER
  5
207
100
AcDbSymbolTableRecord
100
AcDbLayerTableRecord
  2
11_NOTES_PUB
 70
0
 62
7
  6
CONTINUOUS
370
-3
390
F
  0
LAYER
  5
208
100
AcDbSymbolTableRecord
100
AcDbLayerTableRecord
  2
13_REF_GTOL
 70
0
 62
7
  6
CONTINUOUS
370
-3
390
F
  0
LAYER
  5
209
100
AcDbSymbolTableRecord
100
AcDbLayerTableRecord
  2
16_MISC
 70
0
 62
7
  6
CONTINUOUS
370
-3
390
F
  0
LAYER
  5
20A
100
AcDbSymbolTableRecord
100
AcDbLayerTableRecord
  2
17_NO_PRINT
 70
0
 62
7
  6
CONTINUOUS
370
-3
390
F
  0
LAYER
  5
20B
100
AcDbSymbolTableRecord
100
AcDbLayerTableRecord
  2
18_DATUM_CAMS_JOINTS
 70
0
 62
7
  6
CONTINUOUS
370
-3
390
F
  0
LAYER
  5
20C
100
AcDbSymbolTableRecord
100
AcDbLayerTableRecord
  2
19_DATUM_FUNCTIONAL
 70
0
 62
7
  6
CONTINUOUS
370
-3
390
F
  0
LAYER
  5
20D
100
AcDbSymbolTableRecord
100
AcDbLayerTableRecord
  2
20_DATUM_KINEMATIC_SCHEME
 70
0
 62
7
  6
CONTINUOUS
370
-3
390
F
  0
ENDTAB
  0
TABLE
  2
STYLE
  5
3
100
AcDbSymbolTable
 70
1
  0
STYLE
  5
11
100
AcDbSymbolTableRecord
100
AcDbTextStyleTableRecord
  2
STANDARD
 70
0
 40
0.0
 41
1.0
 50
0.0
 71
0
 42
0.2
  3
ARIAL.TTF
  4

  0
STYLE
  5
20E
100
AcDbSymbolTableRecord
100
AcDbTextStyleTableRecord
  2
TEXTSTYLE_1
 70
0
 40
0.0
 41
0.8
 50
0.0
 71
0
 42
0.2
  3
gdt
  4

  0
ENDTAB
  0
TABLE
  2
VIEW
  5
6
100
AcDbSymbolTable
 70
0
  0
ENDTAB
  0
TABLE
  2
UCS
  5
7
100
AcDbSymbolTable
 70
0
  0
ENDTAB
  0
TABLE
  2
APPID
  5
9
100
AcDbSymbolTable
 70
1
  0
APPID
  5
20F
100
AcDbSymbolTableRecord
100
AcDbRegAppTableRecord
  2
ACAD
 70
0
  0
ENDTAB
  0
TABLE
  2
BLOCK_RECORD
  5
1
100
AcDbSymbolTable
 70
0
  0
BLOCK_RECORD
  5
210
100
AcDbSymbolTableRecord
100
AcDbBlockTableRecord
  2
*Model_Space
  0
BLOCK_RECORD
  5
211
100
AcDbSymbolTableRecord
100
AcDbBlockTableRecord
  2
*Paper_Space
  0
BLOCK_RECORD
  5
212
100
AcDbSymbolTableRecord
100
AcDbBlockTableRecord
  2
_FILLED
  0
ENDTAB
  0
TABLE
  2
DIMSTYLE
  5
A
100
AcDbSymbolTable
 70
1
100
AcDbDimStyleTable
 71
0
  0
DIMSTYLE
105
213
100
AcDbSymbolTableRecord
100
AcDbDimStyleTableRecord
  2
STANDARD
 70
0
  3

  4

 40
1.0
 41
0.4912217412
 42
1.0
 43
0.38
 44
1.0
 45
0.0
 46
0.0
 47
0.01
 48
0.01
140
0.6877104377
141
0.09
142
0.0
143
25.4
144
1.0
145
0.0
146
1.0
147
0.625
 71
1
 72
0
 73
0
 74
0
 75
0
 76
0
 77
1
 78
8
 79
2
170
0
171
1
172
0
173
0
174
0
175
0
176
0
177
0
178
0
270
2
179
2
271
2
272
2
273
2
274
2
275
0
280
0
281
0
282
0
283
1
284
8
285
0
286
0
287
3
288
0
340
11
278
46
341
212
342
212
343
212
344
212
  0
ENDTAB
  0
ENDSEC
  0
SECTION
  2
BLOCKS
  0
BLOCK
  5
20
100
AcDbEntity
  8
0
100
AcDbBlockBegin
  2
*Model_Space
 70
0
 10
0.0
 20
0.0
 30
0.0
  3
*Model_Space
  1

  0
ENDBLK
  5
21
100
AcDbEntity
  8
0
100
AcDbBlockEnd
  0
BLOCK
  5
1C
100
AcDbEntity
  8
0
100
AcDbBlockBegin
  2
*Paper_Space
 70
0
 10
0.0
 20
0.0
 30
0.0
  3
*Paper_Space
  1

  0
ENDBLK
  5
1D
100
AcDbEntity
  8
0
100
AcDbBlockEnd
  0
BLOCK
  5
214
100
AcDbEntity
  8
0
100
AcDbBlockBegin
  2
_FILLED
 70
64
 10
0.0
 20
0.0
  3
_FILLED
  1

  0
SOLID
  5
215
100
AcDbEntity
  8
0
  6
BYBLOCK
 62
0
100
AcDbTrace
 10
0.0
 20
0.0
 11
-1.0
 21
0.25
 12
-1.0
 22
-0.25
 13
-1.0
 23
-0.25
  0
ENDBLK
  5
216
100
AcDbEntity
  8
0
  6
BYBLOCK
 62
0
100
AcDbBlockEnd
  0
ENDSEC
  0
SECTION
  2
ENTITIES
  0
LINE
  5
217
100
AcDbEntity
  8
0
100
AcDbLine
 62
7
  6
BYLAYER
 10
25.8734817472
 20
4.3214285714
 11
15.5319849949
 21
4.3214285714
  0
LINE
  5
218
100
AcDbEntity
  8
0
100
AcDbLine
 62
7
  6
BYLAYER
 10
26.102733371
 20
5.6214285714
 11
15.302733371
 21
5.6214285714
  0
LINE
  5
219
100
AcDbEntity
  8
0
100
AcDbLine
 62
7
  6
BYLAYER
 10
15.302733371
 20
5.8214285714
 11
26.1027200959
 21
5.8214285714
  0
LINE
  5
21A
100
AcDbEntity
  8
0
100
AcDbLine
 62
7
  6
BYLAYER
 10
15.352733371
 20
6.2714285714
 11
26.052733371
 21
6.2714285714
  0
LINE
  5
21B
100
AcDbEntity
  8
0
100
AcDbLine
 62
7
  6
BYLAYER
 10
14.902733371
 20
53.9214285714
 11
14.702733371
 21
53.7214285714
  0
LINE
  5
21C
100
AcDbEntity
  8
0
100
AcDbLine
 62
7
  6
BYLAYER
 10
26.702733371
 20
6.9214285714
 11
14.702733371
 21
6.9214285714
  0
LINE
  5
21D
100
AcDbEntity
  8
0
100
AcDbLine
 62
7
  6
BYLAYER
 10
15.352733371
 20
6.2714285714
 11
14.702733371
 21
6.9214285714
  0
LINE
  5
21E
100
AcDbEntity
  8
0
100
AcDbLine
 62
7
  6
BYLAYER
 10
14.4338379956
 20
47.8679052318
 11
14.409219491
 21
47.8497525334
  0
LINE
  5
21F
100
AcDbEntity
  8
0
100
AcDbLine
 62
7
  6
BYLAYER
 10
14.6077017325
 20
47.6541329472
 11
14.5796497555
 21
47.6214285714
  0
LINE
  5
220
100
AcDbEntity
  8
0
100
AcDbLine
 62
7
  6
BYLAYER
 10
14.702733371
 20
12.4214285714
 11
26.702733371
 21
12.4214285714
  0
LINE
  5
221
100
AcDbEntity
  8
0
100
AcDbLine
 62
7
  6
BYLAYER
 10
26.052733371
 20
13.0714285714
 11
15.352733371
 21
13.0714285714
  0
LINE
  5
222
100
AcDbEntity
  8
0
100
AcDbLine
 62
7
  6
BYLAYER
 10
13.3736483902
 20
47.6770851445
 11
13.3448520567
 21
47.6214285714
  0
LINE
  5
223
100
AcDbEntity
  8
0
100
AcDbLine
 62
7
  6
BYLAYER
 10
13.043399835
 20
44.8650632159
 11
12.897733371
 21
44.3214285714
  0
LINE
  5
224
100
AcDbEntity
  8
0
100
AcDbLine
 62
7
  6
BYLAYER
 10
26.9962472511
 20
44.7931046095
 11
26.9716287947
 21
44.774951696
  0
LINE
  5
225
100
AcDbEntity
  8
0
100
AcDbLine
 62
7
  6
BYLAYER
 10
15.352733371
 20
20.3214285714
 11
15.202733371
 21
20.3214285714
  0
LINE
  5
226
100
AcDbEntity
  8
0
100
AcDbLine
 62
7
  6
BYLAYER
 10
15.531958446
 20
4.3214285714
 11
15.302733371
 21
5.6214285714
  0
LINE
  5
227
100
AcDbEntity
  8
0
100
AcDbLine
 62
7
  6
BYLAYER
 10
12.202733371
 20
44.3214285714
 11
12.202733371
 21
41.3214285714
  0
LINE
  5
228
100
AcDbEntity
  8
0
100
AcDbLine
 62
7
  6
BYLAYER
 10
12.202733371
 20
48.3214285714
 11
12.202733371
 21
51.3214285714
  0
LINE
  5
229
100
AcDbEntity
  8
0
100
AcDbLine
 62
7
  6
BYLAYER
 10
12.6357460729
 20
43.7009212868
 11
12.6357460729
 21
41.941935856
  0
LINE
  5
22A
100
AcDbEntity
  8
0
100
AcDbLine
 62
7
  6
BYLAYER
 10
12.6357460729
 20
48.941935856
 11
12.6357460729
 21
50.7009212077
  0
LINE
  5
22B
100
AcDbEntity
  8
0
100
AcDbLine
 62
7
  6
BYLAYER
 10
15.352733371
 20
21.3214285714
 11
15.202733371
 21
21.3214285714
  0
LINE
  5
22C
100
AcDbEntity
  8
0
100
AcDbLine
 62
7
  6
BYLAYER
 10
15.352733371
 20
22.1544412733
 11
26.052733371
 21
22.1544412733
  0
LINE
  5
22D
100
AcDbEntity
  8
0
100
AcDbLine
 62
7
  6
BYLAYER
 10
14.902733371
 20
23.7214285714
 11
14.702733371
 21
23.9214285714
  0
LINE
  5
22E
100
AcDbEntity
  8
0
100
AcDbLine
 62
7
  6
BYLAYER
 10
26.052733371
 20
13.0714285714
 11
26.702733371
 21
12.4214285714
  0
LINE
  5
22F
100
AcDbEntity
  8
0
100
AcDbLine
 62
7
  6
BYLAYER
 10
14.702733371
 20
53.7214285714
 11
14.702733371
 21
51.3214285714
  0
LINE
  5
230
100
AcDbEntity
  8
0
100
AcDbLine
 62
7
  6
BYLAYER
 10
14.702733371
 20
47.6214285714
 11
14.702733371
 21
45.0214285714
  0
LINE
  5
231
100
AcDbEntity
  8
0
100
AcDbLine
 62
7
  6
BYLAYER
 10
14.702733371
 20
41.3214285714
 11
14.702733371
 21
23.9214285714
  0
LINE
  5
232
100
AcDbEntity
  8
0
100
AcDbLine
 62
7
  6
BYLAYER
 10
14.702733371
 20
12.4214285714
 11
14.702733371
 21
6.9214285714
  0
LINE
  5
233
100
AcDbEntity
  8
0
100
AcDbLine
 62
7
  6
BYLAYER
 10
15.202733371
 20
21.321338761
 11
15.202733371
 21
20.3215184686
  0
LINE
  5
234
100
AcDbEntity
  8
0
100
AcDbLine
 62
7
  6
BYLAYER
 10
15.302733371
 20
5.8214285714
 11
15.302733371
 21
5.6214285714
  0
LINE
  5
235
100
AcDbEntity
  8
0
100
AcDbLine
 62
7
  6
BYLAYER
 10
15.352733371
 20
22.1544412733
 11
15.352733371
 21
21.3214285714
  0
LINE
  5
236
100
AcDbEntity
  8
0
100
AcDbLine
 62
7
  6
BYLAYER
 10
15.352733371
 20
20.3214285714
 11
15.352733371
 21
13.0714285714
  0
LINE
  5
237
100
AcDbEntity
  8
0
100
AcDbLine
 62
7
  6
BYLAYER
 10
15.352733371
 20
6.2714285714
 11
15.352733371
 21
5.8214285714
  0
LINE
  5
238
100
AcDbEntity
  8
0
100
AcDbLine
 62
7
  6
BYLAYER
 10
15.452733371
 20
54.1214285714
 11
15.452733371
 21
53.9214285714
  0
LINE
  5
239
100
AcDbEntity
  8
0
100
AcDbLine
 62
7
  6
BYLAYER
 10
26.7977650096
 20
44.9887241956
 11
26.8258169865
 21
45.0214285714
  0
LINE
  5
23A
100
AcDbEntity
  8
0
100
AcDbLine
 62
7
  6
BYLAYER
 10
25.9187587748
 20
22.6544412733
 11
15.4867079673
 21
22.6544412733
  0
LINE
  5
23B
100
AcDbEntity
  8
0
100
AcDbLine
 62
7
  6
BYLAYER
 10
26.5026456054
 20
23.7214285714
 11
14.9028211367
 21
23.7214285714
  0
LINE
  5
23C
100
AcDbEntity
  8
0
100
AcDbLine
 62
7
  6
BYLAYER
 10
26.702733371
 20
23.9214285714
 11
14.702733371
 21
23.9214285714
  0
LINE
  5
23D
100
AcDbEntity
  8
0
100
AcDbLine
 62
7
  6
BYLAYER
 10
13.043399835
 20
47.7777939269
 11
12.897733371
 21
48.3214285714
  0
LINE
  5
23E
100
AcDbEntity
  8
0
100
AcDbLine
 62
7
  6
BYLAYER
 10
19.9798917563
 20
53.9214285714
 11
19.9798917563
 21
54.1214285714
  0
LINE
  5
23F
100
AcDbEntity
  8
0
100
AcDbLine
 62
7
  6
BYLAYER
 10
20.2697206692
 20
43.7009212825
 11
20.2697206692
 21
41.9419359393
  0
LINE
  5
240
100
AcDbEntity
  8
0
100
AcDbLine
 62
7
  6
BYLAYER
 10
20.2697206692
 20
48.9419358603
 11
20.2697206692
 21
50.7009212826
  0
LINE
  5
241
100
AcDbEntity
  8
0
100
AcDbLine
 62
7
  6
BYLAYER
 10
28.0318183519
 20
44.9657719984
 11
28.0606146854
 21
45.0214285714
  0
LINE
  5
242
100
AcDbEntity
  8
0
100
AcDbLine
 62
7
  6
BYLAYER
 10
16.102733371
 20
23.7214285714
 11
15.4867079673
 21
22.6544412733
  0
LINE
  5
243
100
AcDbEntity
  8
0
100
AcDbLine
 62
7
  6
BYLAYER
 10
20.9625409922
 20
43.6468261188
 11
20.9625409922
 21
41.9960311301
  0
LINE
  5
244
100
AcDbEntity
  8
0
100
AcDbLine
 62
7
  6
BYLAYER
 10
20.9625409922
 20
48.9960310241
 11
20.9625409922
 21
50.6468261497
  0
LINE
  5
245
100
AcDbEntity
  8
0
100
AcDbLine
 62
7
  6
BYLAYER
 10
21.4255749858
 20
54.1214285714
 11
21.4255749858
 21
53.9214285714
  0
LINE
  5
246
100
AcDbEntity
  8
0
100
AcDbLine
 62
7
  6
BYLAYER
 10
25.302733371
 20
23.7214285714
 11
25.9187587748
 21
22.6544412733
  0
LINE
  5
247
100
AcDbEntity
  8
0
100
AcDbLine
 62
7
  6
BYLAYER
 10
13.3735785637
 20
44.9657650543
 11
13.3448520567
 21
45.0214285714
  0
LINE
  5
248
100
AcDbEntity
  8
0
100
AcDbLine
 62
7
  6
BYLAYER
 10
28.3620669071
 20
47.7777939269
 11
28.507733371
 21
48.3214285714
  0
LINE
  5
249
100
AcDbEntity
  8
0
100
AcDbLine
 62
7
  6
BYLAYER
 10
25.952733371
 20
54.1214285714
 11
25.952733371
 21
53.9214285714
  0
LINE
  5
24A
100
AcDbEntity
  8
0
100
AcDbLine
 62
7
  6
BYLAYER
 10
26.052733371
 20
22.1544412733
 11
26.052733371
 21
13.0714285714
  0
LINE
  5
24B
100
AcDbEntity
  8
0
100
AcDbLine
 62
7
  6
BYLAYER
 10
26.052733371
 20
6.2714285714
 11
26.052733371
 21
5.8214285714
  0
LINE
  5
24C
100
AcDbEntity
  8
0
100
AcDbLine
 62
7
  6
BYLAYER
 10
26.102733371
 20
5.8214285714
 11
26.102733371
 21
5.6214285714
  0
LINE
  5
24D
100
AcDbEntity
  8
0
100
AcDbLine
 62
7
  6
BYLAYER
 10
26.702733371
 20
53.7214285714
 11
26.702733371
 21
51.3214285714
  0
LINE
  5
24E
100
AcDbEntity
  8
0
100
AcDbLine
 62
7
  6
BYLAYER
 10
26.702733371
 20
47.6214285714
 11
26.702733371
 21
45.0214285714
  0
LINE
  5
24F
100
AcDbEntity
  8
0
100
AcDbLine
 62
7
  6
BYLAYER
 10
26.702733371
 20
41.3214285714
 11
26.702733371
 21
23.9214285714
  0
LINE
  5
250
100
AcDbEntity
  8
0
100
AcDbLine
 62
7
  6
BYLAYER
 10
26.702733371
 20
12.4214285714
 11
26.702733371
 21
6.9214285714
  0
LINE
  5
251
100
AcDbEntity
  8
0
100
AcDbLine
 62
7
  6
BYLAYER
 10
14.6077611388
 20
44.9887393587
 11
14.5796497555
 21
45.0214285714
  0
LINE
  5
252
100
AcDbEntity
  8
0
100
AcDbLine
 62
7
  6
BYLAYER
 10
28.9429257499
 20
43.6468261176
 11
28.9429257499
 21
41.9960309944
  0
LINE
  5
253
100
AcDbEntity
  8
0
100
AcDbLine
 62
7
  6
BYLAYER
 10
28.9429257499
 20
48.9960310252
 11
28.9429257499
 21
50.6468260119
  0
LINE
  5
254
100
AcDbEntity
  8
0
100
AcDbLine
 62
7
  6
BYLAYER
 10
29.202733371
 20
41.3214285714
 11
29.202733371
 21
44.3214285714
  0
LINE
  5
255
100
AcDbEntity
  8
0
100
AcDbLine
 62
7
  6
BYLAYER
 10
29.202733371
 20
48.3214285714
 11
29.202733371
 21
51.3214285714
  0
LINE
  5
256
100
AcDbEntity
  8
0
100
AcDbLine
 62
7
  6
BYLAYER
 10
15.352733371
 20
13.0714285714
 11
14.702733371
 21
12.4214285714
  0
LINE
  5
257
100
AcDbEntity
  8
0
100
AcDbLine
 62
7
  6
BYLAYER
 10
26.502733371
 20
23.7214285714
 11
26.702733371
 21
23.9214285714
  0
LINE
  5
258
100
AcDbEntity
  8
0
100
AcDbLine
 62
7
  6
BYLAYER
 10
14.4338705989
 20
44.7749793399
 11
14.409219491
 21
44.7931046095
  0
LINE
  5
259
100
AcDbEntity
  8
0
100
AcDbLine
 62
7
  6
BYLAYER
 10
25.8735082961
 20
4.3214285714
 11
26.102733371
 21
5.6214285714
  0
LINE
  5
25A
100
AcDbEntity
  8
0
100
AcDbLine
 62
7
  6
BYLAYER
 10
29.202733371
 20
41.3214285714
 11
12.202733371
 21
41.3214285714
  0
LINE
  5
25B
100
AcDbEntity
  8
0
100
AcDbLine
 62
7
  6
BYLAYER
 10
28.3620669071
 20
44.8650632159
 11
28.507733371
 21
44.3214285714
  0
LINE
  5
25C
100
AcDbEntity
  8
0
100
AcDbLine
 62
7
  6
BYLAYER
 10
12.202733371
 20
44.3214285714
 11
29.202733371
 21
44.3214285714
  0
LINE
  5
25D
100
AcDbEntity
  8
0
100
AcDbLine
 62
7
  6
BYLAYER
 10
14.409219491
 20
44.7931046095
 11
14.4484066884
 21
44.7931046095
  0
LINE
  5
25E
100
AcDbEntity
  8
0
100
AcDbLine
 62
7
  6
BYLAYER
 10
26.9570608633
 20
44.7931046095
 11
26.9962472511
 21
44.7931046095
  0
LINE
  5
25F
100
AcDbEntity
  8
0
100
AcDbLine
 62
7
  6
BYLAYER
 10
13.0869465353
 20
45.0214285714
 11
14.2239175713
 21
45.0214285714
  0
LINE
  5
260
100
AcDbEntity
  8
0
100
AcDbLine
 62
7
  6
BYLAYER
 10
14.2462539054
 20
45.0214285714
 11
14.5796497555
 21
45.0214285714
  0
LINE
  5
261
100
AcDbEntity
  8
0
100
AcDbLine
 62
7
  6
BYLAYER
 10
14.6345855812
 20
45.0214285714
 11
14.9846814087
 21
45.0214285714
  0
LINE
  5
262
100
AcDbEntity
  8
0
100
AcDbLine
 62
7
  6
BYLAYER
 10
15.5542950593
 20
45.0214285714
 11
15.9292281411
 21
45.0214285714
  0
LINE
  5
263
100
AcDbEntity
  8
0
100
AcDbLine
 62
7
  6
BYLAYER
 10
16.6394813869
 20
45.0214285714
 11
17.0271992591
 21
45.0214285714
  0
LINE
  5
264
100
AcDbEntity
  8
0
100
AcDbLine
 62
7
  6
BYLAYER
 10
17.8552639765
 20
45.0214285714
 11
18.2433050678
 21
45.0214285714
  0
LINE
  5
265
100
AcDbEntity
  8
0
100
AcDbLine
 62
7
  6
BYLAYER
 10
19.1625665754
 20
45.0214285714
 11
19.5384589257
 21
45.0214285714
  0
LINE
  5
266
100
AcDbEntity
  8
0
100
AcDbLine
 62
7
  6
BYLAYER
 10
20.5193714023
 20
45.0214285714
 11
20.8860953398
 21
45.0214285714
  0
LINE
  5
267
100
AcDbEntity
  8
0
100
AcDbLine
 62
7
  6
BYLAYER
 10
21.8670078163
 20
45.0214285714
 11
22.2429001667
 21
45.0214285714
  0
LINE
  5
268
100
AcDbEntity
  8
0
100
AcDbLine
 62
7
  6
BYLAYER
 10
23.1621616743
 20
45.0214285714
 11
23.5502027656
 21
45.0214285714
  0
LINE
  5
269
100
AcDbEntity
  8
0
100
AcDbLine
 62
7
  6
BYLAYER
 10
24.378267483
 20
45.0214285714
 11
24.7659853552
 21
45.0214285714
  0
LINE
  5
26A
100
AcDbEntity
  8
0
100
AcDbLine
 62
7
  6
BYLAYER
 10
25.476238601
 20
45.0214285714
 11
25.8511716828
 21
45.0214285714
  0
LINE
  5
26B
100
AcDbEntity
  8
0
100
AcDbLine
 62
7
  6
BYLAYER
 10
26.4207853334
 20
45.0214285714
 11
26.7708829669
 21
45.0214285714
  0
LINE
  5
26C
100
AcDbEntity
  8
0
100
AcDbLine
 62
7
  6
BYLAYER
 10
26.8258169865
 20
45.0214285714
 11
27.1592128366
 21
45.0214285714
  0
LINE
  5
26D
100
AcDbEntity
  8
0
100
AcDbLine
 62
7
  6
BYLAYER
 10
27.1815491708
 20
45.0214285714
 11
28.3185202068
 21
45.0214285714
  0
LINE
  5
26E
100
AcDbEntity
  8
0
100
AcDbLine
 62
7
  6
BYLAYER
 10
28.0318881784
 20
47.6770920885
 11
28.0606146854
 21
47.6214285714
  0
LINE
  5
26F
100
AcDbEntity
  8
0
100
AcDbLine
 62
7
  6
BYLAYER
 10
26.7977056033
 20
47.6541177842
 11
26.8258169865
 21
47.6214285714
  0
LINE
  5
270
100
AcDbEntity
  8
0
100
AcDbLine
 62
7
  6
BYLAYER
 10
28.3185202068
 20
47.6214285714
 11
27.1815491708
 21
47.6214285714
  0
LINE
  5
271
100
AcDbEntity
  8
0
100
AcDbLine
 62
7
  6
BYLAYER
 10
27.1592128366
 20
47.6214285714
 11
26.8258169865
 21
47.6214285714
  0
LINE
  5
272
100
AcDbEntity
  8
0
100
AcDbLine
 62
7
  6
BYLAYER
 10
26.7708829669
 20
47.6214285714
 11
26.4207853334
 21
47.6214285714
  0
LINE
  5
273
100
AcDbEntity
  8
0
100
AcDbLine
 62
7
  6
BYLAYER
 10
25.8511716828
 20
47.6214285714
 11
25.476238601
 21
47.6214285714
  0
LINE
  5
274
100
AcDbEntity
  8
0
100
AcDbLine
 62
7
  6
BYLAYER
 10
24.7659853552
 20
47.6214285714
 11
24.378267483
 21
47.6214285714
  0
LINE
  5
275
100
AcDbEntity
  8
0
100
AcDbLine
 62
7
  6
BYLAYER
 10
23.5502027656
 20
47.6214285714
 11
23.1621616743
 21
47.6214285714
  0
LINE
  5
276
100
AcDbEntity
  8
0
100
AcDbLine
 62
7
  6
BYLAYER
 10
22.2429001667
 20
47.6214285714
 11
21.8670078163
 21
47.6214285714
  0
LINE
  5
277
100
AcDbEntity
  8
0
100
AcDbLine
 62
7
  6
BYLAYER
 10
20.8860953398
 20
47.6214285714
 11
20.5193714023
 21
47.6214285714
  0
LINE
  5
278
100
AcDbEntity
  8
0
100
AcDbLine
 62
7
  6
BYLAYER
 10
19.5384589257
 20
47.6214285714
 11
19.1625665754
 21
47.6214285714
  0
LINE
  5
279
100
AcDbEntity
  8
0
100
AcDbLine
 62
7
  6
BYLAYER
 10
18.2433050678
 20
47.6214285714
 11
17.8552639765
 21
47.6214285714
  0
LINE
  5
27A
100
AcDbEntity
  8
0
100
AcDbLine
 62
7
  6
BYLAYER
 10
17.0271992591
 20
47.6214285714
 11
16.6394813869
 21
47.6214285714
  0
LINE
  5
27B
100
AcDbEntity
  8
0
100
AcDbLine
 62
7
  6
BYLAYER
 10
15.9292281411
 20
47.6214285714
 11
15.5542950593
 21
47.6214285714
  0
LINE
  5
27C
100
AcDbEntity
  8
0
100
AcDbLine
 62
7
  6
BYLAYER
 10
14.9846814087
 20
47.6214285714
 11
14.6345855812
 21
47.6214285714
  0
LINE
  5
27D
100
AcDbEntity
  8
0
100
AcDbLine
 62
7
  6
BYLAYER
 10
14.5796497555
 20
47.6214285714
 11
14.2462539054
 21
47.6214285714
  0
LINE
  5
27E
100
AcDbEntity
  8
0
100
AcDbLine
 62
7
  6
BYLAYER
 10
14.2239175713
 20
47.6214285714
 11
13.0869465353
 21
47.6214285714
  0
LINE
  5
27F
100
AcDbEntity
  8
0
100
AcDbLine
 62
7
  6
BYLAYER
 10
14.409219491
 20
47.8497525333
 11
14.4484058788
 21
47.8497525333
  0
LINE
  5
280
100
AcDbEntity
  8
0
100
AcDbLine
 62
7
  6
BYLAYER
 10
26.9570600536
 20
47.8497525333
 11
26.9962472511
 21
47.8497525333
  0
LINE
  5
281
100
AcDbEntity
  8
0
100
AcDbLine
 62
7
  6
BYLAYER
 10
29.202733371
 20
48.3214285714
 11
12.202733371
 21
48.3214285714
  0
LINE
  5
282
100
AcDbEntity
  8
0
100
AcDbLine
 62
7
  6
BYLAYER
 10
26.9962472511
 20
47.8497525334
 11
26.9715957022
 21
47.8678772532
  0
LINE
  5
283
100
AcDbEntity
  8
0
100
AcDbLine
 62
7
  6
BYLAYER
 10
26.052733371
 20
6.2714285714
 11
26.702733371
 21
6.9214285714
  0
LINE
  5
284
100
AcDbEntity
  8
0
100
AcDbLine
 62
7
  6
BYLAYER
 10
12.202733371
 20
51.3214285714
 11
29.202733371
 21
51.3214285714
  0
LINE
  5
285
100
AcDbEntity
  8
0
100
AcDbLine
 62
7
  6
BYLAYER
 10
26.502733371
 20
53.9214285714
 11
26.702733371
 21
53.7214285714
  0
LINE
  5
286
100
AcDbEntity
  8
0
100
AcDbLine
 62
7
  6
BYLAYER
 10
14.702733371
 20
53.7214285714
 11
26.702733371
 21
53.7214285714
  0
LINE
  5
287
100
AcDbEntity
  8
0
100
AcDbLine
 62
7
  6
BYLAYER
 10
14.902733371
 20
53.9214285714
 11
26.5026244425
 21
53.9214285714
  0
LINE
  5
288
100
AcDbEntity
  8
0
100
AcDbLine
 62
7
  6
BYLAYER
 10
15.452733371
 20
54.1214285714
 11
19.9798917563
 21
54.1214285714
  0
LINE
  5
289
100
AcDbEntity
  8
0
100
AcDbLine
 62
7
  6
BYLAYER
 10
21.4255749858
 20
54.1214285714
 11
25.952733371
 21
54.1214285714
  0
LINE
  5
28A
100
AcDbEntity
  8
0
100
AcDbLine
 62
7
  6
BYLAYER
 10
15.652733371
 20
54.3214285714
 11
25.7527010109
 21
54.3214285714
  0
ARC
  5
28B
100
AcDbEntity
  8
0
100
AcDbCircle
 62
7
  6
BYLAYER
 10
-48.9913000547
 20
-39.9100710712
 40
113.4612998721
100
AcDbArc
 50
50.667249289
 51
50.8225880301
  0
ARC
  5
28C
100
AcDbEntity
  8
0
100
AcDbCircle
 62
7
  6
BYLAYER
 10
-37.3555118403
 20
-15.5048265607
 40
87.4489159145
100
AcDbArc
 50
46.2086201844
 51
46.4252159931
  0
ARC
  5
28D
100
AcDbEntity
  8
0
100
AcDbCircle
 62
7
  6
BYLAYER
 10
-24.8078735892
 20
-16.7200075498
 40
81.0265759845
100
AcDbArc
 50
52.8347129549
 51
53.0114258138
  0
ARC
  5
28E
100
AcDbEntity
  8
0
100
AcDbCircle
 62
7
  6
BYLAYER
 10
-13.0715628935
 20
-4.8600947391
 40
65.167780855
100
AcDbArc
 50
53.9820619598
 51
54.144470553
  0
ARC
  5
28F
100
AcDbEntity
  8
0
100
AcDbCircle
 62
7
  6
BYLAYER
 10
-5.6602064673
 20
3.6227280435
 40
54.5145145959
100
AcDbArc
 50
54.2220592801
 51
54.3396608561
  0
ARC
  5
290
100
AcDbEntity
  8
0
100
AcDbCircle
 62
7
  6
BYLAYER
 10
-12.391208246
 20
9.7469786347
 40
52.7870088506
100
AcDbArc
 50
45.8481029646
 51
46.2050346806
  0
ARC
  5
291
100
AcDbEntity
  8
0
100
AcDbCircle
 62
7
  6
BYLAYER
 10
-0.5452381794
 20
22.0188740333
 40
36.5049045021
100
AcDbArc
 50
44.5350624705
 51
45.0399966509
  0
ARC
  5
292
100
AcDbEntity
  8
0
100
AcDbCircle
 62
7
  6
BYLAYER
 10
6.7734492022
 20
29.8183546316
 40
26.5135297303
100
AcDbArc
 50
42.1807212681
 51
42.8501206372
  0
ARC
  5
293
100
AcDbEntity
  8
0
100
AcDbCircle
 62
7
  6
BYLAYER
 10
11.8311153766
 20
35.3527621106
 40
19.6508522563
100
AcDbArc
 50
38.6332142619
 51
39.4905967141
  0
ARC
  5
294
100
AcDbEntity
  8
0
100
AcDbCircle
 62
7
  6
BYLAYER
 10
19.3102305536
 20
26.9486400578
 40
16.7797362171
100
AcDbArc
 50
84.3488932487
 51
86.72195461
  0
ARC
  5
295
100
AcDbEntity
  8
0
100
AcDbCircle
 62
7
  6
BYLAYER
 10
19.3102365433
 20
33.948682806
 40
16.7796931176
100
AcDbArc
 50
84.3488992387
 51
86.7219666669
  0
ARC
  5
296
100
AcDbEntity
  8
0
100
AcDbCircle
 62
7
  6
BYLAYER
 10
15.4720247157
 20
39.4472039533
 40
14.7368894968
100
AcDbArc
 50
33.6885214511
 51
34.5081427246
  0
ARC
  5
297
100
AcDbEntity
  8
0
100
AcDbCircle
 62
7
  6
BYLAYER
 10
17.9593711519
 20
43.1028948287
 40
9.2529598344
100
AcDbArc
 50
10.9019551161
 51
11.9666733938
  0
ARC
  5
298
100
AcDbEntity
  8
0
100
AcDbCircle
 62
7
  6
BYLAYER
 10
19.5428265121
 20
44.8105803805
 40
8.0773359979
100
AcDbArc
 50
0.3001730191
 51
1.4958005774
  0
ARC
  5
299
100
AcDbEntity
  8
0
100
AcDbCircle
 62
7
  6
BYLAYER
 10
13.2460036709
 20
44.0559207467
 40
6.672963769
100
AcDbArc
 50
95.2471598807
 51
98.9946865504
  0
ARC
  5
29A
100
AcDbEntity
  8
0
100
AcDbCircle
 62
7
  6
BYLAYER
 10
13.2411887527
 20
37.0944730038
 40
6.6341329316
100
AcDbArc
 50
95.2361996491
 51
99.0056692872
  0
ARC
  5
29B
100
AcDbEntity
  8
0
100
AcDbCircle
 62
7
  6
BYLAYER
 10
16.352733371
 20
22.1544412733
 40
1.0
100
AcDbArc
 50
150.0
 51
180.0
  0
ARC
  5
29C
100
AcDbEntity
  8
0
100
AcDbCircle
 62
7
  6
BYLAYER
 10
-48.5398139693
 20
132.0007592572
 40
112.7480470021
100
AcDbArc
 50
309.1768171063
 51
309.3331383826
  0
ARC
  5
29D
100
AcDbEntity
  8
0
100
AcDbCircle
 62
7
  6
BYLAYER
 10
-37.3555118381
 20
108.1476837013
 40
87.4489159114
100
AcDbArc
 50
313.5747840069
 51
313.7913798156
  0
ARC
  5
29E
100
AcDbEntity
  8
0
100
AcDbCircle
 62
7
  6
BYLAYER
 10
-24.494340052
 20
108.9481419735
 40
80.5066743231
100
AcDbArc
 50
306.9879247698
 51
307.1657760907
  0
ARC
  5
29F
100
AcDbEntity
  8
0
100
AcDbCircle
 62
7
  6
BYLAYER
 10
-12.8831437018
 20
97.2424969518
 40
64.846318594
100
AcDbArc
 50
305.8553995377
 51
306.0186076759
  0
ARC
  5
2A0
100
AcDbEntity
  8
0
100
AcDbCircle
 62
7
  6
BYLAYER
 10
-5.8218057832
 20
89.2438080894
 40
54.790461186
100
AcDbArc
 50
305.661276453
 51
305.7782867063
  0
ARC
  5
2A1
100
AcDbEntity
  8
0
100
AcDbCircle
 62
7
  6
BYLAYER
 10
-12.355353162
 20
82.8587150098
 40
52.735368878
100
AcDbArc
 50
313.79479056
 51
314.1520717949
  0
ARC
  5
2A2
100
AcDbEntity
  8
0
100
AcDbCircle
 62
7
  6
BYLAYER
 10
-0.5199072436
 20
70.5988393504
 40
36.4692136046
100
AcDbArc
 50
314.9597562685
 51
315.4651846101
  0
ARC
  5
2A3
100
AcDbEntity
  8
0
100
AcDbCircle
 62
7
  6
BYLAYER
 10
6.7925472265
 20
62.8069929377
 40
26.487620335
100
AcDbArc
 50
317.1495519659
 51
317.8196061289
  0
ARC
  5
2A4
100
AcDbEntity
  8
0
100
AcDbCircle
 62
7
  6
BYLAYER
 10
11.8460208341
 20
57.2779981421
 40
19.6316562472
100
AcDbArc
 50
320.5089840999
 51
321.3672049241
  0
ARC
  5
2A5
100
AcDbEntity
  8
0
100
AcDbCircle
 62
7
  6
BYLAYER
 10
19.3102305519
 20
65.6942170851
 40
16.7797362172
100
AcDbArc
 50
273.2780453958
 51
275.651106757
  0
ARC
  5
2A6
100
AcDbEntity
  8
0
100
AcDbCircle
 62
7
  6
BYLAYER
 10
19.3102366674
 20
58.6941727685
 40
16.7796915446
100
AcDbArc
 50
273.2780332161
 51
275.6511008668
  0
ARC
  5
2A7
100
AcDbEntity
  8
0
100
AcDbCircle
 62
7
  6
BYLAYER
 10
15.4714064775
 20
53.1960338196
 40
14.7376150383
100
AcDbArc
 50
325.4920083393
 51
326.3115804614
  0
ARC
  5
2A8
100
AcDbEntity
  8
0
100
AcDbCircle
 62
7
  6
BYLAYER
 10
17.9633431512
 20
49.5391281014
 40
9.2489011852
100
AcDbArc
 50
348.0332802615
 51
349.0984662002
  0
ARC
  5
2A9
100
AcDbEntity
  8
0
100
AcDbCircle
 62
7
  6
BYLAYER
 10
20.3276793221
 20
49.9302626887
 40
8.3177223887
100
AcDbArc
 50
345.0022547687
 51
347.4396707516
  0
ARC
  5
2AA
100
AcDbEntity
  8
0
100
AcDbCircle
 62
7
  6
BYLAYER
 10
19.5463507115
 20
47.8321919126
 40
8.0738107846
100
AcDbArc
 50
358.5041485142
 51
359.7002993275
  0
ARC
  5
2AB
100
AcDbEntity
  8
0
100
AcDbCircle
 62
7
  6
BYLAYER
 10
13.2446876893
 20
48.5764024323
 40
6.6623536077
100
AcDbArc
 50
261.0023283164
 51
264.7558252603
  0
ARC
  5
2AC
100
AcDbEntity
  8
0
100
AcDbCircle
 62
7
  6
BYLAYER
 10
13.2396137636
 20
55.535776925
 40
6.6214346052
100
AcDbArc
 50
260.9907149306
 51
264.7674161252
  0
ARC
  5
2AD
100
AcDbEntity
  8
0
100
AcDbCircle
 62
7
  6
BYLAYER
 10
15.652733371
 20
54.1214285714
 40
0.2
100
AcDbArc
 50
90.0
 51
180.0
  0
ARC
  5
2AE
100
AcDbEntity
  8
0
100
AcDbCircle
 62
7
  6
BYLAYER
 10
89.6495708104
 20
-38.9957148051
 40
112.2804753148
100
AcDbArc
 50
129.1765956938
 51
129.3335674018
  0
ARC
  5
2AF
100
AcDbEntity
  8
0
100
AcDbCircle
 62
7
  6
BYLAYER
 10
78.7609785819
 20
-15.5048265602
 40
87.4489159138
100
AcDbArc
 50
133.5747840069
 51
133.7913798156
  0
ARC
  5
2B0
100
AcDbEntity
  8
0
100
AcDbCircle
 62
7
  6
BYLAYER
 10
65.725802861
 20
-16.0748285814
 40
80.2179060167
100
AcDbArc
 50
126.9876855896
 51
127.1661773708
  0
ARC
  5
2B1
100
AcDbEntity
  8
0
100
AcDbCircle
 62
7
  6
BYLAYER
 10
54.4769603842
 20
-4.8600004438
 40
65.1676638633
100
AcDbArc
 50
125.8555344375
 51
126.0179375448
  0
ARC
  5
2B2
100
AcDbEntity
  8
0
100
AcDbCircle
 62
7
  6
BYLAYER
 10
47.0653680796
 20
3.6231511158
 40
54.5139929694
100
AcDbArc
 50
125.6603366201
 51
125.7779405085
  0
ARC
  5
2B3
100
AcDbEntity
  8
0
100
AcDbCircle
 62
7
  6
BYLAYER
 10
53.7608199044
 20
9.7841421328
 40
52.7353688785
100
AcDbArc
 50
133.79479056
 51
134.1520717949
  0
ARC
  5
2B4
100
AcDbEntity
  8
0
100
AcDbCircle
 62
7
  6
BYLAYER
 10
41.9253739864
 20
22.0440177918
 40
36.4692136055
100
AcDbArc
 50
134.9597562685
 51
135.4651846101
  0
ARC
  5
2B5
100
AcDbEntity
  8
0
100
AcDbCircle
 62
7
  6
BYLAYER
 10
34.6129195151
 20
29.8358642056
 40
26.4876203342
100
AcDbArc
 50
137.1495519658
 51
137.8196061289
  0
ARC
  5
2B6
100
AcDbEntity
  8
0
100
AcDbCircle
 62
7
  6
BYLAYER
 10
29.559445908
 20
35.3648590007
 40
19.6316562472
100
AcDbArc
 50
140.5089840999
 51
141.3672049241
  0
ARC
  5
2B7
100
AcDbEntity
  8
0
100
AcDbCircle
 62
7
  6
BYLAYER
 10
25.9340602644
 20
39.4468233234
 40
14.737615038
100
AcDbArc
 50
145.4920083393
 51
146.3115804614
  0
ARC
  5
2B8
100
AcDbEntity
  8
0
100
AcDbCircle
 62
7
  6
BYLAYER
 10
23.442123591
 20
43.1037290414
 40
9.2489011853
100
AcDbArc
 50
168.0332802615
 51
169.0984662002
  0
ARC
  5
2B9
100
AcDbEntity
  8
0
100
AcDbCircle
 62
7
  6
BYLAYER
 10
21.0777874201
 20
42.7125944541
 40
8.3177223888
100
AcDbArc
 50
165.0022547687
 51
167.4396707516
  0
ARC
  5
2BA
100
AcDbEntity
  8
0
100
AcDbCircle
 62
7
  6
BYLAYER
 10
20.3372153837
 20
42.7149330364
 40
8.3079059853
100
AcDbArc
 50
12.5588890375
 51
14.9991854422
  0
ARC
  5
2BB
100
AcDbEntity
  8
0
100
AcDbCircle
 62
7
  6
BYLAYER
 10
21.0312422824
 20
42.7247488887
 40
8.2696174326
100
AcDbArc
 50
163.8755262802
 51
165.0001444078
  0
ARC
  5
2BC
100
AcDbEntity
  8
0
100
AcDbCircle
 62
7
  6
BYLAYER
 10
20.3789907327
 20
42.7260762639
 40
8.2646700167
100
AcDbArc
 50
14.9995189706
 51
16.1248103413
  0
ARC
  5
2BD
100
AcDbEntity
  8
0
100
AcDbCircle
 62
7
  6
BYLAYER
 10
21.8591160307
 20
44.8106652302
 40
8.0738107846
100
AcDbArc
 50
178.5041485142
 51
179.7002993275
  0
ARC
  5
2BE
100
AcDbEntity
  8
0
100
AcDbCircle
 62
7
  6
BYLAYER
 10
29.5832213944
 20
44.4203054024
 40
2.5074060138
100
AcDbArc
 50
255.2049770681
 51
261.2718953287
  0
ARC
  5
2BF
100
AcDbEntity
  8
0
100
AcDbCircle
 62
7
  6
BYLAYER
 10
29.5775202345
 20
41.2499355324
 40
2.4794746697
100
AcDbArc
 50
98.6939101303
 51
104.8292376165
  0
ARC
  5
2C0
100
AcDbEntity
  8
0
100
AcDbCircle
 62
7
  6
BYLAYER
 10
25.052733371
 20
22.1544412733
 40
1.0
100
AcDbArc
 50
0.0
 51
30.0
  0
ARC
  5
2C1
100
AcDbEntity
  8
0
100
AcDbCircle
 62
7
  6
BYLAYER
 10
89.4180376825
 20
131.3555621062
 40
111.9148223769
100
AcDbArc
 50
230.66628024
 51
230.8237660489
  0
ARC
  5
2C2
100
AcDbEntity
  8
0
100
AcDbCircle
 62
7
  6
BYLAYER
 10
78.7609785818
 20
108.147683703
 40
87.4489159137
100
AcDbArc
 50
226.2086201844
 51
226.4252159931
  0
ARC
  5
2C3
100
AcDbEntity
  8
0
100
AcDbCircle
 62
7
  6
BYLAYER
 10
65.182488443
 20
107.9988836338
 40
79.3168703229
100
AcDbArc
 50
232.8328914833
 51
233.0134132254
  0
ARC
  5
2C4
100
AcDbEntity
  8
0
100
AcDbCircle
 62
7
  6
BYLAYER
 10
54.2881880985
 20
97.2419193076
 40
64.845603021
100
AcDbArc
 50
233.9813940218
 51
234.144609768
  0
ARC
  5
2C5
100
AcDbEntity
  8
0
100
AcDbCircle
 62
7
  6
BYLAYER
 10
47.2261235478
 20
89.2422150887
 40
54.7884970577
100
AcDbArc
 50
234.2217141308
 51
234.3387273986
  0
ARC
  5
2C6
100
AcDbEntity
  8
0
100
AcDbCircle
 62
7
  6
BYLAYER
 10
53.7966749894
 20
82.8958785096
 40
52.7870088525
100
AcDbArc
 50
225.8481029646
 51
226.2050346806
  0
ARC
  5
2C7
100
AcDbEntity
  8
0
100
AcDbCircle
 62
7
  6
BYLAYER
 10
41.9507049224
 20
70.6239831105
 40
36.5049045035
100
AcDbArc
 50
224.5350624705
 51
225.0399966509
  0
ARC
  5
2C8
100
AcDbEntity
  8
0
100
AcDbCircle
 62
7
  6
BYLAYER
 10
34.6320175391
 20
62.8245025105
 40
26.5135297291
100
AcDbArc
 50
222.180721268
 51
222.8501206372
  0
ARC
  5
2C9
100
AcDbEntity
  8
0
100
AcDbCircle
 62
7
  6
BYLAYER
 10
29.5743513654
 20
57.2900950322
 40
19.6508522562
100
AcDbArc
 50
218.6332142619
 51
219.4905967142
  0
ARC
  5
2CA
100
AcDbEntity
  8
0
100
AcDbCircle
 62
7
  6
BYLAYER
 10
25.9334420261
 20
53.1956531894
 40
14.7368894964
100
AcDbArc
 50
213.6885214511
 51
214.5081427246
  0
ARC
  5
2CB
100
AcDbEntity
  8
0
100
AcDbCircle
 62
7
  6
BYLAYER
 10
23.4460955902
 20
49.5399623142
 40
9.2529598344
100
AcDbArc
 50
190.9019551161
 51
191.9666733938
  0
ARC
  5
2CC
100
AcDbEntity
  8
0
100
AcDbCircle
 62
7
  6
BYLAYER
 10
21.0682513584
 20
49.9279241064
 40
8.3079059852
100
AcDbArc
 50
192.5588890374
 51
194.9991854423
  0
ARC
  5
2CD
100
AcDbEntity
  8
0
100
AcDbCircle
 62
7
  6
BYLAYER
 10
20.3742244597
 20
49.9181082541
 40
8.2696174326
100
AcDbArc
 50
343.8755262802
 51
345.0001444078
  0
ARC
  5
2CE
100
AcDbEntity
  8
0
100
AcDbCircle
 62
7
  6
BYLAYER
 10
21.0264760093
 20
49.9167808789
 40
8.2646700166
100
AcDbArc
 50
194.9995189706
 51
196.1248103413
  0
ARC
  5
2CF
100
AcDbEntity
  8
0
100
AcDbCircle
 62
7
  6
BYLAYER
 10
21.8626402302
 20
47.8322767624
 40
8.0773359981
100
AcDbArc
 50
180.3001730191
 51
181.4958005774
  0
ARC
  5
2D0
100
AcDbEntity
  8
0
100
AcDbCircle
 62
7
  6
BYLAYER
 10
29.5840330691
 20
48.2186534081
 40
2.5113823787
100
AcDbArc
 50
98.7329121313
 51
104.7902154508
  0
ARC
  5
2D1
100
AcDbEntity
  8
0
100
AcDbCircle
 62
7
  6
BYLAYER
 10
29.5765259321
 20
51.3881461585
 40
2.474603807
100
AcDbArc
 50
255.1647183942
 51
261.3121338802
  0
ARC
  5
2D2
100
AcDbEntity
  8
0
100
AcDbCircle
 62
7
  6
BYLAYER
 10
25.752733371
 20
54.1214285714
 40
0.2
100
AcDbArc
 50
0.0
 51
90.0
  0
LINE
  5
2D3
100
AcDbEntity
  8
0
100
AcDbLine
 62
7
  6
BYLAYER
 10
19.7722564945
 20
44.7931046095
 11
19.5384589257
 21
45.0214285714
  0
LINE
  5
2D4
100
AcDbEntity
  8
0
100
AcDbLine
 62
7
  6
BYLAYER
 10
20.0349600023
 20
44.5507097007
 11
19.7722564945
 21
44.7931046095
  0
LINE
  5
2D5
100
AcDbEntity
  8
0
100
AcDbLine
 62
7
  6
BYLAYER
 10
21.6332102476
 20
44.7931046095
 11
21.3705067412
 21
44.5507097017
  0
LINE
  5
2D6
100
AcDbEntity
  8
0
100
AcDbLine
 62
7
  6
BYLAYER
 10
21.6332102476
 20
44.7931046095
 11
21.8670078163
 21
45.0214285714
  0
SPLINE
  5
2D7
100
AcDbEntity
  8
0
100
AcDbSpline
 62
7
  6
BYLAYER
 70
0
 71
3
 72
13
 73
9
 74
0
 42
0.0000001
 43
0.0000001
 44
0.0000000001
 40
0.0
 40
0.0
 40
0.0
 40
0.0
 40
0.2512667317
 40
0.5015289351
 40
0.6263522481
 40
0.7510037447
 40
0.8755380294
 40
1.0
 40
1.0
 40
1.0
 40
1.0
 10
28.9429257499
 20
41.9960311309
 30
0.0
 10
28.6186271482
 20
41.8930019335
 30
0.0
 10
27.9655424087
 20
41.7049093026
 30
0.0
 10
27.1358301805
 20
41.5247668236
 30
0.0
 10
26.4669673327
 20
41.4205983143
 30
0.0
 10
25.963510002
 20
41.3637636621
 30
0.0
 10
25.4585297067
 20
41.3291917662
 30
0.0
 10
25.1212827777
 20
41.321430234
 30
0.0
 10
24.9527334288
 20
41.3214314891
 30
0.0
  0
SPLINE
  5
2D8
100
AcDbEntity
  8
0
100
AcDbSpline
 62
7
  6
BYLAYER
 70
0
 71
3
 72
11
 73
7
 74
0
 42
0.0000001
 43
0.0000001
 44
0.0000000001
 40
0.0
 40
0.0
 40
0.0
 40
0.0
 40
0.2512099071
 40
0.5014743377
 40
0.7509613715
 40
1.0
 40
1.0
 40
1.0
 40
1.0
 10
20.2697206692
 20
41.9419358603
 30
0.0
 10
19.9590516251
 20
41.8465971681
 30
0.0
 10
19.3335494408
 20
41.6729728581
 30
0.0
 10
18.3817398761
 20
41.4746023762
 30
0.0
 10
17.4201335831
 20
41.3498648212
 30
0.0
 10
16.7748933609
 20
41.3214309908
 30
0.0
 10
16.4527333583
 20
41.3214314916
 30
0.0
  0
SPLINE
  5
2D9
100
AcDbEntity
  8
0
100
AcDbSpline
 62
7
  6
BYLAYER
 70
0
 71
3
 72
13
 73
9
 74
0
 42
0.0000001
 43
0.0000001
 44
0.0000000001
 40
0.0
 40
0.0
 40
0.0
 40
0.0
 40
0.1244619816
 40
0.2489962933
 40
0.3736477977
 40
0.4984711062
 40
0.7487332948
 40
1.0
 40
1.0
 40
1.0
 40
1.0
 10
24.9527334288
 20
41.3214314891
 30
0.0
 10
24.7841840604
 20
41.321430233
 30
0.0
 10
24.4469370723
 20
41.3291918217
 30
0.0
 10
23.941956697
 20
41.3637636529
 30
0.0
 10
23.4384993132
 20
41.4205983359
 30
0.0
 10
22.7696364609
 20
41.5247668352
 30
0.0
 10
21.9399242758
 20
41.7049093337
 30
0.0
 10
21.2868395686
 20
41.8930019408
 30
0.0
 10
20.9625409922
 20
41.9960311301
 30
0.0
  0
SPLINE
  5
2DA
100
AcDbEntity
  8
0
100
AcDbSpline
 62
7
  6
BYLAYER
 70
0
 71
3
 72
13
 73
9
 74
0
 42
0.0000001
 43
0.0000001
 44
0.0000000001
 40
0.0
 40
0.0
 40
0.0
 40
0.0
 40
0.1245000967
 40
0.2490664297
 40
0.3737404192
 40
0.4985731629
 40
0.7488118898
 40
1.0
 40
1.0
 40
1.0
 40
1.0
 10
16.4527333583
 20
41.3214314916
 30
0.0
 10
16.2916606455
 20
41.3214311784
 30
0.0
 10
15.9693855379
 20
41.3285100493
 30
0.0
 10
15.486748656
 20
41.3600879799
 30
0.0
 10
15.0054451452
 20
41.4120785709
 30
0.0
 10
14.3658286068
 20
41.5075274473
 30
0.0
 10
13.5719188972
 20
41.6729840095
 30
0.0
 10
12.9464220526
 20
41.8465950345
 30
0.0
 10
12.6357460729
 20
41.941935856
 30
0.0
  0
SPLINE
  5
2DB
100
AcDbEntity
  8
0
100
AcDbSpline
 62
7
  6
BYLAYER
 70
0
 71
3
 72
11
 73
7
 74
0
 42
0.0000001
 43
0.0000001
 44
0.0000000001
 40
0.0
 40
0.0
 40
0.0
 40
0.0
 40
0.2512099072
 40
0.5014743377
 40
0.7509613715
 40
1.0
 40
1.0
 40
1.0
 40
1.0
 10
12.6357460729
 20
43.7009212868
 30
0.0
 10
12.9464151071
 20
43.7962600041
 30
0.0
 10
13.5719172966
 20
43.9698842833
 30
0.0
 10
14.5237268523
 20
44.1682547715
 30
0.0
 10
15.4853331409
 20
44.2929923085
 30
0.0
 10
16.1305733577
 20
44.3214261514
 30
0.0
 10
16.4527333583
 20
44.3214256512
 30
0.0
  0
SPLINE
  5
2DC
100
AcDbEntity
  8
0
100
AcDbSpline
 62
7
  6
BYLAYER
 70
0
 71
3
 72
13
 73
9
 74
0
 42
0.0000001
 43
0.0000001
 44
0.0000000001
 40
0.0
 40
0.0
 40
0.0
 40
0.0
 40
0.1245000967
 40
0.2490664297
 40
0.3737404192
 40
0.498573163
 40
0.7488118899
 40
1.0
 40
1.0
 40
1.0
 40
1.0
 10
16.4527333583
 20
44.3214256512
 30
0.0
 10
16.6138060721
 20
44.3214259648
 30
0.0
 10
16.9360811819
 20
44.3143470975
 30
0.0
 10
17.4187180675
 20
44.2827691709
 30
0.0
 10
17.9000215814
 20
44.2307785779
 30
0.0
 10
18.5396381239
 20
44.1353296952
 30
0.0
 10
19.3335478321
 20
43.969873108
 30
0.0
 10
19.9590446951
 20
43.7962621295
 30
0.0
 10
20.2697206692
 20
43.7009212825
 30
0.0
  0
SPLINE
  5
2DD
100
AcDbEntity
  8
0
100
AcDbSpline
 62
7
  6
BYLAYER
 70
0
 71
3
 72
13
 73
9
 74
0
 42
0.0000001
 43
0.0000001
 44
0.0000000001
 40
0.0
 40
0.0
 40
0.0
 40
0.0
 40
0.2512664627
 40
0.5015287717
 40
0.6263522402
 40
0.7510038185
 40
0.8755380332
 40
1.0
 40
1.0
 40
1.0
 40
1.0
 10
20.9625409922
 20
43.6468261188
 30
0.0
 10
21.2868392262
 20
43.7498552066
 30
0.0
 10
21.9399287633
 20
43.9379319251
 30
0.0
 10
22.7696410842
 20
44.1180670582
 30
0.0
 10
23.4384990501
 20
44.2222691612
 30
0.0
 10
23.9419559629
 20
44.2791123176
 30
0.0
 10
24.4469371828
 20
44.3136739121
 30
0.0
 10
24.7841840241
 20
44.3214259655
 30
0.0
 10
24.9527333583
 20
44.3214256512
 30
0.0
  0
SPLINE
  5
2DE
100
AcDbEntity
  8
0
100
AcDbSpline
 62
7
  6
BYLAYER
 70
0
 71
3
 72
13
 73
9
 74
0
 42
0.0000001
 43
0.0000001
 44
0.0000000001
 40
0.0
 40
0.0
 40
0.0
 40
0.0
 40
0.1244619778
 40
0.2489962192
 40
0.3736478055
 40
0.4984712695
 40
0.7487335642
 40
1.0
 40
1.0
 40
1.0
 40
1.0
 10
24.9527333583
 20
44.3214256512
 30
0.0
 10
25.1212827083
 20
44.3214259657
 30
0.0
 10
25.4585296009
 20
44.3136738653
 30
0.0
 10
25.9635108909
 20
44.2791123485
 30
0.0
 10
26.4669678433
 20
44.2222691417
 30
0.0
 10
27.1358257997
 20
44.1180670468
 30
0.0
 10
27.9655380476
 20
43.9379318464
 30
0.0
 10
28.6186275487
 20
43.7498551949
 30
0.0
 10
28.9429257499
 20
43.6468261176
 30
0.0
  0
LINE
  5
2DF
100
AcDbEntity
  8
0
100
AcDbLine
 62
7
  6
BYLAYER
 10
20.0349594237
 20
48.0921469886
 11
19.7722564945
 21
47.8497525334
  0
LINE
  5
2E0
100
AcDbEntity
  8
0
100
AcDbLine
 62
7
  6
BYLAYER
 10
21.6332102476
 20
47.8497525334
 11
21.3705073187
 21
48.0921469883
  0
LINE
  5
2E1
100
AcDbEntity
  8
0
100
AcDbLine
 62
7
  6
BYLAYER
 10
19.7722564945
 20
47.8497525334
 11
19.5384589257
 21
47.6214285714
  0
LINE
  5
2E2
100
AcDbEntity
  8
0
100
AcDbLine
 62
7
  6
BYLAYER
 10
21.6332102476
 20
47.8497525334
 11
21.8670078163
 21
47.6214285714
  0
SPLINE
  5
2E3
100
AcDbEntity
  8
0
100
AcDbSpline
 62
7
  6
BYLAYER
 70
0
 71
3
 72
11
 73
7
 74
0
 42
0.0000001
 43
0.0000001
 44
0.0000000001
 40
0.0
 40
0.0
 40
0.0
 40
0.0
 40
0.2512099072
 40
0.5014743377
 40
0.7509613715
 40
1.0
 40
1.0
 40
1.0
 40
1.0
 10
12.6357460729
 20
50.7009212869
 30
0.0
 10
12.9464151151
 20
50.7962599781
 30
0.0
 10
13.5719172933
 20
50.9698842937
 30
0.0
 10
14.5237268531
 20
51.168254769
 30
0.0
 10
15.4853331407
 20
51.2929923091
 30
0.0
 10
16.1305733578
 20
51.3214261514
 30
0.0
 10
16.4527333583
 20
51.3214256512
 30
0.0
  0
SPLINE
  5
2E4
100
AcDbEntity
  8
0
100
AcDbSpline
 62
7
  6
BYLAYER
 70
0
 71
3
 72
13
 73
9
 74
0
 42
0.0000001
 43
0.0000001
 44
0.0000000001
 40
0.0
 40
0.0
 40
0.0
 40
0.0
 40
0.1245000967
 40
0.2490664297
 40
0.3737404192
 40
0.498573163
 40
0.7488118899
 40
1.0
 40
1.0
 40
1.0
 40
1.0
 10
16.4527333583
 20
51.3214256512
 30
0.0
 10
16.6138060721
 20
51.3214259648
 30
0.0
 10
16.9360811819
 20
51.3143470974
 30
0.0
 10
17.4187180674
 20
51.2827691709
 30
0.0
 10
17.9000215815
 20
51.2307785786
 30
0.0
 10
18.5396381231
 20
51.1353296918
 30
0.0
 10
19.3335478368
 20
50.9698731244
 30
0.0
 10
19.9590446875
 20
50.796262105
 30
0.0
 10
20.2697206692
 20
50.7009212826
 30
0.0
  0
SPLINE
  5
2E5
100
AcDbEntity
  8
0
100
AcDbSpline
 62
7
  6
BYLAYER
 70
0
 71
3
 72
13
 73
9
 74
0
 42
0.0000001
 43
0.0000001
 44
0.0000000001
 40
0.0
 40
0.0
 40
0.0
 40
0.0
 40
0.251266732
 40
0.5015289352
 40
0.6263522481
 40
0.7510037446
 40
0.8755380294
 40
1.0
 40
1.0
 40
1.0
 40
1.0
 10
20.9625409922
 20
50.6468260127
 30
0.0
 10
21.2868396034
 20
50.7498552131
 30
0.0
 10
21.9399243565
 20
50.9379478668
 30
0.0
 10
22.7696366121
 20
51.1180903366
 30
0.0
 10
23.4384994816
 20
51.2222588278
 30
0.0
 10
23.9419568275
 20
51.2790934706
 30
0.0
 10
24.4469371365
 20
51.3136653723
 30
0.0
 10
24.7841840752
 20
51.3214269106
 30
0.0
 10
24.9527334288
 20
51.3214256537
 30
0.0
  0
SPLINE
  5
2E6
100
AcDbEntity
  8
0
100
AcDbSpline
 62
7
  6
BYLAYER
 70
0
 71
3
 72
13
 73
9
 74
0
 42
0.0000001
 43
0.0000001
 44
0.0000000001
 40
0.0
 40
0.0
 40
0.0
 40
0.0
 40
0.2512664626
 40
0.5015287717
 40
0.6263522402
 40
0.7510038185
 40
0.8755380332
 40
1.0
 40
1.0
 40
1.0
 40
1.0
 10
28.9429257499
 20
48.9960310252
 30
0.0
 10
28.618627514
 20
48.8930019369
 30
0.0
 10
27.9655379698
 20
48.7049252277
 30
0.0
 10
27.1358256451
 20
48.5247900897
 30
0.0
 10
26.4669676763
 20
48.4205879755
 30
0.0
 10
25.9635107604
 20
48.3637448168
 30
0.0
 10
25.4585295369
 20
48.3291832265
 30
0.0
 10
25.1212826935
 20
48.321431177
 30
0.0
 10
24.9527333583
 20
48.3214314916
 30
0.0
  0
SPLINE
  5
2E7
100
AcDbEntity
  8
0
100
AcDbSpline
 62
7
  6
BYLAYER
 70
0
 71
3
 72
13
 73
9
 74
0
 42
0.0000001
 43
0.0000001
 44
0.0000000001
 40
0.0
 40
0.0
 40
0.0
 40
0.0
 40
0.1244619815
 40
0.2489962932
 40
0.3736477976
 40
0.4984711063
 40
0.7487332951
 40
1.0
 40
1.0
 40
1.0
 40
1.0
 10
24.9527334288
 20
51.3214256537
 30
0.0
 10
25.1212827925
 20
51.3214269081
 30
0.0
 10
25.4585297709
 20
51.3136653255
 30
0.0
 10
25.9635101325
 20
51.2790935
 30
0.0
 10
26.4669675011
 20
51.2222588076
 30
0.0
 10
27.1358303317
 20
51.1180902903
 30
0.0
 10
27.9655424893
 20
50.9379477826
 30
0.0
 10
28.6186271829
 20
50.7498551983
 30
0.0
 10
28.9429257499
 20
50.6468260119
 30
0.0
  0
SPLINE
  5
2E8
100
AcDbEntity
  8
0
100
AcDbSpline
 62
7
  6
BYLAYER
 70
0
 71
3
 72
13
 73
9
 74
0
 42
0.0000001
 43
0.0000001
 44
0.0000000001
 40
0.0
 40
0.0
 40
0.0
 40
0.0
 40
0.1244619778
 40
0.2489962192
 40
0.3736478054
 40
0.4984712695
 40
0.7487335641
 40
1.0
 40
1.0
 40
1.0
 40
1.0
 10
24.9527333583
 20
48.3214314916
 30
0.0
 10
24.7841840093
 20
48.3214311776
 30
0.0
 10
24.4469371189
 20
48.3291832818
 30
0.0
 10
23.9419558324
 20
48.3637448028
 30
0.0
 10
23.4384988831
 20
48.4205880073
 30
0.0
 10
22.7696409296
 20
48.524790091
 30
0.0
 10
21.9399286854
 20
48.7049252864
 30
0.0
 10
21.2868391916
 20
48.8930019474
 30
0.0
 10
20.9625409922
 20
48.9960310241
 30
0.0
  0
SPLINE
  5
2E9
100
AcDbEntity
  8
0
100
AcDbSpline
 62
7
  6
BYLAYER
 70
0
 71
3
 72
11
 73
7
 74
0
 42
0.0000001
 43
0.0000001
 44
0.0000000001
 40
0.0
 40
0.0
 40
0.0
 40
0.0
 40
0.2512099071
 40
0.5014743377
 40
0.7509613715
 40
1.0
 40
1.0
 40
1.0
 40
1.0
 10
20.2697206692
 20
48.9419358603
 30
0.0
 10
19.959051633
 20
48.8465971425
 30
0.0
 10
19.3335494375
 20
48.6729728685
 30
0.0
 10
18.381739877
 20
48.4746023737
 30
0.0
 10
17.4201335829
 20
48.3498648219
 30
0.0
 10
16.7748933609
 20
48.3214309908
 30
0.0
 10
16.4527333583
 20
48.3214314916
 30
0.0
  0
SPLINE
  5
2EA
100
AcDbEntity
  8
0
100
AcDbSpline
 62
7
  6
BYLAYER
 70
0
 71
3
 72
13
 73
9
 74
0
 42
0.0000001
 43
0.0000001
 44
0.0000000001
 40
0.0
 40
0.0
 40
0.0
 40
0.0
 40
0.1245000967
 40
0.2490664297
 40
0.3737404192
 40
0.498573163
 40
0.7488118898
 40
1.0
 40
1.0
 40
1.0
 40
1.0
 10
16.4527333583
 20
48.3214314916
 30
0.0
 10
16.2916606455
 20
48.3214311784
 30
0.0
 10
15.9693855379
 20
48.3285100492
 30
0.0
 10
15.4867486559
 20
48.3600879799
 30
0.0
 10
15.0054451453
 20
48.4120785716
 30
0.0
 10
14.365828606
 20
48.5075274439
 30
0.0
 10
13.5719189019
 20
48.6729840261
 30
0.0
 10
12.946422045
 20
48.8465950097
 30
0.0
 10
12.6357460729
 20
48.941935856
 30
0.0
  0
SPLINE
  5
2EB
100
AcDbEntity
  8
0
100
AcDbSpline
 62
7
  6
BYLAYER
 70
0
 71
3
 72
42
 73
38
 74
0
 42
0.0000001
 43
0.0000001
 44
0.0000000001
 40
0.0
 40
0.0
 40
0.0
 40
0.0
 40
0.007830741
 40
0.015695291
 40
0.0235246052
 40
0.0313425214
 40
0.0391584887
 40
0.0469725099
 40
0.0625940508
 40
0.0782174776
 40
0.0938398251
 40
0.1250811119
 40
0.1563241249
 40
0.1875677554
 40
0.2188116904
 40
0.2500557686
 40
0.3125420224
 40
0.3750291748
 40
0.4375166848
 40
0.5000043809
 40
0.5624920582
 40
0.6249796157
 40
0.6874667259
 40
0.7499529772
 40
0.7811970661
 40
0.8124410145
 40
0.8436847327
 40
0.8749278003
 40
0.9061693074
 40
0.937404762
 40
0.953027777
 40
0.9608414124
 40
0.9686566544
 40
0.9764753123
 40
0.9843046226
 40
0.9921690963
 40
1.0
 40
1.0
 40
1.0
 40
1.0
 10
19.9798917563
 20
54.1214285714
 30
0.0
 10
19.9798917563
 20
54.1253764866
 30
0.0
 10
19.981791355
 20
54.133315775
 30
0.0
 10
19.9881504987
 20
54.1434774004
 30
0.0
 10
19.9966253308
 20
54.1518570306
 30
0.0
 10
20.0060201824
 20
54.1590712877
 30
0.0
 10
20.0160268346
 20
54.1653887199
 30
0.0
 10
20.02986078
 20
54.1729464757
 30
0.0
 10
20.0479106058
 20
54.1808990752
 30
0.0
 10
20.0701493522
 20
54.1889079115
 30
0.0
 10
20.1002397866
 20
54.1982638522
 30
0.0
 10
20.1384450974
 20
54.2079145642
 30
0.0
 10
20.1847894927
 20
54.2171975477
 30
0.0
 10
20.2314274627
 20
54.2248556491
 30
0.0
 10
20.2782590591
 20
54.2312064868
 30
0.0
 10
20.340872731
 20
54.238268186
 30
0.0
 10
20.4193702871
 20
54.2448635557
 30
0.0
 10
20.5137442734
 20
54.2500953222
 30
0.0
 10
20.6082156006
 20
54.2530778586
 30
0.0
 10
20.7027278879
 20
54.2540367815
 30
0.0
 10
20.7972402063
 20
54.2530711886
 30
0.0
 10
20.8917111753
 20
54.2500901178
 30
0.0
 10
20.9860877546
 20
54.2448965116
 30
0.0
 10
21.06458187
 20
54.2382604312
 30
0.0
 10
21.1271968332
 20
54.2312114074
 30
0.0
 10
21.1740278152
 20
54.2248543746
 30
0.0
 10
21.2206670668
 20
54.217207719
 30
0.0
 10
21.2670105012
 20
54.2079032296
 30
0.0
 10
21.3128486082
 20
54.1963596581
 30
0.0
 10
21.3503062915
 20
54.1840030796
 30
0.0
 10
21.3755574153
 20
54.1728615915
 30
0.0
 10
21.3894322929
 20
54.1653788681
 30
0.0
 10
21.3994503354
 20
54.1590773234
 30
0.0
 10
21.4088400661
 20
54.1518561035
 30
0.0
 10
21.4173155751
 20
54.143477312
 30
0.0
 10
21.4236757488
 20
54.1333160171
 30
0.0
 10
21.4255749858
 20
54.1253765686
 30
0.0
 10
21.4255749858
 20
54.1214285714
 30
0.0
  0
SPLINE
  5
2EC
100
AcDbEntity
  8
0
100
AcDbSpline
 62
7
  6
BYLAYER
 70
0
 71
3
 72
22
 73
18
 74
0
 42
0.0000001
 43
0.0000001
 44
0.0000000001
 40
0.0
 40
0.0
 40
0.0
 40
0.0
 40
0.0012557054
 40
0.0049153365
 40
0.0109709807
 40
0.0194147282
 40
0.0302386757
 40
0.0434289948
 40
0.0767260017
 40
0.1188945617
 40
0.1695020485
 40
0.22802556
 40
0.2939037757
 40
0.4452197546
 40
0.6177907386
 40
0.8052225773
 40
1.0
 40
1.0
 40
1.0
 40
1.0
 10
15.2027333771
 20
20.3215262029
 30
0.0
 10
15.2027351483
 20
20.3217357253
 30
0.0
 10
15.2028475253
 20
20.3225507725
 30
0.0
 10
15.2029754219
 20
20.3243757257
 30
0.0
 10
15.2032668939
 20
20.3273926869
 30
0.0
 10
15.2036321231
 20
20.3316020115
 30
0.0
 10
15.2041108644
 20
20.3369969752
 30
0.0
 10
15.2049398157
 20
20.3465240034
 30
0.0
 10
15.2061949036
 20
20.3612640538
 30
0.0
 10
15.2079057694
 20
20.3822312351
 30
0.0
 10
15.2098621617
 20
20.4074015856
 30
0.0
 10
15.2119862302
 20
20.4365268095
 30
0.0
 10
15.2150788933
 20
20.4824298286
 30
0.0
 10
15.2188276252
 20
20.5473609606
 30
0.0
 10
15.2224816977
 20
20.6326060755
 30
0.0
 10
15.2249296778
 20
20.7251498306
 30
0.0
 10
15.225507796
 20
20.7889275688
 30
0.0
 10
15.225507796
 20
20.8214285714
 30
0.0
  0
SPLINE
  5
2ED
100
AcDbEntity
  8
0
100
AcDbSpline
 62
7
  6
BYLAYER
 70
0
 71
3
 72
32
 73
28
 74
0
 42
0.0000001
 43
0.0000001
 44
0.0000000001
 40
0.0
 40
0.0
 40
0.0
 40
0.0
 40
0.0000762007
 40
0.0003042351
 40
0.0006838585
 40
0.0012148167
 40
0.0027297159
 40
0.0048468881
 40
0.0075642874
 40
0.0108798679
 40
0.0147915839
 40
0.0192973898
 40
0.0300830891
 40
0.0432190207
 40
0.0586692516
 40
0.0763864682
 40
0.0963232213
 40
0.1184321133
 40
0.1689667933
 40
0.2274857444
 40
0.2934108862
 40
0.3661334349
 40
0.4449229604
 40
0.5290197694
 40
0.6176407966
 40
0.8051514471
 40
1.0
 40
1.0
 40
1.0
 40
1.0
 10
15.3527570314
 20
20.3214285714
 30
0.0
 10
15.35276975
 20
20.3214285821
 30
0.0
 10
15.352748547
 20
20.3215096798
 30
0.0
 10
15.3527855826
 20
20.321593749
 30
0.0
 10
15.3527896297
 20
20.3217995695
 30
0.0
 10
15.3528373794
 20
20.3221923929
 30
0.0
 10
15.352896767
 20
20.3228916311
 30
0.0
 10
15.3529995489
 20
20.323943094
 30
0.0
 10
15.3531252794
 20
20.3252988973
 30
0.0
 10
15.3532797072
 20
20.3269510855
 30
0.0
 10
15.3534602614
 20
20.3289012593
 30
0.0
 10
15.3537546193
 20
20.332092828
 30
0.0
 10
15.3541869599
 20
20.3368179146
 30
0.0
 10
15.3547809248
 20
20.3433625016
 30
0.0
 10
15.35547011
 20
20.3510601503
 30
0.0
 10
15.3562458553
 20
20.3598896869
 30
0.0
 10
15.3570996544
 20
20.369828021
 30
0.0
 10
15.3583891513
 20
20.3852265828
 30
0.0
 10
15.3601369597
 20
20.407048947
 30
0.0
 10
15.3623156801
 20
20.4361731718
 30
0.0
 10
15.3645792909
 20
20.4690042362
 30
0.0
 10
15.3668450248
 20
20.505225844
 30
0.0
 10
15.3690268448
 20
20.5444907618
 30
0.0
 10
15.3710334414
 20
20.586421976
 30
0.0
 10
15.3734166944
 20
20.6465005337
 30
0.0
 10
15.3755400789
 20
20.7250863556
 30
0.0
 10
15.3761490997
 20
20.788906679
 30
0.0
 10
15.3761490997
 20
20.8214285714
 30
0.0
  0
SPLINE
  5
2EE
100
AcDbEntity
  8
0
100
AcDbSpline
 62
7
  6
BYLAYER
 70
0
 71
3
 72
32
 73
28
 74
0
 42
0.0000001
 43
0.0000001
 44
0.0000000001
 40
0.0
 40
0.0
 40
0.0
 40
0.0
 40
0.1948476591
 40
0.3823572735
 40
0.4709775847
 40
0.5550737365
 40
0.6338626778
 40
0.7065844846
 40
0.7725086138
 40
0.8310266307
 40
0.8815609595
 40
0.9036700416
 40
0.9236072134
 40
0.941325043
 40
0.9567760396
 40
0.9699128393
 40
0.9806994361
 40
0.9852056875
 40
0.9891178413
 40
0.9924338477
 40
0.9951516567
 40
0.9972692187
 40
0.9987844845
 40
0.9993156169
 40
0.9996954091
 40
0.9999236099
 40
1.0
 40
1.0
 40
1.0
 40
1.0
 10
15.3761490997
 20
20.8214285714
 30
0.0
 10
15.3761490997
 20
20.8539504172
 30
0.0
 10
15.3755365062
 20
20.9177705724
 30
0.0
 10
15.373420538
 20
20.996356319
 30
0.0
 10
15.3710477188
 20
21.0564350796
 30
0.0
 10
15.3690470809
 20
21.0983663875
 30
0.0
 10
15.3668701486
 20
21.1376313691
 30
0.0
 10
15.3646101381
 20
21.1738530514
 30
0.0
 10
15.3623548802
 20
21.2066843404
 30
0.0
 10
15.3601834111
 20
21.2358088186
 30
0.0
 10
15.3584371069
 20
21.2576312013
 30
0.0
 10
15.3571442901
 20
21.2730295787
 30
0.0
 10
15.3562867223
 20
21.2829678257
 30
0.0
 10
15.3555061958
 20
21.2917972711
 30
0.0
 10
15.3548116336
 20
21.2994948381
 30
0.0
 10
15.3542121172
 20
21.3060393642
 30
0.0
 10
15.3537750645
 20
21.3107644031
 30
0.0
 10
15.3534770076
 20
21.3139559374
 30
0.0
 10
15.3532939367
 20
21.315906102
 30
0.0
 10
15.3531371358
 20
21.3175582864
 30
0.0
 10
15.3530091018
 20
21.3189140811
 30
0.0
 10
15.3529043718
 20
21.3199655583
 30
0.0
 10
15.3528429914
 20
21.3206647609
 30
0.0
 10
15.3527942876
 20
21.3210576118
 30
0.0
 10
15.3527887705
 20
21.3212633741
 30
0.0
 10
15.3527521636
 20
21.3213475556
 30
0.0
 10
15.3527716521
 20
21.3214285814
 30
0.0
 10
15.3527589019
 20
21.3214285714
 30
0.0
  0
SPLINE
  5
2EF
100
AcDbEntity
  8
0
100
AcDbSpline
 62
7
  6
BYLAYER
 70
0
 71
3
 72
21
 73
17
 74
0
 42
0.0000001
 43
0.0000001
 44
0.0000000001
 40
0.0
 40
0.0
 40
0.0
 40
0.0
 40
0.1948043518
 40
0.382351777
 40
0.7064923738
 40
0.7722883889
 40
0.8307272892
 40
0.8813281013
 40
0.9235838035
 40
0.9569519766
 40
0.9701335887
 40
0.9809180603
 40
0.9893001006
 40
0.9952765502
 40
0.9988442397
 40
1.0
 40
1.0
 40
1.0
 40
1.0
 10
15.225507796
 20
20.8214285714
 30
0.0
 10
15.225507796
 20
20.8539338414
 30
0.0
 10
15.224917951
 20
20.9177350097
 30
0.0
 10
15.2218192373
 20
21.0355843803
 30
0.0
 10
15.2170415986
 20
21.1318426886
 30
0.0
 10
15.211995608
 20
21.2064896759
 30
0.0
 10
15.2098658935
 20
21.2355838628
 30
0.0
 10
15.2079069158
 20
21.2607574478
 30
0.0
 10
15.2061968974
 20
21.2817376386
 30
0.0
 10
15.204942095
 20
21.2965313489
 30
0.0
 10
15.2041139859
 20
21.3060180833
 30
0.0
 10
15.2036336944
 20
21.3114872221
 30
0.0
 10
15.2032718774
 20
21.3154274462
 30
0.0
 10
15.2029713421
 20
21.3189440681
 30
0.0
 10
15.202857815
 20
21.3197858544
 30
0.0
 10
15.2027317497
 20
21.3215238759
 30
0.0
 10
15.2027333771
 20
21.3213310313
 30
0.0
  0
ELLIPSE
  5
2F0
100
AcDbEntity
  8
0
100
AcDbEllipse
 62
7
  6
BYLAYER
 10
22.9313646645
 20
42.2837891998
 30
0.0
 11
-8.3407641102
 21
8.3431800856
 31
0.0
 40
0.0432740808
 41
-1.3427671642
 42
-1.2800332655
  0
ELLIPSE
  5
2F1
100
AcDbEntity
  8
0
100
AcDbEllipse
 62
7
  6
BYLAYER
 10
22.859734621
 20
42.2837891998
 30
0.0
 11
-8.2591520102
 21
8.280949456
 31
0.0
 40
0.130674701
 41
-1.4291328006
 42
-1.3663989019
  0
ELLIPSE
  5
2F2
100
AcDbEntity
  8
0
100
AcDbEllipse
 62
7
  6
BYLAYER
 10
22.7187767825
 20
42.2837891998
 30
0.0
 11
-8.0966397925
 21
8.1575994357
 31
0.0
 40
0.2206788892
 41
-1.5151572918
 42
-1.452423393
  0
ELLIPSE
  5
2F3
100
AcDbEntity
  8
0
100
AcDbEllipse
 62
7
  6
BYLAYER
 10
22.51302165
 20
42.2837891998
 30
0.0
 11
-7.8542953156
 21
7.9756280364
 31
0.0
 40
0.315182696
 41
-1.6004920422
 42
-1.5377581435
  0
ELLIPSE
  5
2F4
100
AcDbEntity
  8
0
100
AcDbEllipse
 62
7
  6
BYLAYER
 10
22.2490823627
 20
42.2837891998
 30
0.0
 11
-7.5325417863
 21
7.7397378658
 31
0.0
 40
0.4163458233
 41
-1.6845137139
 42
-1.6217798152
  0
ELLIPSE
  5
2F5
100
AcDbEntity
  8
0
100
AcDbEllipse
 62
7
  6
BYLAYER
 10
21.9354421465
 20
42.2837891998
 30
0.0
 11
-7.1283606482
 21
7.4592354443
 31
0.0
 40
0.5267450305
 41
-1.7658803759
 42
-1.7031464771
  0
ELLIPSE
  5
2F6
100
AcDbEntity
  8
0
100
AcDbEllipse
 62
7
  6
BYLAYER
 10
21.5821816559
 20
42.2837891998
 30
0.0
 11
-6.625298548
 21
7.1566971123
 31
0.0
 40
0.6495644904
 41
-1.8409316985
 42
-1.7781977998
  0
ELLIPSE
  5
2F7
100
AcDbEntity
  8
0
100
AcDbEllipse
 62
7
  6
BYLAYER
 10
21.2006549739
 20
42.2837891998
 30
0.0
 11
-5.9359147837
 21
6.9154930489
 31
0.0
 40
0.7886457323
 41
-1.8946098351
 42
-1.8318759364
  0
ELLIPSE
  5
2F8
100
AcDbEntity
  8
0
100
AcDbEllipse
 62
7
  6
BYLAYER
 10
20.8031246818
 20
42.2837891998
 30
0.0
 11
-3.6597916775
 21
7.6059430096
 31
0.0
 40
0.9421244918
 41
-1.7251497929
 42
-1.6624158942
  0
ELLIPSE
  5
2F9
100
AcDbEntity
  8
0
100
AcDbEllipse
 62
7
  6
BYLAYER
 10
18.4741020776
 20
42.2837891998
 30
0.0
 11
8.3407641102
 21
8.3431800856
 31
0.0
 40
0.0432740808
 41
1.2800332655
 42
1.3427671642
  0
ELLIPSE
  5
2FA
100
AcDbEntity
  8
0
100
AcDbEllipse
 62
7
  6
BYLAYER
 10
18.5457321211
 20
42.2837891998
 30
0.0
 11
8.2591520102
 21
8.280949456
 31
0.0
 40
0.130674701
 41
1.3663989019
 42
1.4291328006
  0
ELLIPSE
  5
2FB
100
AcDbEntity
  8
0
100
AcDbEllipse
 62
7
  6
BYLAYER
 10
18.6866899596
 20
42.2837891998
 30
0.0
 11
8.0966397925
 21
8.1575994357
 31
0.0
 40
0.2206788892
 41
1.452423393
 42
1.5151572918
  0
ELLIPSE
  5
2FC
100
AcDbEntity
  8
0
100
AcDbEllipse
 62
7
  6
BYLAYER
 10
18.8924450921
 20
42.2837891998
 30
0.0
 11
7.8542953156
 21
7.9756280364
 31
0.0
 40
0.315182696
 41
1.5377581435
 42
1.6004920422
  0
ELLIPSE
  5
2FD
100
AcDbEntity
  8
0
100
AcDbEllipse
 62
7
  6
BYLAYER
 10
19.1563843794
 20
42.2837891998
 30
0.0
 11
7.5325417863
 21
7.7397378658
 31
0.0
 40
0.4163458233
 41
-4.661405492
 42
-4.5986715933
  0
ELLIPSE
  5
2FE
100
AcDbEntity
  8
0
100
AcDbEllipse
 62
7
  6
BYLAYER
 10
19.4700245956
 20
42.2837891998
 30
0.0
 11
7.1283606482
 21
7.4592354443
 31
0.0
 40
0.5267450305
 41
-4.58003883
 42
-4.5173049313
  0
ELLIPSE
  5
2FF
100
AcDbEntity
  8
0
100
AcDbEllipse
 62
7
  6
BYLAYER
 10
19.8232850862
 20
42.2837891998
 30
0.0
 11
6.625298548
 21
7.1566971123
 31
0.0
 40
0.6495644904
 41
-4.5049875074
 42
-4.4422536087
  0
ELLIPSE
  5
300
100
AcDbEntity
  8
0
100
AcDbEllipse
 62
7
  6
BYLAYER
 10
20.2048117682
 20
42.2837891998
 30
0.0
 11
5.9359147837
 21
6.9154930489
 31
0.0
 40
0.7886457323
 41
-4.4513093708
 42
-4.388575472
  0
ELLIPSE
  5
301
100
AcDbEntity
  8
0
100
AcDbEllipse
 62
7
  6
BYLAYER
 10
20.6023420603
 20
42.2837891998
 30
0.0
 11
3.6597916775
 21
7.6059430096
 31
0.0
 40
0.9421244918
 41
-4.620769413
 42
-4.5580355142
  0
ELLIPSE
  5
302
100
AcDbEntity
  8
0
100
AcDbEllipse
 62
7
  6
BYLAYER
 10
19.6423861949
 20
42.2837891998
 30
0.0
 11
6.8914584337
 21
7.3081770241
 31
0.0
 40
0.5863744367
 41
1.7418954058
 42
1.743704874
  0
ELLIPSE
  5
303
100
AcDbEntity
  8
0
100
AcDbEllipse
 62
7
  6
BYLAYER
 10
21.7630805472
 20
42.2837891998
 30
0.0
 11
-6.8914584337
 21
7.3081770241
 31
0.0
 40
0.5863744367
 41
-1.7437047822
 42
-1.7418954058
  0
ELLIPSE
  5
304
100
AcDbEntity
  8
0
100
AcDbEllipse
 62
7
  6
BYLAYER
 10
18.6866899596
 20
42.2837891998
 30
0.0
 11
8.0966397925
 21
8.1575994357
 31
0.0
 40
0.2206788892
 41
-1.0839078544
 42
-1.0211739557
  0
ELLIPSE
  5
305
100
AcDbEntity
  8
0
100
AcDbEllipse
 62
7
  6
BYLAYER
 10
18.5457321211
 20
42.2837891998
 30
0.0
 11
8.2591520102
 21
8.280949456
 31
0.0
 40
0.130674701
 41
-1.1699323455
 42
-1.1071984468
  0
ELLIPSE
  5
306
100
AcDbEntity
  8
0
100
AcDbEllipse
 62
7
  6
BYLAYER
 10
18.4741020776
 20
42.2837891998
 30
0.0
 11
8.3407641102
 21
8.3431800856
 31
0.0
 40
0.0432740808
 41
-1.256297982
 42
-1.1935640833
  0
ELLIPSE
  5
307
100
AcDbEntity
  8
0
100
AcDbEllipse
 62
7
  6
BYLAYER
 10
21.9354421465
 20
42.2837891998
 30
0.0
 11
-7.1283606482
 21
7.4592354443
 31
0.0
 40
0.5267450305
 41
0.7704508716
 42
0.8331847703
  0
ELLIPSE
  5
308
100
AcDbEntity
  8
0
100
AcDbEllipse
 62
7
  6
BYLAYER
 10
22.2490823627
 20
42.2837891998
 30
0.0
 11
-7.5325417863
 21
7.7397378658
 31
0.0
 40
0.4163458233
 41
0.8518175335
 42
0.9145514322
  0
ELLIPSE
  5
309
100
AcDbEntity
  8
0
100
AcDbEllipse
 62
7
  6
BYLAYER
 10
21.2006549739
 20
42.2837891998
 30
0.0
 11
-5.9359147837
 21
6.9154930489
 31
0.0
 40
0.7886457323
 41
0.6417214123
 42
0.704455311
  0
ELLIPSE
  5
30A
100
AcDbEntity
  8
0
100
AcDbEllipse
 62
7
  6
BYLAYER
 10
22.51302165
 20
42.2837891998
 30
0.0
 11
-7.8542953156
 21
7.9756280364
 31
0.0
 40
0.315182696
 41
0.9358392052
 42
0.9985731039
  0
ELLIPSE
  5
30B
100
AcDbEntity
  8
0
100
AcDbEllipse
 62
7
  6
BYLAYER
 10
22.7187767825
 20
42.2837891998
 30
0.0
 11
-8.0966397925
 21
8.1575994357
 31
0.0
 40
0.2206788892
 41
1.0211739557
 42
1.0839078544
  0
ELLIPSE
  5
30C
100
AcDbEntity
  8
0
100
AcDbEllipse
 62
7
  6
BYLAYER
 10
21.5821816559
 20
42.2837891998
 30
0.0
 11
-6.625298548
 21
7.1566971123
 31
0.0
 40
0.6495644904
 41
0.695399549
 42
0.7581334477
  0
ELLIPSE
  5
30D
100
AcDbEntity
  8
0
100
AcDbEllipse
 62
7
  6
BYLAYER
 10
22.859734621
 20
42.2837891998
 30
0.0
 11
-8.2591520102
 21
8.280949456
 31
0.0
 40
0.130674701
 41
1.1071984468
 42
1.1699323455
  0
ELLIPSE
  5
30E
100
AcDbEntity
  8
0
100
AcDbEllipse
 62
7
  6
BYLAYER
 10
20.2048117682
 20
42.2837891998
 30
0.0
 11
5.9359147837
 21
6.9154930489
 31
0.0
 40
0.7886457323
 41
-0.704455311
 42
-0.6417214123
  0
ELLIPSE
  5
30F
100
AcDbEntity
  8
0
100
AcDbEllipse
 62
7
  6
BYLAYER
 10
19.8232850862
 20
42.2837891998
 30
0.0
 11
6.625298548
 21
7.1566971123
 31
0.0
 40
0.6495644904
 41
-0.7581334477
 42
-0.695399549
  0
ELLIPSE
  5
310
100
AcDbEntity
  8
0
100
AcDbEllipse
 62
7
  6
BYLAYER
 10
19.4700245956
 20
42.2837891998
 30
0.0
 11
7.1283606482
 21
7.4592354443
 31
0.0
 40
0.5267450305
 41
-0.8331847703
 42
-0.7704508716
  0
ELLIPSE
  5
311
100
AcDbEntity
  8
0
100
AcDbEllipse
 62
7
  6
BYLAYER
 10
22.9313646645
 20
42.2837891998
 30
0.0
 11
-8.3407641102
 21
8.3431800856
 31
0.0
 40
0.0432740808
 41
1.1935640833
 42
1.256297982
  0
ELLIPSE
  5
312
100
AcDbEntity
  8
0
100
AcDbEllipse
 62
7
  6
BYLAYER
 10
19.1563843794
 20
42.2837891998
 30
0.0
 11
7.5325417863
 21
7.7397378658
 31
0.0
 40
0.4163458233
 41
-0.9145514322
 42
-0.8518175335
  0
ELLIPSE
  5
313
100
AcDbEntity
  8
0
100
AcDbEllipse
 62
7
  6
BYLAYER
 10
18.8924450921
 20
42.2837891998
 30
0.0
 11
7.8542953156
 21
7.9756280364
 31
0.0
 40
0.315182696
 41
-0.9985731039
 42
-0.9358392052
  0
ELLIPSE
  5
314
100
AcDbEntity
  8
0
100
AcDbEllipse
 62
7
  6
BYLAYER
 10
19.6423861949
 20
50.3590679431
 30
0.0
 11
-6.8914584337
 21
7.3081770241
 31
0.0
 40
0.5863744367
 41
1.3978878714
 42
1.3996972478
  0
ELLIPSE
  5
315
100
AcDbEntity
  8
0
100
AcDbEllipse
 62
7
  6
BYLAYER
 10
21.7630805472
 20
50.3590679431
 30
0.0
 11
6.8914584337
 21
7.3081770241
 31
0.0
 40
0.5863744367
 41
4.8834880594
 42
4.8852975276
  0
ELLIPSE
  5
316
100
AcDbEntity
  8
0
100
AcDbEllipse
 62
7
  6
BYLAYER
 10
20.6023420603
 20
50.3590679431
 30
0.0
 11
-3.6597916775
 21
7.6059430096
 31
0.0
 40
0.9421244918
 41
1.4164428607
 42
1.4791767594
  0
ELLIPSE
  5
317
100
AcDbEntity
  8
0
100
AcDbEllipse
 62
7
  6
BYLAYER
 10
20.2048117682
 20
50.3590679431
 30
0.0
 11
-5.9359147837
 21
6.9154930489
 31
0.0
 40
0.7886457323
 41
1.2469828185
 42
1.3097167172
  0
ELLIPSE
  5
318
100
AcDbEntity
  8
0
100
AcDbEllipse
 62
7
  6
BYLAYER
 10
19.8232850862
 20
50.3590679431
 30
0.0
 11
-6.625298548
 21
7.1566971123
 31
0.0
 40
0.6495644904
 41
1.3006609551
 42
1.3633948538
  0
ELLIPSE
  5
319
100
AcDbEntity
  8
0
100
AcDbEllipse
 62
7
  6
BYLAYER
 10
19.4700245956
 20
50.3590679431
 30
0.0
 11
-7.1283606482
 21
7.4592354443
 31
0.0
 40
0.5267450305
 41
1.3757122777
 42
1.4384461764
  0
ELLIPSE
  5
31A
100
AcDbEntity
  8
0
100
AcDbEllipse
 62
7
  6
BYLAYER
 10
19.1563843794
 20
50.3590679431
 30
0.0
 11
-7.5325417863
 21
7.7397378658
 31
0.0
 40
0.4163458233
 41
1.4570789397
 42
1.5198128384
  0
ELLIPSE
  5
31B
100
AcDbEntity
  8
0
100
AcDbEllipse
 62
7
  6
BYLAYER
 10
18.8924450921
 20
50.3590679431
 30
0.0
 11
-7.8542953156
 21
7.9756280364
 31
0.0
 40
0.315182696
 41
1.5411006114
 42
1.6038345101
  0
ELLIPSE
  5
31C
100
AcDbEntity
  8
0
100
AcDbEllipse
 62
7
  6
BYLAYER
 10
18.6866899596
 20
50.3590679431
 30
0.0
 11
-8.0966397925
 21
8.1575994357
 31
0.0
 40
0.2206788892
 41
-4.6567499453
 42
-4.5940160466
  0
ELLIPSE
  5
31D
100
AcDbEntity
  8
0
100
AcDbEllipse
 62
7
  6
BYLAYER
 10
18.5457321211
 20
50.3590679431
 30
0.0
 11
-8.2591520102
 21
8.280949456
 31
0.0
 40
0.130674701
 41
-4.5707254542
 42
-4.5079915555
  0
ELLIPSE
  5
31E
100
AcDbEntity
  8
0
100
AcDbEllipse
 62
7
  6
BYLAYER
 10
18.4741020776
 20
50.3590679431
 30
0.0
 11
-8.3407641102
 21
8.3431800856
 31
0.0
 40
0.0432740808
 41
-4.4843598178
 42
-4.421625919
  0
ELLIPSE
  5
31F
100
AcDbEntity
  8
0
100
AcDbEllipse
 62
7
  6
BYLAYER
 10
20.8031246818
 20
50.3590679431
 30
0.0
 11
3.6597916775
 21
7.6059430096
 31
0.0
 40
0.9421244918
 41
-1.4791767594
 42
-1.4164428607
  0
ELLIPSE
  5
320
100
AcDbEntity
  8
0
100
AcDbEllipse
 62
7
  6
BYLAYER
 10
21.2006549739
 20
50.3590679431
 30
0.0
 11
5.9359147837
 21
6.9154930489
 31
0.0
 40
0.7886457323
 41
-1.3097167172
 42
-1.2469828185
  0
ELLIPSE
  5
321
100
AcDbEntity
  8
0
100
AcDbEllipse
 62
7
  6
BYLAYER
 10
21.5821816559
 20
50.3590679431
 30
0.0
 11
6.625298548
 21
7.1566971123
 31
0.0
 40
0.6495644904
 41
-1.3633948538
 42
-1.3006609551
  0
ELLIPSE
  5
322
100
AcDbEntity
  8
0
100
AcDbEllipse
 62
7
  6
BYLAYER
 10
21.9354421465
 20
50.3590679431
 30
0.0
 11
7.1283606482
 21
7.4592354443
 31
0.0
 40
0.5267450305
 41
-1.4384461764
 42
-1.3757122777
  0
ELLIPSE
  5
323
100
AcDbEntity
  8
0
100
AcDbEllipse
 62
7
  6
BYLAYER
 10
22.2490823627
 20
50.3590679431
 30
0.0
 11
7.5325417863
 21
7.7397378658
 31
0.0
 40
0.4163458233
 41
-1.5198128384
 42
-1.4570789397
  0
ELLIPSE
  5
324
100
AcDbEntity
  8
0
100
AcDbEllipse
 62
7
  6
BYLAYER
 10
22.51302165
 20
50.3590679431
 30
0.0
 11
7.8542953156
 21
7.9756280364
 31
0.0
 40
0.315182696
 41
-1.6038345101
 42
-1.5411006114
  0
ELLIPSE
  5
325
100
AcDbEntity
  8
0
100
AcDbEllipse
 62
7
  6
BYLAYER
 10
22.7187767825
 20
50.3590679431
 30
0.0
 11
8.0966397925
 21
8.1575994357
 31
0.0
 40
0.2206788892
 41
-1.6891692605
 42
-1.6264353618
  0
ELLIPSE
  5
326
100
AcDbEntity
  8
0
100
AcDbEllipse
 62
7
  6
BYLAYER
 10
22.859734621
 20
50.3590679431
 30
0.0
 11
8.2591520102
 21
8.280949456
 31
0.0
 40
0.130674701
 41
-1.7751937517
 42
-1.712459853
  0
ELLIPSE
  5
327
100
AcDbEntity
  8
0
100
AcDbEllipse
 62
7
  6
BYLAYER
 10
22.9313646645
 20
50.3590679431
 30
0.0
 11
8.3407641102
 21
8.3431800856
 31
0.0
 40
0.0432740808
 41
-1.8615593881
 42
-1.7988254894
  0
ELLIPSE
  5
328
100
AcDbEntity
  8
0
100
AcDbEllipse
 62
7
  6
BYLAYER
 10
18.4741020776
 20
50.3590679431
 30
0.0
 11
-8.3407641102
 21
8.3431800856
 31
0.0
 40
0.0432740808
 41
-1.9480285703
 42
-1.8852946716
  0
ELLIPSE
  5
329
100
AcDbEntity
  8
0
100
AcDbEllipse
 62
7
  6
BYLAYER
 10
18.5457321211
 20
50.3590679431
 30
0.0
 11
-8.2591520102
 21
8.280949456
 31
0.0
 40
0.130674701
 41
-2.0343942068
 42
-1.9716603081
  0
ELLIPSE
  5
32A
100
AcDbEntity
  8
0
100
AcDbEllipse
 62
7
  6
BYLAYER
 10
18.6866899596
 20
50.3590679431
 30
0.0
 11
-8.0966397925
 21
8.1575994357
 31
0.0
 40
0.2206788892
 41
-2.1204186979
 42
-2.0576847992
  0
ELLIPSE
  5
32B
100
AcDbEntity
  8
0
100
AcDbEllipse
 62
7
  6
BYLAYER
 10
18.8924450921
 20
50.3590679431
 30
0.0
 11
-7.8542953156
 21
7.9756280364
 31
0.0
 40
0.315182696
 41
-2.2057534484
 42
-2.1430195497
  0
ELLIPSE
  5
32C
100
AcDbEntity
  8
0
100
AcDbEllipse
 62
7
  6
BYLAYER
 10
19.1563843794
 20
50.3590679431
 30
0.0
 11
-7.5325417863
 21
7.7397378658
 31
0.0
 40
0.4163458233
 41
-2.2897751201
 42
-2.2270412214
  0
ELLIPSE
  5
32D
100
AcDbEntity
  8
0
100
AcDbEllipse
 62
7
  6
BYLAYER
 10
19.4700245956
 20
50.3590679431
 30
0.0
 11
-7.1283606482
 21
7.4592354443
 31
0.0
 40
0.5267450305
 41
-2.371141782
 42
-2.3084078833
  0
ELLIPSE
  5
32E
100
AcDbEntity
  8
0
100
AcDbEllipse
 62
7
  6
BYLAYER
 10
19.8232850862
 20
50.3590679431
 30
0.0
 11
-6.625298548
 21
7.1566971123
 31
0.0
 40
0.6495644904
 41
-2.4461931046
 42
-2.3834592059
  0
ELLIPSE
  5
32F
100
AcDbEntity
  8
0
100
AcDbEllipse
 62
7
  6
BYLAYER
 10
20.2048117682
 20
50.3590679431
 30
0.0
 11
-5.9359147837
 21
6.9154930489
 31
0.0
 40
0.7886457323
 41
-2.4998712413
 42
-2.4371373426
  0
ELLIPSE
  5
330
100
AcDbEntity
  8
0
100
AcDbEllipse
 62
7
  6
BYLAYER
 10
22.9313646645
 20
50.3590679431
 30
0.0
 11
8.3407641102
 21
8.3431800856
 31
0.0
 40
0.0432740808
 41
-4.3978906356
 42
-4.3351567369
  0
ELLIPSE
  5
331
100
AcDbEntity
  8
0
100
AcDbEllipse
 62
7
  6
BYLAYER
 10
22.859734621
 20
50.3590679431
 30
0.0
 11
8.2591520102
 21
8.280949456
 31
0.0
 40
0.130674701
 41
-4.3115249991
 42
-4.2487911004
  0
ELLIPSE
  5
332
100
AcDbEntity
  8
0
100
AcDbEllipse
 62
7
  6
BYLAYER
 10
22.7187767825
 20
50.3590679431
 30
0.0
 11
8.0966397925
 21
8.1575994357
 31
0.0
 40
0.2206788892
 41
-4.225500508
 42
-4.1627666093
  0
ELLIPSE
  5
333
100
AcDbEntity
  8
0
100
AcDbEllipse
 62
7
  6
BYLAYER
 10
22.51302165
 20
50.3590679431
 30
0.0
 11
7.8542953156
 21
7.9756280364
 31
0.0
 40
0.315182696
 41
-4.1401657575
 42
-4.0774318588
  0
ELLIPSE
  5
334
100
AcDbEntity
  8
0
100
AcDbEllipse
 62
7
  6
BYLAYER
 10
22.2490823627
 20
50.3590679431
 30
0.0
 11
7.5325417863
 21
7.7397378658
 31
0.0
 40
0.4163458233
 41
-4.0561440858
 42
-3.9934101871
  0
ELLIPSE
  5
335
100
AcDbEntity
  8
0
100
AcDbEllipse
 62
7
  6
BYLAYER
 10
21.9354421465
 20
50.3590679431
 30
0.0
 11
7.1283606482
 21
7.4592354443
 31
0.0
 40
0.5267450305
 41
-3.9747774239
 42
-3.9120435252
  0
ELLIPSE
  5
336
100
AcDbEntity
  8
0
100
AcDbEllipse
 62
7
  6
BYLAYER
 10
21.5821816559
 20
50.3590679431
 30
0.0
 11
6.625298548
 21
7.1566971123
 31
0.0
 40
0.6495644904
 41
-3.8997261013
 42
-3.8369922025
  0
ELLIPSE
  5
337
100
AcDbEntity
  8
0
100
AcDbEllipse
 62
7
  6
BYLAYER
 10
21.2006549739
 20
50.3590679431
 30
0.0
 11
5.9359147837
 21
6.9154930489
 31
0.0
 40
0.7886457323
 41
-3.8460479646
 42
-3.7833140659
  0
ENDSEC
  0
SECTION
  2
OBJECTS
  0
DICTIONARY
  5
C
100
AcDbDictionary
280
0
281
1
  3
ACAD_GROUP
350
D
  3
ACAD_MLINESTYLE
350
17
  3
ACAD_LAYOUT
350
1A
  3
ACAD_PLOTSETTINGS
350
19
  3
ACAD_PLOTSTYLENAME
350
E
  0
DICTIONARY
  5
D
102
{ACAD_REACTORS
330
C
102
}
100
AcDbDictionary
280
0
281
1
  0
ACDBDICTIONARYWDFLT
  5
E
102
{ACAD_REACTORS
330
C
102
}
100
AcDbDictionary
281
1
  3
Normal
350
F
100
AcDbDictionaryWithDefault
340
F
  0
DICTIONARY
  5
17
102
{ACAD_REACTORS
330
C
102
}
100
AcDbDictionary
280
0
281
1
  3
Standard
350
18
  0
DICTIONARY
  5
19
102
{ACAD_REACTORS
330
C
102
}
100
AcDbDictionary
281
1
  0
DICTIONARY
  5
1A
102
{ACAD_REACTORS
330
C
102
}
100
AcDbDictionary
281
1
  3
Model
350
338
  3
Layout1
350
339
  0
ACDBPLACEHOLDER
  5
F
102
{ACAD_REACTORS
330
E
102
}
  0
MLINESTYLE
  5
18
102
{ACAD_REACTORS
330
17
102
}
100
AcDbMlineStyle
  2
STANDARD
 70
0
  3

 62
256
 51
90.0
 52
90.0
 71
2
 49
0.5
 62
256
  6
BYLAYER
 49
-0.5
 62
256
  6
BYLAYER
  0
LAYOUT
  5
338
102
{ACAD_REACTORS
330
1A
102
}
100
AcDbPlotSettings
  1

  2
none_device
  4

  6

 40
0.0
 41
0.0
 42
0.0
 43
0.0
 44
210.0
 45
297.0
 46
0.0
 47
0.0
 48
0.0
 49
0.0
140
0.0
141
0.0
142
1.0
143
1.0
 70
1024
 72
1
 73
0
 74
0
  7

 75
0
147
1.0
148
0.0
149
0.0
100
AcDbLayout
  1
Model
 70
0
 71
0
 10
0.0
 20
0.0
 11
210.0
 21
297.0
 12
0.0
 22
0.0
 32
0.0
 14
0.0
 24
0.0
 34
0.0
 15
0.0
 25
0.0
 35
0.0
146
0.0
 13
0.0
 23
0.0
 33
0.0
 16
1.0
 26
0.0
 36
0.0
 17
0.0
 27
1.0
 37
0.0
 76
0
330
210
345
0
346
0
  0
LAYOUT
  5
339
102
{ACAD_REACTORS
330
1A
102
}
100
AcDbPlotSettings
  1

  2
none_device
  4

  6

 40
0.0
 41
0.0
 42
0.0
 43
0.0
 44
210.0
 45
297.0
 46
0.0
 47
0.0
 48
0.0
 49
0.0
140
0.0
141
0.0
142
1.0
143
1.0
 70
0
 72
1
 73
0
 74
0
  7

 75
0
147
1.0
148
0.0
149
0.0
100
AcDbLayout
  1
Layout1
 70
0
 71
1
 10
0.0
 20
0.0
 11
210.0
 21
297.0
 12
0.0
 22
0.0
 32
0.0
 14
0.0
 24
0.0
 34
0.0
 15
0.0
 25
0.0
 35
0.0
146
0.0
 13
0.0
 23
0.0
 33
0.0
 16
1.0
 26
0.0
 36
0.0
 17
0.0
 27
1.0
 37
0.0
 76
0
330
211
345
0
346
0
  0
ENDSEC
  0
EOF
