999
DXF file: C:\Users\sesa63760\Dev\_Creo\CAD\MCADID0000575_3D-CAD\drw0001_2.dxf
999
Pro/ENGINEER 2019471 by Parametric Technology Corporation
  0
SECTION
  2
HEADER
  9
$ACADVER
  1
AC1024
  9
$DWGCODEPAGE
  3
ANSI_1252
  9
$EXTMAX
 10
285.9511854654
 20
404.4166765868
 30
0.0
  9
$EXTMIN
 10
0.0
 20
0.0
 30
0.0
  9
$LIMMIN
 10
0.0
 20
0.0
  9
$LIMMAX
 10
285.9511854654
 20
404.4166765868
  9
$VIEWCTR
 10
142.9755927327
 20
202.2083382934
  9
$VIEWSIZE
 40
404.4166765868
  9
$CLAYER
  8
0
  9
$LTSCALE
 40
26.3619759553
  9
$CELTYPE
  6
BYLAYER
  9
$DIMSCALE
 40
1.0
  9
$DIMASZ
 40
3.4041807793
  9
$DIMEXO
 40
1.0
  9
$DIMDLI
 40
18.2137288418
  9
$DIMEXE
 40
1.0
  9
$DIMCEN
 40
4.3137778836
  9
$DIMLFAC
 40
1.0
  9
$DIMBLK
  1
_FILLED
  9
$DIMALT
 70
0
  9
$DIMALTF
 40
0.0393700787
  9
$DIMTXT
 40
4.7658530911
  9
$DIMTOL
 70
1
  9
$DIMLIM
 70
0
  9
$DIMTFAC
 40
1.0
  9
$DIMTP
 40
0.01
  9
$DIMTM
 40
0.01
  9
$DIMGAP
 40
0.625
  9
$DIMDSEP
 70
46
  9
$AUNITS
 70
0
  9
$PDMODE
 70
3
  9
$PDSIZE
 40
0.3125
  9
$HANDSEED
  5
3CA
  9
$TILEMODE
 70
1
  9
$MEASUREMENT
 70
1
  9
$INSUNITS
 70
4
  0
ENDSEC
  0
SECTION
  2
CLASSES
  0
CLASS
  1
ACDBDICTIONARYWDFLT
  2
AcDbDictionaryWithDefault
  3
AutoCAD 2000
 90
0
 91
1
280
0
281
0
  0
CLASS
  1
ACDBPLACEHOLDER
  2
AcDbPlaceHolder
  3
AutoCAD 2000
 90
0
 91
1
280
0
281
0
  0
CLASS
  1
LAYOUT
  2
AcDbLayout
  3
AutoCAD 2000
 90
0
 91
0
280
0
281
0
  0
ENDSEC
  0
SECTION
  2
TABLES
  0
TABLE
  2
VPORT
  5
8
100
AcDbSymbolTable
 70
2
  0
VPORT
  5
1F4
100
AcDbSymbolTableRecord
100
AcDbViewportTableRecord
  2
*ACTIVE
 70
0
 10
0.0
 20
0.0
 11
1.0
 21
1.0
 12
142.9755927327
 22
202.2083382934
 13
0.0
 23
0.0
 14
1.0
 24
1.0
 15
0.0
 25
0.0
 16
0.0
 26
0.0
 36
1.0
 17
0.0
 27
0.0
 37
0.0
 40
404.4166765868
 41
0.7070707071
 42
50.0
 43
0.0
 44
0.0
 50
0.0
 51
0.0
 71
0
 72
100
 73
1
 74
1
 75
0
 76
0
 77
0
 78
0
  0
ENDTAB
  0
TABLE
  2
LTYPE
  5
5
100
AcDbSymbolTable
 70
6
  0
LTYPE
  5
14
100
AcDbSymbolTableRecord
100
AcDbLinetypeTableRecord
  2
BYBLOCK
 70
0
  3

 72
65
 73
0
 40
0.0
  0
LTYPE
  5
15
100
AcDbSymbolTableRecord
100
AcDbLinetypeTableRecord
  2
BYLAYER
 70
0
  3

 72
65
 73
0
 40
0.0
  0
LTYPE
  5
16
100
AcDbSymbolTableRecord
100
AcDbLinetypeTableRecord
  2
CONTINUOUS
 70
64
  3
Solid line
 72
65
 73
0
 40
0.0
  0
LTYPE
  5
1F5
100
AcDbSymbolTableRecord
100
AcDbLinetypeTableRecord
  2
CENTER
 70
64
  3
____ _ ____ _ ____ _ ____ _ ____ _ ____ _ ____
 72
65
 73
4
 40
0.6
 49
0.375
 74
0
 49
-0.075
 74
0
 49
0.075
 74
0
 49
-0.075
 74
0
  0
LTYPE
  5
1F6
100
AcDbSymbolTableRecord
100
AcDbLinetypeTableRecord
  2
HIDDEN
 70
64
  3
- - - - - - - - - - - - - - - - - - - -
 72
65
 73
2
 40
0.2
 49
0.1
 74
0
 49
-0.1
 74
0
  0
LTYPE
  5
1F7
100
AcDbSymbolTableRecord
100
AcDbLinetypeTableRecord
  2
PHANTOM
 70
64
  3
_____ _ _ _____ _ _ _____ _ _ _____
 72
65
 73
6
 40
0.8
 49
0.45
 74
0
 49
-0.05
 74
0
 49
0.1
 74
0
 49
-0.05
 74
0
 49
0.1
 74
0
 49
-0.05
 74
0
  0
LTYPE
  5
1F8
100
AcDbSymbolTableRecord
100
AcDbLinetypeTableRecord
  2
DOT
 70
64
  3
. . . . . . . . . . . . . . . . . . . .
 72
65
 73
2
 40
0.2
 49
0.1
 74
0
 49
-0.1
 74
0
  0
LTYPE
  5
1F9
100
AcDbSymbolTableRecord
100
AcDbLinetypeTableRecord
  2
DASHED
 70
64
  3
- - - - - - - - - - - - - - - - - - - -
 72
65
 73
2
 40
0.2
 49
0.1
 74
0
 49
-0.1
 74
0
  0
ENDTAB
  0
TABLE
  2
LAYER
  5
2
100
AcDbSymbolTable
 70
36
  0
LAYER
  5
10
100
AcDbSymbolTableRecord
100
AcDbLayerTableRecord
  2
0
 70
0
 62
7
  6
CONTINUOUS
370
-3
390
F
  0
LAYER
  5
1FA
100
AcDbSymbolTableRecord
100
AcDbLayerTableRecord
  2
DEFAULT_1
 70
0
 62
7
  6
CENTER
370
-3
390
F
  0
LAYER
  5
1FB
100
AcDbSymbolTableRecord
100
AcDbLayerTableRecord
  2
DEFAULT_2
 70
0
 62
8
  6
HIDDEN
370
-3
390
F
  0
LAYER
  5
1FC
100
AcDbSymbolTableRecord
100
AcDbLayerTableRecord
  2
DEFAULT_3
 70
0
 62
7
  6
PHANTOM
370
-3
390
F
  0
LAYER
  5
1FD
100
AcDbSymbolTableRecord
100
AcDbLayerTableRecord
  2
00_COMPONENTS
 70
0
 62
7
  6
CONTINUOUS
370
-3
390
F
  0
LAYER
  5
1FE
100
AcDbSymbolTableRecord
100
AcDbLayerTableRecord
  2
01_1_DEFAULT_DATUMS
 70
0
 62
7
  6
CONTINUOUS
370
-3
390
F
  0
LAYER
  5
1FF
100
AcDbSymbolTableRecord
100
AcDbLayerTableRecord
  2
01_PLANES
 70
0
 62
7
  6
CONTINUOUS
370
-3
390
F
  0
LAYER
  5
200
100
AcDbSymbolTableRecord
100
AcDbLayerTableRecord
  2
02_COORD_SYS
 70
0
 62
7
  6
CONTINUOUS
370
-3
390
F
  0
LAYER
  5
201
100
AcDbSymbolTableRecord
100
AcDbLayerTableRecord
  2
03_AXES
 70
0
 62
7
  6
CONTINUOUS
370
-3
390
F
  0
LAYER
  5
202
100
AcDbSymbolTableRecord
100
AcDbLayerTableRecord
  2
04_POINTS
 70
0
 62
7
  6
CONTINUOUS
370
-3
390
F
  0
LAYER
  5
203
100
AcDbSymbolTableRecord
100
AcDbLayerTableRecord
  2
05_CURVES
 70
0
 62
7
  6
CONTINUOUS
370
-3
390
F
  0
LAYER
  5
204
100
AcDbSymbolTableRecord
100
AcDbLayerTableRecord
  2
06_SURFS
 70
0
 62
7
  6
CONTINUOUS
370
-3
390
F
  0
LAYER
  5
205
100
AcDbSymbolTableRecord
100
AcDbLayerTableRecord
  2
07_COSMETICS
 70
0
 62
7
  6
CONTINUOUS
370
-3
390
F
  0
LAYER
  5
206
100
AcDbSymbolTableRecord
100
AcDbLayerTableRecord
  2
10_NOTES
 70
0
 62
7
  6
CONTINUOUS
370
-3
390
F
  0
LAYER
  5
207
100
AcDbSymbolTableRecord
100
AcDbLayerTableRecord
  2
11_NOTES_PUB
 70
0
 62
7
  6
CONTINUOUS
370
-3
390
F
  0
LAYER
  5
208
100
AcDbSymbolTableRecord
100
AcDbLayerTableRecord
  2
13_REF_GTOL
 70
0
 62
7
  6
CONTINUOUS
370
-3
390
F
  0
LAYER
  5
209
100
AcDbSymbolTableRecord
100
AcDbLayerTableRecord
  2
16_MISC
 70
0
 62
7
  6
CONTINUOUS
370
-3
390
F
  0
LAYER
  5
20A
100
AcDbSymbolTableRecord
100
AcDbLayerTableRecord
  2
17_NO_PRINT
 70
0
 62
7
  6
CONTINUOUS
370
-3
390
F
  0
LAYER
  5
20B
100
AcDbSymbolTableRecord
100
AcDbLayerTableRecord
  2
18_DATUM_CAMS_JOINTS
 70
0
 62
7
  6
CONTINUOUS
370
-3
390
F
  0
LAYER
  5
20C
100
AcDbSymbolTableRecord
100
AcDbLayerTableRecord
  2
19_DATUM_FUNCTIONAL
 70
0
 62
7
  6
CONTINUOUS
370
-3
390
F
  0
LAYER
  5
20D
100
AcDbSymbolTableRecord
100
AcDbLayerTableRecord
  2
20_DATUM_KINEMATIC_SCHEME
 70
0
 62
7
  6
CONTINUOUS
370
-3
390
F
  0
ENDTAB
  0
TABLE
  2
STYLE
  5
3
100
AcDbSymbolTable
 70
1
  0
STYLE
  5
11
100
AcDbSymbolTableRecord
100
AcDbTextStyleTableRecord
  2
STANDARD
 70
0
 40
0.0
 41
0.8
 50
0.0
 71
0
 42
0.2
  3
txt
  4

  0
STYLE
  5
20E
100
AcDbSymbolTableRecord
100
AcDbTextStyleTableRecord
  2
TEXTSTYLE_1
 70
0
 40
0.0
 41
0.8
 50
0.0
 71
0
 42
0.2
  3
gdt
  4

  0
ENDTAB
  0
TABLE
  2
VIEW
  5
6
100
AcDbSymbolTable
 70
0
  0
ENDTAB
  0
TABLE
  2
UCS
  5
7
100
AcDbSymbolTable
 70
0
  0
ENDTAB
  0
TABLE
  2
APPID
  5
9
100
AcDbSymbolTable
 70
1
  0
APPID
  5
20F
100
AcDbSymbolTableRecord
100
AcDbRegAppTableRecord
  2
ACAD
 70
0
  0
ENDTAB
  0
TABLE
  2
BLOCK_RECORD
  5
1
100
AcDbSymbolTable
 70
0
  0
BLOCK_RECORD
  5
210
100
AcDbSymbolTableRecord
100
AcDbBlockTableRecord
  2
*Model_Space
  0
BLOCK_RECORD
  5
211
100
AcDbSymbolTableRecord
100
AcDbBlockTableRecord
  2
*Paper_Space
  0
BLOCK_RECORD
  5
212
100
AcDbSymbolTableRecord
100
AcDbBlockTableRecord
  2
_FILLED
  0
ENDTAB
  0
TABLE
  2
DIMSTYLE
  5
A
100
AcDbSymbolTable
 70
1
100
AcDbDimStyleTable
 71
0
  0
DIMSTYLE
105
213
100
AcDbSymbolTableRecord
100
AcDbDimStyleTableRecord
  2
STANDARD
 70
0
  3

  4

 40
1.0
 41
3.4041807793
 42
1.0
 43
0.38
 44
1.0
 45
0.0
 46
0.0
 47
0.01
 48
0.01
140
4.7658530911
141
0.09
142
0.0
143
25.4
144
1.0
145
0.0
146
1.0
147
0.625
 71
1
 72
0
 73
0
 74
0
 75
0
 76
0
 77
1
 78
8
 79
2
170
0
171
1
172
0
173
0
174
0
175
0
176
0
177
0
178
0
270
2
179
2
271
2
272
2
273
2
274
2
275
0
280
0
281
0
282
0
283
1
284
8
285
0
286
0
287
3
288
0
340
11
278
46
341
212
342
212
343
212
344
212
  0
ENDTAB
  0
ENDSEC
  0
SECTION
  2
BLOCKS
  0
BLOCK
  5
20
100
AcDbEntity
  8
0
100
AcDbBlockBegin
  2
*Model_Space
 70
0
 10
0.0
 20
0.0
 30
0.0
  3
*Model_Space
  1

  0
ENDBLK
  5
21
100
AcDbEntity
  8
0
100
AcDbBlockEnd
  0
BLOCK
  5
1C
100
AcDbEntity
  8
0
100
AcDbBlockBegin
  2
*Paper_Space
 70
0
 10
0.0
 20
0.0
 30
0.0
  3
*Paper_Space
  1

  0
ENDBLK
  5
1D
100
AcDbEntity
  8
0
100
AcDbBlockEnd
  0
BLOCK
  5
214
100
AcDbEntity
  8
0
100
AcDbBlockBegin
  2
_FILLED
 70
64
 10
0.0
 20
0.0
  3
_FILLED
  1

  0
SOLID
  5
215
100
AcDbEntity
  8
0
  6
BYBLOCK
 62
0
100
AcDbTrace
 10
0.0
 20
0.0
 11
-1.0
 21
0.25
 12
-1.0
 22
-0.25
 13
-1.0
 23
-0.25
  0
ENDBLK
  5
216
100
AcDbEntity
  8
0
  6
BYBLOCK
 62
0
100
AcDbBlockEnd
  0
ENDSEC
  0
SECTION
  2
ENTITIES
  0
LINE
  5
217
100
AcDbEntity
  8
0
100
AcDbLine
 62
7
  6
CONTINUOUS
 10
31.3551965762
 20
149.5480650933
 11
31.382186575
 21
149.4749091071
  0
LINE
  5
218
100
AcDbEntity
  8
0
100
AcDbLine
 62
7
  6
CONTINUOUS
 10
31.4238496626
 20
149.1283238701
 11
31.3821865732
 21
149.335041669
  0
LINE
  5
219
100
AcDbEntity
  8
0
100
AcDbLine
 62
7
  6
CONTINUOUS
 10
32.2623954507
 20
146.912786888
 11
32.2623954507
 21
154.9127868853
  0
LINE
  5
21A
100
AcDbEntity
  8
0
100
AcDbLine
 62
7
  6
CONTINUOUS
 10
32.2623954507
 20
167.4188835424
 11
32.2623954507
 21
175.4188835397
  0
LINE
  5
21B
100
AcDbEntity
  8
0
100
AcDbLine
 62
7
  6
CONTINUOUS
 10
33.7623954507
 20
146.4658352152
 11
33.7623954507
 21
175.8658352152
  0
LINE
  5
21C
100
AcDbEntity
  8
0
100
AcDbLine
 62
7
  6
CONTINUOUS
 10
34.0623954507
 20
174.1658352152
 11
34.0623954507
 21
148.1658352152
  0
LINE
  5
21D
100
AcDbEntity
  8
0
100
AcDbLine
 62
7
  6
CONTINUOUS
 10
33.7623954507
 20
146.4658352152
 11
34.0623954507
 21
146.1658352152
  0
LINE
  5
21E
100
AcDbEntity
  8
0
100
AcDbLine
 62
7
  6
CONTINUOUS
 10
38.2623954507
 20
146.4658352152
 11
38.5623954507
 21
146.1658352152
  0
LINE
  5
21F
100
AcDbEntity
  8
0
100
AcDbLine
 62
7
  6
CONTINUOUS
 10
37.7623954507
 20
147.8658352152
 11
37.4623954507
 21
148.1658352152
  0
LINE
  5
220
100
AcDbEntity
  8
0
100
AcDbLine
 62
7
  6
CONTINUOUS
 10
31.3551965762
 20
170.0541617477
 11
31.382186575
 21
169.9810057615
  0
LINE
  5
221
100
AcDbEntity
  8
0
100
AcDbLine
 62
7
  6
CONTINUOUS
 10
31.4238496626
 20
169.6344205245
 11
31.3821865732
 21
169.8411383234
  0
LINE
  5
222
100
AcDbEntity
  8
0
100
AcDbLine
 62
7
  6
CONTINUOUS
 10
37.4623954507
 20
174.1658352152
 11
37.4623954507
 21
148.1658352152
  0
LINE
  5
223
100
AcDbEntity
  8
0
100
AcDbLine
 62
7
  6
CONTINUOUS
 10
37.7623954507
 20
146.4658352152
 11
37.7623954507
 21
175.8658352152
  0
LINE
  5
224
100
AcDbEntity
  8
0
100
AcDbLine
 62
7
  6
CONTINUOUS
 10
38.2623954507
 20
146.4658352152
 11
38.2623954507
 21
175.8658352152
  0
LINE
  5
225
100
AcDbEntity
  8
0
100
AcDbLine
 62
7
  6
CONTINUOUS
 10
38.5623954507
 20
172.1658352152
 11
38.5623954507
 21
150.1658352152
  0
LINE
  5
226
100
AcDbEntity
  8
0
100
AcDbLine
 62
7
  6
CONTINUOUS
 10
39.2623954507
 20
172.1658352152
 11
39.2623954507
 21
176.4341727362
  0
LINE
  5
227
100
AcDbEntity
  8
0
100
AcDbLine
 62
7
  6
CONTINUOUS
 10
39.4123954507
 20
146.1658352152
 11
39.4123954507
 21
145.9158352152
  0
LINE
  5
228
100
AcDbEntity
  8
0
100
AcDbLine
 62
7
  6
CONTINUOUS
 10
40.7123954507
 20
145.9158352152
 11
40.7123954507
 21
146.1658352152
  0
LINE
  5
229
100
AcDbEntity
  8
0
100
AcDbLine
 62
7
  6
CONTINUOUS
 10
31.4238472606
 20
173.2033355708
 11
31.3821865732
 21
172.9966287614
  0
LINE
  5
22A
100
AcDbEntity
  8
0
100
AcDbLine
 62
7
  6
CONTINUOUS
 10
48.7123954507
 20
146.1658352152
 11
48.7123954507
 21
145.9158352152
  0
LINE
  5
22B
100
AcDbEntity
  8
0
100
AcDbLine
 62
7
  6
CONTINUOUS
 10
49.7623954507
 20
192.1658352152
 11
49.7623954507
 21
185.3374303508
  0
LINE
  5
22C
100
AcDbEntity
  8
0
100
AcDbLine
 62
7
  6
CONTINUOUS
 10
50.0123954507
 20
145.9158352152
 11
50.0123954507
 21
146.1658352152
  0
LINE
  5
22D
100
AcDbEntity
  8
0
100
AcDbLine
 62
7
  6
CONTINUOUS
 10
50.0623954507
 20
161.1658352152
 11
50.0623954507
 21
146.1658352152
  0
LINE
  5
22E
100
AcDbEntity
  8
0
100
AcDbLine
 62
7
  6
CONTINUOUS
 10
31.4238472606
 20
152.6972389164
 11
31.3821865732
 21
152.4905321069
  0
LINE
  5
22F
100
AcDbEntity
  8
0
100
AcDbLine
 62
7
  6
CONTINUOUS
 10
33.7623954507
 20
174.4658352152
 11
34.0623954507
 21
174.1658352152
  0
LINE
  5
230
100
AcDbEntity
  8
0
100
AcDbLine
 62
7
  6
CONTINUOUS
 10
37.7623954507
 20
175.8658352152
 11
37.4623954507
 21
176.1658352152
  0
LINE
  5
231
100
AcDbEntity
  8
0
100
AcDbLine
 62
7
  6
CONTINUOUS
 10
76.7623954507
 20
199.5658352152
 11
76.7623954507
 21
197.4226894647
  0
LINE
  5
232
100
AcDbEntity
  8
0
100
AcDbLine
 62
7
  6
CONTINUOUS
 10
80.7623954507
 20
197.4226894647
 11
80.7623954507
 21
199.5658352152
  0
LINE
  5
233
100
AcDbEntity
  8
0
100
AcDbLine
 62
7
  6
CONTINUOUS
 10
34.0623954507
 20
176.1658352152
 11
33.7623954507
 21
175.8658352152
  0
LINE
  5
234
100
AcDbEntity
  8
0
100
AcDbLine
 62
7
  6
CONTINUOUS
 10
154.6626809842
 20
141.5294940141
 11
139.4623954507
 21
140.8658352152
  0
LINE
  5
235
100
AcDbEntity
  8
0
100
AcDbLine
 62
7
  6
CONTINUOUS
 10
120.5623954507
 20
140.9158352152
 11
109.9623954507
 21
140.9158352152
  0
LINE
  5
236
100
AcDbEntity
  8
0
100
AcDbLine
 62
7
  6
CONTINUOUS
 10
198.5623954507
 20
141.0658352152
 11
227.3784849989
 21
141.0658352152
  0
LINE
  5
237
100
AcDbEntity
  8
0
100
AcDbLine
 62
7
  6
CONTINUOUS
 10
108.0623954507
 20
141.1658352152
 11
122.7623954507
 21
141.1658352152
  0
LINE
  5
238
100
AcDbEntity
  8
0
100
AcDbLine
 62
7
  6
CONTINUOUS
 10
122.7623954507
 20
141.4658352152
 11
123.0623954507
 21
141.4658352152
  0
LINE
  5
239
100
AcDbEntity
  8
0
100
AcDbLine
 62
7
  6
CONTINUOUS
 10
154.9623954507
 20
141.5658352152
 11
198.5623954507
 21
141.5658352152
  0
LINE
  5
23A
100
AcDbEntity
  8
0
100
AcDbLine
 62
7
  6
CONTINUOUS
 10
123.0623954507
 20
141.15209828
 11
139.4623954507
 21
140.8658352152
  0
LINE
  5
23B
100
AcDbEntity
  8
0
100
AcDbLine
 62
7
  6
CONTINUOUS
 10
38.5623954507
 20
176.1658352152
 11
38.2623954507
 21
175.8658352152
  0
LINE
  5
23C
100
AcDbEntity
  8
0
100
AcDbLine
 62
7
  6
CONTINUOUS
 10
37.4623954507
 20
174.1658352152
 11
37.7623954507
 21
174.4658352152
  0
LINE
  5
23D
100
AcDbEntity
  8
0
100
AcDbLine
 62
7
  6
CONTINUOUS
 10
141.4623954507
 20
142.7658352152
 11
139.4623954507
 21
142.7658352152
  0
LINE
  5
23E
100
AcDbEntity
  8
0
100
AcDbLine
 62
7
  6
CONTINUOUS
 10
154.9623954507
 20
144.3000245418
 11
142.1428639011
 21
144.3000245418
  0
LINE
  5
23F
100
AcDbEntity
  8
0
100
AcDbLine
 62
7
  6
CONTINUOUS
 10
228.4625434296
 20
144.7439110595
 11
198.5623954507
 21
144.7439110595
  0
LINE
  5
240
100
AcDbEntity
  8
0
100
AcDbLine
 62
7
  6
CONTINUOUS
 10
198.5623954507
 20
144.8969227723
 11
154.9623954507
 21
144.8969227723
  0
LINE
  5
241
100
AcDbEntity
  8
0
100
AcDbLine
 62
7
  6
CONTINUOUS
 10
142.3208933702
 20
145.2048338457
 11
142.4002696804
 21
145.2048338457
  0
LINE
  5
242
100
AcDbEntity
  8
0
100
AcDbLine
 62
7
  6
CONTINUOUS
 10
142.4315191585
 20
145.3411184517
 11
142.3373636949
 21
145.3411184517
  0
LINE
  5
243
100
AcDbEntity
  8
0
100
AcDbLine
 62
7
  6
CONTINUOUS
 10
122.7623954507
 20
145.6683367797
 11
108.0623954507
 21
145.6683367797
  0
LINE
  5
244
100
AcDbEntity
  8
0
100
AcDbLine
 62
7
  6
CONTINUOUS
 10
50.0123954507
 20
145.9158352152
 11
39.4123954507
 21
145.9158352152
  0
LINE
  5
245
100
AcDbEntity
  8
0
100
AcDbLine
 62
7
  6
CONTINUOUS
 10
34.0623954507
 20
146.1658352152
 11
37.4623954507
 21
146.1658352152
  0
LINE
  5
246
100
AcDbEntity
  8
0
100
AcDbLine
 62
7
  6
CONTINUOUS
 10
38.5623954507
 20
146.1658352152
 11
107.4623954507
 21
146.1658352152
  0
LINE
  5
247
100
AcDbEntity
  8
0
100
AcDbLine
 62
7
  6
CONTINUOUS
 10
32.2623954507
 20
146.912786888
 11
33.7623954507
 21
146.912786888
  0
LINE
  5
248
100
AcDbEntity
  8
0
100
AcDbLine
 62
7
  6
CONTINUOUS
 10
123.0623954507
 20
147.9658352152
 11
122.7623954507
 21
147.9658352152
  0
LINE
  5
249
100
AcDbEntity
  8
0
100
AcDbLine
 62
7
  6
CONTINUOUS
 10
37.4623954507
 20
148.1658352152
 11
34.0623954507
 21
148.1658352152
  0
LINE
  5
24A
100
AcDbEntity
  8
0
100
AcDbLine
 62
7
  6
CONTINUOUS
 10
142.4315191585
 20
148.1905519787
 11
142.3374872737
 21
148.1905519787
  0
LINE
  5
24B
100
AcDbEntity
  8
0
100
AcDbLine
 62
7
  6
CONTINUOUS
 10
142.3212540835
 20
148.3268365886
 11
142.4002696795
 21
148.3268365886
  0
LINE
  5
24C
100
AcDbEntity
  8
0
100
AcDbLine
 62
7
  6
CONTINUOUS
 10
135.1623954507
 20
148.9158352152
 11
137.7623954507
 21
148.9158352152
  0
LINE
  5
24D
100
AcDbEntity
  8
0
100
AcDbLine
 62
7
  6
CONTINUOUS
 10
198.5623954507
 20
149.19812189
 11
229.2040823671
 21
149.19812189
  0
LINE
  5
24E
100
AcDbEntity
  8
0
100
AcDbLine
 62
7
  6
CONTINUOUS
 10
154.9623954507
 20
149.3511336028
 11
198.5623954507
 21
149.3511336028
  0
LINE
  5
24F
100
AcDbEntity
  8
0
100
AcDbLine
 62
7
  6
CONTINUOUS
 10
142.0623786012
 20
149.3804420074
 11
154.9623954507
 21
149.3804420074
  0
LINE
  5
250
100
AcDbEntity
  8
0
100
AcDbLine
 62
7
  6
CONTINUOUS
 10
31.4665446961
 20
149.4749091071
 11
31.382186575
 21
149.4749091071
  0
LINE
  5
251
100
AcDbEntity
  8
0
100
AcDbLine
 62
7
  6
CONTINUOUS
 10
31.3551067397
 20
149.5480650933
 11
31.4663002682
 21
149.5480650933
  0
LINE
  5
252
100
AcDbEntity
  8
0
100
AcDbLine
 62
7
  6
CONTINUOUS
 10
31.4653434499
 20
149.617929748
 11
31.3821865791
 21
149.617929748
  0
LINE
  5
253
100
AcDbEntity
  8
0
100
AcDbLine
 62
7
  6
CONTINUOUS
 10
31.3739615824
 20
150.0037721248
 11
31.4245053982
 21
150.0037721248
  0
LINE
  5
254
100
AcDbEntity
  8
0
100
AcDbLine
 62
7
  6
CONTINUOUS
 10
50.0623954507
 20
150.1658352152
 11
38.5623954507
 21
150.1658352152
  0
LINE
  5
255
100
AcDbEntity
  8
0
100
AcDbLine
 62
7
  6
CONTINUOUS
 10
38.2623954507
 20
150.1658352152
 11
37.7623954507
 21
150.1658352152
  0
LINE
  5
256
100
AcDbEntity
  8
0
100
AcDbLine
 62
7
  6
CONTINUOUS
 10
139.4623954507
 20
150.7658352152
 11
141.4623954507
 21
150.7658352152
  0
LINE
  5
257
100
AcDbEntity
  8
0
100
AcDbLine
 62
7
  6
CONTINUOUS
 10
31.423912124
 20
151.0558075522
 11
31.382186575
 21
151.0558075522
  0
LINE
  5
258
100
AcDbEntity
  8
0
100
AcDbLine
 62
7
  6
CONTINUOUS
 10
154.9623954507
 20
151.3095690178
 11
139.4623954507
 21
151.3095690178
  0
LINE
  5
259
100
AcDbEntity
  8
0
100
AcDbLine
 62
7
  6
CONTINUOUS
 10
31.4553481746
 20
151.5778000074
 11
31.3821865825
 21
151.5778000074
  0
LINE
  5
25A
100
AcDbEntity
  8
0
100
AcDbLine
 62
7
  6
CONTINUOUS
 10
229.5709867979
 20
151.5883239499
 11
198.5623954507
 21
151.5883239499
  0
LINE
  5
25B
100
AcDbEntity
  8
0
100
AcDbLine
 62
7
  6
CONTINUOUS
 10
172.9623954507
 20
152.0607998532
 11
154.9623954507
 21
152.0607998532
  0
LINE
  5
25C
100
AcDbEntity
  8
0
100
AcDbLine
 62
7
  6
CONTINUOUS
 10
198.5623954507
 20
152.0643359411
 11
172.9623954507
 21
152.0643359411
  0
LINE
  5
25D
100
AcDbEntity
  8
0
100
AcDbLine
 62
7
  6
CONTINUOUS
 10
31.3551067397
 20
152.2775086826
 11
31.382186583
 21
152.2775086826
  0
LINE
  5
25E
100
AcDbEntity
  8
0
100
AcDbLine
 62
7
  6
CONTINUOUS
 10
31.4277819294
 20
152.4905321069
 11
31.3821865732
 21
152.4905321069
  0
LINE
  5
25F
100
AcDbEntity
  8
0
100
AcDbLine
 62
7
  6
CONTINUOUS
 10
229.7581533637
 20
152.8658352152
 11
255.4502362256
 21
152.8658352152
  0
LINE
  5
260
100
AcDbEntity
  8
0
100
AcDbLine
 62
7
  6
CONTINUOUS
 10
198.5623954507
 20
153.0201081087
 11
229.7804448872
 21
153.0201081087
  0
LINE
  5
261
100
AcDbEntity
  8
0
100
AcDbLine
 62
7
  6
CONTINUOUS
 10
139.4623954507
 20
153.3685392397
 11
154.9623954507
 21
153.3685392397
  0
LINE
  5
262
100
AcDbEntity
  8
0
100
AcDbLine
 62
7
  6
CONTINUOUS
 10
172.9623954507
 20
153.4961200999
 11
198.5623954507
 21
153.4961200999
  0
LINE
  5
263
100
AcDbEntity
  8
0
100
AcDbLine
 62
7
  6
CONTINUOUS
 10
154.9623954507
 20
153.5201613432
 11
172.9623954507
 21
153.5201613432
  0
LINE
  5
264
100
AcDbEntity
  8
0
100
AcDbLine
 62
7
  6
CONTINUOUS
 10
32.2623954507
 20
154.912786888
 11
33.7623954507
 21
154.912786888
  0
LINE
  5
265
100
AcDbEntity
  8
0
100
AcDbLine
 62
7
  6
CONTINUOUS
 10
255.8702998192
 20
155.8658352152
 11
230.1410676815
 21
155.8658352152
  0
LINE
  5
266
100
AcDbEntity
  8
0
100
AcDbLine
 62
7
  6
CONTINUOUS
 10
204.5623954507
 20
158.0658352152
 11
172.9623954507
 21
158.0658352152
  0
LINE
  5
267
100
AcDbEntity
  8
0
100
AcDbLine
 62
7
  6
CONTINUOUS
 10
172.9623954507
 20
158.5235565878
 11
154.9623954507
 21
158.5235565878
  0
LINE
  5
268
100
AcDbEntity
  8
0
100
AcDbLine
 62
7
  6
CONTINUOUS
 10
137.7623954507
 20
159.0658352152
 11
135.1623954507
 21
159.0658352152
  0
LINE
  5
269
100
AcDbEntity
  8
0
100
AcDbLine
 62
7
  6
CONTINUOUS
 10
107.4623954507
 20
167.7873611038
 11
108.0623954507
 21
164.3009033372
  0
LINE
  5
26A
100
AcDbEntity
  8
0
100
AcDbLine
 62
7
  6
CONTINUOUS
 10
107.4623954507
 20
141.7658352152
 11
107.4623954507
 21
167.7873611038
  0
LINE
  5
26B
100
AcDbEntity
  8
0
100
AcDbLine
 62
7
  6
CONTINUOUS
 10
108.0623954507
 20
145.6683367797
 11
108.0623954507
 21
164.3009033372
  0
LINE
  5
26C
100
AcDbEntity
  8
0
100
AcDbLine
 62
7
  6
CONTINUOUS
 10
109.9623954507
 20
141.1658352152
 11
109.9623954507
 21
140.9158352152
  0
LINE
  5
26D
100
AcDbEntity
  8
0
100
AcDbLine
 62
7
  6
CONTINUOUS
 10
111.2623954507
 20
140.9158352152
 11
111.2623954507
 21
141.1658352152
  0
LINE
  5
26E
100
AcDbEntity
  8
0
100
AcDbLine
 62
7
  6
CONTINUOUS
 10
34.0623954507
 20
148.1658352152
 11
33.7623954507
 21
147.8658352152
  0
LINE
  5
26F
100
AcDbEntity
  8
0
100
AcDbLine
 62
7
  6
CONTINUOUS
 10
37.4623954507
 20
146.1658352152
 11
37.7623954507
 21
146.4658352152
  0
LINE
  5
270
100
AcDbEntity
  8
0
100
AcDbLine
 62
7
  6
CONTINUOUS
 10
107.4623954507
 20
161.1658352152
 11
50.0623954507
 21
161.1658352152
  0
LINE
  5
271
100
AcDbEntity
  8
0
100
AcDbLine
 62
7
  6
CONTINUOUS
 10
138.9623954507
 20
161.5658352152
 11
139.9623954507
 21
161.5658352152
  0
LINE
  5
272
100
AcDbEntity
  8
0
100
AcDbLine
 62
7
  6
CONTINUOUS
 10
32.2623954507
 20
167.4188835424
 11
33.7623954507
 21
167.4188835424
  0
LINE
  5
273
100
AcDbEntity
  8
0
100
AcDbLine
 62
7
  6
CONTINUOUS
 10
119.2623954507
 20
141.1658352152
 11
119.2623954507
 21
140.9158352152
  0
LINE
  5
274
100
AcDbEntity
  8
0
100
AcDbLine
 62
7
  6
CONTINUOUS
 10
31.4665446961
 20
169.9810057615
 11
31.382186575
 21
169.9810057615
  0
LINE
  5
275
100
AcDbEntity
  8
0
100
AcDbLine
 62
7
  6
CONTINUOUS
 10
31.3551067397
 20
170.0541617478
 11
31.4663002682
 21
170.0541617478
  0
LINE
  5
276
100
AcDbEntity
  8
0
100
AcDbLine
 62
7
  6
CONTINUOUS
 10
31.4653434499
 20
170.1240264024
 11
31.3821865791
 21
170.1240264024
  0
LINE
  5
277
100
AcDbEntity
  8
0
100
AcDbLine
 62
7
  6
CONTINUOUS
 10
31.3739615824
 20
170.5098687792
 11
31.4245053982
 21
170.5098687792
  0
LINE
  5
278
100
AcDbEntity
  8
0
100
AcDbLine
 62
7
  6
CONTINUOUS
 10
31.423912124
 20
171.5619042066
 11
31.382186575
 21
171.5619042066
  0
LINE
  5
279
100
AcDbEntity
  8
0
100
AcDbLine
 62
7
  6
CONTINUOUS
 10
31.4553481746
 20
172.0838966618
 11
31.3821865825
 21
172.0838966618
  0
LINE
  5
27A
100
AcDbEntity
  8
0
100
AcDbLine
 62
7
  6
CONTINUOUS
 10
37.7623954507
 20
172.1658352152
 11
38.2623954507
 21
172.1658352152
  0
LINE
  5
27B
100
AcDbEntity
  8
0
100
AcDbLine
 62
7
  6
CONTINUOUS
 10
38.5623954507
 20
172.1658352152
 11
39.2623954507
 21
172.1658352152
  0
LINE
  5
27C
100
AcDbEntity
  8
0
100
AcDbLine
 62
7
  6
CONTINUOUS
 10
31.3551067397
 20
172.783605337
 11
31.382186583
 21
172.783605337
  0
LINE
  5
27D
100
AcDbEntity
  8
0
100
AcDbLine
 62
7
  6
CONTINUOUS
 10
31.4277819294
 20
172.9966287614
 11
31.3821865732
 21
172.9966287614
  0
LINE
  5
27E
100
AcDbEntity
  8
0
100
AcDbLine
 62
7
  6
CONTINUOUS
 10
34.0623954507
 20
174.1658352152
 11
37.4623954507
 21
174.1658352152
  0
LINE
  5
27F
100
AcDbEntity
  8
0
100
AcDbLine
 62
7
  6
CONTINUOUS
 10
32.2623954507
 20
175.4188835424
 11
33.7623954507
 21
175.4188835424
  0
LINE
  5
280
100
AcDbEntity
  8
0
100
AcDbLine
 62
7
  6
CONTINUOUS
 10
39.2623954507
 20
176.1658352152
 11
38.5623954507
 21
176.1658352152
  0
LINE
  5
281
100
AcDbEntity
  8
0
100
AcDbLine
 62
7
  6
CONTINUOUS
 10
37.4623954507
 20
176.1658352152
 11
34.0623954507
 21
176.1658352152
  0
LINE
  5
282
100
AcDbEntity
  8
0
100
AcDbLine
 62
7
  6
CONTINUOUS
 10
120.5623954507
 20
140.9158352152
 11
120.5623954507
 21
141.1658352152
  0
LINE
  5
283
100
AcDbEntity
  8
0
100
AcDbLine
 62
7
  6
CONTINUOUS
 10
122.7623954507
 20
141.1658352152
 11
122.7623954507
 21
206.9658352152
  0
LINE
  5
284
100
AcDbEntity
  8
0
100
AcDbLine
 62
7
  6
CONTINUOUS
 10
123.0623954507
 20
141.15209828
 11
123.0623954507
 21
206.9795721504
  0
LINE
  5
285
100
AcDbEntity
  8
0
100
AcDbLine
 62
7
  6
CONTINUOUS
 10
31.382186575
 20
172.3316156853
 11
31.3737812532
 21
172.3278983068
  0
LINE
  5
286
100
AcDbEntity
  8
0
100
AcDbLine
 62
7
  6
CONTINUOUS
 10
31.396693979
 20
172.3377006782
 11
31.382186575
 21
172.3316156853
  0
LINE
  5
287
100
AcDbEntity
  8
0
100
AcDbLine
 62
7
  6
CONTINUOUS
 10
104.6852209468
 20
184.6155293737
 11
104.3852209468
 21
184.6155293737
  0
LINE
  5
288
100
AcDbEntity
  8
0
100
AcDbLine
 62
7
  6
CONTINUOUS
 10
106.4493698002
 20
184.6155293737
 11
106.7622683379
 21
184.6155293737
  0
LINE
  5
289
100
AcDbEntity
  8
0
100
AcDbLine
 62
7
  6
CONTINUOUS
 10
107.8271893991
 20
185.1658352152
 11
114.4623954507
 21
185.1658352152
  0
LINE
  5
28A
100
AcDbEntity
  8
0
100
AcDbLine
 62
7
  6
CONTINUOUS
 10
133.9623954507
 20
198.0158352152
 11
133.9623954507
 21
190.2658352152
  0
LINE
  5
28B
100
AcDbEntity
  8
0
100
AcDbLine
 62
7
  6
CONTINUOUS
 10
133.9623954507
 20
157.8658352152
 11
133.9623954507
 21
150.1158352152
  0
LINE
  5
28C
100
AcDbEntity
  8
0
100
AcDbLine
 62
7
  6
CONTINUOUS
 10
139.9623954507
 20
186.5658352152
 11
138.9623954507
 21
186.5658352152
  0
LINE
  5
28D
100
AcDbEntity
  8
0
100
AcDbLine
 62
7
  6
CONTINUOUS
 10
106.7623954507
 20
188.1658352152
 11
114.7623954507
 21
188.1658352152
  0
LINE
  5
28E
100
AcDbEntity
  8
0
100
AcDbLine
 62
7
  6
CONTINUOUS
 10
135.1623954507
 20
189.0658352152
 11
137.7623954507
 21
189.0658352152
  0
LINE
  5
28F
100
AcDbEntity
  8
0
100
AcDbLine
 62
7
  6
CONTINUOUS
 10
172.9623954507
 20
190.0658352152
 11
204.5623954507
 21
190.0658352152
  0
LINE
  5
290
100
AcDbEntity
  8
0
100
AcDbLine
 62
7
  6
CONTINUOUS
 10
154.9623954507
 20
190.4835565878
 11
172.9623954507
 21
190.4835565878
  0
LINE
  5
291
100
AcDbEntity
  8
0
100
AcDbLine
 62
7
  6
CONTINUOUS
 10
142.4315185729
 20
148.1905521232
 11
142.4002696795
 21
148.3268365886
  0
LINE
  5
292
100
AcDbEntity
  8
0
100
AcDbLine
 62
7
  6
CONTINUOUS
 10
138.4623954507
 20
186.0658352152
 11
138.4623954507
 21
162.0658352152
  0
LINE
  5
293
100
AcDbEntity
  8
0
100
AcDbLine
 62
7
  6
CONTINUOUS
 10
138.9623954507
 20
150.1158352152
 11
138.9623954507
 21
157.8658352152
  0
LINE
  5
294
100
AcDbEntity
  8
0
100
AcDbLine
 62
7
  6
CONTINUOUS
 10
138.9623954507
 20
190.2658352152
 11
138.9623954507
 21
198.0158352152
  0
LINE
  5
295
100
AcDbEntity
  8
0
100
AcDbLine
 62
7
  6
CONTINUOUS
 10
139.4623954507
 20
140.8658352152
 11
139.4623954507
 21
161.5658352152
  0
LINE
  5
296
100
AcDbEntity
  8
0
100
AcDbLine
 62
7
  6
CONTINUOUS
 10
139.4623954507
 20
186.5658352152
 11
139.4623954507
 21
207.2658352152
  0
LINE
  5
297
100
AcDbEntity
  8
0
100
AcDbLine
 62
7
  6
CONTINUOUS
 10
140.4623954507
 20
162.0658352152
 11
140.4623954507
 21
186.0658352152
  0
LINE
  5
298
100
AcDbEntity
  8
0
100
AcDbLine
 62
7
  6
CONTINUOUS
 10
141.4623954507
 20
205.3658352152
 11
141.4623954507
 21
197.3658352152
  0
LINE
  5
299
100
AcDbEntity
  8
0
100
AcDbLine
 62
7
  6
CONTINUOUS
 10
141.4623954507
 20
150.7658352152
 11
141.4623954507
 21
142.7658352152
  0
LINE
  5
29A
100
AcDbEntity
  8
0
100
AcDbLine
 62
7
  6
CONTINUOUS
 10
142.4002696974
 20
199.8048339195
 11
142.4315186689
 21
199.9411184517
  0
LINE
  5
29B
100
AcDbEntity
  8
0
100
AcDbLine
 62
7
  6
CONTINUOUS
 10
31.382186575
 20
151.8255190308
 11
31.3737812532
 21
151.8218016524
  0
LINE
  5
29C
100
AcDbEntity
  8
0
100
AcDbLine
 62
7
  6
CONTINUOUS
 10
172.9623954507
 20
194.6115090872
 11
154.9623954507
 21
194.6115090872
  0
LINE
  5
29D
100
AcDbEntity
  8
0
100
AcDbLine
 62
7
  6
CONTINUOUS
 10
198.5623954507
 20
194.6355503305
 11
172.9623954507
 21
194.6355503305
  0
LINE
  5
29E
100
AcDbEntity
  8
0
100
AcDbLine
 62
7
  6
CONTINUOUS
 10
154.9623954507
 20
194.7631311907
 11
139.4623954507
 21
194.7631311907
  0
LINE
  5
29F
100
AcDbEntity
  8
0
100
AcDbLine
 62
7
  6
CONTINUOUS
 10
232.4824719541
 20
195.1115623217
 11
198.5623954507
 21
195.1115623217
  0
LINE
  5
2A0
100
AcDbEntity
  8
0
100
AcDbLine
 62
7
  6
CONTINUOUS
 10
204.5623954507
 20
195.34362129
 11
232.1943988979
 21
195.34362129
  0
LINE
  5
2A1
100
AcDbEntity
  8
0
100
AcDbLine
 62
7
  6
CONTINUOUS
 10
198.5623954507
 20
195.3757657981
 11
204.5623954507
 21
195.3757657981
  0
LINE
  5
2A2
100
AcDbEntity
  8
0
100
AcDbLine
 62
7
  6
CONTINUOUS
 10
198.5623954507
 20
195.6757657981
 11
185.5623954507
 21
195.6757657981
  0
LINE
  5
2A3
100
AcDbEntity
  8
0
100
AcDbLine
 62
7
  6
CONTINUOUS
 10
172.9623954507
 20
196.0673344893
 11
185.5623954507
 21
196.0673344893
  0
LINE
  5
2A4
100
AcDbEntity
  8
0
100
AcDbLine
 62
7
  6
CONTINUOUS
 10
154.9623954507
 20
196.0708705772
 11
172.9623954507
 21
196.0708705772
  0
LINE
  5
2A5
100
AcDbEntity
  8
0
100
AcDbLine
 62
7
  6
CONTINUOUS
 10
114.7623954507
 20
196.1658352152
 11
106.7623954507
 21
196.1658352152
  0
LINE
  5
2A6
100
AcDbEntity
  8
0
100
AcDbLine
 62
7
  6
CONTINUOUS
 10
139.4623954507
 20
196.8221014126
 11
154.9623954507
 21
196.8221014126
  0
LINE
  5
2A7
100
AcDbEntity
  8
0
100
AcDbLine
 62
7
  6
CONTINUOUS
 10
141.4623954507
 20
197.3658352152
 11
139.4623954507
 21
197.3658352152
  0
LINE
  5
2A8
100
AcDbEntity
  8
0
100
AcDbLine
 62
7
  6
CONTINUOUS
 10
154.9623954507
 20
198.751228423
 11
142.1016071284
 21
198.751228423
  0
LINE
  5
2A9
100
AcDbEntity
  8
0
100
AcDbLine
 62
7
  6
CONTINUOUS
 10
185.5623954507
 20
198.7805368276
 11
154.9623954507
 21
198.7805368276
  0
LINE
  5
2AA
100
AcDbEntity
  8
0
100
AcDbLine
 62
7
  6
CONTINUOUS
 10
114.4623954507
 20
199.1658352152
 11
107.8271893991
 21
199.1658352152
  0
LINE
  5
2AB
100
AcDbEntity
  8
0
100
AcDbLine
 62
7
  6
CONTINUOUS
 10
137.7623954507
 20
199.2158352152
 11
135.1623954507
 21
199.2158352152
  0
LINE
  5
2AC
100
AcDbEntity
  8
0
100
AcDbLine
 62
7
  6
CONTINUOUS
 10
80.7623954507
 20
199.5658352152
 11
76.7623954507
 21
199.5658352152
  0
LINE
  5
2AD
100
AcDbEntity
  8
0
100
AcDbLine
 62
7
  6
CONTINUOUS
 10
106.7622683379
 20
199.7161410567
 11
106.4493698002
 21
199.7161410567
  0
LINE
  5
2AE
100
AcDbEntity
  8
0
100
AcDbLine
 62
7
  6
CONTINUOUS
 10
104.3852209468
 20
199.7161410567
 11
104.6852209468
 21
199.7161410567
  0
LINE
  5
2AF
100
AcDbEntity
  8
0
100
AcDbLine
 62
7
  6
CONTINUOUS
 10
142.3208933809
 20
199.8048339195
 11
142.4002696974
 21
199.8048339195
  0
LINE
  5
2B0
100
AcDbEntity
  8
0
100
AcDbLine
 62
7
  6
CONTINUOUS
 10
142.4315191585
 20
199.9411184517
 11
142.337363695
 21
199.9411184517
  0
LINE
  5
2B1
100
AcDbEntity
  8
0
100
AcDbLine
 62
7
  6
CONTINUOUS
 10
122.7623954507
 20
200.1658352152
 11
123.0623954507
 21
200.1658352152
  0
LINE
  5
2B2
100
AcDbEntity
  8
0
100
AcDbLine
 62
7
  6
CONTINUOUS
 10
105.8725692969
 20
202.4633336507
 11
109.3299793478
 21
202.4633336507
  0
LINE
  5
2B3
100
AcDbEntity
  8
0
100
AcDbLine
 62
7
  6
CONTINUOUS
 10
116.1948115536
 20
202.4633336507
 11
122.7623954507
 21
202.4633336507
  0
LINE
  5
2B4
100
AcDbEntity
  8
0
100
AcDbLine
 62
7
  6
CONTINUOUS
 10
142.4315185729
 20
202.7905521232
 11
142.4002696918
 21
202.9268365349
  0
LINE
  5
2B5
100
AcDbEntity
  8
0
100
AcDbLine
 62
7
  6
CONTINUOUS
 10
154.6626809842
 20
192.2849579283
 11
154.6626809842
 21
155.8467125021
  0
LINE
  5
2B6
100
AcDbEntity
  8
0
100
AcDbLine
 62
7
  6
CONTINUOUS
 10
31.396693979
 20
151.8316040238
 11
31.382186575
 21
151.8255190308
  0
LINE
  5
2B7
100
AcDbEntity
  8
0
100
AcDbLine
 62
7
  6
CONTINUOUS
 10
123.0623954507
 20
206.9795721504
 11
139.4623954507
 21
207.2658352152
  0
LINE
  5
2B8
100
AcDbEntity
  8
0
100
AcDbLine
 62
7
  6
CONTINUOUS
 10
142.4315191585
 20
202.7905519787
 11
142.3374872741
 21
202.7905519787
  0
LINE
  5
2B9
100
AcDbEntity
  8
0
100
AcDbLine
 62
7
  6
CONTINUOUS
 10
142.3212540906
 20
202.9268365349
 11
142.4002696918
 21
202.9268365349
  0
LINE
  5
2BA
100
AcDbEntity
  8
0
100
AcDbLine
 62
7
  6
CONTINUOUS
 10
154.9623954507
 20
203.2347476581
 11
185.5623954507
 21
203.2347476581
  0
LINE
  5
2BB
100
AcDbEntity
  8
0
100
AcDbLine
 62
7
  6
CONTINUOUS
 10
142.1268189101
 20
203.8316458886
 11
154.9623954507
 21
203.8316458886
  0
LINE
  5
2BC
100
AcDbEntity
  8
0
100
AcDbLine
 62
7
  6
CONTINUOUS
 10
139.4623954507
 20
205.3658352152
 11
141.4623954507
 21
205.3658352152
  0
LINE
  5
2BD
100
AcDbEntity
  8
0
100
AcDbLine
 62
7
  6
CONTINUOUS
 10
154.9623954507
 20
206.5658352152
 11
185.5623954507
 21
206.5658352152
  0
LINE
  5
2BE
100
AcDbEntity
  8
0
100
AcDbLine
 62
7
  6
CONTINUOUS
 10
123.0623954507
 20
206.6658352152
 11
122.7623954507
 21
206.6658352152
  0
LINE
  5
2BF
100
AcDbEntity
  8
0
100
AcDbLine
 62
7
  6
CONTINUOUS
 10
122.7623954507
 20
206.9658352152
 11
118.2585736683
 21
206.9658352152
  0
LINE
  5
2C0
100
AcDbEntity
  8
0
100
AcDbLine
 62
7
  6
CONTINUOUS
 10
107.2662172331
 20
206.9658352152
 11
103.7015213375
 21
206.9658352152
  0
LINE
  5
2C1
100
AcDbEntity
  8
0
100
AcDbLine
 62
7
  6
CONTINUOUS
 10
185.5623954507
 20
210.6658352152
 11
204.5623954507
 21
210.6658352152
  0
LINE
  5
2C2
100
AcDbEntity
  8
0
100
AcDbLine
 62
7
  6
CONTINUOUS
 10
204.5623954507
 20
210.7658352152
 11
185.5623954507
 21
210.7658352152
  0
LINE
  5
2C3
100
AcDbEntity
  8
0
100
AcDbLine
 62
7
  6
CONTINUOUS
 10
154.6626809842
 20
206.6021764163
 11
139.4623954507
 21
207.2658352152
  0
LINE
  5
2C4
100
AcDbEntity
  8
0
100
AcDbLine
 62
7
  6
CONTINUOUS
 10
154.9623954507
 20
141.5663013066
 11
154.9623954507
 21
206.5653680017
  0
LINE
  5
2C5
100
AcDbEntity
  8
0
100
AcDbLine
 62
7
  6
CONTINUOUS
 10
142.4002696804
 20
145.2048338457
 11
142.4315186689
 21
145.3411184517
  0
LINE
  5
2C6
100
AcDbEntity
  8
0
100
AcDbLine
 62
7
  6
CONTINUOUS
 10
183.5623954507
 20
211.4658352152
 11
185.5623954507
 21
211.4658352152
  0
LINE
  5
2C7
100
AcDbEntity
  8
0
100
AcDbLine
 62
7
  6
CONTINUOUS
 10
185.5623954507
 20
216.2658352152
 11
183.5623954507
 21
216.2658352152
  0
LINE
  5
2C8
100
AcDbEntity
  8
0
100
AcDbLine
 62
7
  6
CONTINUOUS
 10
154.9623954507
 20
206.2890906001
 11
154.6626809842
 21
206.6021764163
  0
LINE
  5
2C9
100
AcDbEntity
  8
0
100
AcDbLine
 62
7
  6
CONTINUOUS
 10
180.0623954507
 20
230.8158352152
 11
183.5623954507
 21
231.4329796477
  0
LINE
  5
2CA
100
AcDbEntity
  8
0
100
AcDbLine
 62
7
  6
CONTINUOUS
 10
180.0623954507
 20
221.3158352152
 11
183.5623954507
 21
220.6986907827
  0
LINE
  5
2CB
100
AcDbEntity
  8
0
100
AcDbLine
 62
7
  6
CONTINUOUS
 10
172.9623954507
 20
141.5658560478
 11
172.9623954507
 21
152.0578275473
  0
LINE
  5
2CC
100
AcDbEntity
  8
0
100
AcDbLine
 62
7
  6
CONTINUOUS
 10
172.9623954507
 20
152.0607998532
 11
172.9623954507
 21
196.0708705772
  0
LINE
  5
2CD
100
AcDbEntity
  8
0
100
AcDbLine
 62
7
  6
CONTINUOUS
 10
172.9623954507
 20
196.0738428831
 11
172.9623954507
 21
206.5658143826
  0
LINE
  5
2CE
100
AcDbEntity
  8
0
100
AcDbLine
 62
7
  6
CONTINUOUS
 10
180.0623954507
 20
221.3158443494
 11
180.0623954507
 21
230.815826081
  0
LINE
  5
2CF
100
AcDbEntity
  8
0
100
AcDbLine
 62
7
  6
CONTINUOUS
 10
183.5623954507
 20
211.4658352152
 11
183.5623954507
 21
241.5658352152
  0
LINE
  5
2D0
100
AcDbEntity
  8
0
100
AcDbLine
 62
7
  6
CONTINUOUS
 10
185.5623954507
 20
245.0658352152
 11
185.5623954507
 21
210.7658352152
  0
LINE
  5
2D1
100
AcDbEntity
  8
0
100
AcDbLine
 62
7
  6
CONTINUOUS
 10
185.5623954507
 20
195.6757657981
 11
185.5623954507
 21
210.6658352152
  0
LINE
  5
2D2
100
AcDbEntity
  8
0
100
AcDbLine
 62
7
  6
CONTINUOUS
 10
186.0623954507
 20
242.0658352152
 11
186.0623954507
 21
243.6658352152
  0
LINE
  5
2D3
100
AcDbEntity
  8
0
100
AcDbLine
 62
7
  6
CONTINUOUS
 10
188.5623954507
 20
210.7658352152
 11
188.5623954507
 21
242.0658352152
  0
LINE
  5
2D4
100
AcDbEntity
  8
0
100
AcDbLine
 62
7
  6
CONTINUOUS
 10
255.4502362256
 20
239.0658352152
 11
185.5623954507
 21
239.0658352152
  0
LINE
  5
2D5
100
AcDbEntity
  8
0
100
AcDbLine
 62
7
  6
CONTINUOUS
 10
183.5623954507
 20
241.5658352152
 11
185.5623954507
 21
241.5658352152
  0
LINE
  5
2D6
100
AcDbEntity
  8
0
100
AcDbLine
 62
7
  6
CONTINUOUS
 10
185.5623954507
 20
242.0658352152
 11
192.0623954507
 21
242.0658352152
  0
LINE
  5
2D7
100
AcDbEntity
  8
0
100
AcDbLine
 62
7
  6
CONTINUOUS
 10
245.0623954507
 20
242.0658352152
 11
251.0623954507
 21
242.0658352152
  0
LINE
  5
2D8
100
AcDbEntity
  8
0
100
AcDbLine
 62
7
  6
CONTINUOUS
 10
186.0623954507
 20
243.6658352152
 11
192.0623954507
 21
243.6658352152
  0
LINE
  5
2D9
100
AcDbEntity
  8
0
100
AcDbLine
 62
7
  6
CONTINUOUS
 10
245.0623954507
 20
243.6658352152
 11
251.0623954507
 21
243.6658352152
  0
LINE
  5
2DA
100
AcDbEntity
  8
0
100
AcDbLine
 62
7
  6
CONTINUOUS
 10
248.0687367671
 20
244.46583892
 11
248.0560541343
 21
244.46583892
  0
LINE
  5
2DB
100
AcDbEntity
  8
0
100
AcDbLine
 62
7
  6
CONTINUOUS
 10
189.0687367671
 20
244.46583892
 11
189.0560541343
 21
244.46583892
  0
LINE
  5
2DC
100
AcDbEntity
  8
0
100
AcDbLine
 62
7
  6
CONTINUOUS
 10
185.5623954507
 20
245.0658352152
 11
253.8120888087
 21
245.0658352152
  0
LINE
  5
2DD
100
AcDbEntity
  8
0
100
AcDbLine
 62
7
  6
CONTINUOUS
 10
189.0623954507
 20
245.0658352152
 11
189.0623954507
 21
244.4658352152
  0
LINE
  5
2DE
100
AcDbEntity
  8
0
100
AcDbLine
 62
7
  6
CONTINUOUS
 10
192.0623954507
 20
245.0658352152
 11
192.0623954507
 21
242.0658352152
  0
LINE
  5
2DF
100
AcDbEntity
  8
0
100
AcDbLine
 62
7
  6
CONTINUOUS
 10
192.5623954507
 20
245.0658352152
 11
192.5623954507
 21
248.5658352152
  0
LINE
  5
2E0
100
AcDbEntity
  8
0
100
AcDbLine
 62
7
  6
CONTINUOUS
 10
197.0623954507
 20
250.5658352152
 11
197.0623954507
 21
254.5658352152
  0
LINE
  5
2E1
100
AcDbEntity
  8
0
100
AcDbLine
 62
7
  6
CONTINUOUS
 10
197.5623954507
 20
254.5658352152
 11
197.5623954507
 21
250.5658352152
  0
LINE
  5
2E2
100
AcDbEntity
  8
0
100
AcDbLine
 62
7
  6
CONTINUOUS
 10
154.6626809842
 20
141.5294940141
 11
154.9623954507
 21
141.8425798303
  0
LINE
  5
2E3
100
AcDbEntity
  8
0
100
AcDbLine
 62
7
  6
CONTINUOUS
 10
200.5623954507
 20
247.5658352152
 11
219.0623954507
 21
247.5658352152
  0
LINE
  5
2E4
100
AcDbEntity
  8
0
100
AcDbLine
 62
7
  6
CONTINUOUS
 10
225.5623954507
 20
248.0658352152
 11
245.5623954507
 21
248.0658352152
  0
LINE
  5
2E5
100
AcDbEntity
  8
0
100
AcDbLine
 62
7
  6
CONTINUOUS
 10
192.5623954507
 20
248.5658352152
 11
200.5623954507
 21
248.5658352152
  0
LINE
  5
2E6
100
AcDbEntity
  8
0
100
AcDbLine
 62
7
  6
CONTINUOUS
 10
205.0623954507
 20
249.1658352152
 11
211.0623954507
 21
249.1658352152
  0
LINE
  5
2E7
100
AcDbEntity
  8
0
100
AcDbLine
 62
7
  6
CONTINUOUS
 10
196.568340209
 20
249.6658377198
 11
196.5564506924
 21
249.6658377198
  0
LINE
  5
2E8
100
AcDbEntity
  8
0
100
AcDbLine
 62
7
  6
CONTINUOUS
 10
219.0623954507
 20
250.5658352152
 11
218.5623954507
 21
250.5658352152
  0
LINE
  5
2E9
100
AcDbEntity
  8
0
100
AcDbLine
 62
7
  6
CONTINUOUS
 10
197.5623954507
 20
250.5658352152
 11
197.0623954507
 21
250.5658352152
  0
LINE
  5
2EA
100
AcDbEntity
  8
0
100
AcDbLine
 62
7
  6
CONTINUOUS
 10
228.0623954507
 20
250.5658352152
 11
239.4461202684
 21
250.5658352152
  0
LINE
  5
2EB
100
AcDbEntity
  8
0
100
AcDbLine
 62
7
  6
CONTINUOUS
 10
241.0831908228
 20
250.5658352152
 11
243.0623954507
 21
250.5658352152
  0
LINE
  5
2EC
100
AcDbEntity
  8
0
100
AcDbLine
 62
7
  6
CONTINUOUS
 10
218.5623954507
 20
251.0658352152
 11
216.5623954507
 21
251.0658352152
  0
LINE
  5
2ED
100
AcDbEntity
  8
0
100
AcDbLine
 62
7
  6
CONTINUOUS
 10
199.5623954507
 20
251.0658352152
 11
197.5623954507
 21
251.0658352152
  0
LINE
  5
2EE
100
AcDbEntity
  8
0
100
AcDbLine
 62
7
  6
CONTINUOUS
 10
228.0623954507
 20
251.0658352152
 11
228.8123954507
 21
251.0658352152
  0
LINE
  5
2EF
100
AcDbEntity
  8
0
100
AcDbLine
 62
7
  6
CONTINUOUS
 10
242.3123954507
 20
251.0658352152
 11
243.0623954507
 21
251.0658352152
  0
LINE
  5
2F0
100
AcDbEntity
  8
0
100
AcDbLine
 62
7
  6
CONTINUOUS
 10
197.5623954507
 20
254.0658352152
 11
199.5623954507
 21
254.0658352152
  0
LINE
  5
2F1
100
AcDbEntity
  8
0
100
AcDbLine
 62
7
  6
CONTINUOUS
 10
216.5623954507
 20
254.0658352152
 11
218.5623954507
 21
254.0658352152
  0
LINE
  5
2F2
100
AcDbEntity
  8
0
100
AcDbLine
 62
7
  6
CONTINUOUS
 10
198.5623954507
 20
141.0658352152
 11
198.5623954507
 21
195.6757657981
  0
LINE
  5
2F3
100
AcDbEntity
  8
0
100
AcDbLine
 62
7
  6
CONTINUOUS
 10
199.5623954507
 20
257.5658352152
 11
199.5623954507
 21
249.0461936685
  0
LINE
  5
2F4
100
AcDbEntity
  8
0
100
AcDbLine
 62
7
  6
CONTINUOUS
 10
200.5623954507
 20
248.5658352152
 11
200.5623954507
 21
245.0658352152
  0
LINE
  5
2F5
100
AcDbEntity
  8
0
100
AcDbLine
 62
7
  6
CONTINUOUS
 10
201.0623954507
 20
257.5658352152
 11
201.0623954507
 21
247.5658352152
  0
LINE
  5
2F6
100
AcDbEntity
  8
0
100
AcDbLine
 62
7
  6
CONTINUOUS
 10
204.5623954507
 20
190.0658352152
 11
204.5623954507
 21
158.0658352152
  0
LINE
  5
2F7
100
AcDbEntity
  8
0
100
AcDbLine
 62
7
  6
CONTINUOUS
 10
204.5623954507
 20
195.34362129
 11
204.5623954507
 21
210.7658352152
  0
LINE
  5
2F8
100
AcDbEntity
  8
0
100
AcDbLine
 62
7
  6
CONTINUOUS
 10
205.0623954507
 20
249.1658352152
 11
205.0623954507
 21
247.5658352152
  0
LINE
  5
2F9
100
AcDbEntity
  8
0
100
AcDbLine
 62
7
  6
CONTINUOUS
 10
205.493052385
 20
247.5658352152
 11
205.493052385
 21
245.0658352152
  0
LINE
  5
2FA
100
AcDbEntity
  8
0
100
AcDbLine
 62
7
  6
CONTINUOUS
 10
197.0623954507
 20
254.5658352152
 11
197.5623954507
 21
254.5658352152
  0
LINE
  5
2FB
100
AcDbEntity
  8
0
100
AcDbLine
 62
7
  6
CONTINUOUS
 10
218.5623954507
 20
254.5658352152
 11
219.0623954507
 21
254.5658352152
  0
LINE
  5
2FC
100
AcDbEntity
  8
0
100
AcDbLine
 62
7
  6
CONTINUOUS
 10
228.8123954507
 20
257.0658352152
 11
242.3123954507
 21
257.0658352152
  0
LINE
  5
2FD
100
AcDbEntity
  8
0
100
AcDbLine
 62
7
  6
CONTINUOUS
 10
199.5623954507
 20
257.5658352152
 11
216.5623954507
 21
257.5658352152
  0
LINE
  5
2FE
100
AcDbEntity
  8
0
100
AcDbLine
 62
7
  6
CONTINUOUS
 10
231.5623954507
 20
259.0658352152
 11
239.5623954507
 21
259.0658352152
  0
LINE
  5
2FF
100
AcDbEntity
  8
0
100
AcDbLine
 62
7
  6
CONTINUOUS
 10
229.5623954507
 20
261.0658352152
 11
241.5623954507
 21
261.0658352152
  0
LINE
  5
300
100
AcDbEntity
  8
0
100
AcDbLine
 62
7
  6
CONTINUOUS
 10
230.3123954507
 20
262.0658352152
 11
240.8123954507
 21
262.0658352152
  0
LINE
  5
301
100
AcDbEntity
  8
0
100
AcDbLine
 62
7
  6
CONTINUOUS
 10
210.6317385164
 20
245.0658352152
 11
210.6317385164
 21
247.5658352152
  0
LINE
  5
302
100
AcDbEntity
  8
0
100
AcDbLine
 62
7
  6
CONTINUOUS
 10
211.0623954507
 20
249.1658352152
 11
211.0623954507
 21
247.5658352152
  0
LINE
  5
303
100
AcDbEntity
  8
0
100
AcDbLine
 62
7
  6
CONTINUOUS
 10
215.0623954507
 20
257.5658352152
 11
215.0623954507
 21
247.5658352152
  0
LINE
  5
304
100
AcDbEntity
  8
0
100
AcDbLine
 62
7
  6
CONTINUOUS
 10
216.5623954507
 20
257.5658352152
 11
216.5623954507
 21
247.5658352152
  0
LINE
  5
305
100
AcDbEntity
  8
0
100
AcDbLine
 62
7
  6
CONTINUOUS
 10
218.5623954507
 20
250.5658352152
 11
218.5623954507
 21
254.5658352152
  0
LINE
  5
306
100
AcDbEntity
  8
0
100
AcDbLine
 62
7
  6
CONTINUOUS
 10
219.0623954507
 20
254.5658352152
 11
219.0623954507
 21
250.5658352152
  0
LINE
  5
307
100
AcDbEntity
  8
0
100
AcDbLine
 62
7
  6
CONTINUOUS
 10
219.0623954507
 20
247.5658352152
 11
219.0623954507
 21
245.0658352152
  0
LINE
  5
308
100
AcDbEntity
  8
0
100
AcDbLine
 62
7
  6
CONTINUOUS
 10
225.5623954507
 20
245.0658352152
 11
225.5623954507
 21
248.0658352152
  0
LINE
  5
309
100
AcDbEntity
  8
0
100
AcDbLine
 62
7
  6
CONTINUOUS
 10
225.5887173449
 20
245.0658352152
 11
225.5887173449
 21
248.0658352152
  0
LINE
  5
30A
100
AcDbEntity
  8
0
100
AcDbLine
 62
7
  6
CONTINUOUS
 10
228.0623954507
 20
248.0658352152
 11
228.0623954507
 21
251.0658352152
  0
LINE
  5
30B
100
AcDbEntity
  8
0
100
AcDbLine
 62
7
  6
CONTINUOUS
 10
228.8123954507
 20
250.5658352152
 11
228.8123954507
 21
257.0658352152
  0
LINE
  5
30C
100
AcDbEntity
  8
0
100
AcDbLine
 62
7
  6
CONTINUOUS
 10
229.5623954507
 20
257.0658352152
 11
229.5623954507
 21
261.0658352152
  0
LINE
  5
30D
100
AcDbEntity
  8
0
100
AcDbLine
 62
7
  6
CONTINUOUS
 10
229.9476162884
 20
248.0658352152
 11
229.9476162884
 21
245.0658352152
  0
LINE
  5
30E
100
AcDbEntity
  8
0
100
AcDbLine
 62
7
  6
CONTINUOUS
 10
230.3123954507
 20
261.0658352152
 11
230.3123954507
 21
262.0658352152
  0
LINE
  5
30F
100
AcDbEntity
  8
0
100
AcDbLine
 62
7
  6
CONTINUOUS
 10
231.2034965072
 20
245.0658352152
 11
231.2034965072
 21
248.0658352152
  0
LINE
  5
310
100
AcDbEntity
  8
0
100
AcDbLine
 62
7
  6
CONTINUOUS
 10
231.5623954507
 20
257.0658352152
 11
231.5623954507
 21
259.0658352152
  0
LINE
  5
311
100
AcDbEntity
  8
0
100
AcDbLine
 62
7
  6
CONTINUOUS
 10
237.812360702
 20
248.0658352152
 11
237.812360702
 21
250.5658352152
  0
LINE
  5
312
100
AcDbEntity
  8
0
100
AcDbLine
 62
7
  6
CONTINUOUS
 10
239.4461202684
 20
250.5658352152
 11
239.4461202684
 21
257.0658352152
  0
LINE
  5
313
100
AcDbEntity
  8
0
100
AcDbLine
 62
7
  6
CONTINUOUS
 10
239.5623954507
 20
259.0658352152
 11
239.5623954507
 21
257.0658352152
  0
LINE
  5
314
100
AcDbEntity
  8
0
100
AcDbLine
 62
7
  6
CONTINUOUS
 10
239.9212943942
 20
248.0658352152
 11
239.9212943942
 21
245.0658352152
  0
LINE
  5
315
100
AcDbEntity
  8
0
100
AcDbLine
 62
7
  6
CONTINUOUS
 10
240.8123954507
 20
262.0658352152
 11
240.8123954507
 21
261.0658352152
  0
LINE
  5
316
100
AcDbEntity
  8
0
100
AcDbLine
 62
7
  6
CONTINUOUS
 10
241.0831908228
 20
257.0658352152
 11
241.0831908228
 21
250.5658352152
  0
LINE
  5
317
100
AcDbEntity
  8
0
100
AcDbLine
 62
7
  6
CONTINUOUS
 10
241.177174613
 20
245.0658352152
 11
241.177174613
 21
248.0658352152
  0
LINE
  5
318
100
AcDbEntity
  8
0
100
AcDbLine
 62
7
  6
CONTINUOUS
 10
241.5623954507
 20
261.0658352152
 11
241.5623954507
 21
257.0658352152
  0
LINE
  5
319
100
AcDbEntity
  8
0
100
AcDbLine
 62
7
  6
CONTINUOUS
 10
242.3123954507
 20
257.0658352152
 11
242.3123954507
 21
250.5658352152
  0
LINE
  5
31A
100
AcDbEntity
  8
0
100
AcDbLine
 62
7
  6
CONTINUOUS
 10
242.7169503892
 20
250.5658352152
 11
242.7169503892
 21
248.0658352152
  0
LINE
  5
31B
100
AcDbEntity
  8
0
100
AcDbLine
 62
7
  6
CONTINUOUS
 10
243.0623954507
 20
251.0658352152
 11
243.0623954507
 21
248.0658352152
  0
LINE
  5
31C
100
AcDbEntity
  8
0
100
AcDbLine
 62
7
  6
CONTINUOUS
 10
245.0623954507
 20
245.0658352152
 11
245.0623954507
 21
242.0658352152
  0
LINE
  5
31D
100
AcDbEntity
  8
0
100
AcDbLine
 62
7
  6
CONTINUOUS
 10
245.5360735565
 20
248.0658352152
 11
245.5360735565
 21
245.0658352152
  0
LINE
  5
31E
100
AcDbEntity
  8
0
100
AcDbLine
 62
7
  6
CONTINUOUS
 10
245.5623954507
 20
248.0658352152
 11
245.5623954507
 21
245.0658352152
  0
LINE
  5
31F
100
AcDbEntity
  8
0
100
AcDbLine
 62
7
  6
CONTINUOUS
 10
251.0623954507
 20
245.0658352152
 11
251.0623954507
 21
242.0658352152
  0
LINE
  5
320
100
AcDbEntity
  8
0
100
AcDbLine
 62
7
  6
CONTINUOUS
 10
251.0623954507
 20
239.0658352152
 11
251.0623954507
 21
152.8658352152
  0
LINE
  5
321
100
AcDbEntity
  8
0
100
AcDbLine
 62
7
  6
CONTINUOUS
 10
254.7623954507
 20
239.0658352152
 11
253.8120888087
 21
245.0658352152
  0
ARC
  5
322
100
AcDbEntity
  8
0
100
AcDbCircle
 62
7
  6
CONTINUOUS
 10
-41.4376045493
 20
191.9658352152
 40
274.0
100
AcDbArc
 50
349.3809658895
 51
0.6075351892
  0
ARC
  5
323
100
AcDbEntity
  8
0
100
AcDbCircle
 62
7
  6
CONTINUOUS
 10
39.4853954507
 20
171.4188835424
 40
8.2566172855
100
AcDbArc
 50
192.4815017318
 51
208.9770927103
  0
ARC
  5
324
100
AcDbEntity
  8
0
100
AcDbCircle
 62
7
  6
CONTINUOUS
 10
39.4853954507
 20
171.4188835424
 40
8.2566172855
100
AcDbArc
 50
151.0229073061
 51
166.4971202223
  0
ARC
  5
325
100
AcDbEntity
  8
0
100
AcDbCircle
 62
7
  6
CONTINUOUS
 10
39.4853954507
 20
150.912786888
 40
8.2566172855
100
AcDbArc
 50
151.0229073061
 51
166.4971202223
  0
ARC
  5
326
100
AcDbEntity
  8
0
100
AcDbCircle
 62
7
  6
CONTINUOUS
 10
39.4853954507
 20
150.912786888
 40
8.2566172855
100
AcDbArc
 50
192.4815017318
 51
208.9770927103
  0
ARC
  5
327
100
AcDbEntity
  8
0
100
AcDbCircle
 62
7
  6
CONTINUOUS
 10
102.4623954507
 20
167.7873611038
 40
5.0
100
AcDbArc
 50
0.0
 51
134.1915067264
  0
CIRCLE
  5
328
100
AcDbEntity
  8
0
100
AcDbCircle
 62
7
  6
CONTINUOUS
 10
78.7623954507
 20
169.1658352152
 40
2.0
  0
CIRCLE
  5
329
100
AcDbEntity
  8
0
100
AcDbCircle
 62
7
  6
CONTINUOUS
 10
78.7623954507
 20
169.1658352152
 40
1.621
  0
CIRCLE
  5
32A
100
AcDbEntity
  8
0
100
AcDbCircle
 62
7
  6
CONTINUOUS
 10
44.7623954507
 20
177.5708352152
 40
5.5
  0
CIRCLE
  5
32B
100
AcDbEntity
  8
0
100
AcDbCircle
 62
7
  6
CONTINUOUS
 10
44.7623954507
 20
177.5708352152
 40
5.1
  0
CIRCLE
  5
32C
100
AcDbEntity
  8
0
100
AcDbCircle
 62
7
  6
CONTINUOUS
 10
44.7623954507
 20
177.5708352152
 40
2.65
  0
CIRCLE
  5
32D
100
AcDbEntity
  8
0
100
AcDbCircle
 62
7
  6
CONTINUOUS
 10
58.8438111637
 20
180.6658352152
 40
2.0
  0
CIRCLE
  5
32E
100
AcDbEntity
  8
0
100
AcDbCircle
 62
7
  6
CONTINUOUS
 10
58.8438111637
 20
180.6658352152
 40
1.621
  0
ARC
  5
32F
100
AcDbEntity
  8
0
100
AcDbCircle
 62
7
  6
CONTINUOUS
 10
38.7623954507
 20
176.7658352152
 40
0.6
100
AcDbArc
 50
326.4426902381
 51
346.1199129524
  0
ARC
  5
330
100
AcDbEntity
  8
0
100
AcDbCircle
 62
7
  6
CONTINUOUS
 10
46.7623954507
 20
185.3374303508
 40
3.0
100
AcDbArc
 50
282.0436025073
 51
360.0
  0
CIRCLE
  5
331
100
AcDbEntity
  8
0
100
AcDbCircle
 62
7
  6
CONTINUOUS
 10
98.6809797377
 20
180.6658352152
 40
2.0
  0
CIRCLE
  5
332
100
AcDbEntity
  8
0
100
AcDbCircle
 62
7
  6
CONTINUOUS
 10
98.6809797377
 20
180.6658352152
 40
1.621
  0
ARC
  5
333
100
AcDbEntity
  8
0
100
AcDbCircle
 62
7
  6
CONTINUOUS
 10
78.7623954507
 20
192.1658352152
 40
32.0
100
AcDbArc
 50
164.7369812194
 51
196.9437057753
  0
ARC
  5
334
100
AcDbEntity
  8
0
100
AcDbCircle
 62
7
  6
CONTINUOUS
 10
78.7623954507
 20
192.1658352152
 40
32.0
100
AcDbArc
 50
27.9103611074
 51
159.5821311227
  0
ARC
  5
335
100
AcDbEntity
  8
0
100
AcDbCircle
 62
7
  6
CONTINUOUS
 10
78.7623954507
 20
192.1658352152
 40
31.7
100
AcDbArc
 50
92.9245990446
 51
158.6817809144
  0
ARC
  5
336
100
AcDbEntity
  8
0
100
AcDbCircle
 62
7
  6
CONTINUOUS
 10
78.7623954507
 20
192.1658352152
 40
31.7
100
AcDbArc
 50
165.3250366653
 51
196.8595140476
  0
ARC
  5
337
100
AcDbEntity
  8
0
100
AcDbCircle
 62
7
  6
CONTINUOUS
 10
78.7623954507
 20
192.1658352152
 40
31.7
100
AcDbArc
 50
28.1714689745
 51
87.0531564502
  0
ARC
  5
338
100
AcDbEntity
  8
0
100
AcDbCircle
 62
7
  6
CONTINUOUS
 10
78.7623954507
 20
192.1658352152
 40
29.0
100
AcDbArc
 50
15.0911498098
 51
344.9088501902
  0
ARC
  5
339
100
AcDbEntity
  8
0
100
AcDbCircle
 62
7
  6
CONTINUOUS
 10
78.7623954507
 20
192.1658352152
 40
27.0
100
AcDbArc
 50
16.2387770815
 51
343.7612229185
  0
ARC
  5
33A
100
AcDbEntity
  8
0
100
AcDbCircle
 62
7
  6
CONTINUOUS
 10
78.7623954507
 20
192.1658352152
 40
26.6
100
AcDbArc
 50
15.4178115676
 51
344.5821884324
  0
CIRCLE
  5
33B
100
AcDbEntity
  8
0
100
AcDbCircle
 62
7
  6
CONTINUOUS
 10
78.7623954507
 20
192.1658352152
 40
19.8
  0
CIRCLE
  5
33C
100
AcDbEntity
  8
0
100
AcDbCircle
 62
7
  6
CONTINUOUS
 10
78.7623954507
 20
192.1658352152
 40
18.9
  0
CIRCLE
  5
33D
100
AcDbEntity
  8
0
100
AcDbCircle
 62
7
  6
CONTINUOUS
 10
78.7623954507
 20
192.1658352152
 40
18.0
  0
CIRCLE
  5
33E
100
AcDbEntity
  8
0
100
AcDbCircle
 62
7
  6
CONTINUOUS
 10
78.7623954507
 20
192.1658352152
 40
17.7
  0
CIRCLE
  5
33F
100
AcDbEntity
  8
0
100
AcDbCircle
 62
7
  6
CONTINUOUS
 10
78.7623954507
 20
192.1658352152
 40
15.3
  0
CIRCLE
  5
340
100
AcDbEntity
  8
0
100
AcDbCircle
 62
7
  6
CONTINUOUS
 10
78.7623954507
 20
192.1658352152
 40
15.0
  0
CIRCLE
  5
341
100
AcDbEntity
  8
0
100
AcDbCircle
 62
7
  6
CONTINUOUS
 10
78.7623954507
 20
192.1658352152
 40
14.9437846722
  0
CIRCLE
  5
342
100
AcDbEntity
  8
0
100
AcDbCircle
 62
7
  6
CONTINUOUS
 10
78.7623954507
 20
192.1658352152
 40
14.6377712579
  0
CIRCLE
  5
343
100
AcDbEntity
  8
0
100
AcDbCircle
 62
7
  6
CONTINUOUS
 10
78.7623954507
 20
192.1658352152
 40
14.3658789218
  0
CIRCLE
  5
344
100
AcDbEntity
  8
0
100
AcDbCircle
 62
7
  6
CONTINUOUS
 10
78.7623954507
 20
192.1658352152
 40
11.55
  0
CIRCLE
  5
345
100
AcDbEntity
  8
0
100
AcDbCircle
 62
7
  6
CONTINUOUS
 10
78.7623954507
 20
192.1658352152
 40
10.95
  0
CIRCLE
  5
346
100
AcDbEntity
  8
0
100
AcDbCircle
 62
7
  6
CONTINUOUS
 10
78.7623954507
 20
192.1658352152
 40
10.9255282581
  0
CIRCLE
  5
347
100
AcDbEntity
  8
0
100
AcDbCircle
 62
7
  6
CONTINUOUS
 10
78.7623954507
 20
192.1658352152
 40
10.0
  0
CIRCLE
  5
348
100
AcDbEntity
  8
0
100
AcDbCircle
 62
7
  6
CONTINUOUS
 10
78.7623954507
 20
192.1658352152
 40
9.7052558883
  0
ARC
  5
349
100
AcDbEntity
  8
0
100
AcDbCircle
 62
7
  6
CONTINUOUS
 10
78.7623954507
 20
191.7658352152
 40
6.0
100
AcDbArc
 50
109.4712206345
 51
70.5287793655
  0
ARC
  5
34A
100
AcDbEntity
  8
0
100
AcDbCircle
 62
7
  6
CONTINUOUS
 10
-41.4376045493
 20
195.9658352152
 40
300.0
100
AcDbArc
 50
351.7399235704
 51
8.2600764296
  0
ARC
  5
34B
100
AcDbEntity
  8
0
100
AcDbCircle
 62
7
  6
CONTINUOUS
 10
78.7623954507
 20
221.1658352152
 40
3.0
100
AcDbArc
 50
357.0351021528
 51
182.9648978472
  0
ARC
  5
34C
100
AcDbEntity
  8
0
100
AcDbCircle
 62
7
  6
CONTINUOUS
 10
50.8817564781
 20
201.1273280521
 40
3.0
100
AcDbArc
 50
63.7913518244
 51
260.5713960426
  0
CIRCLE
  5
34D
100
AcDbEntity
  8
0
100
AcDbCircle
 62
7
  6
CONTINUOUS
 10
78.7623954507
 20
215.1658352152
 40
2.0
  0
CIRCLE
  5
34E
100
AcDbEntity
  8
0
100
AcDbCircle
 62
7
  6
CONTINUOUS
 10
98.6809797377
 20
203.6658352152
 40
2.0
  0
CIRCLE
  5
34F
100
AcDbEntity
  8
0
100
AcDbCircle
 62
7
  6
CONTINUOUS
 10
58.8438111637
 20
203.6658352152
 40
2.0
  0
CIRCLE
  5
350
100
AcDbEntity
  8
0
100
AcDbCircle
 62
7
  6
CONTINUOUS
 10
78.7623954507
 20
215.1658352152
 40
1.621
  0
CIRCLE
  5
351
100
AcDbEntity
  8
0
100
AcDbCircle
 62
7
  6
CONTINUOUS
 10
98.6809797377
 20
203.6658352152
 40
1.621
  0
CIRCLE
  5
352
100
AcDbEntity
  8
0
100
AcDbCircle
 62
7
  6
CONTINUOUS
 10
58.8438111637
 20
203.6658352152
 40
1.621
  0
ARC
  5
353
100
AcDbEntity
  8
0
100
AcDbCircle
 62
7
  6
CONTINUOUS
 10
134.7393954507
 20
146.7658352152
 40
7.8229616514
100
AcDbArc
 50
13.2182465544
 51
30.7514809298
  0
ARC
  5
354
100
AcDbEntity
  8
0
100
AcDbCircle
 62
7
  6
CONTINUOUS
 10
134.7393954507
 20
146.7658352152
 40
7.8229616514
100
AcDbArc
 50
329.2485188693
 51
346.7543183373
  0
ARC
  5
355
100
AcDbEntity
  8
0
100
AcDbCircle
 62
7
  6
CONTINUOUS
 10
114.4623954507
 20
192.1658352152
 40
7.0
100
AcDbArc
 50
270.0
 51
90.0
  0
ARC
  5
356
100
AcDbEntity
  8
0
100
AcDbCircle
 62
7
  6
CONTINUOUS
 10
106.7623954507
 20
192.1658352152
 40
7.0
100
AcDbArc
 50
114.6554094507
 51
245.344590872
  0
ARC
  5
357
100
AcDbEntity
  8
0
100
AcDbCircle
 62
7
  6
CONTINUOUS
 10
106.7623954507
 20
192.1658352152
 40
4.0
100
AcDbArc
 50
90.0
 51
270.0
  0
ARC
  5
358
100
AcDbEntity
  8
0
100
AcDbCircle
 62
7
  6
CONTINUOUS
 10
114.7623954507
 20
192.1658352152
 40
4.0
100
AcDbArc
 50
270.0
 51
90.0
  0
ARC
  5
359
100
AcDbEntity
  8
0
100
AcDbCircle
 62
7
  6
CONTINUOUS
 10
139.5648701812
 20
147.6756863844
 40
2.9092072637
100
AcDbArc
 50
12.9337306855
 51
13.6494190744
  0
ARC
  5
35A
100
AcDbEntity
  8
0
100
AcDbCircle
 62
7
  6
CONTINUOUS
 10
107.8271893991
 20
183.1658352152
 40
2.0
100
AcDbArc
 50
90.0
 51
133.5438718854
  0
ARC
  5
35B
100
AcDbEntity
  8
0
100
AcDbCircle
 62
7
  6
CONTINUOUS
 10
137.7623954507
 20
157.8658352152
 40
1.2
100
AcDbArc
 50
0.0
 51
90.0
  0
ARC
  5
35C
100
AcDbEntity
  8
0
100
AcDbCircle
 62
7
  6
CONTINUOUS
 10
135.1623954507
 20
157.8658352152
 40
1.2
100
AcDbArc
 50
90.0
 51
180.0
  0
ARC
  5
35D
100
AcDbEntity
  8
0
100
AcDbCircle
 62
7
  6
CONTINUOUS
 10
135.1623954507
 20
150.1158352152
 40
1.2
100
AcDbArc
 50
180.0
 51
270.0
  0
ARC
  5
35E
100
AcDbEntity
  8
0
100
AcDbCircle
 62
7
  6
CONTINUOUS
 10
137.7623954507
 20
150.1158352152
 40
1.2
100
AcDbArc
 50
270.0
 51
360.0
  0
ARC
  5
35F
100
AcDbEntity
  8
0
100
AcDbCircle
 62
7
  6
CONTINUOUS
 10
135.1623954507
 20
190.2658352152
 40
1.2
100
AcDbArc
 50
180.0
 51
270.0
  0
ARC
  5
360
100
AcDbEntity
  8
0
100
AcDbCircle
 62
7
  6
CONTINUOUS
 10
137.7623954507
 20
190.2658352152
 40
1.2
100
AcDbArc
 50
270.0
 51
360.0
  0
ARC
  5
361
100
AcDbEntity
  8
0
100
AcDbCircle
 62
7
  6
CONTINUOUS
 10
103.4251162988
 20
184.8951703307
 40
1.0
100
AcDbArc
 50
343.7612229185
 51
65.3445908715
  0
ARC
  5
362
100
AcDbEntity
  8
0
100
AcDbCircle
 62
7
  6
CONTINUOUS
 10
108.0623954507
 20
141.7658352152
 40
0.6
100
AcDbArc
 50
180.0
 51
270.0
  0
ARC
  5
363
100
AcDbEntity
  8
0
100
AcDbCircle
 62
7
  6
CONTINUOUS
 10
227.3784849989
 20
141.5658352152
 40
0.5
100
AcDbArc
 50
270.0
 51
349.3809658896
  0
ARC
  5
364
100
AcDbEntity
  8
0
100
AcDbCircle
 62
7
  6
CONTINUOUS
 10
139.9623954507
 20
162.0658352152
 40
0.5
100
AcDbArc
 50
270.0
 51
360.0
  0
ARC
  5
365
100
AcDbEntity
  8
0
100
AcDbCircle
 62
7
  6
CONTINUOUS
 10
138.9623954507
 20
162.0658352152
 40
0.5
100
AcDbArc
 50
180.0
 51
270.0
  0
ARC
  5
366
100
AcDbEntity
  8
0
100
AcDbCircle
 62
7
  6
CONTINUOUS
 10
138.9623954507
 20
186.0658352152
 40
0.5
100
AcDbArc
 50
90.0
 51
180.0
  0
ARC
  5
367
100
AcDbEntity
  8
0
100
AcDbCircle
 62
7
  6
CONTINUOUS
 10
139.9623954507
 20
186.0658352152
 40
0.5
100
AcDbArc
 50
0.0
 51
90.0
  0
ARC
  5
368
100
AcDbEntity
  8
0
100
AcDbCircle
 62
7
  6
CONTINUOUS
 10
134.7393954507
 20
201.3658352152
 40
7.8229616514
100
AcDbArc
 50
13.2182465543
 51
30.7514809298
  0
ARC
  5
369
100
AcDbEntity
  8
0
100
AcDbCircle
 62
7
  6
CONTINUOUS
 10
134.7393954507
 20
201.3658352152
 40
7.8229616514
100
AcDbArc
 50
329.2485188693
 51
346.7543183375
  0
ARC
  5
36A
100
AcDbEntity
  8
0
100
AcDbCircle
 62
7
  6
CONTINUOUS
 10
196.5561447619
 20
241.8658377198
 40
7.8
100
AcDbArc
 50
89.954084856
 51
120.7984176416
  0
ARC
  5
36B
100
AcDbEntity
  8
0
100
AcDbCircle
 62
7
  6
CONTINUOUS
 10
196.5686461394
 20
241.8658377198
 40
7.8
100
AcDbArc
 50
59.2015823584
 51
90.045915144
  0
ARC
  5
36C
100
AcDbEntity
  8
0
100
AcDbCircle
 62
7
  6
CONTINUOUS
 10
208.0157755249
 20
243.7660104933
 40
6.2
100
AcDbArc
 50
60.5679963153
 51
89.5691693284
  0
ARC
  5
36D
100
AcDbEntity
  8
0
100
AcDbCircle
 62
7
  6
CONTINUOUS
 10
208.1090153765
 20
243.7660104933
 40
6.2
100
AcDbArc
 50
90.4308306716
 51
119.4320036847
  0
ARC
  5
36E
100
AcDbEntity
  8
0
100
AcDbCircle
 62
7
  6
CONTINUOUS
 10
248.0690631053
 20
238.46583892
 40
6.0
100
AcDbArc
 50
60.0734942192
 51
90.0636714245
  0
ARC
  5
36F
100
AcDbEntity
  8
0
100
AcDbCircle
 62
7
  6
CONTINUOUS
 10
248.0557277961
 20
238.46583892
 40
6.0
100
AcDbArc
 50
89.9363285755
 51
119.9265057808
  0
ARC
  5
370
100
AcDbEntity
  8
0
100
AcDbCircle
 62
7
  6
CONTINUOUS
 10
189.0557277961
 20
238.46583892
 40
6.0
100
AcDbArc
 50
89.9363285755
 51
119.9265057808
  0
ARC
  5
371
100
AcDbEntity
  8
0
100
AcDbCircle
 62
7
  6
CONTINUOUS
 10
189.0690631053
 20
238.46583892
 40
6.0
100
AcDbArc
 50
60.0734942192
 51
90.0636714245
  0
CIRCLE
  5
372
100
AcDbEntity
  8
0
100
AcDbCircle
 62
7
  6
CONTINUOUS
 10
112.7623954507
 20
206.7608352152
 40
5.5
  0
CIRCLE
  5
373
100
AcDbEntity
  8
0
100
AcDbCircle
 62
7
  6
CONTINUOUS
 10
112.7623954507
 20
206.7608352152
 40
5.1
  0
ARC
  5
374
100
AcDbEntity
  8
0
100
AcDbCircle
 62
7
  6
CONTINUOUS
 10
139.5648694662
 20
202.2756862142
 40
2.9092079987
100
AcDbArc
 50
12.9337297134
 51
13.6494181833
  0
CIRCLE
  5
375
100
AcDbEntity
  8
0
100
AcDbCircle
 62
7
  6
CONTINUOUS
 10
112.7623954507
 20
206.7608352152
 40
2.65
  0
ARC
  5
376
100
AcDbEntity
  8
0
100
AcDbCircle
 62
7
  6
CONTINUOUS
 10
107.8271893991
 20
201.1658352152
 40
2.0
100
AcDbArc
 50
226.4561281146
 51
270.0
  0
ARC
  5
377
100
AcDbEntity
  8
0
100
AcDbCircle
 62
7
  6
CONTINUOUS
 10
137.7623954507
 20
198.0158352152
 40
1.2
100
AcDbArc
 50
0.0
 51
90.0
  0
ARC
  5
378
100
AcDbEntity
  8
0
100
AcDbCircle
 62
7
  6
CONTINUOUS
 10
135.1623954507
 20
198.0158352152
 40
1.2
100
AcDbArc
 50
90.0
 51
180.0
  0
ARC
  5
379
100
AcDbEntity
  8
0
100
AcDbCircle
 62
7
  6
CONTINUOUS
 10
103.4251162988
 20
199.4365000996
 40
1.0
100
AcDbArc
 50
294.6554068695
 51
16.2387770815
  0
ARC
  5
37A
100
AcDbEntity
  8
0
100
AcDbCircle
 62
7
  6
CONTINUOUS
 10
232.047020247
 20
194.8658352152
 40
0.5
100
AcDbArc
 50
0.6075351892
 51
72.857015308
  0
SPLINE
  5
37B
100
AcDbEntity
  8
0
100
AcDbSpline
 62
7
  6
CONTINUOUS
 70
0
 71
3
 72
15
 73
11
 74
0
 42
0.0000001
 43
0.0000001
 44
0.0000000001
 40
0.0
 40
0.0
 40
0.0
 40
0.0
 40
0.2500940459
 40
0.3751584989
 40
0.5002170638
 40
0.6252562919
 40
0.7502362213
 40
0.8750207606
 40
0.9375185432
 40
1.0
 40
1.0
 40
1.0
 40
1.0
 10
183.5605353426
 20
228.015894908
 30
0.0
 10
183.3373479277
 20
227.9075942064
 30
0.0
 10
183.0067427271
 20
227.7358237206
 30
0.0
 10
182.5825868825
 20
227.4779767075
 30
0.0
 10
182.2765812845
 20
227.2657038661
 30
0.0
 10
181.9893265547
 20
227.0281867641
 30
0.0
 10
181.7336970671
 20
226.7566451338
 30
0.0
 10
181.5686461595
 20
226.4896055968
 30
0.0
 10
181.4935450339
 20
226.2521476524
 30
0.0
 10
181.4802159056
 20
226.1278124809
 30
0.0
 10
181.4802159056
 20
226.0658352152
 30
0.0
  0
SPLINE
  5
37C
100
AcDbEntity
  8
0
100
AcDbSpline
 62
7
  6
CONTINUOUS
 70
0
 71
3
 72
29
 73
25
 74
0
 42
0.0000001
 43
0.0000001
 44
0.0000000001
 40
0.0
 40
0.0
 40
0.0
 40
0.0
 40
0.0720422738
 40
0.1431397662
 40
0.2129346078
 40
0.2808418001
 40
0.3458368108
 40
0.3767147182
 40
0.4060551209
 40
0.4333822579
 40
0.4581676757
 40
0.4801357681
 40
0.4999940253
 40
0.5198530829
 40
0.5418231097
 40
0.5666104904
 40
0.5939391326
 40
0.6232804662
 40
0.6541591571
 40
0.7191558882
 40
0.7870640199
 40
0.8568594591
 40
0.9279574094
 40
1.0
 40
1.0
 40
1.0
 40
1.0
 10
183.5604376682
 20
231.3709684799
 30
0.0
 10
183.4494237793
 20
231.3440332371
 30
0.0
 10
183.229283217
 20
231.2887057196
 30
0.0
 10
182.9035911454
 20
231.1995635086
 30
0.0
 10
182.5867241229
 20
231.1033565836
 30
0.0
 10
182.2829210764
 20
230.9981905094
 30
0.0
 10
182.0424273144
 20
230.8994203663
 30
0.0
 10
181.8646337916
 20
230.8108178672
 30
0.0
 10
181.7446602058
 20
230.7407146178
 30
0.0
 10
181.6395438954
 20
230.6651830081
 30
0.0
 10
181.554410895
 20
230.5834417668
 30
0.0
 10
181.4954464276
 20
230.4941029897
 30
0.0
 10
181.4729769206
 20
230.395923588
 30
0.0
 10
181.4954799945
 20
230.2977497084
 30
0.0
 10
181.5544664066
 20
230.2084179084
 30
0.0
 10
181.6396165537
 20
230.1266824467
 30
0.0
 10
181.7447451155
 20
230.0511563059
 30
0.0
 10
181.8647268494
 20
229.9810570639
 30
0.0
 10
182.042528173
 20
229.8924580508
 30
0.0
 10
182.2830303535
 20
229.7936941454
 30
0.0
 10
182.5868397716
 20
229.68853094
 30
0.0
 10
182.9037109537
 20
229.592326789
 30
0.0
 10
183.2294059451
 20
229.5031870672
 30
0.0
 10
183.449547957
 20
229.4478602719
 30
0.0
 10
183.5605625532
 20
229.4209258139
 30
0.0
  0
SPLINE
  5
37D
100
AcDbEntity
  8
0
100
AcDbSpline
 62
7
  6
CONTINUOUS
 70
0
 71
3
 72
15
 73
11
 74
0
 42
0.0000001
 43
0.0000001
 44
0.0000000001
 40
0.0
 40
0.0
 40
0.0
 40
0.0
 40
0.2500940478
 40
0.3751585028
 40
0.5002170719
 40
0.6252563095
 40
0.7502362595
 40
0.875020823
 40
0.937518587
 40
1.0
 40
1.0
 40
1.0
 40
1.0
 10
183.5605342181
 20
224.1157760654
 30
0.0
 10
183.3373469077
 20
224.2240767487
 30
0.0
 10
183.006741857
 20
224.3958471927
 30
0.0
 10
182.5825862143
 20
224.6536941533
 30
0.0
 10
182.2765807617
 20
224.8659669577
 30
0.0
 10
181.989326162
 20
225.1034840261
 30
0.0
 10
181.7336968047
 20
225.3750256402
 30
0.0
 10
181.5686460252
 20
225.6420651346
 30
0.0
 10
181.4935450074
 20
225.8795229624
 30
0.0
 10
181.4802159056
 20
226.0038580189
 30
0.0
 10
181.4802159056
 20
226.0658352152
 30
0.0
  0
SPLINE
  5
37E
100
AcDbEntity
  8
0
100
AcDbSpline
 62
7
  6
CONTINUOUS
 70
0
 71
3
 72
29
 73
25
 74
0
 42
0.0000001
 43
0.0000001
 44
0.0000000001
 40
0.0
 40
0.0
 40
0.0
 40
0.0
 40
0.0720422738
 40
0.1431397662
 40
0.2129346078
 40
0.2808418001
 40
0.3458368108
 40
0.3767147182
 40
0.4060551209
 40
0.4333822579
 40
0.4581676757
 40
0.4801357681
 40
0.4999940253
 40
0.5198530829
 40
0.5418231097
 40
0.5666104904
 40
0.5939391326
 40
0.6232804662
 40
0.6541591571
 40
0.7191558882
 40
0.7870640199
 40
0.8568594591
 40
0.9279574094
 40
1.0
 40
1.0
 40
1.0
 40
1.0
 10
183.5604376682
 20
222.7107144421
 30
0.0
 10
183.4494237793
 20
222.6837791992
 30
0.0
 10
183.229283217
 20
222.6284516817
 30
0.0
 10
182.9035911454
 20
222.5393094707
 30
0.0
 10
182.5867241229
 20
222.4431025458
 30
0.0
 10
182.2829210764
 20
222.3379364716
 30
0.0
 10
182.0424273144
 20
222.2391663285
 30
0.0
 10
181.8646337916
 20
222.1505638294
 30
0.0
 10
181.7446602058
 20
222.08046058
 30
0.0
 10
181.6395438954
 20
222.0049289702
 30
0.0
 10
181.554410895
 20
221.9231877289
 30
0.0
 10
181.4954464276
 20
221.8338489519
 30
0.0
 10
181.4729769206
 20
221.7356695502
 30
0.0
 10
181.4954799945
 20
221.6374956706
 30
0.0
 10
181.5544664066
 20
221.5481638706
 30
0.0
 10
181.6396165537
 20
221.4664284088
 30
0.0
 10
181.7447451155
 20
221.3909022681
 30
0.0
 10
181.8647268494
 20
221.320803026
 30
0.0
 10
182.042528173
 20
221.232204013
 30
0.0
 10
182.2830303535
 20
221.1334401075
 30
0.0
 10
182.5868397716
 20
221.0282769022
 30
0.0
 10
182.9037109537
 20
220.9320727512
 30
0.0
 10
183.2294059451
 20
220.8429330293
 30
0.0
 10
183.449547957
 20
220.7876062341
 30
0.0
 10
183.5605625532
 20
220.760671776
 30
0.0
  0
SPLINE
  5
37F
100
AcDbEntity
  8
0
100
AcDbSpline
 62
7
  6
CONTINUOUS
 70
0
 71
3
 72
10
 73
6
 74
0
 42
0.0000001
 43
0.0000001
 44
0.0000000001
 40
0.0
 40
0.0
 40
0.0
 40
0.0
 40
0.2489354164
 40
0.4987882715
 40
1.0
 40
1.0
 40
1.0
 40
1.0
 10
232.5533859277
 20
194.1878022385
 30
0.0
 10
230.2206552441
 20
193.921304548
 30
0.0
 10
225.5535675538
 20
193.3257705022
 30
0.0
 10
216.2202732244
 20
191.9644687624
 30
0.0
 10
209.2282952257
 20
190.8253886688
 30
0.0
 10
204.5623954507
 20
190.0658352152
 30
0.0
  0
SPLINE
  5
380
100
AcDbEntity
  8
0
100
AcDbSpline
 62
7
  6
CONTINUOUS
 70
0
 71
3
 72
9
 73
5
 74
0
 42
0.0000001
 43
0.0000001
 44
0.0000000001
 40
0.0
 40
0.0
 40
0.0
 40
0.0
 40
0.5010005358
 40
1.0
 40
1.0
 40
1.0
 40
1.0
 10
204.5623954507
 20
158.0658352152
 30
0.0
 10
208.7949223313
 20
157.3768297576
 30
0.0
 10
217.24290284
 20
156.0014530303
 30
0.0
 10
225.7158292208
 20
154.7770820572
 30
0.0
 10
229.9546893576
 20
154.253179912
 30
0.0
  0
SPLINE
  5
381
100
AcDbEntity
  8
0
100
AcDbSpline
 62
7
  6
CONTINUOUS
 70
0
 71
3
 72
9
 73
5
 74
0
 42
0.0000001
 43
0.0000001
 44
0.0000000001
 40
0.0
 40
0.0
 40
0.0
 40
0.0
 40
0.289867373
 40
1.0
 40
1.0
 40
1.0
 40
1.0
 10
31.3739687973
 20
170.5097991989
 30
0.0
 10
31.3638428136
 20
170.5096955529
 30
0.0
 10
31.3521212843
 20
170.4624143966
 30
0.0
 10
31.3525763434
 20
170.4344931708
 30
0.0
 10
31.3526385023
 20
170.4096847716
 30
0.0
  0
SPLINE
  5
382
100
AcDbEntity
  8
0
100
AcDbSpline
 62
7
  6
CONTINUOUS
 70
0
 71
3
 72
9
 73
5
 74
0
 42
0.0000001
 43
0.0000001
 44
0.0000000001
 40
0.0
 40
0.0
 40
0.0
 40
0.0
 40
0.2144904039
 40
1.0
 40
1.0
 40
1.0
 40
1.0
 10
31.3526385023
 20
170.4096847716
 30
0.0
 10
31.3526899813
 20
170.3891388795
 30
0.0
 10
31.3565385507
 20
170.29337873
 30
0.0
 10
31.3690944688
 20
170.1981223347
 30
0.0
 10
31.3821865791
 20
170.1240264024
 30
0.0
  0
SPLINE
  5
383
100
AcDbEntity
  8
0
100
AcDbSpline
 62
7
  6
CONTINUOUS
 70
0
 71
3
 72
14
 73
10
 74
0
 42
0.0000001
 43
0.0000001
 44
0.0000000001
 40
0.0
 40
0.0
 40
0.0
 40
0.0
 40
0.0298712319
 40
0.1003565323
 40
0.2108182066
 40
0.3531565845
 40
0.5161425806
 40
0.6868019038
 40
1.0
 40
1.0
 40
1.0
 40
1.0
 10
31.4398824295
 20
169.8612582733
 30
0.0
 10
31.4488938925
 20
169.8612545275
 30
0.0
 10
31.4630918055
 20
169.8990463007
 30
0.0
 10
31.4670916205
 20
169.9551418747
 30
0.0
 10
31.4696858921
 20
170.0565028133
 30
0.0
 10
31.4632162717
 20
170.1803608826
 30
0.0
 10
31.4508898121
 20
170.3239358146
 30
0.0
 10
31.4270152998
 20
170.5174445656
 30
0.0
 10
31.4027840191
 20
170.6616582262
 30
0.0
 10
31.3821865732
 20
170.7538704647
 30
0.0
  0
SPLINE
  5
384
100
AcDbEntity
  8
0
100
AcDbSpline
 62
7
  6
CONTINUOUS
 70
0
 71
3
 72
9
 73
5
 74
0
 42
0.0000001
 43
0.0000001
 44
0.0000000001
 40
0.0
 40
0.0
 40
0.0
 40
0.0
 40
0.2898673734
 40
1.0
 40
1.0
 40
1.0
 40
1.0
 10
31.3739687973
 20
172.3279678859
 30
0.0
 10
31.3638428137
 20
172.3280715319
 30
0.0
 10
31.3521212844
 20
172.3753526873
 30
0.0
 10
31.3525763434
 20
172.4032739127
 30
0.0
 10
31.3526385023
 20
172.4280823115
 30
0.0
  0
SPLINE
  5
385
100
AcDbEntity
  8
0
100
AcDbSpline
 62
7
  6
CONTINUOUS
 70
0
 71
3
 72
9
 73
5
 74
0
 42
0.0000001
 43
0.0000001
 44
0.0000000001
 40
0.0
 40
0.0
 40
0.0
 40
0.0
 40
0.2144904034
 40
1.0
 40
1.0
 40
1.0
 40
1.0
 10
31.3526385023
 20
172.4280823115
 30
0.0
 10
31.3526899813
 20
172.4486282053
 30
0.0
 10
31.3565385511
 20
172.5443883626
 30
0.0
 10
31.3690944708
 20
172.6396447659
 30
0.0
 10
31.382186583
 20
172.7137407042
 30
0.0
  0
SPLINE
  5
386
100
AcDbEntity
  8
0
100
AcDbSpline
 62
7
  6
CONTINUOUS
 70
0
 71
3
 72
9
 73
5
 74
0
 42
0.0000001
 43
0.0000001
 44
0.0000000001
 40
0.0
 40
0.0
 40
0.0
 40
0.0
 40
0.289867373
 40
1.0
 40
1.0
 40
1.0
 40
1.0
 10
31.3739687973
 20
150.0037025445
 30
0.0
 10
31.3638428136
 20
150.0035988985
 30
0.0
 10
31.3521212843
 20
149.9563177422
 30
0.0
 10
31.3525763434
 20
149.9283965164
 30
0.0
 10
31.3526385023
 20
149.9035881172
 30
0.0
  0
SPLINE
  5
387
100
AcDbEntity
  8
0
100
AcDbSpline
 62
7
  6
CONTINUOUS
 70
0
 71
3
 72
9
 73
5
 74
0
 42
0.0000001
 43
0.0000001
 44
0.0000000001
 40
0.0
 40
0.0
 40
0.0
 40
0.0
 40
0.2144904039
 40
1.0
 40
1.0
 40
1.0
 40
1.0
 10
31.3526385023
 20
149.9035881172
 30
0.0
 10
31.3526899813
 20
149.883042225
 30
0.0
 10
31.3565385507
 20
149.7872820756
 30
0.0
 10
31.3690944688
 20
149.6920256803
 30
0.0
 10
31.3821865791
 20
149.617929748
 30
0.0
  0
SPLINE
  5
388
100
AcDbEntity
  8
0
100
AcDbSpline
 62
7
  6
CONTINUOUS
 70
0
 71
3
 72
14
 73
10
 74
0
 42
0.0000001
 43
0.0000001
 44
0.0000000001
 40
0.0
 40
0.0
 40
0.0
 40
0.0
 40
0.0298712319
 40
0.1003565323
 40
0.2108182066
 40
0.3531565845
 40
0.5161425806
 40
0.6868019038
 40
1.0
 40
1.0
 40
1.0
 40
1.0
 10
31.4398824295
 20
149.3551616189
 30
0.0
 10
31.4488938925
 20
149.3551578731
 30
0.0
 10
31.4630918055
 20
149.3929496463
 30
0.0
 10
31.4670916205
 20
149.4490452203
 30
0.0
 10
31.4696858921
 20
149.5504061589
 30
0.0
 10
31.4632162717
 20
149.6742642282
 30
0.0
 10
31.4508898121
 20
149.8178391602
 30
0.0
 10
31.4270152998
 20
150.0113479112
 30
0.0
 10
31.4027840191
 20
150.1555615717
 30
0.0
 10
31.3821865732
 20
150.2477738103
 30
0.0
  0
SPLINE
  5
389
100
AcDbEntity
  8
0
100
AcDbSpline
 62
7
  6
CONTINUOUS
 70
0
 71
3
 72
9
 73
5
 74
0
 42
0.0000001
 43
0.0000001
 44
0.0000000001
 40
0.0
 40
0.0
 40
0.0
 40
0.0
 40
0.2898673734
 40
1.0
 40
1.0
 40
1.0
 40
1.0
 10
31.3739687973
 20
151.8218712315
 30
0.0
 10
31.3638428137
 20
151.8219748775
 30
0.0
 10
31.3521212844
 20
151.8692560328
 30
0.0
 10
31.3525763434
 20
151.8971772583
 30
0.0
 10
31.3526385023
 20
151.9219856571
 30
0.0
  0
SPLINE
  5
38A
100
AcDbEntity
  8
0
100
AcDbSpline
 62
7
  6
CONTINUOUS
 70
0
 71
3
 72
9
 73
5
 74
0
 42
0.0000001
 43
0.0000001
 44
0.0000000001
 40
0.0
 40
0.0
 40
0.0
 40
0.0
 40
0.2144904034
 40
1.0
 40
1.0
 40
1.0
 40
1.0
 10
31.3526385023
 20
151.9219856571
 30
0.0
 10
31.3526899813
 20
151.9425315509
 30
0.0
 10
31.3565385511
 20
152.0382917082
 30
0.0
 10
31.3690944708
 20
152.1335481115
 30
0.0
 10
31.382186583
 20
152.2076440498
 30
0.0
  0
SPLINE
  5
38B
100
AcDbEntity
  8
0
100
AcDbSpline
 62
7
  6
CONTINUOUS
 70
0
 71
3
 72
14
 73
10
 74
0
 42
0.0000001
 43
0.0000001
 44
0.0000000001
 40
0.0
 40
0.0
 40
0.0
 40
0.0
 40
0.0251588631
 40
0.0893237042
 40
0.191607691
 40
0.3261358282
 40
0.4841637321
 40
0.6560834146
 40
1.0
 40
1.0
 40
1.0
 40
1.0
 10
142.3228215333
 20
148.5498746653
 30
0.0
 10
142.3162879268
 20
148.549821918
 30
0.0
 10
142.3092275144
 20
148.5182954115
 30
0.0
 10
142.3085646263
 20
148.4760537032
 30
0.0
 10
142.3111378207
 20
148.3938970244
 30
0.0
 10
142.3204019686
 20
148.2933574327
 30
0.0
 10
142.3345171383
 20
148.1729984159
 30
0.0
 10
142.3594422671
 20
147.9999777694
 30
0.0
 10
142.3826196587
 20
147.8678933837
 30
0.0
 10
142.4002696857
 20
147.7803386962
 30
0.0
  0
SPLINE
  5
38C
100
AcDbEntity
  8
0
100
AcDbSpline
 62
7
  6
CONTINUOUS
 70
0
 71
3
 72
14
 73
10
 74
0
 42
0.0000001
 43
0.0000001
 44
0.0000000001
 40
0.0
 40
0.0
 40
0.0
 40
0.0
 40
0.0251588632
 40
0.0893237048
 40
0.1916076924
 40
0.3261358303
 40
0.4841637347
 40
0.6560834171
 40
1.0
 40
1.0
 40
1.0
 40
1.0
 10
142.3228215333
 20
203.1498746652
 30
0.0
 10
142.3162879267
 20
203.149821918
 30
0.0
 10
142.3092275143
 20
203.1182954106
 30
0.0
 10
142.3085646263
 20
203.0760537014
 30
0.0
 10
142.311137821
 20
202.9938970207
 30
0.0
 10
142.3204019692
 20
202.893357427
 30
0.0
 10
142.3345171393
 20
202.7729984079
 30
0.0
 10
142.3594422687
 20
202.5999777592
 30
0.0
 10
142.3826196608
 20
202.4678933721
 30
0.0
 10
142.4002696882
 20
202.3803386839
 30
0.0
  0
SPLINE
  5
38D
100
AcDbEntity
  8
0
100
AcDbSpline
 62
7
  6
CONTINUOUS
 70
0
 71
3
 72
11
 73
7
 74
0
 42
0.0000001
 43
0.0000001
 44
0.0000000001
 40
0.0
 40
0.0
 40
0.0
 40
0.0
 40
0.4279119795
 40
0.7371750289
 40
0.9257549609
 40
1.0
 40
1.0
 40
1.0
 40
1.0
 10
31.4666327029
 20
169.5485901323
 30
0.0
 10
31.467262984
 20
169.5404991568
 30
0.0
 10
31.4682672957
 20
169.5268379636
 30
0.0
 10
31.4684847682
 20
169.5083840905
 30
0.0
 10
31.4682882487
 20
169.499119788
 30
0.0
 10
31.4665390377
 20
169.4924290018
 30
0.0
 10
31.465131091
 20
169.492448445
 30
0.0
  0
SPLINE
  5
38E
100
AcDbEntity
  8
0
100
AcDbSpline
 62
7
  6
CONTINUOUS
 70
0
 71
3
 72
9
 73
5
 74
0
 42
0.0000001
 43
0.0000001
 44
0.0000000001
 40
0.0
 40
0.0
 40
0.0
 40
0.0
 40
0.6352784711
 40
1.0
 40
1.0
 40
1.0
 40
1.0
 10
31.3821865732
 20
169.8411383234
 30
0.0
 10
31.3741966701
 20
169.8836910675
 30
0.0
 10
31.3632494208
 20
169.9507704103
 30
0.0
 10
31.3524621669
 20
170.0184936464
 30
0.0
 10
31.3526385023
 20
170.0433500159
 30
0.0
  0
SPLINE
  5
38F
100
AcDbEntity
  8
0
100
AcDbSpline
 62
7
  6
CONTINUOUS
 70
0
 71
3
 72
9
 73
5
 74
0
 42
0.0000001
 43
0.0000001
 44
0.0000000001
 40
0.0
 40
0.0
 40
0.0
 40
0.0
 40
0.4203293315
 40
1.0
 40
1.0
 40
1.0
 40
1.0
 10
31.3526385023
 20
170.0433500159
 30
0.0
 10
31.3526496409
 20
170.0449201135
 30
0.0
 10
31.3528950821
 20
170.0480228097
 30
0.0
 10
31.352965539
 20
170.0541157668
 30
0.0
 10
31.355130849
 20
170.0541298037
 30
0.0
  0
SPLINE
  5
390
100
AcDbEntity
  8
0
100
AcDbSpline
 62
7
  6
CONTINUOUS
 70
0
 71
3
 72
10
 73
6
 74
0
 42
0.0000001
 43
0.0000001
 44
0.0000000001
 40
0.0
 40
0.0
 40
0.0
 40
0.0
 40
0.5658030292
 40
0.8271112034
 40
1.0
 40
1.0
 40
1.0
 40
1.0
 10
31.3821865732
 20
170.7538704647
 30
0.0
 10
31.3605476417
 20
170.8507453125
 30
0.0
 10
31.3481671387
 20
170.9973533579
 30
0.0
 10
31.3565206971
 20
171.1716640647
 30
0.0
 10
31.3691188779
 20
171.2484913913
 30
0.0
 10
31.3821865808
 20
171.2758628902
 30
0.0
  0
SPLINE
  5
391
100
AcDbEntity
  8
0
100
AcDbSpline
 62
7
  6
CONTINUOUS
 70
0
 71
3
 72
9
 73
5
 74
0
 42
0.0000001
 43
0.0000001
 44
0.0000000001
 40
0.0
 40
0.0
 40
0.0
 40
0.0
 40
0.1922815639
 40
1.0
 40
1.0
 40
1.0
 40
1.0
 10
31.3821865808
 20
171.2758628902
 30
0.0
 10
31.3863063752
 20
171.2844921806
 30
0.0
 10
31.4048159855
 20
171.3307400415
 30
0.0
 10
31.4160311463
 20
171.3794962854
 30
0.0
 10
31.423912124
 20
171.4188839478
 30
0.0
  0
SPLINE
  5
392
100
AcDbEntity
  8
0
100
AcDbSpline
 62
7
  6
CONTINUOUS
 70
0
 71
3
 72
10
 73
6
 74
0
 42
0.0000001
 43
0.0000001
 44
0.0000000001
 40
0.0
 40
0.0
 40
0.0
 40
0.0
 40
0.5179560734
 40
0.7856309846
 40
1.0
 40
1.0
 40
1.0
 40
1.0
 10
31.423912124
 20
171.4188839478
 30
0.0
 10
31.4511278144
 20
171.5549044511
 30
0.0
 10
31.4689155117
 20
171.7658922718
 30
0.0
 10
31.4690558727
 20
172.0335721526
 30
0.0
 10
31.4587654155
 20
172.1626902099
 30
0.0
 10
31.4491088469
 20
172.2192835491
 30
0.0
  0
SPLINE
  5
393
100
AcDbEntity
  8
0
100
AcDbSpline
 62
7
  6
CONTINUOUS
 70
0
 71
3
 72
9
 73
5
 74
0
 42
0.0000001
 43
0.0000001
 44
0.0000000001
 40
0.0
 40
0.0
 40
0.0
 40
0.0
 40
0.6638200655
 40
1.0
 40
1.0
 40
1.0
 40
1.0
 10
31.4491088469
 20
172.2192835491
 30
0.0
 10
31.4442944076
 20
172.2474990785
 30
0.0
 10
31.4361609834
 20
172.2866556009
 30
0.0
 10
31.415011992
 20
172.3325581665
 30
0.0
 10
31.40117228
 20
172.3368697748
 30
0.0
  0
SPLINE
  5
394
100
AcDbEntity
  8
0
100
AcDbSpline
 62
7
  6
CONTINUOUS
 70
0
 71
3
 72
9
 73
5
 74
0
 42
0.0000001
 43
0.0000001
 44
0.0000000001
 40
0.0
 40
0.0
 40
0.0
 40
0.0
 40
0.5042384359
 40
1.0
 40
1.0
 40
1.0
 40
1.0
 10
31.40117228
 20
172.3368697748
 30
0.0
 10
31.4003842888
 20
172.3371152647
 30
0.0
 10
31.3987849342
 20
172.3374931333
 30
0.0
 10
31.3971463548
 20
172.337626118
 30
0.0
 10
31.3963348939
 20
172.337630058
 30
0.0
  0
SPLINE
  5
395
100
AcDbEntity
  8
0
100
AcDbSpline
 62
7
  6
CONTINUOUS
 70
0
 71
3
 72
16
 73
12
 74
0
 42
0.0000001
 43
0.0000001
 44
0.0000000001
 40
0.0
 40
0.0
 40
0.0
 40
0.0
 40
0.3690187947
 40
0.5416741519
 40
0.6955282962
 40
0.8235052818
 40
0.9195483608
 40
0.9539338194
 40
0.9787717966
 40
0.9939275127
 40
1.0
 40
1.0
 40
1.0
 40
1.0
 10
31.382186583
 20
172.7137407042
 30
0.0
 10
31.395855516
 20
172.7911012206
 30
0.0
 10
31.4149382477
 20
172.9048428996
 30
0.0
 10
31.4373029741
 20
173.0511943705
 30
0.0
 10
31.4507896697
 20
173.1470552642
 30
0.0
 10
31.4607731873
 20
173.2267436078
 30
0.0
 10
31.4662624102
 20
173.2817937247
 30
0.0
 10
31.4684073636
 20
173.3143645781
 30
0.0
 10
31.4684316346
 20
173.3309260961
 30
0.0
 10
31.4682132949
 20
173.3394078298
 30
0.0
 10
31.4664237135
 20
173.3453364905
 30
0.0
 10
31.465131091
 20
173.3453186398
 30
0.0
  0
SPLINE
  5
396
100
AcDbEntity
  8
0
100
AcDbSpline
 62
7
  6
CONTINUOUS
 70
0
 71
3
 72
13
 73
9
 74
0
 42
0.0000001
 43
0.0000001
 44
0.0000000001
 40
0.0
 40
0.0
 40
0.0
 40
0.0
 40
0.4044183094
 40
0.724755467
 40
0.8423575955
 40
0.9281537132
 40
0.980192777
 40
1.0
 40
1.0
 40
1.0
 40
1.0
 10
31.3821865732
 20
172.9966287614
 30
0.0
 10
31.3768178621
 20
172.9680360005
 30
0.0
 10
31.3676307236
 20
172.91685111
 30
0.0
 10
31.3583770228
 20
172.8565372936
 30
0.0
 10
31.3539458052
 20
172.8197005315
 30
0.0
 10
31.3526833232
 20
172.8003544286
 30
0.0
 10
31.3524100352
 20
172.7908459591
 30
0.0
 10
31.3537060174
 20
172.7836465178
 30
0.0
 10
31.355130849
 20
172.7836372812
 30
0.0
  0
SPLINE
  5
397
100
AcDbEntity
  8
0
100
AcDbSpline
 62
7
  6
CONTINUOUS
 70
0
 71
3
 72
9
 73
5
 74
0
 42
0.0000001
 43
0.0000001
 44
0.0000000001
 40
0.0
 40
0.0
 40
0.0
 40
0.0
 40
0.2249888907
 40
1.0
 40
1.0
 40
1.0
 40
1.0
 10
31.3821865825
 20
172.0838966618
 30
0.0
 10
31.3772744367
 20
172.0619055917
 30
0.0
 10
31.3594690926
 20
171.9632969615
 30
0.0
 10
31.3524947858
 20
171.8628368351
 30
0.0
 10
31.3526385023
 20
171.7852183374
 30
0.0
  0
SPLINE
  5
398
100
AcDbEntity
  8
0
100
AcDbSpline
 62
7
  6
CONTINUOUS
 70
0
 71
3
 72
9
 73
5
 74
0
 42
0.0000001
 43
0.0000001
 44
0.0000000001
 40
0.0
 40
0.0
 40
0.0
 40
0.0
 40
0.6016957992
 40
1.0
 40
1.0
 40
1.0
 40
1.0
 10
31.3526385023
 20
171.7852183374
 30
0.0
 10
31.3527224917
 20
171.7398572782
 30
0.0
 10
31.3567339616
 20
171.665016692
 30
0.0
 10
31.3692495147
 20
171.5890020716
 30
0.0
 10
31.382186575
 20
171.5619042066
 30
0.0
  0
SPLINE
  5
399
100
AcDbEntity
  8
0
100
AcDbSpline
 62
7
  6
CONTINUOUS
 70
0
 71
3
 72
9
 73
5
 74
0
 42
0.0000001
 43
0.0000001
 44
0.0000000001
 40
0.0
 40
0.0
 40
0.0
 40
0.0
 40
0.1922815573
 40
1.0
 40
1.0
 40
1.0
 40
1.0
 10
31.382186575
 20
171.5619042066
 30
0.0
 10
31.3863063702
 20
171.553274916
 30
0.0
 10
31.4048159727
 20
171.5070270507
 30
0.0
 10
31.4160312974
 20
171.4582708337
 30
0.0
 10
31.423912124
 20
171.418883137
 30
0.0
  0
SPLINE
  5
39A
100
AcDbEntity
  8
0
100
AcDbSpline
 62
7
  6
CONTINUOUS
 70
0
 71
3
 72
9
 73
5
 74
0
 42
0.0000001
 43
0.0000001
 44
0.0000000001
 40
0.0
 40
0.0
 40
0.0
 40
0.0
 40
0.2295099529
 40
1.0
 40
1.0
 40
1.0
 40
1.0
 10
31.3821865825
 20
172.0838966618
 30
0.0
 10
31.3855717409
 20
172.099051602
 30
0.0
 10
31.3996498931
 20
172.1652327529
 30
0.0
 10
31.4114659114
 20
172.2318839877
 30
0.0
 10
31.4196225308
 20
172.2833724924
 30
0.0
  0
SPLINE
  5
39B
100
AcDbEntity
  8
0
100
AcDbSpline
 62
7
  6
CONTINUOUS
 70
0
 71
3
 72
11
 73
7
 74
0
 42
0.0000001
 43
0.0000001
 44
0.0000000001
 40
0.0
 40
0.0
 40
0.0
 40
0.0
 40
0.4279119795
 40
0.7371750289
 40
0.9257549609
 40
1.0
 40
1.0
 40
1.0
 40
1.0
 10
31.4666327029
 20
149.0424934779
 30
0.0
 10
31.467262984
 20
149.0344025024
 30
0.0
 10
31.4682672957
 20
149.0207413092
 30
0.0
 10
31.4684847682
 20
149.0022874361
 30
0.0
 10
31.4682882487
 20
148.9930231336
 30
0.0
 10
31.4665390377
 20
148.9863323473
 30
0.0
 10
31.465131091
 20
148.9863517906
 30
0.0
  0
SPLINE
  5
39C
100
AcDbEntity
  8
0
100
AcDbSpline
 62
7
  6
CONTINUOUS
 70
0
 71
3
 72
9
 73
5
 74
0
 42
0.0000001
 43
0.0000001
 44
0.0000000001
 40
0.0
 40
0.0
 40
0.0
 40
0.0
 40
0.6352784711
 40
1.0
 40
1.0
 40
1.0
 40
1.0
 10
31.3821865732
 20
149.335041669
 30
0.0
 10
31.3741966701
 20
149.3775944131
 30
0.0
 10
31.3632494208
 20
149.4446737559
 30
0.0
 10
31.3524621669
 20
149.512396992
 30
0.0
 10
31.3526385023
 20
149.5372533615
 30
0.0
  0
SPLINE
  5
39D
100
AcDbEntity
  8
0
100
AcDbSpline
 62
7
  6
CONTINUOUS
 70
0
 71
3
 72
9
 73
5
 74
0
 42
0.0000001
 43
0.0000001
 44
0.0000000001
 40
0.0
 40
0.0
 40
0.0
 40
0.0
 40
0.4203293315
 40
1.0
 40
1.0
 40
1.0
 40
1.0
 10
31.3526385023
 20
149.5372533615
 30
0.0
 10
31.3526496409
 20
149.5388234591
 30
0.0
 10
31.3528950821
 20
149.5419261553
 30
0.0
 10
31.352965539
 20
149.5480191124
 30
0.0
 10
31.355130849
 20
149.5480331492
 30
0.0
  0
SPLINE
  5
39E
100
AcDbEntity
  8
0
100
AcDbSpline
 62
7
  6
CONTINUOUS
 70
0
 71
3
 72
10
 73
6
 74
0
 42
0.0000001
 43
0.0000001
 44
0.0000000001
 40
0.0
 40
0.0
 40
0.0
 40
0.0
 40
0.5658030292
 40
0.8271112034
 40
1.0
 40
1.0
 40
1.0
 40
1.0
 10
31.3821865732
 20
150.2477738103
 30
0.0
 10
31.3605476417
 20
150.3446486581
 30
0.0
 10
31.3481671387
 20
150.4912567035
 30
0.0
 10
31.3565206971
 20
150.6655674103
 30
0.0
 10
31.3691188779
 20
150.7423947368
 30
0.0
 10
31.3821865808
 20
150.7697662358
 30
0.0
  0
SPLINE
  5
39F
100
AcDbEntity
  8
0
100
AcDbSpline
 62
7
  6
CONTINUOUS
 70
0
 71
3
 72
9
 73
5
 74
0
 42
0.0000001
 43
0.0000001
 44
0.0000000001
 40
0.0
 40
0.0
 40
0.0
 40
0.0
 40
0.1922815639
 40
1.0
 40
1.0
 40
1.0
 40
1.0
 10
31.3821865808
 20
150.7697662358
 30
0.0
 10
31.3863063752
 20
150.7783955262
 30
0.0
 10
31.4048159855
 20
150.8246433871
 30
0.0
 10
31.4160311463
 20
150.8733996309
 30
0.0
 10
31.423912124
 20
150.9127872934
 30
0.0
  0
SPLINE
  5
3A0
100
AcDbEntity
  8
0
100
AcDbSpline
 62
7
  6
CONTINUOUS
 70
0
 71
3
 72
10
 73
6
 74
0
 42
0.0000001
 43
0.0000001
 44
0.0000000001
 40
0.0
 40
0.0
 40
0.0
 40
0.0
 40
0.5179560734
 40
0.7856309846
 40
1.0
 40
1.0
 40
1.0
 40
1.0
 10
31.423912124
 20
150.9127872934
 30
0.0
 10
31.4511278144
 20
151.0488077967
 30
0.0
 10
31.4689155117
 20
151.2597956174
 30
0.0
 10
31.4690558727
 20
151.5274754982
 30
0.0
 10
31.4587654155
 20
151.6565935555
 30
0.0
 10
31.4491088469
 20
151.7131868946
 30
0.0
  0
SPLINE
  5
3A1
100
AcDbEntity
  8
0
100
AcDbSpline
 62
7
  6
CONTINUOUS
 70
0
 71
3
 72
9
 73
5
 74
0
 42
0.0000001
 43
0.0000001
 44
0.0000000001
 40
0.0
 40
0.0
 40
0.0
 40
0.0
 40
0.6638200655
 40
1.0
 40
1.0
 40
1.0
 40
1.0
 10
31.4491088469
 20
151.7131868946
 30
0.0
 10
31.4442944076
 20
151.741402424
 30
0.0
 10
31.4361609834
 20
151.7805589465
 30
0.0
 10
31.415011992
 20
151.826461512
 30
0.0
 10
31.40117228
 20
151.8307731204
 30
0.0
  0
SPLINE
  5
3A2
100
AcDbEntity
  8
0
100
AcDbSpline
 62
7
  6
CONTINUOUS
 70
0
 71
3
 72
9
 73
5
 74
0
 42
0.0000001
 43
0.0000001
 44
0.0000000001
 40
0.0
 40
0.0
 40
0.0
 40
0.0
 40
0.5042384359
 40
1.0
 40
1.0
 40
1.0
 40
1.0
 10
31.40117228
 20
151.8307731204
 30
0.0
 10
31.4003842888
 20
151.8310186103
 30
0.0
 10
31.3987849342
 20
151.8313964789
 30
0.0
 10
31.3971463548
 20
151.8315294635
 30
0.0
 10
31.3963348939
 20
151.8315334036
 30
0.0
  0
SPLINE
  5
3A3
100
AcDbEntity
  8
0
100
AcDbSpline
 62
7
  6
CONTINUOUS
 70
0
 71
3
 72
16
 73
12
 74
0
 42
0.0000001
 43
0.0000001
 44
0.0000000001
 40
0.0
 40
0.0
 40
0.0
 40
0.0
 40
0.3690187947
 40
0.5416741519
 40
0.6955282962
 40
0.8235052818
 40
0.9195483608
 40
0.9539338194
 40
0.9787717966
 40
0.9939275127
 40
1.0
 40
1.0
 40
1.0
 40
1.0
 10
31.382186583
 20
152.2076440498
 30
0.0
 10
31.395855516
 20
152.2850045662
 30
0.0
 10
31.4149382477
 20
152.3987462452
 30
0.0
 10
31.4373029741
 20
152.5450977161
 30
0.0
 10
31.4507896697
 20
152.6409586098
 30
0.0
 10
31.4607731873
 20
152.7206469534
 30
0.0
 10
31.4662624102
 20
152.7756970703
 30
0.0
 10
31.4684073636
 20
152.8082679237
 30
0.0
 10
31.4684316346
 20
152.8248294417
 30
0.0
 10
31.4682132949
 20
152.8333111754
 30
0.0
 10
31.4664237135
 20
152.8392398361
 30
0.0
 10
31.465131091
 20
152.8392219854
 30
0.0
  0
SPLINE
  5
3A4
100
AcDbEntity
  8
0
100
AcDbSpline
 62
7
  6
CONTINUOUS
 70
0
 71
3
 72
13
 73
9
 74
0
 42
0.0000001
 43
0.0000001
 44
0.0000000001
 40
0.0
 40
0.0
 40
0.0
 40
0.0
 40
0.4044183094
 40
0.724755467
 40
0.8423575955
 40
0.9281537132
 40
0.980192777
 40
1.0
 40
1.0
 40
1.0
 40
1.0
 10
31.3821865732
 20
152.4905321069
 30
0.0
 10
31.3768178621
 20
152.4619393461
 30
0.0
 10
31.3676307236
 20
152.4107544556
 30
0.0
 10
31.3583770228
 20
152.3504406392
 30
0.0
 10
31.3539458052
 20
152.313603877
 30
0.0
 10
31.3526833232
 20
152.2942577742
 30
0.0
 10
31.3524100352
 20
152.2847493047
 30
0.0
 10
31.3537060174
 20
152.2775498633
 30
0.0
 10
31.355130849
 20
152.2775406267
 30
0.0
  0
SPLINE
  5
3A5
100
AcDbEntity
  8
0
100
AcDbSpline
 62
7
  6
CONTINUOUS
 70
0
 71
3
 72
9
 73
5
 74
0
 42
0.0000001
 43
0.0000001
 44
0.0000000001
 40
0.0
 40
0.0
 40
0.0
 40
0.0
 40
0.2249888907
 40
1.0
 40
1.0
 40
1.0
 40
1.0
 10
31.3821865825
 20
151.5778000074
 30
0.0
 10
31.3772744367
 20
151.5558089373
 30
0.0
 10
31.3594690926
 20
151.4572003071
 30
0.0
 10
31.3524947858
 20
151.3567401807
 30
0.0
 10
31.3526385023
 20
151.2791216829
 30
0.0
  0
SPLINE
  5
3A6
100
AcDbEntity
  8
0
100
AcDbSpline
 62
7
  6
CONTINUOUS
 70
0
 71
3
 72
9
 73
5
 74
0
 42
0.0000001
 43
0.0000001
 44
0.0000000001
 40
0.0
 40
0.0
 40
0.0
 40
0.0
 40
0.6016957992
 40
1.0
 40
1.0
 40
1.0
 40
1.0
 10
31.3526385023
 20
151.2791216829
 30
0.0
 10
31.3527224917
 20
151.2337606238
 30
0.0
 10
31.3567339616
 20
151.1589200376
 30
0.0
 10
31.3692495147
 20
151.0829054172
 30
0.0
 10
31.382186575
 20
151.0558075522
 30
0.0
  0
SPLINE
  5
3A7
100
AcDbEntity
  8
0
100
AcDbSpline
 62
7
  6
CONTINUOUS
 70
0
 71
3
 72
9
 73
5
 74
0
 42
0.0000001
 43
0.0000001
 44
0.0000000001
 40
0.0
 40
0.0
 40
0.0
 40
0.0
 40
0.1922815573
 40
1.0
 40
1.0
 40
1.0
 40
1.0
 10
31.382186575
 20
151.0558075522
 30
0.0
 10
31.3863063702
 20
151.0471782616
 30
0.0
 10
31.4048159727
 20
151.0009303963
 30
0.0
 10
31.4160312974
 20
150.9521741793
 30
0.0
 10
31.423912124
 20
150.9127864826
 30
0.0
  0
SPLINE
  5
3A8
100
AcDbEntity
  8
0
100
AcDbSpline
 62
7
  6
CONTINUOUS
 70
0
 71
3
 72
9
 73
5
 74
0
 42
0.0000001
 43
0.0000001
 44
0.0000000001
 40
0.0
 40
0.0
 40
0.0
 40
0.0
 40
0.2295099529
 40
1.0
 40
1.0
 40
1.0
 40
1.0
 10
31.3821865825
 20
151.5778000074
 30
0.0
 10
31.3855717409
 20
151.5929549476
 30
0.0
 10
31.3996498931
 20
151.6591360985
 30
0.0
 10
31.4114659114
 20
151.7257873333
 30
0.0
 10
31.4196225308
 20
151.777275838
 30
0.0
  0
SPLINE
  5
3A9
100
AcDbEntity
  8
0
100
AcDbSpline
 62
7
  6
CONTINUOUS
 70
0
 71
3
 72
14
 73
10
 74
0
 42
0.0000001
 43
0.0000001
 44
0.0000000001
 40
0.0
 40
0.0
 40
0.0
 40
0.0
 40
0.3438576737
 40
0.5157367765
 40
0.6737717289
 40
0.8083193201
 40
0.9106362466
 40
0.9748098758
 40
1.0
 40
1.0
 40
1.0
 40
1.0
 10
142.4002696882
 20
200.3513317465
 30
0.0
 10
142.3826226019
 20
200.2637916479
 30
0.0
 10
142.3594430046
 20
200.1317333016
 30
0.0
 10
142.3345235006
 20
199.9587351159
 30
0.0
 10
142.3204095108
 20
199.8383792164
 30
0.0
 10
142.3111484266
 20
199.7378232101
 30
0.0
 10
142.3085551191
 20
199.6556518504
 30
0.0
 10
142.3092381653
 20
199.6133888772
 30
0.0
 10
142.3162778997
 20
199.5818495093
 30
0.0
 10
142.3228195862
 20
199.5817887584
 30
0.0
  0
SPLINE
  5
3AA
100
AcDbEntity
  8
0
100
AcDbSpline
 62
7
  6
CONTINUOUS
 70
0
 71
3
 72
12
 73
8
 74
0
 42
0.0000001
 43
0.0000001
 44
0.0000000001
 40
0.0
 40
0.0
 40
0.0
 40
0.0
 40
0.0460031647
 40
0.1219902828
 40
0.3609451657
 40
0.6761349488
 40
1.0
 40
1.0
 40
1.0
 40
1.0
 10
142.4002696872
 20
200.819337349
 30
0.0
 10
142.4065009774
 20
200.8155387527
 30
0.0
 10
142.4164786295
 20
200.7972495609
 30
0.0
 10
142.4297340531
 20
200.7422580958
 30
0.0
 10
142.4335903575
 20
200.6409797211
 30
0.0
 10
142.4252931873
 20
200.5022871816
 30
0.0
 10
142.4104224972
 20
200.4016957493
 30
0.0
 10
142.4002696882
 20
200.3513317465
 30
0.0
  0
SPLINE
  5
3AB
100
AcDbEntity
  8
0
100
AcDbSpline
 62
7
  6
CONTINUOUS
 70
0
 71
3
 72
12
 73
8
 74
0
 42
0.0000001
 43
0.0000001
 44
0.0000000001
 40
0.0
 40
0.0
 40
0.0
 40
0.0
 40
0.3515097027
 40
0.6568221858
 40
0.8789529477
 40
0.951992251
 40
1.0
 40
1.0
 40
1.0
 40
1.0
 10
142.3089663554
 20
201.3658354221
 30
0.0
 10
142.308966349
 20
201.299984264
 30
0.0
 10
142.3128756976
 20
201.1767669277
 30
0.0
 10
142.3306094698
 20
201.0132831687
 30
0.0
 10
142.3535391203
 20
200.9020285672
 30
0.0
 10
142.3784280565
 20
200.8430222136
 30
0.0
 10
142.3925903861
 20
200.8240186542
 30
0.0
 10
142.4002696872
 20
200.819337349
 30
0.0
  0
SPLINE
  5
3AC
100
AcDbEntity
  8
0
100
AcDbSpline
 62
7
  6
CONTINUOUS
 70
0
 71
3
 72
12
 73
8
 74
0
 42
0.0000001
 43
0.0000001
 44
0.0000000001
 40
0.0
 40
0.0
 40
0.0
 40
0.0
 40
0.0480140908
 40
0.1210503874
 40
0.3431419226
 40
0.6485058108
 40
1.0
 40
1.0
 40
1.0
 40
1.0
 10
142.4002696882
 20
201.912333082
 30
0.0
 10
142.3925893537
 20
201.9076511472
 30
0.0
 10
142.3784201731
 20
201.888653812
 30
0.0
 10
142.3535130777
 20
201.829659801
 30
0.0
 10
142.3306105651
 20
201.7183931351
 30
0.0
 10
142.3129661402
 20
201.5549044862
 30
0.0
 10
142.3089663619
 20
201.4316838343
 30
0.0
 10
142.3089663554
 20
201.3658354221
 30
0.0
  0
SPLINE
  5
3AD
100
AcDbEntity
  8
0
100
AcDbSpline
 62
7
  6
CONTINUOUS
 70
0
 71
3
 72
12
 73
8
 74
0
 42
0.0000001
 43
0.0000001
 44
0.0000000001
 40
0.0
 40
0.0
 40
0.0
 40
0.0
 40
0.3237133916
 40
0.6388712049
 40
0.8779059427
 40
0.9539468378
 40
1.0
 40
1.0
 40
1.0
 40
1.0
 10
142.4002696882
 20
202.3803386839
 30
0.0
 10
142.4104178573
 20
202.329997698
 30
0.0
 10
142.4252374254
 20
202.2294254902
 30
0.0
 10
142.4335709653
 20
202.0907595789
 30
0.0
 10
142.4297985324
 20
201.9894494833
 30
0.0
 10
142.4164929346
 20
201.9344401935
 30
0.0
 10
142.4065078208
 20
201.91613585
 30
0.0
 10
142.4002696882
 20
201.912333082
 30
0.0
  0
SPLINE
  5
3AE
100
AcDbEntity
  8
0
100
AcDbSpline
 62
7
  6
CONTINUOUS
 70
0
 71
3
 72
12
 73
8
 74
0
 42
0.0000001
 43
0.0000001
 44
0.0000000001
 40
0.0
 40
0.0
 40
0.0
 40
0.0
 40
0.3237134074
 40
0.6388712341
 40
0.8779059669
 40
0.9539468508
 40
1.0
 40
1.0
 40
1.0
 40
1.0
 10
142.4002696857
 20
147.7803386962
 30
0.0
 10
142.4104178562
 20
147.7299977055
 30
0.0
 10
142.4252374259
 20
147.6294254882
 30
0.0
 10
142.433570966
 20
147.490759567
 30
0.0
 10
142.4297985307
 20
147.3894494659
 30
0.0
 10
142.4164929304
 20
147.3344401797
 30
0.0
 10
142.4065078126
 20
147.3161358396
 30
0.0
 10
142.4002696791
 20
147.3123330764
 30
0.0
  0
SPLINE
  5
3AF
100
AcDbEntity
  8
0
100
AcDbSpline
 62
7
  6
CONTINUOUS
 70
0
 71
3
 72
12
 73
8
 74
0
 42
0.0000001
 43
0.0000001
 44
0.0000000001
 40
0.0
 40
0.0
 40
0.0
 40
0.0
 40
0.0480140992
 40
0.1210504032
 40
0.3431419439
 40
0.6485058252
 40
1.0
 40
1.0
 40
1.0
 40
1.0
 10
142.4002696791
 20
147.3123330764
 30
0.0
 10
142.3925893451
 20
147.3076511382
 30
0.0
 10
142.3784201666
 20
147.2886537993
 30
0.0
 10
142.3535130733
 20
147.229659784
 30
0.0
 10
142.3306105629
 20
147.1183931193
 30
0.0
 10
142.3129661397
 20
146.9549044759
 30
0.0
 10
142.3089663619
 20
146.8316838304
 30
0.0
 10
142.3089663554
 20
146.7658354221
 30
0.0
  0
SPLINE
  5
3B0
100
AcDbEntity
  8
0
100
AcDbSpline
 62
7
  6
CONTINUOUS
 70
0
 71
3
 72
12
 73
8
 74
0
 42
0.0000001
 43
0.0000001
 44
0.0000000001
 40
0.0
 40
0.0
 40
0.0
 40
0.0
 40
0.3515096952
 40
0.6568221747
 40
0.8789529394
 40
0.9519922466
 40
1.0
 40
1.0
 40
1.0
 40
1.0
 10
142.3089663554
 20
146.7658354221
 30
0.0
 10
142.308966349
 20
146.6999842661
 30
0.0
 10
142.3128756973
 20
146.5767669331
 30
0.0
 10
142.3306094687
 20
146.413283177
 30
0.0
 10
142.353539118
 20
146.3020285762
 30
0.0
 10
142.378428053
 20
146.2430222202
 30
0.0
 10
142.3925903816
 20
146.224018659
 30
0.0
 10
142.4002696824
 20
146.2193373519
 30
0.0
  0
SPLINE
  5
3B1
100
AcDbEntity
  8
0
100
AcDbSpline
 62
7
  6
CONTINUOUS
 70
0
 71
3
 72
12
 73
8
 74
0
 42
0.0000001
 43
0.0000001
 44
0.0000000001
 40
0.0
 40
0.0
 40
0.0
 40
0.0
 40
0.0460031576
 40
0.1219902672
 40
0.3609451385
 40
0.6761349256
 40
1.0
 40
1.0
 40
1.0
 40
1.0
 10
142.4002696824
 20
146.2193373519
 30
0.0
 10
142.4065009724
 20
146.2155387586
 30
0.0
 10
142.4164786259
 20
146.1972495715
 30
0.0
 10
142.4297340505
 20
146.1422581163
 30
0.0
 10
142.4335903579
 20
146.0409797522
 30
0.0
 10
142.4252931914
 20
145.9022872218
 30
0.0
 10
142.4104225044
 20
145.8016957933
 30
0.0
 10
142.4002696971
 20
145.7513317907
 30
0.0
  0
SPLINE
  5
3B2
100
AcDbEntity
  8
0
100
AcDbSpline
 62
7
  6
CONTINUOUS
 70
0
 71
3
 72
14
 73
10
 74
0
 42
0.0000001
 43
0.0000001
 44
0.0000000001
 40
0.0
 40
0.0
 40
0.0
 40
0.0
 40
0.3438576646
 40
0.5157367672
 40
0.6737717214
 40
0.8083193152
 40
0.9106362443
 40
0.9748098752
 40
1.0
 40
1.0
 40
1.0
 40
1.0
 10
142.4002696971
 20
145.7513317907
 30
0.0
 10
142.3826226095
 20
145.6637916896
 30
0.0
 10
142.3594430105
 20
145.5317333381
 30
0.0
 10
142.3345235043
 20
145.3587351445
 30
0.0
 10
142.3204095128
 20
145.238379237
 30
0.0
 10
142.3111484275
 20
145.1378232233
 30
0.0
 10
142.3085551189
 20
145.0556518567
 30
0.0
 10
142.3092381652
 20
145.0133888804
 30
0.0
 10
142.3162778992
 20
144.9818495092
 30
0.0
 10
142.3228195862
 20
144.9817887583
 30
0.0
  0
SPLINE
  5
3B3
100
AcDbEntity
  8
0
100
AcDbSpline
 62
7
  6
CONTINUOUS
 70
0
 71
3
 72
11
 73
7
 74
0
 42
0.0000001
 43
0.0000001
 44
0.0000000001
 40
0.0
 40
0.0
 40
0.0
 40
0.0
 40
0.0759585693
 40
0.2714114386
 40
0.5830319185
 40
1.0
 40
1.0
 40
1.0
 40
1.0
 10
31.465131091
 20
173.3453186398
 30
0.0
 10
31.4613717038
 20
173.3452667238
 30
0.0
 10
31.4569110654
 20
173.3276065559
 30
0.0
 10
31.4474928049
 20
173.3046903898
 30
0.0
 10
31.4365931631
 20
173.2578353906
 30
0.0
 10
31.4283791335
 20
173.2234871754
 30
0.0
 10
31.4239198562
 20
173.2033358721
 30
0.0
  0
SPLINE
  5
3B4
100
AcDbEntity
  8
0
100
AcDbSpline
 62
7
  6
CONTINUOUS
 70
0
 71
3
 72
11
 73
7
 74
0
 42
0.0000001
 43
0.0000001
 44
0.0000000001
 40
0.0
 40
0.0
 40
0.0
 40
0.0
 40
0.0759585693
 40
0.2714114386
 40
0.5830319185
 40
1.0
 40
1.0
 40
1.0
 40
1.0
 10
31.465131091
 20
152.8392219854
 30
0.0
 10
31.4613717038
 20
152.8391700694
 30
0.0
 10
31.4569110654
 20
152.8215099015
 30
0.0
 10
31.4474928049
 20
152.7985937354
 30
0.0
 10
31.4365931631
 20
152.7517387362
 30
0.0
 10
31.4283791335
 20
152.717390521
 30
0.0
 10
31.4239198562
 20
152.6972392177
 30
0.0
  0
SPLINE
  5
3B5
100
AcDbEntity
  8
0
100
AcDbSpline
 62
7
  6
CONTINUOUS
 70
0
 71
3
 72
9
 73
5
 74
0
 42
0.0000001
 43
0.0000001
 44
0.0000000001
 40
0.0
 40
0.0
 40
0.0
 40
0.0
 40
0.3195881245
 40
1.0
 40
1.0
 40
1.0
 40
1.0
 10
31.382186575
 20
169.9810057615
 30
0.0
 10
31.385363909
 20
169.9696785823
 30
0.0
 10
31.3960413247
 20
169.9345645759
 30
0.0
 10
31.4078627129
 20
169.8990570789
 30
0.0
 10
31.4210820311
 20
169.8777830269
 30
0.0
  0
SPLINE
  5
3B6
100
AcDbEntity
  8
0
100
AcDbSpline
 62
7
  6
CONTINUOUS
 70
0
 71
3
 72
9
 73
5
 74
0
 42
0.0000001
 43
0.0000001
 44
0.0000000001
 40
0.0
 40
0.0
 40
0.0
 40
0.0
 40
0.3459692002
 40
1.0
 40
1.0
 40
1.0
 40
1.0
 10
31.4210820311
 20
169.8777830269
 30
0.0
 10
31.4226292227
 20
169.8752931076
 30
0.0
 10
31.4272152093
 20
169.8685572705
 30
0.0
 10
31.4343406942
 20
169.8612605768
 30
0.0
 10
31.4398824295
 20
169.8612582733
 30
0.0
  0
SPLINE
  5
3B7
100
AcDbEntity
  8
0
100
AcDbSpline
 62
7
  6
CONTINUOUS
 70
0
 71
3
 72
9
 73
5
 74
0
 42
0.0000001
 43
0.0000001
 44
0.0000000001
 40
0.0
 40
0.0
 40
0.0
 40
0.0
 40
0.3195881245
 40
1.0
 40
1.0
 40
1.0
 40
1.0
 10
31.382186575
 20
149.4749091071
 30
0.0
 10
31.385363909
 20
149.4635819278
 30
0.0
 10
31.3960413247
 20
149.4284679215
 30
0.0
 10
31.4078627129
 20
149.3929604245
 30
0.0
 10
31.4210820311
 20
149.3716863725
 30
0.0
  0
SPLINE
  5
3B8
100
AcDbEntity
  8
0
100
AcDbSpline
 62
7
  6
CONTINUOUS
 70
0
 71
3
 72
9
 73
5
 74
0
 42
0.0000001
 43
0.0000001
 44
0.0000000001
 40
0.0
 40
0.0
 40
0.0
 40
0.0
 40
0.3459692002
 40
1.0
 40
1.0
 40
1.0
 40
1.0
 10
31.4210820311
 20
149.3716863725
 30
0.0
 10
31.4226292227
 20
149.3691964531
 30
0.0
 10
31.4272152093
 20
149.3624606161
 30
0.0
 10
31.4343406942
 20
149.3551639224
 30
0.0
 10
31.4398824295
 20
149.3551616189
 30
0.0
  0
SPLINE
  5
3B9
100
AcDbEntity
  8
0
100
AcDbSpline
 62
7
  6
CONTINUOUS
 70
0
 71
3
 72
11
 73
7
 74
0
 42
0.0000001
 43
0.0000001
 44
0.0000000001
 40
0.0
 40
0.0
 40
0.0
 40
0.0
 40
0.0874196507
 40
0.288233939
 40
0.5987370193
 40
1.0
 40
1.0
 40
1.0
 40
1.0
 10
142.3228195862
 20
144.9817887583
 30
0.0
 10
142.329770883
 20
144.9817242034
 30
0.0
 10
142.3429622764
 20
145.007667891
 30
0.0
 10
142.3589581801
 20
145.0472578841
 30
0.0
 10
142.3797935714
 20
145.1195443834
 30
0.0
 10
142.3931224445
 20
145.1737362419
 30
0.0
 10
142.4002696804
 20
145.2048338457
 30
0.0
  0
SPLINE
  5
3BA
100
AcDbEntity
  8
0
100
AcDbSpline
 62
7
  6
CONTINUOUS
 70
0
 71
3
 72
9
 73
5
 74
0
 42
0.0000001
 43
0.0000001
 44
0.0000000001
 40
0.0
 40
0.0
 40
0.0
 40
0.0
 40
0.2844071174
 40
1.0
 40
1.0
 40
1.0
 40
1.0
 10
142.3919151083
 20
202.9622021407
 30
0.0
 10
142.3892290261
 20
202.9732549777
 30
0.0
 10
142.3795197159
 20
203.012048622
 30
0.0
 10
142.3688753283
 20
203.0506381608
 30
0.0
 10
142.360009674
 20
203.0778496747
 30
0.0
  0
SPLINE
  5
3BB
100
AcDbEntity
  8
0
100
AcDbSpline
 62
7
  6
CONTINUOUS
 70
0
 71
3
 72
10
 73
6
 74
0
 42
0.0000001
 43
0.0000001
 44
0.0000000001
 40
0.0
 40
0.0
 40
0.0
 40
0.0
 40
0.6970238797
 40
0.8944691285
 40
1.0
 40
1.0
 40
1.0
 40
1.0
 10
142.360009674
 20
203.0778496747
 30
0.0
 10
142.3540581511
 20
203.0961167922
 30
0.0
 10
142.3455740591
 20
203.1199722179
 30
0.0
 10
142.3327697511
 20
203.1433971
 30
0.0
 10
142.3257302041
 20
203.1498981476
 30
0.0
 10
142.3228215333
 20
203.1498746652
 30
0.0
  0
SPLINE
  5
3BC
100
AcDbEntity
  8
0
100
AcDbSpline
 62
7
  6
CONTINUOUS
 70
0
 71
3
 72
9
 73
5
 74
0
 42
0.0000001
 43
0.0000001
 44
0.0000000001
 40
0.0
 40
0.0
 40
0.0
 40
0.0
 40
0.2844071242
 40
1.0
 40
1.0
 40
1.0
 40
1.0
 10
142.3919150984
 20
148.3622021814
 30
0.0
 10
142.3892290163
 20
148.3732550173
 30
0.0
 10
142.3795197066
 20
148.4120486568
 30
0.0
 10
142.3688753195
 20
148.4506381908
 30
0.0
 10
142.3600096655
 20
148.477849701
 30
0.0
  0
SPLINE
  5
3BD
100
AcDbEntity
  8
0
100
AcDbSpline
 62
7
  6
CONTINUOUS
 70
0
 71
3
 72
10
 73
6
 74
0
 42
0.0000001
 43
0.0000001
 44
0.0000000001
 40
0.0
 40
0.0
 40
0.0
 40
0.0
 40
0.6970238703
 40
0.8944691198
 40
1.0
 40
1.0
 40
1.0
 40
1.0
 10
142.3600096655
 20
148.477849701
 30
0.0
 10
142.354058144
 20
148.496116812
 30
0.0
 10
142.3455740541
 20
148.519972229
 30
0.0
 10
142.3327697487
 20
148.543397103
 30
0.0
 10
142.3257302033
 20
148.5498981476
 30
0.0
 10
142.3228215333
 20
148.5498746653
 30
0.0
  0
SPLINE
  5
3BE
100
AcDbEntity
  8
0
100
AcDbSpline
 62
7
  6
CONTINUOUS
 70
0
 71
3
 72
13
 73
9
 74
0
 42
0.0000001
 43
0.0000001
 44
0.0000000001
 40
0.0
 40
0.0
 40
0.0
 40
0.0
 40
0.1310804623
 40
0.2610147956
 40
0.3890827573
 40
0.5153263798
 40
0.761878957
 40
1.0
 40
1.0
 40
1.0
 40
1.0
 10
108.0623954507
 20
145.6683367797
 30
0.0
 10
107.9930682073
 20
145.6683367797
 30
0.0
 10
107.8632205077
 20
145.5831240774
 30
0.0
 10
107.7500143069
 20
145.413705701
 30
0.0
 10
107.6607997101
 20
145.229825428
 30
0.0
 10
107.5669343946
 20
144.9820733931
 30
0.0
 10
107.4887325069
 20
144.6673142182
 30
0.0
 10
107.4623954507
 20
144.4109469302
 30
0.0
 10
107.4623954507
 20
144.2850069143
 30
0.0
  0
SPLINE
  5
3BF
100
AcDbEntity
  8
0
100
AcDbSpline
 62
7
  6
CONTINUOUS
 70
0
 71
3
 72
11
 73
7
 74
0
 42
0.0000001
 43
0.0000001
 44
0.0000000001
 40
0.0
 40
0.0
 40
0.0
 40
0.0
 40
0.0874196477
 40
0.2882339389
 40
0.5987370221
 40
1.0
 40
1.0
 40
1.0
 40
1.0
 10
142.3228195862
 20
199.5817887584
 30
0.0
 10
142.329770885
 20
199.5817242035
 30
0.0
 10
142.3429622805
 20
199.6076679013
 30
0.0
 10
142.3589581881
 20
199.6472579066
 30
0.0
 10
142.3797935839
 20
199.7195444302
 30
0.0
 10
142.39312246
 20
199.7737363059
 30
0.0
 10
142.4002696974
 20
199.8048339195
 30
0.0
  0
ELLIPSE
  5
3C0
100
AcDbEntity
  8
0
100
AcDbEllipse
 62
7
  6
CONTINUOUS
 10
-250.1093436385
 20
147.6658352152
 30
0.0
 11
389.5717390892
 21
-0.0
 31
0.0
 40
0.0174550649
 41
-0.2911914751
 42
-0.0
  0
ELLIPSE
  5
3C1
100
AcDbEntity
  8
0
100
AcDbEllipse
 62
7
  6
CONTINUOUS
 10
265.4331059671
 20
189.6658352152
 30
0.0
 11
125.9707105164
 21
-0.0
 31
0.0
 40
0.0436609429
 41
2.6452597645
 42
3.1415926536
  0
ELLIPSE
  5
3C2
100
AcDbEntity
  8
0
100
AcDbEllipse
 62
7
  6
CONTINUOUS
 10
159.2924704788
 20
189.6658352152
 30
0.0
 11
-0.0
 21
5.5
 31
0.0
 40
0.9572917423
 41
0.9656345423
 42
1.0744634377
  0
ELLIPSE
  5
3C3
100
AcDbEntity
  8
0
100
AcDbEllipse
 62
7
  6
CONTINUOUS
 10
-250.1093436385
 20
200.4658352152
 30
0.0
 11
389.5717390892
 21
0.0
 31
0.0
 40
0.0174550649
 41
-0.0
 42
0.2911914751
  0
ELLIPSE
  5
3C4
100
AcDbEntity
  8
0
100
AcDbEllipse
 62
7
  6
CONTINUOUS
 10
159.2924704788
 20
158.4658352152
 30
0.0
 11
0.0
 21
5.5
 31
0.0
 40
0.9572917423
 41
-4.2160560913
 42
-4.1072271959
  0
ELLIPSE
  5
3C5
100
AcDbEntity
  8
0
100
AcDbEllipse
 62
7
  6
CONTINUOUS
 10
265.4331059671
 20
158.4658352152
 30
0.0
 11
125.9707105164
 21
0.0
 31
0.0
 40
0.0436609429
 41
-3.1415926536
 42
-2.6452597645
  0
ELLIPSE
  5
3C6
100
AcDbEntity
  8
0
100
AcDbEllipse
 62
7
  6
CONTINUOUS
 10
34.5623954507
 20
172.1658352152
 30
0.0
 11
0.0
 21
4.0
 31
0.0
 40
1.0
 41
-1.5707963268
 42
-1.181035594
  0
ELLIPSE
  5
3C7
100
AcDbEntity
  8
0
100
AcDbEllipse
 62
7
  6
CONTINUOUS
 10
34.5623954507
 20
150.1658352152
 30
0.0
 11
0.0
 21
4.0
 31
0.0
 40
1.0
 41
-1.9605570596
 42
-1.5707963268
  0
ENDSEC
  0
SECTION
  2
OBJECTS
  0
DICTIONARY
  5
C
100
AcDbDictionary
280
0
281
1
  3
ACAD_GROUP
350
D
  3
ACAD_MLINESTYLE
350
17
  3
ACAD_LAYOUT
350
1A
  3
ACAD_PLOTSETTINGS
350
19
  3
ACAD_PLOTSTYLENAME
350
E
  0
DICTIONARY
  5
D
102
{ACAD_REACTORS
330
C
102
}
100
AcDbDictionary
280
0
281
1
  0
ACDBDICTIONARYWDFLT
  5
E
102
{ACAD_REACTORS
330
C
102
}
100
AcDbDictionary
281
1
  3
Normal
350
F
100
AcDbDictionaryWithDefault
340
F
  0
DICTIONARY
  5
17
102
{ACAD_REACTORS
330
C
102
}
100
AcDbDictionary
280
0
281
1
  3
Standard
350
18
  0
DICTIONARY
  5
19
102
{ACAD_REACTORS
330
C
102
}
100
AcDbDictionary
281
1
  0
DICTIONARY
  5
1A
102
{ACAD_REACTORS
330
C
102
}
100
AcDbDictionary
281
1
  3
Model
350
3C8
  3
Layout1
350
3C9
  0
ACDBPLACEHOLDER
  5
F
102
{ACAD_REACTORS
330
E
102
}
  0
MLINESTYLE
  5
18
102
{ACAD_REACTORS
330
17
102
}
100
AcDbMlineStyle
  2
STANDARD
 70
0
  3

 62
256
 51
90.0
 52
90.0
 71
2
 49
0.5
 62
256
  6
BYLAYER
 49
-0.5
 62
256
  6
BYLAYER
  0
LAYOUT
  5
3C8
102
{ACAD_REACTORS
330
1A
102
}
100
AcDbPlotSettings
  1

  2
none_device
  4

  6

 40
0.0
 41
0.0
 42
0.0
 43
0.0
 44
210.0
 45
297.0
 46
0.0
 47
0.0
 48
0.0
 49
0.0
140
0.0
141
0.0
142
1.0
143
1.0
 70
1024
 72
1
 73
0
 74
0
  7

 75
0
147
1.0
148
0.0
149
0.0
100
AcDbLayout
  1
Model
 70
0
 71
0
 10
0.0
 20
0.0
 11
210.0
 21
297.0
 12
0.0
 22
0.0
 32
0.0
 14
0.0
 24
0.0
 34
0.0
 15
0.0
 25
0.0
 35
0.0
146
0.0
 13
0.0
 23
0.0
 33
0.0
 16
1.0
 26
0.0
 36
0.0
 17
0.0
 27
1.0
 37
0.0
 76
0
330
210
345
0
346
0
  0
LAYOUT
  5
3C9
102
{ACAD_REACTORS
330
1A
102
}
100
AcDbPlotSettings
  1

  2
none_device
  4

  6

 40
0.0
 41
0.0
 42
0.0
 43
0.0
 44
210.0
 45
297.0
 46
0.0
 47
0.0
 48
0.0
 49
0.0
140
0.0
141
0.0
142
1.0
143
1.0
 70
0
 72
1
 73
0
 74
0
  7

 75
0
147
1.0
148
0.0
149
0.0
100
AcDbLayout
  1
Layout1
 70
0
 71
1
 10
0.0
 20
0.0
 11
210.0
 21
297.0
 12
0.0
 22
0.0
 32
0.0
 14
0.0
 24
0.0
 34
0.0
 15
0.0
 25
0.0
 35
0.0
146
0.0
 13
0.0
 23
0.0
 33
0.0
 16
1.0
 26
0.0
 36
0.0
 17
0.0
 27
1.0
 37
0.0
 76
0
330
211
345
0
346
0
  0
ENDSEC
  0
EOF
