999
DXF file: C:\Users\sesa63760\Dev\_Creo\CAD\MCADID0003941_3D-CAD\drw0001_1.dxf
999
Pro/ENGINEER 2019471 by Parametric Technology Corporation
  0
SECTION
  2
HEADER
  9
$ACADVER
  1
AC1024
  9
$DWGCODEPAGE
  3
ANSI_1252
  9
$EXTMAX
 10
52.7216911402
 20
74.5635346126
 30
0.0
  9
$EXTMIN
 10
0.0
 20
0.0
 30
0.0
  9
$LIMMIN
 10
0.0
 20
0.0
  9
$LIMMAX
 10
52.7216911402
 20
74.5635346126
  9
$VIEWCTR
 10
26.3608455701
 20
37.2817673063
  9
$VIEWSIZE
 40
74.5635346126
  9
$CLAYER
  8
0
  9
$LTSCALE
 40
4.8604378118
  9
$CELTYPE
  6
BYLAYER
  9
$DIMSCALE
 40
1.0
  9
$DIMASZ
 40
0.6276391802
  9
$DIMEXO
 40
1.0
  9
$DIMDLI
 40
3.35812067
  9
$DIMEXE
 40
1.0
  9
$DIMCEN
 40
0.7953443692
  9
$DIMLFAC
 40
1.0
  9
$DIMBLK
  1
_FILLED
  9
$DIMALT
 70
0
  9
$DIMALTF
 40
0.0393700787
  9
$DIMTXT
 40
0.8786948523
  9
$DIMTOL
 70
1
  9
$DIMLIM
 70
0
  9
$DIMTFAC
 40
1.0
  9
$DIMTP
 40
0.01
  9
$DIMTM
 40
0.01
  9
$DIMGAP
 40
0.625
  9
$DIMDSEP
 70
46
  9
$AUNITS
 70
0
  9
$PDMODE
 70
3
  9
$PDSIZE
 40
0.3125
  9
$HANDSEED
  5
2DF
  9
$TILEMODE
 70
1
  9
$MEASUREMENT
 70
1
  9
$INSUNITS
 70
4
  0
ENDSEC
  0
SECTION
  2
CLASSES
  0
CLASS
  1
ACDBDICTIONARYWDFLT
  2
AcDbDictionaryWithDefault
  3
AutoCAD 2000
 90
0
 91
1
280
0
281
0
  0
CLASS
  1
ACDBPLACEHOLDER
  2
AcDbPlaceHolder
  3
AutoCAD 2000
 90
0
 91
1
280
0
281
0
  0
CLASS
  1
LAYOUT
  2
AcDbLayout
  3
AutoCAD 2000
 90
0
 91
0
280
0
281
0
  0
ENDSEC
  0
SECTION
  2
TABLES
  0
TABLE
  2
VPORT
  5
8
100
AcDbSymbolTable
 70
2
  0
VPORT
  5
1F4
100
AcDbSymbolTableRecord
100
AcDbViewportTableRecord
  2
*ACTIVE
 70
0
 10
0.0
 20
0.0
 11
1.0
 21
1.0
 12
26.3608455701
 22
37.2817673063
 13
0.0
 23
0.0
 14
1.0
 24
1.0
 15
0.0
 25
0.0
 16
0.0
 26
0.0
 36
1.0
 17
0.0
 27
0.0
 37
0.0
 40
74.5635346126
 41
0.7070707071
 42
50.0
 43
0.0
 44
0.0
 50
0.0
 51
0.0
 71
0
 72
100
 73
1
 74
1
 75
0
 76
0
 77
0
 78
0
  0
ENDTAB
  0
TABLE
  2
LTYPE
  5
5
100
AcDbSymbolTable
 70
6
  0
LTYPE
  5
14
100
AcDbSymbolTableRecord
100
AcDbLinetypeTableRecord
  2
BYBLOCK
 70
0
  3

 72
65
 73
0
 40
0.0
  0
LTYPE
  5
15
100
AcDbSymbolTableRecord
100
AcDbLinetypeTableRecord
  2
BYLAYER
 70
0
  3

 72
65
 73
0
 40
0.0
  0
LTYPE
  5
16
100
AcDbSymbolTableRecord
100
AcDbLinetypeTableRecord
  2
CONTINUOUS
 70
64
  3
Solid line
 72
65
 73
0
 40
0.0
  0
LTYPE
  5
1F5
100
AcDbSymbolTableRecord
100
AcDbLinetypeTableRecord
  2
CENTER
 70
64
  3
____ _ ____ _ ____ _ ____ _ ____ _ ____ _ ____
 72
65
 73
4
 40
0.6
 49
0.375
 74
0
 49
-0.075
 74
0
 49
0.075
 74
0
 49
-0.075
 74
0
  0
LTYPE
  5
1F6
100
AcDbSymbolTableRecord
100
AcDbLinetypeTableRecord
  2
HIDDEN
 70
64
  3
- - - - - - - - - - - - - - - - - - - -
 72
65
 73
2
 40
0.2
 49
0.1
 74
0
 49
-0.1
 74
0
  0
LTYPE
  5
1F7
100
AcDbSymbolTableRecord
100
AcDbLinetypeTableRecord
  2
PHANTOM
 70
64
  3
_____ _ _ _____ _ _ _____ _ _ _____
 72
65
 73
6
 40
0.8
 49
0.45
 74
0
 49
-0.05
 74
0
 49
0.1
 74
0
 49
-0.05
 74
0
 49
0.1
 74
0
 49
-0.05
 74
0
  0
LTYPE
  5
1F8
100
AcDbSymbolTableRecord
100
AcDbLinetypeTableRecord
  2
DOT
 70
64
  3
. . . . . . . . . . . . . . . . . . . .
 72
65
 73
2
 40
0.2
 49
0.1
 74
0
 49
-0.1
 74
0
  0
LTYPE
  5
1F9
100
AcDbSymbolTableRecord
100
AcDbLinetypeTableRecord
  2
DASHED
 70
64
  3
- - - - - - - - - - - - - - - - - - - -
 72
65
 73
2
 40
0.2
 49
0.1
 74
0
 49
-0.1
 74
0
  0
ENDTAB
  0
TABLE
  2
LAYER
  5
2
100
AcDbSymbolTable
 70
36
  0
LAYER
  5
10
100
AcDbSymbolTableRecord
100
AcDbLayerTableRecord
  2
0
 70
0
 62
7
  6
CONTINUOUS
370
-3
390
F
  0
LAYER
  5
1FA
100
AcDbSymbolTableRecord
100
AcDbLayerTableRecord
  2
DEFAULT_1
 70
0
 62
7
  6
CENTER
370
-3
390
F
  0
LAYER
  5
1FB
100
AcDbSymbolTableRecord
100
AcDbLayerTableRecord
  2
DEFAULT_2
 70
0
 62
7
  6
HIDDEN
370
-3
390
F
  0
LAYER
  5
1FC
100
AcDbSymbolTableRecord
100
AcDbLayerTableRecord
  2
DEFAULT_3
 70
0
 62
7
  6
PHANTOM
370
-3
390
F
  0
LAYER
  5
1FD
100
AcDbSymbolTableRecord
100
AcDbLayerTableRecord
  2
00_COMPONENTS
 70
0
 62
7
  6
CONTINUOUS
370
-3
390
F
  0
LAYER
  5
1FE
100
AcDbSymbolTableRecord
100
AcDbLayerTableRecord
  2
01_1_DEFAULT_DATUMS
 70
0
 62
7
  6
CONTINUOUS
370
-3
390
F
  0
LAYER
  5
1FF
100
AcDbSymbolTableRecord
100
AcDbLayerTableRecord
  2
01_PLANES
 70
0
 62
7
  6
CONTINUOUS
370
-3
390
F
  0
LAYER
  5
200
100
AcDbSymbolTableRecord
100
AcDbLayerTableRecord
  2
02_COORD_SYS
 70
0
 62
7
  6
CONTINUOUS
370
-3
390
F
  0
LAYER
  5
201
100
AcDbSymbolTableRecord
100
AcDbLayerTableRecord
  2
03_AXES
 70
0
 62
7
  6
CONTINUOUS
370
-3
390
F
  0
LAYER
  5
202
100
AcDbSymbolTableRecord
100
AcDbLayerTableRecord
  2
04_POINTS
 70
0
 62
7
  6
CONTINUOUS
370
-3
390
F
  0
LAYER
  5
203
100
AcDbSymbolTableRecord
100
AcDbLayerTableRecord
  2
05_CURVES
 70
0
 62
7
  6
CONTINUOUS
370
-3
390
F
  0
LAYER
  5
204
100
AcDbSymbolTableRecord
100
AcDbLayerTableRecord
  2
06_SURFS
 70
0
 62
7
  6
CONTINUOUS
370
-3
390
F
  0
LAYER
  5
205
100
AcDbSymbolTableRecord
100
AcDbLayerTableRecord
  2
07_COSMETICS
 70
0
 62
7
  6
CONTINUOUS
370
-3
390
F
  0
LAYER
  5
206
100
AcDbSymbolTableRecord
100
AcDbLayerTableRecord
  2
10_NOTES
 70
0
 62
7
  6
CONTINUOUS
370
-3
390
F
  0
LAYER
  5
207
100
AcDbSymbolTableRecord
100
AcDbLayerTableRecord
  2
11_NOTES_PUB
 70
0
 62
7
  6
CONTINUOUS
370
-3
390
F
  0
LAYER
  5
208
100
AcDbSymbolTableRecord
100
AcDbLayerTableRecord
  2
13_REF_GTOL
 70
0
 62
7
  6
CONTINUOUS
370
-3
390
F
  0
LAYER
  5
209
100
AcDbSymbolTableRecord
100
AcDbLayerTableRecord
  2
16_MISC
 70
0
 62
7
  6
CONTINUOUS
370
-3
390
F
  0
LAYER
  5
20A
100
AcDbSymbolTableRecord
100
AcDbLayerTableRecord
  2
17_NO_PRINT
 70
0
 62
7
  6
CONTINUOUS
370
-3
390
F
  0
LAYER
  5
20B
100
AcDbSymbolTableRecord
100
AcDbLayerTableRecord
  2
18_DATUM_CAMS_JOINTS
 70
0
 62
7
  6
CONTINUOUS
370
-3
390
F
  0
LAYER
  5
20C
100
AcDbSymbolTableRecord
100
AcDbLayerTableRecord
  2
19_DATUM_FUNCTIONAL
 70
0
 62
7
  6
CONTINUOUS
370
-3
390
F
  0
LAYER
  5
20D
100
AcDbSymbolTableRecord
100
AcDbLayerTableRecord
  2
20_DATUM_KINEMATIC_SCHEME
 70
0
 62
7
  6
CONTINUOUS
370
-3
390
F
  0
ENDTAB
  0
TABLE
  2
STYLE
  5
3
100
AcDbSymbolTable
 70
1
  0
STYLE
  5
11
100
AcDbSymbolTableRecord
100
AcDbTextStyleTableRecord
  2
STANDARD
 70
0
 40
0.0
 41
1.0
 50
0.0
 71
0
 42
0.2
  3
ARIAL.TTF
  4

  0
STYLE
  5
20E
100
AcDbSymbolTableRecord
100
AcDbTextStyleTableRecord
  2
TEXTSTYLE_1
 70
0
 40
0.0
 41
0.8
 50
0.0
 71
0
 42
0.2
  3
gdt
  4

  0
ENDTAB
  0
TABLE
  2
VIEW
  5
6
100
AcDbSymbolTable
 70
0
  0
ENDTAB
  0
TABLE
  2
UCS
  5
7
100
AcDbSymbolTable
 70
0
  0
ENDTAB
  0
TABLE
  2
APPID
  5
9
100
AcDbSymbolTable
 70
1
  0
APPID
  5
20F
100
AcDbSymbolTableRecord
100
AcDbRegAppTableRecord
  2
ACAD
 70
0
  0
ENDTAB
  0
TABLE
  2
BLOCK_RECORD
  5
1
100
AcDbSymbolTable
 70
0
  0
BLOCK_RECORD
  5
210
100
AcDbSymbolTableRecord
100
AcDbBlockTableRecord
  2
*Model_Space
  0
BLOCK_RECORD
  5
211
100
AcDbSymbolTableRecord
100
AcDbBlockTableRecord
  2
*Paper_Space
  0
BLOCK_RECORD
  5
212
100
AcDbSymbolTableRecord
100
AcDbBlockTableRecord
  2
_FILLED
  0
ENDTAB
  0
TABLE
  2
DIMSTYLE
  5
A
100
AcDbSymbolTable
 70
1
100
AcDbDimStyleTable
 71
0
  0
DIMSTYLE
105
213
100
AcDbSymbolTableRecord
100
AcDbDimStyleTableRecord
  2
STANDARD
 70
0
  3

  4

 40
1.0
 41
0.6276391802
 42
1.0
 43
0.38
 44
1.0
 45
0.0
 46
0.0
 47
0.01
 48
0.01
140
0.8786948523
141
0.09
142
0.0
143
25.4
144
1.0
145
0.0
146
1.0
147
0.625
 71
1
 72
0
 73
0
 74
0
 75
0
 76
0
 77
1
 78
8
 79
2
170
0
171
1
172
0
173
0
174
0
175
0
176
0
177
0
178
0
270
2
179
2
271
2
272
2
273
2
274
2
275
0
280
0
281
0
282
0
283
1
284
8
285
0
286
0
287
3
288
0
340
11
278
46
341
212
342
212
343
212
344
212
  0
ENDTAB
  0
ENDSEC
  0
SECTION
  2
BLOCKS
  0
BLOCK
  5
20
100
AcDbEntity
  8
0
100
AcDbBlockBegin
  2
*Model_Space
 70
0
 10
0.0
 20
0.0
 30
0.0
  3
*Model_Space
  1

  0
ENDBLK
  5
21
100
AcDbEntity
  8
0
100
AcDbBlockEnd
  0
BLOCK
  5
1C
100
AcDbEntity
  8
0
100
AcDbBlockBegin
  2
*Paper_Space
 70
0
 10
0.0
 20
0.0
 30
0.0
  3
*Paper_Space
  1

  0
ENDBLK
  5
1D
100
AcDbEntity
  8
0
100
AcDbBlockEnd
  0
BLOCK
  5
214
100
AcDbEntity
  8
0
100
AcDbBlockBegin
  2
_FILLED
 70
64
 10
0.0
 20
0.0
  3
_FILLED
  1

  0
SOLID
  5
215
100
AcDbEntity
  8
0
  6
BYBLOCK
 62
0
100
AcDbTrace
 10
0.0
 20
0.0
 11
-1.0
 21
0.25
 12
-1.0
 22
-0.25
 13
-1.0
 23
-0.25
  0
ENDBLK
  5
216
100
AcDbEntity
  8
0
  6
BYBLOCK
 62
0
100
AcDbBlockEnd
  0
ENDSEC
  0
SECTION
  2
ENTITIES
  0
LINE
  5
217
100
AcDbEntity
  8
0
100
AcDbLine
 62
7
  6
BYLAYER
 10
9.6064707137
 20
24.1119926121
 11
9.6064707137
 21
24.5662924732
  0
LINE
  5
218
100
AcDbEntity
  8
0
100
AcDbLine
 62
7
  6
BYLAYER
 10
10.4550023839
 20
24.0764035678
 11
10.4550023839
 21
23.6221037067
  0
LINE
  5
219
100
AcDbEntity
  8
0
100
AcDbLine
 62
7
  6
BYLAYER
 10
12.2830310556
 20
25.7464665312
 11
12.2708513262
 21
25.7077759801
  0
LINE
  5
21A
100
AcDbEntity
  8
0
100
AcDbLine
 62
7
  6
BYLAYER
 10
12.3683494228
 20
25.5758410406
 11
12.3811539416
 21
25.5765141965
  0
LINE
  5
21B
100
AcDbEntity
  8
0
100
AcDbLine
 62
7
  6
BYLAYER
 10
6.9181343052
 20
31.3230787378
 11
7.6087716065
 21
31.9510492195
  0
LINE
  5
21C
100
AcDbEntity
  8
0
100
AcDbLine
 62
7
  6
BYLAYER
 10
28.2828104184
 20
48.555401941
 11
26.3319217622
 21
47.4290625735
  0
LINE
  5
21D
100
AcDbEntity
  8
0
100
AcDbLine
 62
7
  6
BYLAYER
 10
31.9887522483
 20
50.6950156823
 11
33.9396413213
 21
51.8213552904
  0
LINE
  5
21E
100
AcDbEntity
  8
0
100
AcDbLine
 62
7
  6
BYLAYER
 10
12.3811826694
 20
25.5764483232
 11
12.6597032338
 21
25.6332097411
  0
LINE
  5
21F
100
AcDbEntity
  8
0
100
AcDbLine
 62
7
  6
BYLAYER
 10
19.6473802352
 20
28.4038942089
 11
19.6473840623
 21
27.8731834378
  0
LINE
  5
220
100
AcDbEntity
  8
0
100
AcDbLine
 62
7
  6
BYLAYER
 10
9.7826545066
 20
30.0772081006
 11
9.9662551487
 21
30.2845907074
  0
LINE
  5
221
100
AcDbEntity
  8
0
100
AcDbLine
 62
7
  6
BYLAYER
 10
7.9214315942
 20
32.1797697487
 11
7.6087716065
 21
31.9510492195
  0
LINE
  5
222
100
AcDbEntity
  8
0
100
AcDbLine
 62
7
  6
BYLAYER
 10
33.6808682992
 20
49.0376183678
 11
31.729979232
 21
47.9112787631
  0
LINE
  5
223
100
AcDbEntity
  8
0
100
AcDbLine
 62
7
  6
BYLAYER
 10
37.386810134
 20
51.177232112
 11
39.3376987863
 21
52.3035714772
  0
LINE
  5
224
100
AcDbEntity
  8
0
100
AcDbLine
 62
7
  6
BYLAYER
 10
24.5024495373
 20
28.9891320828
 11
25.5818162287
 21
29.2701051556
  0
LINE
  5
225
100
AcDbEntity
  8
0
100
AcDbLine
 62
7
  6
BYLAYER
 10
9.8808426813
 20
27.0199876312
 11
11.094903143
 21
27.2674084754
  0
LINE
  5
226
100
AcDbEntity
  8
0
100
AcDbLine
 62
7
  6
BYLAYER
 10
15.8644400795
 20
34.9561778721
 11
15.4048343551
 21
35.221538948
  0
LINE
  5
227
100
AcDbEntity
  8
0
100
AcDbLine
 62
7
  6
BYLAYER
 10
9.7826545066
 20
27.1900555536
 11
10.6039622696
 21
28.1177480874
  0
LINE
  5
228
100
AcDbEntity
  8
0
100
AcDbLine
 62
7
  6
BYLAYER
 10
34.1325173704
 20
48.8143470727
 11
32.2581301372
 21
47.7321755588
  0
LINE
  5
229
100
AcDbEntity
  8
0
100
AcDbLine
 62
7
  6
BYLAYER
 10
37.9149607381
 20
50.9981287338
 11
39.7893481649
 21
52.0803003596
  0
LINE
  5
22A
100
AcDbEntity
  8
0
100
AcDbLine
 62
7
  6
BYLAYER
 10
31.248979449
 20
46.3984096185
 11
19.58184309
 21
39.6624255094
  0
LINE
  5
22B
100
AcDbEntity
  8
0
100
AcDbLine
 62
7
  6
BYLAYER
 10
12.4047391423
 20
35.5187473476
 11
8.5156680376
 21
33.2734045013
  0
LINE
  5
22C
100
AcDbEntity
  8
0
100
AcDbLine
 62
7
  6
BYLAYER
 10
20.6612097814
 20
39.9433985822
 11
24.3735049268
 21
42.0866803901
  0
LINE
  5
22D
100
AcDbEntity
  8
0
100
AcDbLine
 62
7
  6
BYLAYER
 10
15.1338907338
 20
36.3438601182
 11
14.0599801556
 21
35.7238412578
  0
LINE
  5
22E
100
AcDbEntity
  8
0
100
AcDbLine
 62
7
  6
BYLAYER
 10
8.3810490884
 20
32.4451284488
 11
7.9214315942
 21
32.1797697487
  0
LINE
  5
22F
100
AcDbEntity
  8
0
100
AcDbLine
 62
7
  6
BYLAYER
 10
10.7644808358
 20
28.1749014315
 11
10.6468024084
 21
28.1529397303
  0
LINE
  5
230
100
AcDbEntity
  8
0
100
AcDbLine
 62
7
  6
BYLAYER
 10
19.4265135332
 20
38.7067223718
 11
15.5982767951
 21
36.4965020538
  0
LINE
  5
231
100
AcDbEntity
  8
0
100
AcDbLine
 62
7
  6
BYLAYER
 10
9.8808426813
 20
29.9071401782
 11
10.361448628
 21
30.0050858183
  0
LINE
  5
232
100
AcDbEntity
  8
0
100
AcDbLine
 62
7
  6
BYLAYER
 10
12.2829944947
 20
25.7465162456
 11
12.6022228797
 21
26.107094585
  0
LINE
  5
233
100
AcDbEntity
  8
0
100
AcDbLine
 62
7
  6
BYLAYER
 10
10.6468024084
 20
28.1529397303
 11
10.6039622696
 21
28.1177480874
  0
LINE
  5
234
100
AcDbEntity
  8
0
100
AcDbLine
 62
7
  6
BYLAYER
 10
25.5869709201
 20
43.1414247078
 11
25.588175655
 21
43.130162533
  0
LINE
  5
235
100
AcDbEntity
  8
0
100
AcDbLine
 62
7
  6
BYLAYER
 10
25.5869709201
 20
43.1414247078
 11
25.587604923
 21
43.1298330227
  0
LINE
  5
236
100
AcDbEntity
  8
0
100
AcDbLine
 62
7
  6
BYLAYER
 10
25.5869709201
 20
43.1414247078
 11
25.5869761018
 21
43.1294692482
  0
LINE
  5
237
100
AcDbEntity
  8
0
100
AcDbLine
 62
7
  6
BYLAYER
 10
28.2147446826
 20
39.8689897539
 11
24.5024495373
 21
37.725707946
  0
LINE
  5
238
100
AcDbEntity
  8
0
100
AcDbLine
 62
7
  6
BYLAYER
 10
10.6468024084
 20
28.1529397303
 11
11.5310565342
 21
28.6634610405
  0
LINE
  5
239
100
AcDbEntity
  8
0
100
AcDbLine
 62
7
  6
BYLAYER
 10
11.14680017
 20
27.2869130342
 11
12.0337980285
 21
27.7990184297
  0
LINE
  5
23A
100
AcDbEntity
  8
0
100
AcDbLine
 62
7
  6
BYLAYER
 10
31.4645652838
 20
49.0494089613
 11
31.4627274368
 21
49.0375387278
  0
LINE
  5
23B
100
AcDbEntity
  8
0
100
AcDbLine
 62
7
  6
BYLAYER
 10
31.4739682779
 20
49.0527019637
 11
31.4718472485
 21
49.0407404277
  0
LINE
  5
23C
100
AcDbEntity
  8
0
100
AcDbLine
 62
7
  6
BYLAYER
 10
9.7307378919
 20
24.8409640382
 11
12.5202733501
 21
26.4514934723
  0
LINE
  5
23D
100
AcDbEntity
  8
0
100
AcDbLine
 62
7
  6
BYLAYER
 10
39.775525139
 20
41.7944124907
 11
37.9011377138
 21
40.7122408659
  0
LINE
  5
23E
100
AcDbEntity
  8
0
100
AcDbLine
 62
7
  6
BYLAYER
 10
43.5579685081
 20
43.9781941526
 11
45.4323557401
 21
45.0603656659
  0
LINE
  5
23F
100
AcDbEntity
  8
0
100
AcDbLine
 62
7
  6
BYLAYER
 10
39.997488208
 20
41.1797057073
 11
38.0465996374
 21
40.0533663892
  0
LINE
  5
240
100
AcDbEntity
  8
0
100
AcDbLine
 62
7
  6
BYLAYER
 10
43.7034302878
 20
43.3193195929
 11
45.6543189516
 21
44.4456589648
  0
LINE
  5
241
100
AcDbEntity
  8
0
100
AcDbLine
 62
7
  6
BYLAYER
 10
10.4550023839
 20
24.0764035678
 11
12.6606973327
 21
25.3498545387
  0
LINE
  5
242
100
AcDbEntity
  8
0
100
AcDbLine
 62
7
  6
BYLAYER
 10
28.2147446826
 20
39.8689897539
 11
24.3735049268
 21
42.0866803901
  0
LINE
  5
243
100
AcDbEntity
  8
0
100
AcDbLine
 62
7
  6
BYLAYER
 10
12.6622879373
 20
24.8964730082
 11
10.4550023839
 21
23.6221037067
  0
LINE
  5
244
100
AcDbEntity
  8
0
100
AcDbLine
 62
7
  6
BYLAYER
 10
11.094903143
 20
27.2674084754
 11
11.14680017
 21
27.2869130342
  0
LINE
  5
245
100
AcDbEntity
  8
0
100
AcDbLine
 62
7
  6
BYLAYER
 10
20.6612097814
 20
39.9433985822
 11
19.58184309
 21
39.6624255094
  0
LINE
  5
246
100
AcDbEntity
  8
0
100
AcDbLine
 62
7
  6
BYLAYER
 10
24.6764900296
 20
29.6134420623
 11
20.9057491393
 21
27.4364167894
  0
LINE
  5
247
100
AcDbEntity
  8
0
100
AcDbLine
 62
7
  6
BYLAYER
 10
20.4838667825
 20
27.0773744695
 11
19.4097231223
 21
26.45722104
  0
LINE
  5
248
100
AcDbEntity
  8
0
100
AcDbLine
 62
7
  6
BYLAYER
 10
13.7310251371
 20
23.1786428
 11
13.2714076429
 21
22.9132841
  0
LINE
  5
249
100
AcDbEntity
  8
0
100
AcDbLine
 62
7
  6
BYLAYER
 10
46.1938930835
 20
41.170422241
 11
46.0923239722
 21
41.1117816373
  0
LINE
  5
24A
100
AcDbEntity
  8
0
100
AcDbLine
 62
7
  6
BYLAYER
 10
40.4310737652
 20
37.8432768167
 11
25.5818162287
 21
29.2701051556
  0
LINE
  5
24B
100
AcDbEntity
  8
0
100
AcDbLine
 62
7
  6
BYLAYER
 10
18.404712281
 20
25.1264269938
 11
14.5156411763
 21
22.8810841475
  0
LINE
  5
24C
100
AcDbEntity
  8
0
100
AcDbLine
 62
7
  6
BYLAYER
 10
12.9169990519
 20
22.7568747046
 11
13.2714076429
 21
22.9132841
  0
LINE
  5
24D
100
AcDbEntity
  8
0
100
AcDbLine
 62
7
  6
BYLAYER
 10
39.9974882539
 20
33.9822740154
 11
38.0465995901
 21
32.8559346436
  0
LINE
  5
24E
100
AcDbEntity
  8
0
100
AcDbLine
 62
7
  6
BYLAYER
 10
43.7034303337
 20
36.121887901
 11
45.6543189043
 21
37.2482272191
  0
LINE
  5
24F
100
AcDbEntity
  8
0
100
AcDbLine
 62
7
  6
BYLAYER
 10
39.775525043
 20
33.5355275746
 11
37.9011378098
 21
32.4533560607
  0
LINE
  5
250
100
AcDbEntity
  8
0
100
AcDbLine
 62
7
  6
BYLAYER
 10
43.5579684107
 20
35.7193092357
 11
45.4323558375
 21
36.8014808615
  0
LINE
  5
251
100
AcDbEntity
  8
0
100
AcDbLine
 62
7
  6
BYLAYER
 10
12.0278405424
 20
22.4727550942
 11
12.9169990518
 21
22.7568747046
  0
ARC
  5
252
100
AcDbEntity
  8
0
100
AcDbCircle
 62
7
  6
BYLAYER
 10
49.3987701876
 20
53.9439352615
 40
27.946504461
100
AcDbArc
 50
229.7929651585
 51
230.7847040543
  0
ARC
  5
253
100
AcDbEntity
  8
0
100
AcDbCircle
 62
7
  6
BYLAYER
 10
49.3275674043
 20
31.8598937035
 40
25.6007095794
100
AcDbArc
 50
132.6313548676
 51
133.4518446125
  0
ARC
  5
254
100
AcDbEntity
  8
0
100
AcDbCircle
 62
7
  6
BYLAYER
 10
43.1672534398
 20
29.1330748501
 40
24.8630561702
100
AcDbArc
 50
132.6191832362
 51
133.4640162422
  0
ARC
  5
255
100
AcDbEntity
  8
0
100
AcDbCircle
 62
7
  6
BYLAYER
 10
57.8032102948
 20
44.7605921345
 40
20.3096440396
100
AcDbArc
 50
191.4978681421
 51
193.4014742393
  0
ARC
  5
256
100
AcDbEntity
  8
0
100
AcDbCircle
 62
7
  6
BYLAYER
 10
63.3139768561
 20
47.9942983102
 40
20.1600834005
100
AcDbArc
 50
191.4908063931
 51
193.4085359949
  0
ARC
  5
257
100
AcDbEntity
  8
0
100
AcDbCircle
 62
7
  6
BYLAYER
 10
22.628551029
 20
42.3334068771
 40
19.272296189
100
AcDbArc
 50
332.8382574566
 51
334.3213562447
  0
ARC
  5
258
100
AcDbEntity
  8
0
100
AcDbCircle
 62
7
  6
BYLAYER
 10
42.3014186408
 20
48.0193593166
 40
18.9503510148
100
AcDbArc
 50
236.092809706
 51
237.9959621958
  0
ARC
  5
259
100
AcDbEntity
  8
0
100
AcDbCircle
 62
7
  6
BYLAYER
 10
28.6580425929
 20
45.4142059151
 40
18.8562089954
100
AcDbArc
 50
332.8218932441
 51
334.3377204572
  0
ARC
  5
25A
100
AcDbEntity
  8
0
100
AcDbCircle
 62
7
  6
BYLAYER
 10
22.5505978149
 20
35.2272737885
 40
18.4343546688
100
AcDbArc
 50
18.8383260205
 51
20.869740325
  0
ARC
  5
25B
100
AcDbEntity
  8
0
100
AcDbCircle
 62
7
  6
BYLAYER
 10
28.232437612
 20
38.5022575015
 40
18.4077692935
100
AcDbArc
 50
18.8368589304
 51
20.8712074081
  0
ARC
  5
25C
100
AcDbEntity
  8
0
100
AcDbCircle
 62
7
  6
BYLAYER
 10
43.3356664086
 20
67.851315582
 40
17.7035012612
100
AcDbArc
 50
250.3649915368
 51
252.169988433
  0
ARC
  5
25D
100
AcDbEntity
  8
0
100
AcDbCircle
 62
7
  6
BYLAYER
 10
37.5904519688
 20
64.324730883
 40
17.4283261156
100
AcDbArc
 50
250.3507408138
 51
252.1842391472
  0
ARC
  5
25E
100
AcDbEntity
  8
0
100
AcDbCircle
 62
7
  6
BYLAYER
 10
38.8449655795
 20
51.0236282019
 40
15.8948322646
100
AcDbArc
 50
274.8920886046
 51
275.1055266754
  0
ARC
  5
25F
100
AcDbEntity
  8
0
100
AcDbCircle
 62
7
  6
BYLAYER
 10
33.8040879492
 20
40.5413341364
 40
12.9988876967
100
AcDbArc
 50
62.5842364454
 51
64.8050960589
  0
ARC
  5
260
100
AcDbEntity
  8
0
100
AcDbCircle
 62
7
  6
BYLAYER
 10
28.2095208268
 20
37.401332154
 40
12.8584135885
100
AcDbArc
 50
62.5721038117
 51
64.8172287035
  0
ARC
  5
261
100
AcDbEntity
  8
0
100
AcDbCircle
 62
7
  6
BYLAYER
 10
49.4301675047
 20
28.5151938599
 40
12.1830886485
100
AcDbArc
 50
159.1273321933
 51
161.1405202286
  0
ARC
  5
262
100
AcDbEntity
  8
0
100
AcDbCircle
 62
7
  6
BYLAYER
 10
54.8678869102
 20
31.8603175604
 40
11.950149506
100
AcDbArc
 50
159.1077090092
 51
161.1601434127
  0
ARC
  5
263
100
AcDbEntity
  8
0
100
AcDbCircle
 62
7
  6
BYLAYER
 10
37.8544954469
 20
43.3885281769
 40
9.5715509296
100
AcDbArc
 50
39.2484122193
 51
39.6146187178
  0
ARC
  5
264
100
AcDbEntity
  8
0
100
AcDbCircle
 62
7
  6
BYLAYER
 10
17.2905810123
 20
31.5281956926
 40
9.5089539778
100
AcDbArc
 50
39.6140594874
 51
40.6740838193
  0
ARC
  5
265
100
AcDbEntity
  8
0
100
AcDbCircle
 62
7
  6
BYLAYER
 10
38.2136126622
 20
43.6023104337
 40
9.2009485587
100
AcDbArc
 50
39.6146576636
 51
40.0321464948
  0
ARC
  5
266
100
AcDbEntity
  8
0
100
AcDbCircle
 62
7
  6
BYLAYER
 10
4.6480575332
 20
24.1122679001
 40
8.9154043595
100
AcDbArc
 50
30.4870360235
 51
30.6480897128
  0
ARC
  5
267
100
AcDbEntity
  8
0
100
AcDbCircle
 62
7
  6
BYLAYER
 10
4.6512253648
 20
24.1141167165
 40
8.9117365149
100
AcDbArc
 50
29.5430302157
 51
30.4871258533
  0
ARC
  5
268
100
AcDbEntity
  8
0
100
AcDbCircle
 62
7
  6
BYLAYER
 10
4.6566559997
 20
24.117214189
 40
8.9054846479
100
AcDbArc
 50
29.3435740272
 51
29.5429206167
  0
ARC
  5
269
100
AcDbEntity
  8
0
100
AcDbCircle
 62
7
  6
BYLAYER
 10
4.8383242515
 20
24.2332582356
 40
8.6900415689
100
AcDbArc
 50
30.6012862374
 51
39.5401081825
  0
ARC
  5
26A
100
AcDbEntity
  8
0
100
AcDbCircle
 62
7
  6
BYLAYER
 10
13.3212989616
 20
29.2220351089
 40
8.319316325
100
AcDbArc
 50
39.6146801981
 51
40.0168793025
  0
ARC
  5
26B
100
AcDbEntity
  8
0
100
AcDbCircle
 62
7
  6
BYLAYER
 10
14.2231047448
 20
29.5532445926
 40
8.097179179
100
AcDbArc
 50
219.4047058516
 51
219.6147771063
  0
ARC
  5
26C
100
AcDbEntity
  8
0
100
AcDbCircle
 62
7
  6
BYLAYER
 10
14.0604401308
 20
29.4540197293
 40
7.8696071297
100
AcDbArc
 50
219.6148159784
 51
219.7900687632
  0
ARC
  5
26D
100
AcDbEntity
  8
0
100
AcDbCircle
 62
7
  6
BYLAYER
 10
5.8102573313
 20
24.860132096
 40
6.9340052672
100
AcDbArc
 50
39.3683789668
 51
39.6147430193
  0
ARC
  5
26E
100
AcDbEntity
  8
0
100
AcDbCircle
 62
7
  6
BYLAYER
 10
5.972572189
 20
24.9590657908
 40
6.7068883079
100
AcDbArc
 50
39.6148011021
 51
39.8193139244
  0
ARC
  5
26F
100
AcDbEntity
  8
0
100
AcDbCircle
 62
7
  6
BYLAYER
 10
40.1909603589
 20
46.075489501
 40
5.9962985239
100
AcDbArc
 50
57.5195869225
 51
58.3920849611
  0
ARC
  5
270
100
AcDbEntity
  8
0
100
AcDbCircle
 62
7
  6
BYLAYER
 10
41.6196824036
 20
43.9162812981
 40
5.8168742126
100
AcDbArc
 50
0.0088864993
 51
1.5267945497
  0
ARC
  5
271
100
AcDbEntity
  8
0
100
AcDbCircle
 62
7
  6
BYLAYER
 10
40.3068702318
 20
46.2654787972
 40
5.7737445638
100
AcDbArc
 50
58.3835616918
 51
59.9968758138
  0
ARC
  5
272
100
AcDbEntity
  8
0
100
AcDbCircle
 62
7
  6
BYLAYER
 10
39.9538603073
 20
38.6127192732
 40
3.4344838364
100
AcDbArc
 50
274.2676064737
 51
275.1047615268
  0
SPLINE
  5
273
100
AcDbEntity
  8
0
100
AcDbSpline
 62
7
  6
BYLAYER
 70
0
 71
3
 72
11
 73
7
 74
0
 42
0.0000001
 43
0.0000001
 44
0.0000000001
 40
0.0
 40
0.0
 40
0.0
 40
0.0
 40
0.2369362209
 40
0.4817765332
 40
0.7358502298
 40
1.0
 40
1.0
 40
1.0
 40
1.0
 10
45.6543189057
 20
44.4456589383
 30
0.0
 10
45.7228688061
 20
44.1873986511
 30
0.0
 10
45.8475296006
 20
43.65819967
 30
0.0
 10
45.9871112685
 20
42.8395850784
 30
0.0
 10
46.0741620578
 20
41.98279747
 30
0.0
 10
46.0930822941
 20
41.3981546433
 30
0.0
 10
46.0930822941
 20
41.1002617274
 30
0.0
  0
SPLINE
  5
274
100
AcDbEntity
  8
0
100
AcDbSpline
 62
7
  6
BYLAYER
 70
0
 71
3
 72
11
 73
7
 74
0
 42
0.0000001
 43
0.0000001
 44
0.0000000001
 40
0.0
 40
0.0
 40
0.0
 40
0.0
 40
0.2543809818
 40
0.505829403
 40
0.7542971266
 40
1.0
 40
1.0
 40
1.0
 40
1.0
 10
43.08786394
 20
48.8457342938
 30
0.0
 10
43.3249197534
 20
48.5508386849
 30
0.0
 10
43.7771996421
 20
47.9487906019
 30
0.0
 10
44.3919867593
 20
47.0094537806
 30
0.0
 10
44.9431037337
 20
46.0463981634
 30
0.0
 10
45.2747489699
 20
45.3900897549
 30
0.0
 10
45.4323557401
 20
45.0603656659
 30
0.0
  0
SPLINE
  5
275
100
AcDbEntity
  8
0
100
AcDbSpline
 62
7
  6
BYLAYER
 70
0
 71
3
 72
9
 73
5
 74
0
 42
0.0000001
 43
0.0000001
 44
0.0000000001
 40
0.0
 40
0.0
 40
0.0
 40
0.0
 40
0.2524687531
 40
1.0
 40
1.0
 40
1.0
 40
1.0
 10
31.7208156829
 20
50.4447968363
 30
0.0
 10
31.6963373404
 20
50.3279312434
 30
0.0
 10
31.6019806473
 20
49.8645052969
 30
0.0
 10
31.5187494368
 20
49.3987667692
 30
0.0
 10
31.4645652838
 20
49.0494089613
 30
0.0
  0
SPLINE
  5
276
100
AcDbEntity
  8
0
100
AcDbSpline
 62
7
  6
BYLAYER
 70
0
 71
3
 72
11
 73
7
 74
0
 42
0.0000001
 43
0.0000001
 44
0.0000000001
 40
0.0
 40
0.0
 40
0.0
 40
0.0
 40
0.2717566146
 40
0.5308680285
 40
0.7744606559
 40
1.0
 40
1.0
 40
1.0
 40
1.0
 10
33.9396411161
 20
51.821355172
 30
0.0
 10
34.2217173904
 20
51.8788779814
 30
0.0
 10
34.7736486004
 20
51.9869013673
 30
0.0
 10
35.5819801458
 20
52.1276445867
 30
0.0
 10
36.3454054666
 20
52.2394017414
 30
0.0
 10
36.8394567563
 20
52.2945228746
 30
0.0
 10
37.0774312708
 20
52.3157807612
 30
0.0
  0
SPLINE
  5
277
100
AcDbEntity
  8
0
100
AcDbSpline
 62
7
  6
BYLAYER
 70
0
 71
3
 72
11
 73
7
 74
0
 42
0.0000001
 43
0.0000001
 44
0.0000000001
 40
0.0
 40
0.0
 40
0.0
 40
0.0
 40
0.2890288811
 40
0.5505047307
 40
0.7863808045
 40
1.0
 40
1.0
 40
1.0
 40
1.0
 10
37.0774312708
 20
52.3157807612
 30
0.0
 10
37.2947278757
 20
52.3351930054
 30
0.0
 10
37.7094352932
 20
52.3638381498
 30
0.0
 10
38.303163807
 20
52.3753903564
 30
0.0
 10
38.839745309
 20
52.3560133324
 30
0.0
 10
39.1777363848
 20
52.3238447025
 30
0.0
 10
39.3376987863
 20
52.3035714772
 30
0.0
  0
SPLINE
  5
278
100
AcDbEntity
  8
0
100
AcDbSpline
 62
7
  6
BYLAYER
 70
0
 71
3
 72
11
 73
7
 74
0
 42
0.0000001
 43
0.0000001
 44
0.0000000001
 40
0.0
 40
0.0
 40
0.0
 40
0.0
 40
0.2517023474
 40
0.5026364111
 40
0.752273952
 40
1.0
 40
1.0
 40
1.0
 40
1.0
 10
39.7893480681
 20
52.0803003037
 30
0.0
 10
40.0918583879
 20
51.8368162438
 30
0.0
 10
40.6867630268
 20
51.3389787277
 30
0.0
 10
41.541658375
 20
50.5532855289
 30
0.0
 10
42.3477129005
 20
49.7259094828
 30
0.0
 10
42.848413057
 20
49.1436158487
 30
0.0
 10
43.08786394
 20
48.8457342938
 30
0.0
  0
SPLINE
  5
279
100
AcDbEntity
  8
0
100
AcDbSpline
 62
7
  6
BYLAYER
 70
0
 71
3
 72
11
 73
7
 74
0
 42
0.0000001
 43
0.0000001
 44
0.0000000001
 40
0.0
 40
0.0
 40
0.0
 40
0.0
 40
0.2389827885
 40
0.4861216545
 40
0.7402452202
 40
1.0
 40
1.0
 40
1.0
 40
1.0
 10
46.0930822941
 20
41.1002617274
 30
0.0
 10
46.0930822941
 20
40.7909345731
 30
0.0
 10
46.0719527782
 20
40.1615832333
 30
0.0
 10
45.9833242118
 20
39.2071050034
 30
0.0
 10
45.8429917742
 20
38.231786636
 30
0.0
 10
45.7212573232
 20
37.5777096512
 30
0.0
 10
45.6543189043
 20
37.2482272191
 30
0.0
  0
SPLINE
  5
27A
100
AcDbEntity
  8
0
100
AcDbSpline
 62
7
  6
BYLAYER
 70
0
 71
3
 72
11
 73
7
 74
0
 42
0.0000001
 43
0.0000001
 44
0.0000000001
 40
0.0
 40
0.0
 40
0.0
 40
0.0
 40
0.2248528389
 40
0.4683862449
 40
0.7278134244
 40
1.0
 40
1.0
 40
1.0
 40
1.0
 10
40.2594526357
 20
35.1918589045
 30
0.0
 10
40.5089513407
 20
35.2141460777
 30
0.0
 10
41.0276345857
 20
35.2725729583
 30
0.0
 10
41.8297413452
 20
35.3918180302
 30
0.0
 10
42.6801384776
 20
35.5423646345
 30
0.0
 10
43.2610396136
 20
35.6578474625
 30
0.0
 10
43.5579685076
 20
35.7193092917
 30
0.0
  0
SPLINE
  5
27B
100
AcDbEntity
  8
0
100
AcDbSpline
 62
7
  6
BYLAYER
 70
0
 71
3
 72
11
 73
7
 74
0
 42
0.0000001
 43
0.0000001
 44
0.0000000001
 40
0.0
 40
0.0
 40
0.0
 40
0.0
 40
0.2890288765
 40
0.5505047317
 40
0.7863808097
 40
1.0
 40
1.0
 40
1.0
 40
1.0
 10
34.249020059
 20
50.6828065289
 30
0.0
 10
34.0317234496
 20
50.6633942832
 30
0.0
 10
33.6170160154
 20
50.6347491457
 30
0.0
 10
33.0232874765
 20
50.6231969265
 30
0.0
 10
32.4867059501
 20
50.6425739386
 30
0.0
 10
32.1487148634
 20
50.6747425789
 30
0.0
 10
31.9887524599
 20
50.6950158045
 30
0.0
  0
SPLINE
  5
27C
100
AcDbEntity
  8
0
100
AcDbSpline
 62
7
  6
BYLAYER
 70
0
 71
3
 72
15
 73
11
 74
0
 42
0.0000001
 43
0.0000001
 44
0.0000000001
 40
0.0
 40
0.0
 40
0.0
 40
0.0
 40
0.1108410465
 40
0.2280578197
 40
0.3507094003
 40
0.4776259691
 40
0.60747378
 40
0.7388131747
 40
0.8701524766
 40
1.0
 40
1.0
 40
1.0
 40
1.0
 10
43.2646669453
 20
39.4672851119
 30
0.0
 10
43.2646669453
 20
39.7796137166
 30
0.0
 10
43.2272567083
 20
40.4226012754
 30
0.0
 10
43.0717095466
 20
41.3998926354
 30
0.0
 10
42.8177556166
 20
42.4030930276
 30
0.0
 10
42.4697020976
 20
43.4151937039
 30
0.0
 10
42.0334327183
 20
44.4191887777
 30
0.0
 10
41.5163061543
 20
45.3981240467
 30
0.0
 10
40.9271238585
 20
46.335373296
 30
0.0
 10
40.4886888376
 20
46.9275891672
 30
0.0
 10
40.2594506044
 20
47.2127589315
 30
0.0
  0
SPLINE
  5
27D
100
AcDbEntity
  8
0
100
AcDbSpline
 62
7
  6
BYLAYER
 70
0
 71
3
 72
22
 73
18
 74
0
 42
0.0000001
 43
0.0000001
 44
0.0000000001
 40
0.0
 40
0.0
 40
0.0
 40
0.0
 40
0.0583082087
 40
0.1153047682
 40
0.171367931
 40
0.2269530232
 40
0.2825406581
 40
0.3386013853
 40
0.3955853827
 40
0.453907015
 40
0.5139331872
 40
0.5759708187
 40
0.6402676051
 40
0.7070031055
 40
0.8481639043
 40
0.9227833123
 40
1.0
 40
1.0
 40
1.0
 40
1.0
 10
40.2594506224
 20
35.1918577178
 30
0.0
 10
40.3714091785
 20
35.2018572108
 30
0.0
 10
40.592015064
 20
35.232612906
 30
0.0
 10
40.9131897898
 20
35.3125404763
 30
0.0
 10
41.218780589
 20
35.4254681826
 30
0.0
 10
41.5073102731
 20
35.5708381367
 30
0.0
 10
41.7774537008
 20
35.7480449722
 30
0.0
 10
42.0280263495
 20
35.9562060991
 30
0.0
 10
42.2578526778
 20
36.1944023123
 30
0.0
 10
42.46599926
 20
36.4614618736
 30
0.0
 10
42.6515518345
 20
36.7562058975
 30
0.0
 10
42.8138209502
 20
37.0772786309
 30
0.0
 10
42.9521107931
 20
37.4233180156
 30
0.0
 10
43.1067361886
 20
37.9252256485
 30
0.0
 10
43.2066686119
 20
38.4627995797
 30
0.0
 10
43.2564993414
 20
39.0256156229
 30
0.0
 10
43.2646669453
 20
39.3184298897
 30
0.0
 10
43.2646669453
 20
39.4672851119
 30
0.0
  0
SPLINE
  5
27E
100
AcDbEntity
  8
0
100
AcDbSpline
 62
7
  6
BYLAYER
 70
0
 71
3
 72
15
 73
11
 74
0
 42
0.0000001
 43
0.0000001
 44
0.0000000001
 40
0.0
 40
0.0
 40
0.0
 40
0.0
 40
0.1274310278
 40
0.2517377888
 40
0.3740158757
 40
0.4955635594
 40
0.6177095067
 40
0.7417308424
 40
0.8688131318
 40
1.0
 40
1.0
 40
1.0
 40
1.0
 10
34.2490179496
 20
50.6828053337
 30
0.0
 10
34.1231068851
 20
50.6715597777
 30
0.0
 10
33.875337605
 20
50.6354629167
 30
0.0
 10
33.5163261123
 20
50.5383405816
 30
0.0
 10
33.1775400295
 20
50.3993781897
 30
0.0
 10
32.8610984006
 20
50.2194085646
 30
0.0
 10
32.5688344257
 20
49.9995030853
 30
0.0
 10
32.3024571949
 20
49.7409702163
 30
0.0
 10
32.0634462517
 20
49.4454628878
 30
0.0
 10
31.9256351863
 20
49.228765326
 30
0.0
 10
31.8615864531
 20
49.1154795052
 30
0.0
  0
SPLINE
  5
27F
100
AcDbEntity
  8
0
100
AcDbSpline
 62
7
  6
BYLAYER
 70
0
 71
3
 72
19
 73
15
 74
0
 42
0.0000001
 43
0.0000001
 44
0.0000000001
 40
0.0
 40
0.0
 40
0.0
 40
0.0
 40
0.1490976764
 40
0.2931847147
 40
0.430886909
 40
0.4970074621
 40
0.5611450776
 40
0.6232178778
 40
0.6831753278
 40
0.7409958633
 40
0.7966954568
 40
0.8503287672
 40
0.9020057621
 40
1.0
 40
1.0
 40
1.0
 40
1.0
 10
40.2594506044
 20
47.2127589315
 30
0.0
 10
40.0353914605
 20
47.4914936767
 30
0.0
 10
39.573220291
 20
48.0227371665
 30
0.0
 10
38.8314990414
 20
48.7441616531
 30
0.0
 10
38.1822764142
 20
49.2707067667
 30
0.0
 10
37.6535932648
 20
49.6366504208
 30
0.0
 10
37.2606723125
 20
49.8788323655
 30
0.0
 10
36.8676634755
 20
50.0913624581
 30
0.0
 10
36.476242377
 20
50.2733769866
 30
0.0
 10
36.0880283406
 20
50.4240323137
 30
0.0
 10
35.7047172662
 20
50.5427302939
 30
0.0
 10
35.3277833255
 20
50.6288833989
 30
0.0
 10
34.8448601255
 20
50.6986442756
 30
0.0
 10
34.4831338246
 20
50.7037225965
 30
0.0
 10
34.2490179496
 20
50.6828053337
 30
0.0
  0
SPLINE
  5
280
100
AcDbEntity
  8
0
100
AcDbSpline
 62
7
  6
BYLAYER
 70
0
 71
3
 72
11
 73
7
 74
0
 42
0.0000001
 43
0.0000001
 44
0.0000000001
 40
0.0
 40
0.0
 40
0.0
 40
0.0
 40
0.2389827885
 40
0.4861216545
 40
0.7402452202
 40
1.0
 40
1.0
 40
1.0
 40
1.0
 10
43.2646669453
 20
39.4672851119
 30
0.0
 10
43.2646669453
 20
39.7766122662
 30
0.0
 10
43.2857964612
 20
40.405963606
 30
0.0
 10
43.3744250276
 20
41.3604418359
 30
0.0
 10
43.5147574652
 20
42.3357602033
 30
0.0
 10
43.6364919162
 20
42.9898371881
 30
0.0
 10
43.7034303351
 20
43.3193196202
 30
0.0
  0
SPLINE
  5
281
100
AcDbEntity
  8
0
100
AcDbSpline
 62
7
  6
BYLAYER
 70
0
 71
3
 72
11
 73
7
 74
0
 42
0.0000001
 43
0.0000001
 44
0.0000000001
 40
0.0
 40
0.0
 40
0.0
 40
0.0
 40
0.2517023472
 40
0.502636411
 40
0.7522739523
 40
1.0
 40
1.0
 40
1.0
 40
1.0
 10
43.5579685081
 20
43.9781941526
 30
0.0
 10
43.255458197
 20
44.2216782054
 30
0.0
 10
42.6605535841
 20
44.7195157185
 30
0.0
 10
41.8056582511
 20
45.5052088851
 30
0.0
 10
40.999603725
 20
46.3325848868
 30
0.0
 10
40.4989035956
 20
46.9148785161
 30
0.0
 10
40.2594527173
 20
47.2127600606
 30
0.0
  0
SPLINE
  5
282
100
AcDbEntity
  8
0
100
AcDbSpline
 62
7
  6
BYLAYER
 70
0
 71
3
 72
11
 73
7
 74
0
 42
0.0000001
 43
0.0000001
 44
0.0000000001
 40
0.0
 40
0.0
 40
0.0
 40
0.0
 40
0.2369362209
 40
0.4817765332
 40
0.7358502298
 40
1.0
 40
1.0
 40
1.0
 40
1.0
 10
43.7034303337
 20
36.121887901
 30
0.0
 10
43.6348804333
 20
36.3801481882
 30
0.0
 10
43.5102196388
 20
36.9093471693
 30
0.0
 10
43.3706379709
 20
37.7279617609
 30
0.0
 10
43.2835871816
 20
38.5847493693
 30
0.0
 10
43.2646669453
 20
39.169392196
 30
0.0
 10
43.2646669453
 20
39.4672851119
 30
0.0
  0
SPLINE
  5
283
100
AcDbEntity
  8
0
100
AcDbSpline
 62
7
  6
BYLAYER
 70
0
 71
3
 72
11
 73
7
 74
0
 42
0.0000001
 43
0.0000001
 44
0.0000000001
 40
0.0
 40
0.0
 40
0.0
 40
0.0
 40
0.2543809815
 40
0.5058294033
 40
0.7542971272
 40
1.0
 40
1.0
 40
1.0
 40
1.0
 10
40.2594527173
 20
47.2127600606
 30
0.0
 10
40.0223968952
 20
47.5076556758
 30
0.0
 10
39.5701170072
 20
48.1097037873
 30
0.0
 10
38.9553298455
 20
49.0490406187
 30
0.0
 10
38.4042128414
 20
50.0120962578
 30
0.0
 10
38.0725676094
 20
50.6684046919
 30
0.0
 10
37.914960835
 20
50.9981287898
 30
0.0
  0
SPLINE
  5
284
100
AcDbEntity
  8
0
100
AcDbSpline
 62
7
  6
BYLAYER
 70
0
 71
3
 72
11
 73
7
 74
0
 42
0.0000001
 43
0.0000001
 44
0.0000000001
 40
0.0
 40
0.0
 40
0.0
 40
0.0
 40
0.2717566116
 40
0.5308680275
 40
0.7744606584
 40
1.0
 40
1.0
 40
1.0
 40
1.0
 10
37.386810134
 20
51.177232112
 30
0.0
 10
37.1047338699
 20
51.1197093046
 30
0.0
 10
36.5528026739
 20
51.0116859263
 30
0.0
 10
35.7444711472
 20
50.8709427046
 30
0.0
 10
34.9810458438
 20
50.759185541
 30
0.0
 10
34.4869945647
 20
50.704064416
 30
0.0
 10
34.249020059
 20
50.6828065289
 30
0.0
  0
SPLINE
  5
285
100
AcDbEntity
  8
0
100
AcDbSpline
 62
7
  6
BYLAYER
 70
0
 71
3
 72
11
 73
7
 74
0
 42
0.0000001
 43
0.0000001
 44
0.0000000001
 40
0.0
 40
0.0
 40
0.0
 40
0.0
 40
0.2389827885
 40
0.4861216545
 40
0.7402452202
 40
1.0
 40
1.0
 40
1.0
 40
1.0
 10
40.4362515964
 20
37.8343084964
 30
0.0
 10
40.4362515964
 20
37.5249813421
 30
0.0
 10
40.4151220804
 20
36.8956300023
 30
0.0
 10
40.3264935141
 20
35.9411517724
 30
0.0
 10
40.1861610765
 20
34.965833405
 30
0.0
 10
40.0644266255
 20
34.3117564202
 30
0.0
 10
39.9974882066
 20
33.9822739881
 30
0.0
  0
SPLINE
  5
286
100
AcDbEntity
  8
0
100
AcDbSpline
 62
7
  6
BYLAYER
 70
0
 71
3
 72
11
 73
7
 74
0
 42
0.0000001
 43
0.0000001
 44
0.0000000001
 40
0.0
 40
0.0
 40
0.0
 40
0.0
 40
0.2248528389
 40
0.4683862449
 40
0.7278134244
 40
1.0
 40
1.0
 40
1.0
 40
1.0
 10
34.602621938
 20
31.9259056735
 30
0.0
 10
34.852120643
 20
31.9481928467
 30
0.0
 10
35.370803888
 20
32.0066197273
 30
0.0
 10
36.1729106475
 20
32.1258647992
 30
0.0
 10
37.0233077799
 20
32.2764114035
 30
0.0
 10
37.6042089158
 20
32.3918942315
 30
0.0
 10
37.9011378098
 20
32.4533560607
 30
0.0
  0
SPLINE
  5
287
100
AcDbEntity
  8
0
100
AcDbSpline
 62
7
  6
BYLAYER
 70
0
 71
3
 72
11
 73
7
 74
0
 42
0.0000001
 43
0.0000001
 44
0.0000000001
 40
0.0
 40
0.0
 40
0.0
 40
0.0
 40
0.2369362209
 40
0.4817765332
 40
0.7358502298
 40
1.0
 40
1.0
 40
1.0
 40
1.0
 10
39.997488208
 20
41.1797057073
 30
0.0
 10
40.0660381084
 20
40.9214454201
 30
0.0
 10
40.1906989029
 20
40.392246439
 30
0.0
 10
40.3302805708
 20
39.5736318474
 30
0.0
 10
40.4173313601
 20
38.716844239
 30
0.0
 10
40.4362515964
 20
38.1322014123
 30
0.0
 10
40.4362515964
 20
37.8343084964
 30
0.0
  0
SPLINE
  5
288
100
AcDbEntity
  8
0
100
AcDbSpline
 62
7
  6
BYLAYER
 70
0
 71
3
 72
11
 73
7
 74
0
 42
0.0000001
 43
0.0000001
 44
0.0000000001
 40
0.0
 40
0.0
 40
0.0
 40
0.0
 40
0.2543809818
 40
0.505829403
 40
0.7542971266
 40
1.0
 40
1.0
 40
1.0
 40
1.0
 10
37.4310332423
 20
45.5797810628
 30
0.0
 10
37.6680890557
 20
45.2848854539
 30
0.0
 10
38.1203689444
 20
44.6828373709
 30
0.0
 10
38.7351560616
 20
43.7435005496
 30
0.0
 10
39.286273036
 20
42.7804449325
 30
0.0
 10
39.6179182722
 20
42.124136524
 30
0.0
 10
39.7755250424
 20
41.7944124349
 30
0.0
  0
SPLINE
  5
289
100
AcDbEntity
  8
0
100
AcDbSpline
 62
7
  6
BYLAYER
 70
0
 71
3
 72
11
 73
7
 74
0
 42
0.0000001
 43
0.0000001
 44
0.0000000001
 40
0.0
 40
0.0
 40
0.0
 40
0.0
 40
0.2517023474
 40
0.5026364111
 40
0.752273952
 40
1.0
 40
1.0
 40
1.0
 40
1.0
 10
34.1325173704
 20
48.8143470727
 30
0.0
 10
34.4350276902
 20
48.5708630129
 30
0.0
 10
35.0299323291
 20
48.0730254967
 30
0.0
 10
35.8848276773
 20
47.2873322979
 30
0.0
 10
36.6908822028
 20
46.4599562518
 30
0.0
 10
37.1915823593
 20
45.8776626177
 30
0.0
 10
37.4310332423
 20
45.5797810628
 30
0.0
  0
SPLINE
  5
28A
100
AcDbEntity
  8
0
100
AcDbSpline
 62
7
  6
BYLAYER
 70
0
 71
3
 72
11
 73
7
 74
0
 42
0.0000001
 43
0.0000001
 44
0.0000000001
 40
0.0
 40
0.0
 40
0.0
 40
0.0
 40
0.2890288811
 40
0.5505047307
 40
0.7863808045
 40
1.0
 40
1.0
 40
1.0
 40
1.0
 10
31.4206005731
 20
49.0498275303
 30
0.0
 10
31.637897178
 20
49.0692397744
 30
0.0
 10
32.0526045955
 20
49.0978849188
 30
0.0
 10
32.6463331093
 20
49.1094371254
 30
0.0
 10
33.1829146113
 20
49.0900601014
 30
0.0
 10
33.5209056871
 20
49.0578914716
 30
0.0
 10
33.6808680885
 20
49.0376182462
 30
0.0
  0
SPLINE
  5
28B
100
AcDbEntity
  8
0
100
AcDbSpline
 62
7
  6
BYLAYER
 70
0
 71
3
 72
11
 73
7
 74
0
 42
0.0000001
 43
0.0000001
 44
0.0000000001
 40
0.0
 40
0.0
 40
0.0
 40
0.0
 40
0.2717566146
 40
0.5308680285
 40
0.7744606559
 40
1.0
 40
1.0
 40
1.0
 40
1.0
 10
28.2828104184
 20
48.555401941
 30
0.0
 10
28.5648866927
 20
48.6129247504
 30
0.0
 10
29.1168179027
 20
48.7209481363
 30
0.0
 10
29.9251494481
 20
48.8616913557
 30
0.0
 10
30.6885747689
 20
48.9734485104
 30
0.0
 10
31.1826260586
 20
49.0285696436
 30
0.0
 10
31.4206005731
 20
49.0498275303
 30
0.0
  0
SPLINE
  5
28C
100
AcDbEntity
  8
0
100
AcDbSpline
 62
7
  6
BYLAYER
 70
0
 71
3
 72
11
 73
7
 74
0
 42
0.0000001
 43
0.0000001
 44
0.0000000001
 40
0.0
 40
0.0
 40
0.0
 40
0.0
 40
0.2599639435
 40
0.5142398716
 40
0.7613517917
 40
1.0
 40
1.0
 40
1.0
 40
1.0
 10
26.0639849851
 20
47.1788436053
 30
0.0
 10
25.9916410723
 20
46.8334560741
 30
0.0
 10
25.8597719444
 20
46.1477955106
 30
0.0
 10
25.7070360783
 20
45.1252851835
 30
0.0
 10
25.6101702499
 20
44.1249153465
 30
0.0
 10
25.5869709201
 20
43.4653727872
 30
0.0
 10
25.5869709201
 20
43.1414247078
 30
0.0
  0
SPLINE
  5
28D
100
AcDbEntity
  8
0
100
AcDbSpline
 62
7
  6
BYLAYER
 70
0
 71
3
 72
11
 73
7
 74
0
 42
0.0000001
 43
0.0000001
 44
0.0000000001
 40
0.0
 40
0.0
 40
0.0
 40
0.0
 40
0.2121778807
 40
0.4472953569
 40
0.7091428394
 40
1.0
 40
1.0
 40
1.0
 40
1.0
 10
32.2581301378
 20
31.9492580132
 30
0.0
 10
32.4227324888
 20
31.9265594595
 30
0.0
 10
32.7713723913
 20
31.8900126591
 30
0.0
 10
33.3265343139
 20
31.8663258648
 30
0.0
 10
33.9437274861
 20
31.876178826
 30
0.0
 10
34.3757503475
 20
31.9056380813
 30
0.0
 10
34.602621938
 20
31.9259056735
 30
0.0
  0
SPLINE
  5
28E
100
AcDbEntity
  8
0
100
AcDbSpline
 62
7
  6
BYLAYER
 70
0
 71
3
 72
22
 73
18
 74
0
 42
0.0000001
 43
0.0000001
 44
0.0000000001
 40
0.0
 40
0.0
 40
0.0
 40
0.0
 40
0.058308212
 40
0.1153047696
 40
0.1713679324
 40
0.2269530241
 40
0.2825406587
 40
0.3386013862
 40
0.3955853837
 40
0.4539070157
 40
0.5139331878
 40
0.5759708193
 40
0.6402676056
 40
0.7070031059
 40
0.8481639045
 40
0.9227833123
 40
1.0
 40
1.0
 40
1.0
 40
1.0
 10
28.5921872519
 20
47.4168521027
 30
0.0
 10
28.4802286818
 20
47.4068526927
 30
0.0
 10
28.2596227801
 20
47.3760970241
 30
0.0
 10
27.9384480836
 20
47.2961693252
 30
0.0
 10
27.6328572956
 20
47.1832416124
 30
0.0
 10
27.3443275951
 20
47.0378716912
 30
0.0
 10
27.0741841649
 20
46.8606648573
 30
0.0
 10
26.823611521
 20
46.6525037234
 30
0.0
 10
26.593785192
 20
46.4143075099
 30
0.0
 10
26.3856386076
 20
46.1472479499
 30
0.0
 10
26.2000860325
 20
45.852503926
 30
0.0
 10
26.0378169168
 20
45.5314311921
 30
0.0
 10
25.8995270733
 20
45.185391807
 30
0.0
 10
25.7449016771
 20
44.6834841735
 30
0.0
 10
25.6449692536
 20
44.1459102415
 30
0.0
 10
25.595138524
 20
43.5830941975
 30
0.0
 10
25.5869709201
 20
43.2902799302
 30
0.0
 10
25.5869709201
 20
43.1414247078
 30
0.0
  0
SPLINE
  5
28F
100
AcDbEntity
  8
0
100
AcDbSpline
 62
7
  6
BYLAYER
 70
0
 71
3
 72
19
 73
15
 74
0
 42
0.0000001
 43
0.0000001
 44
0.0000000001
 40
0.0
 40
0.0
 40
0.0
 40
0.0
 40
0.1490976764
 40
0.2931847147
 40
0.430886909
 40
0.4970074621
 40
0.5611450776
 40
0.6232178778
 40
0.6831753278
 40
0.7409958633
 40
0.7966954568
 40
0.8503287672
 40
0.9020057621
 40
1.0
 40
1.0
 40
1.0
 40
1.0
 10
34.6026199066
 20
43.9468057005
 30
0.0
 10
34.3785607628
 20
44.2255404457
 30
0.0
 10
33.9163895933
 20
44.7567839356
 30
0.0
 10
33.1746683437
 20
45.4782084222
 30
0.0
 10
32.5254457165
 20
46.0047535358
 30
0.0
 10
31.9967625671
 20
46.3706971898
 30
0.0
 10
31.6038416148
 20
46.6128791345
 30
0.0
 10
31.2108327778
 20
46.8254092272
 30
0.0
 10
30.8194116793
 20
47.0074237556
 30
0.0
 10
30.4311976429
 20
47.1580790828
 30
0.0
 10
30.0478865684
 20
47.2767770629
 30
0.0
 10
29.6709526278
 20
47.3629301679
 30
0.0
 10
29.1880294278
 20
47.4326910446
 30
0.0
 10
28.8263031269
 20
47.4377693655
 30
0.0
 10
28.5921872519
 20
47.4168521027
 30
0.0
  0
SPLINE
  5
290
100
AcDbEntity
  8
0
100
AcDbSpline
 62
7
  6
BYLAYER
 70
0
 71
3
 72
11
 73
7
 74
0
 42
0.0000001
 43
0.0000001
 44
0.0000000001
 40
0.0
 40
0.0
 40
0.0
 40
0.0
 40
0.2389827885
 40
0.4861216545
 40
0.7402452202
 40
1.0
 40
1.0
 40
1.0
 40
1.0
 10
37.6078362476
 20
36.2013318809
 30
0.0
 10
37.6078362476
 20
36.5106590353
 30
0.0
 10
37.6289657635
 20
37.1400103751
 30
0.0
 10
37.7175943298
 20
38.0944886049
 30
0.0
 10
37.8579267675
 20
39.0698069723
 30
0.0
 10
37.9796612184
 20
39.7238839572
 30
0.0
 10
38.0465996374
 20
40.0533663892
 30
0.0
  0
SPLINE
  5
291
100
AcDbEntity
  8
0
100
AcDbSpline
 62
7
  6
BYLAYER
 70
0
 71
3
 72
11
 73
7
 74
0
 42
0.0000001
 43
0.0000001
 44
0.0000000001
 40
0.0
 40
0.0
 40
0.0
 40
0.0
 40
0.2517023472
 40
0.502636411
 40
0.7522739523
 40
1.0
 40
1.0
 40
1.0
 40
1.0
 10
37.9011378104
 20
40.7122409216
 30
0.0
 10
37.5986274993
 20
40.9557249745
 30
0.0
 10
37.0037228864
 20
41.4535624875
 30
0.0
 10
36.1488275534
 20
42.2392556541
 30
0.0
 10
35.3427730273
 20
43.0666316558
 30
0.0
 10
34.8420728979
 20
43.6489252852
 30
0.0
 10
34.6026220196
 20
43.9468068296
 30
0.0
  0
SPLINE
  5
292
100
AcDbEntity
  8
0
100
AcDbSpline
 62
7
  6
BYLAYER
 70
0
 71
3
 72
11
 73
7
 74
0
 42
0.0000001
 43
0.0000001
 44
0.0000000001
 40
0.0
 40
0.0
 40
0.0
 40
0.0
 40
0.2717566116
 40
0.5308680275
 40
0.7744606584
 40
1.0
 40
1.0
 40
1.0
 40
1.0
 10
31.7299794363
 20
47.911278881
 30
0.0
 10
31.4479031722
 20
47.8537560737
 30
0.0
 10
30.8959719762
 20
47.7457326953
 30
0.0
 10
30.0876404495
 20
47.6049894736
 30
0.0
 10
29.3242151461
 20
47.49323231
 30
0.0
 10
28.830163867
 20
47.438111185
 30
0.0
 10
28.5921893613
 20
47.4168532979
 30
0.0
  0
SPLINE
  5
293
100
AcDbEntity
  8
0
100
AcDbSpline
 62
7
  6
BYLAYER
 70
0
 71
3
 72
11
 73
7
 74
0
 42
0.0000001
 43
0.0000001
 44
0.0000000001
 40
0.0
 40
0.0
 40
0.0
 40
0.0
 40
0.2543809815
 40
0.5058294033
 40
0.7542971272
 40
1.0
 40
1.0
 40
1.0
 40
1.0
 10
34.6026220196
 20
43.9468068296
 30
0.0
 10
34.3655661975
 20
44.2417024449
 30
0.0
 10
33.9132863095
 20
44.8437505563
 30
0.0
 10
33.2984991478
 20
45.7830873877
 30
0.0
 10
32.7473821437
 20
46.7461430268
 30
0.0
 10
32.4157369117
 20
47.402451461
 30
0.0
 10
32.2581301372
 20
47.7321755588
 30
0.0
  0
SPLINE
  5
294
100
AcDbEntity
  8
0
100
AcDbSpline
 62
7
  6
BYLAYER
 70
0
 71
3
 72
11
 73
7
 74
0
 42
0.0000001
 43
0.0000001
 44
0.0000000001
 40
0.0
 40
0.0
 40
0.0
 40
0.0
 40
0.2890288765
 40
0.5505047317
 40
0.7863808097
 40
1.0
 40
1.0
 40
1.0
 40
1.0
 10
28.5921893613
 20
47.4168532979
 30
0.0
 10
28.3748927519
 20
47.3974410522
 30
0.0
 10
27.9601853177
 20
47.3687959147
 30
0.0
 10
27.3664567787
 20
47.3572436955
 30
0.0
 10
26.8298752524
 20
47.3766207076
 30
0.0
 10
26.4918841657
 20
47.4087893479
 30
0.0
 10
26.3319217622
 20
47.4290625735
 30
0.0
  0
SPLINE
  5
295
100
AcDbEntity
  8
0
100
AcDbSpline
 62
7
  6
BYLAYER
 70
0
 71
3
 72
11
 73
7
 74
0
 42
0.0000001
 43
0.0000001
 44
0.0000000001
 40
0.0
 40
0.0
 40
0.0
 40
0.0
 40
0.2369362209
 40
0.4817765332
 40
0.7358502298
 40
1.0
 40
1.0
 40
1.0
 40
1.0
 10
38.046599636
 20
32.85593467
 30
0.0
 10
37.9780497355
 20
33.1141949572
 30
0.0
 10
37.8533889411
 20
33.6433939383
 30
0.0
 10
37.7138072732
 20
34.46200853
 30
0.0
 10
37.6267564838
 20
35.3187961383
 30
0.0
 10
37.6078362476
 20
35.903438965
 30
0.0
 10
37.6078362476
 20
36.2013318809
 30
0.0
  0
SPLINE
  5
296
100
AcDbEntity
  8
0
100
AcDbSpline
 62
7
  6
BYLAYER
 70
0
 71
3
 72
15
 73
11
 74
0
 42
0.0000001
 43
0.0000001
 44
0.0000000001
 40
0.0
 40
0.0
 40
0.0
 40
0.0
 40
0.1108410465
 40
0.2280578197
 40
0.3507094003
 40
0.4776259691
 40
0.60747378
 40
0.7388131747
 40
0.8701524766
 40
1.0
 40
1.0
 40
1.0
 40
1.0
 10
37.6078362476
 20
36.2013318809
 30
0.0
 10
37.6078362476
 20
36.5136604857
 30
0.0
 10
37.5704260106
 20
37.1566480444
 30
0.0
 10
37.4148788489
 20
38.1339394045
 30
0.0
 10
37.1609249189
 20
39.1371397966
 30
0.0
 10
36.8128713999
 20
40.1492404729
 30
0.0
 10
36.3766020206
 20
41.1532355467
 30
0.0
 10
35.8594754566
 20
42.1321708157
 30
0.0
 10
35.2702931608
 20
43.069420065
 30
0.0
 10
34.8318581399
 20
43.6616359363
 30
0.0
 10
34.6026199066
 20
43.9468057005
 30
0.0
  0
SPLINE
  5
297
100
AcDbEntity
  8
0
100
AcDbSpline
 62
7
  6
BYLAYER
 70
0
 71
3
 72
22
 73
18
 74
0
 42
0.0000001
 43
0.0000001
 44
0.0000000001
 40
0.0
 40
0.0
 40
0.0
 40
0.0
 40
0.0583082087
 40
0.1153047682
 40
0.171367931
 40
0.2269530232
 40
0.2825406581
 40
0.3386013853
 40
0.3955853827
 40
0.453907015
 40
0.5139331872
 40
0.5759708187
 40
0.6402676051
 40
0.7070031055
 40
0.8481639043
 40
0.9227833123
 40
1.0
 40
1.0
 40
1.0
 40
1.0
 10
34.6026199247
 20
31.9259044868
 30
0.0
 10
34.7145784807
 20
31.9359039799
 30
0.0
 10
34.9351843663
 20
31.966659675
 30
0.0
 10
35.2563590921
 20
32.0465872453
 30
0.0
 10
35.5619498912
 20
32.1595149516
 30
0.0
 10
35.8504795754
 20
32.3048849057
 30
0.0
 10
36.1206230031
 20
32.4820917412
 30
0.0
 10
36.3711956518
 20
32.6902528681
 30
0.0
 10
36.6010219801
 20
32.9284490813
 30
0.0
 10
36.8091685623
 20
33.1955086427
 30
0.0
 10
36.9947211368
 20
33.4902526665
 30
0.0
 10
37.1569902524
 20
33.8113253999
 30
0.0
 10
37.2952800954
 20
34.1573647847
 30
0.0
 10
37.4499054909
 20
34.6592724175
 30
0.0
 10
37.5498379142
 20
35.1968463487
 30
0.0
 10
37.5996686436
 20
35.759662392
 30
0.0
 10
37.6078362476
 20
36.0524766587
 30
0.0
 10
37.6078362476
 20
36.2013318809
 30
0.0
  0
SPLINE
  5
298
100
AcDbEntity
  8
0
100
AcDbSpline
 62
7
  6
BYLAYER
 70
0
 71
3
 72
13
 73
9
 74
0
 42
0.0000001
 43
0.0000001
 44
0.0000000001
 40
0.0
 40
0.0
 40
0.0
 40
0.0
 40
0.2780481296
 40
0.4098388618
 40
0.536782911
 40
0.6590040978
 40
0.77675317
 40
1.0
 40
1.0
 40
1.0
 40
1.0
 10
31.5881606836
 20
32.7364545775
 30
0.0
 10
31.8422607268
 20
32.5893013722
 30
0.0
 10
32.229324545
 20
32.392448316
 30
0.0
 10
32.7578889381
 20
32.1866468338
 30
0.0
 10
33.1424190472
 20
32.0671647167
 30
0.0
 10
33.520533484
 20
31.9804179937
 30
0.0
 10
34.0049371245
 20
31.9101311886
 30
0.0
 10
34.3677945898
 20
31.9049231612
 30
0.0
 10
34.6026199247
 20
31.9259044868
 30
0.0
  0
SPLINE
  5
299
100
AcDbEntity
  8
0
100
AcDbSpline
 62
7
  6
BYLAYER
 70
0
 71
3
 72
25
 73
21
 74
0
 42
0.0000001
 43
0.0000001
 44
0.0000000001
 40
0.0
 40
0.0
 40
0.0
 40
0.0
 40
0.0738331415
 40
0.1486565097
 40
0.2237747722
 40
0.2985355792
 40
0.3722691719
 40
0.4443428945
 40
0.5141702787
 40
0.5812327841
 40
0.6451037221
 40
0.7054739988
 40
0.7621838161
 40
0.8152569021
 40
0.8649375646
 40
0.9117233146
 40
0.934283519
 40
0.9564274604
 40
0.9782862645
 40
1.0
 40
1.0
 40
1.0
 40
1.0
 10
19.6225633236
 20
34.4970430246
 30
0.0
 10
19.7521427124
 20
34.340491055
 30
0.0
 10
20.0018837551
 20
34.0158871044
 30
0.0
 10
20.3436896075
 20
33.5029735269
 30
0.0
 10
20.6517248008
 20
32.9661186498
 30
0.0
 10
20.9218852869
 20
32.4125800397
 30
0.0
 10
21.150563723
 20
31.8496661411
 30
0.0
 10
21.3347179735
 20
31.2848869645
 30
0.0
 10
21.4719043068
 20
30.7257367927
 30
0.0
 10
21.5602886735
 20
30.179614172
 30
0.0
 10
21.5986684559
 20
29.6537141099
 30
0.0
 10
21.5864563819
 20
29.1549219516
 30
0.0
 10
21.5236855629
 20
28.6897395747
 30
0.0
 10
21.4108953105
 20
28.264198158
 30
0.0
 10
21.2492241003
 20
27.8840029397
 30
0.0
 10
21.0727111093
 20
27.6058465899
 30
0.0
 10
20.9095482874
 20
27.4136112745
 30
0.0
 10
20.7780749758
 20
27.2855885734
 30
0.0
 10
20.6365413026
 20
27.1725045873
 30
0.0
 10
20.5356214288
 20
27.1072649499
 30
0.0
 10
20.4838618098
 20
27.0773830895
 30
0.0
  0
SPLINE
  5
29A
100
AcDbEntity
  8
0
100
AcDbSpline
 62
7
  6
BYLAYER
 70
0
 71
3
 72
9
 73
5
 74
0
 42
0.0000001
 43
0.0000001
 44
0.0000000001
 40
0.0
 40
0.0
 40
0.0
 40
0.0
 40
0.4584355262
 40
1.0
 40
1.0
 40
1.0
 40
1.0
 10
9.7826619454
 20
30.0771980156
 30
0.0
 10
9.7784795568
 20
30.0724820495
 30
0.0
 10
9.7720653398
 20
30.0597766318
 30
0.0
 10
9.770511338
 20
30.0459142287
 30
0.0
 10
9.770511338
 20
30.038467835
 30
0.0
  0
SPLINE
  5
29B
100
AcDbEntity
  8
0
100
AcDbSpline
 62
7
  6
BYLAYER
 70
0
 71
3
 72
15
 73
11
 74
0
 42
0.0000001
 43
0.0000001
 44
0.0000000001
 40
0.0
 40
0.0
 40
0.0
 40
0.0
 40
0.1246460699
 40
0.2615614508
 40
0.404415341
 40
0.5466298648
 40
0.681422792
 40
0.8032653833
 40
0.9090772229
 40
1.0
 40
1.0
 40
1.0
 40
1.0
 10
9.770511338
 20
27.151315288
 30
0.0
 10
9.770511338
 20
27.1435005578
 30
0.0
 10
9.7725294012
 20
27.1270853016
 30
0.0
 10
9.7801145445
 20
27.1027810976
 30
0.0
 10
9.7919663755
 20
27.0790045391
 30
0.0
 10
9.8072259018
 20
27.0574258718
 30
0.0
 10
9.8248535497
 20
27.0395155164
 30
0.0
 10
9.8436873551
 20
27.026501261
 30
0.0
 10
9.8625515721
 20
27.0192531643
 30
0.0
 10
9.8752527659
 20
27.0188594071
 30
0.0
 10
9.8808384849
 20
27.0199972633
 30
0.0
  0
SPLINE
  5
29C
100
AcDbEntity
  8
0
100
AcDbSpline
 62
7
  6
BYLAYER
 70
0
 71
3
 72
15
 73
11
 74
0
 42
0.0000001
 43
0.0000001
 44
0.0000000001
 40
0.0
 40
0.0
 40
0.0
 40
0.0
 40
0.1246460699
 40
0.2615614508
 40
0.404415341
 40
0.5466298648
 40
0.681422792
 40
0.8032653833
 40
0.9090772229
 40
1.0
 40
1.0
 40
1.0
 40
1.0
 10
9.770511338
 20
30.038467835
 30
0.0
 10
9.770511338
 20
30.0306531048
 30
0.0
 10
9.7725294012
 20
30.0142378485
 30
0.0
 10
9.7801145445
 20
29.9899336446
 30
0.0
 10
9.7919663755
 20
29.966157086
 30
0.0
 10
9.8072259018
 20
29.9445784188
 30
0.0
 10
9.8248535497
 20
29.9266680633
 30
0.0
 10
9.8436873551
 20
29.913653808
 30
0.0
 10
9.8625515721
 20
29.9064057113
 30
0.0
 10
9.8752527659
 20
29.906011954
 30
0.0
 10
9.8808384849
 20
29.9071498103
 30
0.0
  0
SPLINE
  5
29D
100
AcDbEntity
  8
0
100
AcDbSpline
 62
7
  6
BYLAYER
 70
0
 71
3
 72
14
 73
10
 74
0
 42
0.0000001
 43
0.0000001
 44
0.0000000001
 40
0.0
 40
0.0
 40
0.0
 40
0.0
 40
0.1203925647
 40
0.2520789749
 40
0.5284793067
 40
0.663272574
 40
0.7887729431
 40
0.9015760312
 40
1.0
 40
1.0
 40
1.0
 40
1.0
 10
12.2708513262
 20
25.7077759801
 30
0.0
 10
12.2708513262
 20
25.700743569
 30
0.0
 10
12.2724914378
 20
25.6860009237
 30
0.0
 10
12.2809647066
 20
25.6562286382
 30
0.0
 10
12.2963466582
 20
25.6278975598
 30
0.0
 10
12.3167347395
 20
25.6039790595
 30
0.0
 10
12.3334015583
 20
25.5897540154
 30
0.0
 10
12.3505946185
 20
25.5799506015
 30
0.0
 10
12.3626355387
 20
25.5764770677
 30
0.0
 10
12.3683494228
 20
25.5758410406
 30
0.0
  0
SPLINE
  5
29E
100
AcDbEntity
  8
0
100
AcDbSpline
 62
7
  6
BYLAYER
 70
0
 71
3
 72
9
 73
5
 74
0
 42
0.0000001
 43
0.0000001
 44
0.0000000001
 40
0.0
 40
0.0
 40
0.0
 40
0.0
 40
0.4584355262
 40
1.0
 40
1.0
 40
1.0
 40
1.0
 10
9.7826619454
 20
27.1900454686
 30
0.0
 10
9.7784795568
 20
27.1853295026
 30
0.0
 10
9.7720653398
 20
27.1726240848
 30
0.0
 10
9.770511338
 20
27.1587616817
 30
0.0
 10
9.770511338
 20
27.151315288
 30
0.0
  0
SPLINE
  5
29F
100
AcDbEntity
  8
0
100
AcDbSpline
 62
7
  6
BYLAYER
 70
0
 71
3
 72
13
 73
9
 74
0
 42
0.0000001
 43
0.0000001
 44
0.0000000001
 40
0.0
 40
0.0
 40
0.0
 40
0.0
 40
0.1081024583
 40
0.2182384672
 40
0.3322417187
 40
0.4516702562
 40
0.7107052391
 40
1.0
 40
1.0
 40
1.0
 40
1.0
 10
9.7307392768
 20
24.840961653
 30
0.0
 10
9.7209022896
 20
24.835280509
 30
0.0
 10
9.7019953475
 20
24.8220724486
 30
0.0
 10
9.6770015946
 20
24.7974855261
 30
0.0
 10
9.6555024989
 20
24.7683030043
 30
0.0
 10
9.6311301861
 20
24.7224725286
 30
0.0
 10
9.6110649514
 20
24.6544831161
 30
0.0
 10
9.6064707137
 20
24.5966922266
 30
0.0
 10
9.6064707137
 20
24.5662924732
 30
0.0
  0
SPLINE
  5
2A0
100
AcDbEntity
  8
0
100
AcDbSpline
 62
7
  6
BYLAYER
 70
0
 71
3
 72
25
 73
21
 74
0
 42
0.0000001
 43
0.0000001
 44
0.0000000001
 40
0.0
 40
0.0
 40
0.0
 40
0.0
 40
0.0752450614
 40
0.1515579758
 40
0.2281936557
 40
0.3044600222
 40
0.3796421958
 40
0.4530570181
 40
0.5240615266
 40
0.592069415
 40
0.6565726782
 40
0.7171667054
 40
0.7735821114
 40
0.8257332624
 40
0.8737727344
 40
0.9181569828
 40
0.9392793533
 40
0.9598673012
 40
0.9800613082
 40
1.0
 40
1.0
 40
1.0
 40
1.0
 10
11.1392138896
 20
29.2355321255
 30
0.0
 10
11.2410294625
 20
29.1125231453
 30
0.0
 10
11.4373789638
 20
28.8574072597
 30
0.0
 10
11.7063481476
 20
28.4543058579
 30
0.0
 10
11.9490293421
 20
28.0323265453
 30
0.0
 10
12.1621069555
 20
27.5973252152
 30
0.0
 10
12.3426803623
 20
27.1552134223
 30
0.0
 10
12.4883260709
 20
26.7121114372
 30
0.0
 10
12.5971244795
 20
26.2741852333
 30
0.0
 10
12.6676940557
 20
25.847600623
 30
0.0
 10
12.6992421584
 20
25.4384496585
 30
0.0
 10
12.6916245005
 20
25.0526572268
 30
0.0
 10
12.6454340028
 20
24.6958510706
 30
0.0
 10
12.5619288192
 20
24.373143883
 30
0.0
 10
12.4430914778
 20
24.0890462271
 30
0.0
 10
12.3144538699
 20
23.8836951113
 30
0.0
 10
12.1965940796
 20
23.7437730375
 30
0.0
 10
12.102566842
 20
23.6517205677
 30
0.0
 10
12.0018694364
 20
23.5709948763
 30
0.0
 10
11.9302398456
 20
23.5246037115
 30
0.0
 10
11.8935961081
 20
23.5034475661
 30
0.0
  0
SPLINE
  5
2A1
100
AcDbEntity
  8
0
100
AcDbSpline
 62
7
  6
BYLAYER
 70
0
 71
3
 72
22
 73
18
 74
0
 42
0.0000001
 43
0.0000001
 44
0.0000000001
 40
0.0
 40
0.0
 40
0.0
 40
0.0
 40
0.0442589062
 40
0.0894620885
 40
0.1361926754
 40
0.1850461477
 40
0.2365596828
 40
0.2910535631
 40
0.3487140374
 40
0.4096202575
 40
0.4737681313
 40
0.5410736921
 40
0.6113942598
 40
0.6845291576
 40
0.7602405477
 40
0.838273924
 40
1.0
 40
1.0
 40
1.0
 40
1.0
 10
7.7436146871
 20
30.6914691441
 30
0.0
 10
7.7940795494
 20
30.720604872
 30
0.0
 10
7.9003884944
 20
30.7723612552
 30
0.0
 10
8.0713962026
 20
30.828027792
 30
0.0
 10
8.2542424671
 20
30.8615324986
 30
0.0
 10
8.4480848628
 20
30.8722997524
 30
0.0
 10
8.6520178313
 20
30.8599065249
 30
0.0
 10
8.8648881957
 20
30.8241346369
 30
0.0
 10
9.0851838284
 20
30.7646787712
 30
0.0
 10
9.3113022322
 20
30.6817491335
 30
0.0
 10
9.5415293209
 20
30.5756196637
 30
0.0
 10
9.7741835125
 20
30.4469242882
 30
0.0
 10
10.0075078203
 20
30.2963597686
 30
0.0
 10
10.2398460659
 20
30.1249413608
 30
0.0
 10
10.4695407131
 20
29.9337055645
 30
0.0
 10
10.773726519
 20
29.6506663515
 30
0.0
 10
10.9875625696
 20
29.4174914447
 30
0.0
 10
11.123916495
 20
29.2539467688
 30
0.0
  0
SPLINE
  5
2A2
100
AcDbEntity
  8
0
100
AcDbSpline
 62
7
  6
BYLAYER
 70
0
 71
3
 72
18
 73
14
 74
0
 42
0.0000001
 43
0.0000001
 44
0.0000000001
 40
0.0
 40
0.0
 40
0.0
 40
0.0
 40
0.0496234571
 40
0.1002015423
 40
0.152054993
 40
0.2054616651
 40
0.3176712882
 40
0.3768862302
 40
0.4382502995
 40
0.5673969557
 40
0.7048103372
 40
0.84949823
 40
1.0
 40
1.0
 40
1.0
 40
1.0
 10
12.0278405424
 20
22.4727550942
 30
0.0
 10
11.9534464732
 20
22.448983389
 30
0.0
 10
11.8001558218
 20
22.4101163176
 30
0.0
 10
11.5624712747
 20
22.3784280602
 30
0.0
 10
11.3167920462
 20
22.372783988
 30
0.0
 10
10.9751186179
 20
22.3998324086
 30
0.0
 10
10.627920128
 20
22.4785732143
 30
0.0
 10
10.2824671662
 20
22.6012251304
 30
0.0
 10
9.9225023378
 20
22.7598679001
 30
0.0
 10
9.4730675667
 20
23.0166850434
 30
0.0
 10
8.9516744066
 20
23.4023107667
 30
0.0
 10
8.448549282
 20
23.8626388296
 30
0.0
 10
8.1364842159
 20
24.2078295169
 30
0.0
 10
7.9854523216
 20
24.3902994152
 30
0.0
  0
SPLINE
  5
2A3
100
AcDbEntity
  8
0
100
AcDbSpline
 62
7
  6
BYLAYER
 70
0
 71
3
 72
23
 73
19
 74
0
 42
0.0000001
 43
0.0000001
 44
0.0000000001
 40
0.0
 40
0.0
 40
0.0
 40
0.0
 40
0.0714599712
 40
0.1437780874
 40
0.2163959316
 40
0.288790624
 40
0.3604204079
 40
0.4307718017
 40
0.4993686937
 40
0.5657871353
 40
0.6296740316
 40
0.6907670248
 40
0.7489138007
 40
0.8040913017
 40
0.8564257965
 40
0.9062055124
 40
0.9538676667
 40
1.0
 40
1.0
 40
1.0
 40
1.0
 10
7.9665646863
 20
24.4132040136
 30
0.0
 10
7.8522440715
 20
24.5523565534
 30
0.0
 10
7.6314513626
 20
24.8400383277
 30
0.0
 10
7.3273764821
 20
25.2931607019
 30
0.0
 10
7.0510355108
 20
25.7664632582
 30
0.0
 10
6.8055427408
 20
26.2545317324
 30
0.0
 10
6.5936877226
 20
26.7519268696
 30
0.0
 10
6.417880012
 20
27.2530663265
 30
0.0
 10
6.2801376493
 20
27.7523984783
 30
0.0
 10
6.1820905136
 20
28.2444620195
 30
0.0
 10
6.1249787363
 20
28.7239612923
 30
0.0
 10
6.1096642467
 20
29.1858345016
 30
0.0
 10
6.1367045564
 20
29.6252932944
 30
0.0
 10
6.206419672
 20
30.0378099171
 30
0.0
 10
6.3189163509
 20
30.4190164786
 30
0.0
 10
6.4741349984
 20
30.7645298976
 30
0.0
 10
6.6714060862
 20
31.0695881101
 30
0.0
 10
6.8321155455
 20
31.2448651199
 30
0.0
 10
6.9181343052
 20
31.3230787378
 30
0.0
  0
SPLINE
  5
2A4
100
AcDbEntity
  8
0
100
AcDbSpline
 62
7
  6
BYLAYER
 70
0
 71
3
 72
14
 73
10
 74
0
 42
0.0000001
 43
0.0000001
 44
0.0000000001
 40
0.0
 40
0.0
 40
0.0
 40
0.0
 40
0.2702263774
 40
0.3989492258
 40
0.5239579679
 40
0.6458460814
 40
0.7652969786
 40
0.8830743354
 40
1.0
 40
1.0
 40
1.0
 40
1.0
 10
12.7712965292
 20
22.6727747933
 30
0.0
 10
12.929417738
 20
22.638054144
 30
0.0
 10
13.1671958315
 20
22.6031824461
 30
0.0
 10
13.4813472286
 20
22.5975112269
 30
0.0
 10
13.7061368252
 20
22.6135324348
 30
0.0
 10
13.9229457505
 20
22.6497225535
 30
0.0
 10
14.1309834282
 20
22.7059825118
 30
0.0
 10
14.329400643
 20
22.7821325913
 30
0.0
 10
14.4549774806
 20
22.8460601108
 30
0.0
 10
14.5156411762
 20
22.8810841477
 30
0.0
  0
SPLINE
  5
2A5
100
AcDbEntity
  8
0
100
AcDbSpline
 62
7
  6
BYLAYER
 70
0
 71
3
 72
15
 73
11
 74
0
 42
0.0000001
 43
0.0000001
 44
0.0000000001
 40
0.0
 40
0.0
 40
0.0
 40
0.0
 40
0.1486058177
 40
0.2895003741
 40
0.4227225657
 40
0.5486426469
 40
0.6680011788
 40
0.7819384642
 40
0.8919873012
 40
1.0
 40
1.0
 40
1.0
 40
1.0
 10
19.6473794518
 20
27.8731860996
 30
0.0
 10
19.6473805529
 20
27.7169024259
 30
0.0
 10
19.6348009922
 20
27.4122336176
 30
0.0
 10
19.5748125946
 20
26.9710299429
 30
0.0
 10
19.4746323176
 20
26.5615344958
 30
0.0
 10
19.33503103
 20
26.1876687431
 30
0.0
 10
19.1570735019
 20
25.8530696345
 30
0.0
 10
18.9421319228
 20
25.5611620717
 30
0.0
 10
18.6922227968
 20
25.3152079456
 30
0.0
 10
18.5030870571
 20
25.1832234315
 30
0.0
 10
18.4047122809
 20
25.126426994
 30
0.0
  0
SPLINE
  5
2A6
100
AcDbEntity
  8
0
100
AcDbSpline
 62
7
  6
BYLAYER
 70
0
 71
3
 72
23
 73
19
 74
0
 42
0.0000001
 43
0.0000001
 44
0.0000000001
 40
0.0
 40
0.0
 40
0.0
 40
0.0
 40
0.04748868
 40
0.0955812259
 40
0.1448439466
 40
0.1957763592
 40
0.2487882553
 40
0.3041959121
 40
0.3622156474
 40
0.4229764675
 40
0.4865209697
 40
0.5528227298
 40
0.6217911236
 40
0.6932778025
 40
0.767085089
 40
0.8429932614
 40
0.9207507336
 40
1.0
 40
1.0
 40
1.0
 40
1.0
 10
15.1338945661
 20
36.3438534685
 30
0.0
 10
15.2056271613
 20
36.3852642868
 30
0.0
 10
15.356038177
 20
36.4586184156
 30
0.0
 10
15.5969026113
 20
36.5372336454
 30
0.0
 10
15.851950182
 20
36.5843736033
 30
0.0
 10
16.1193723943
 20
36.5997423798
 30
0.0
 10
16.3974033165
 20
36.5834407839
 30
0.0
 10
16.6842408699
 20
36.5356184986
 30
0.0
 10
16.9780816113
 20
36.4567311974
 30
0.0
 10
17.2770638571
 20
36.3472936593
 30
0.0
 10
17.5793256894
 20
36.2080844371
 30
0.0
 10
17.8829550375
 20
36.0399884717
 30
0.0
 10
18.1860357816
 20
35.8441000414
 30
0.0
 10
18.4866423587
 20
35.6216902648
 30
0.0
 10
18.7828657751
 20
35.3741746252
 30
0.0
 10
19.0728505161
 20
35.1031138963
 30
0.0
 10
19.3546571174
 20
34.8102724065
 30
0.0
 10
19.5344290306
 20
34.6035228999
 30
0.0
 10
19.6225633236
 20
34.4970430246
 30
0.0
  0
SPLINE
  5
2A7
100
AcDbEntity
  8
0
100
AcDbSpline
 62
7
  6
BYLAYER
 70
0
 71
3
 72
15
 73
11
 74
0
 42
0.0000001
 43
0.0000001
 44
0.0000000001
 40
0.0
 40
0.0
 40
0.0
 40
0.0
 40
0.1080127572
 40
0.21806165
 40
0.3319990073
 40
0.4513576276
 40
0.5772777375
 40
0.7105000912
 40
0.8513948522
 40
1.0
 40
1.0
 40
1.0
 40
1.0
 10
12.4047391423
 20
35.5187473474
 30
0.0
 10
12.5031139586
 20
35.575543808
 30
0.0
 10
12.7119844952
 20
35.6733466011
 30
0.0
 10
13.0499421229
 20
35.7667956837
 30
0.0
 10
13.4102127046
 20
35.8069848356
 30
0.0
 10
13.7889628514
 20
35.7937987619
 30
0.0
 10
14.1825406631
 20
35.7277623337
 30
0.0
 10
14.5872639778
 20
35.609770845
 30
0.0
 10
14.9993501516
 20
35.4411176792
 30
0.0
 10
15.2694902534
 20
35.2996775173
 30
0.0
 10
15.404834355
 20
35.221534481
 30
0.0
  0
SPLINE
  5
2A8
100
AcDbEntity
  8
0
100
AcDbSpline
 62
7
  6
BYLAYER
 70
0
 71
3
 72
14
 73
10
 74
0
 42
0.0000001
 43
0.0000001
 44
0.0000000001
 40
0.0
 40
0.0
 40
0.0
 40
0.0
 40
0.1169276835
 40
0.2347068145
 40
0.3541590487
 40
0.4760478354
 40
0.6010564772
 40
0.7297783157
 40
1.0
 40
1.0
 40
1.0
 40
1.0
 10
8.5156680377
 20
33.2734045011
 30
0.0
 10
8.4550133614
 20
33.2383856715
 30
0.0
 10
8.3368788424
 20
33.1616098382
 30
0.0
 10
8.1717435261
 20
33.0278756493
 30
0.0
 10
8.019019612
 20
32.8758697795
 30
0.0
 10
7.8792864723
 20
32.7062380716
 30
0.0
 10
7.7530257175
 20
32.5196147606
 30
0.0
 10
7.6008672455
 20
32.2447764992
 30
0.0
 10
7.5121745985
 20
32.021466938
 30
0.0
 10
7.4631777328
 20
31.8672024247
 30
0.0
  0
SPLINE
  5
2A9
100
AcDbEntity
  8
0
100
AcDbSpline
 62
7
  6
BYLAYER
 70
0
 71
3
 72
21
 73
17
 74
0
 42
0.0000001
 43
0.0000001
 44
0.0000000001
 40
0.0
 40
0.0
 40
0.0
 40
0.0
 40
0.0623711543
 40
0.1287900918
 40
0.1984177232
 40
0.2704146203
 40
0.4174559661
 40
0.5616826335
 40
0.6303108501
 40
0.6954246608
 40
0.7563979411
 40
0.8128595831
 40
0.8647811301
 40
0.9125792054
 40
0.9571719799
 40
1.0
 40
1.0
 40
1.0
 40
1.0
 10
10.4550023839
 20
24.0764035678
 30
0.0
 10
10.4550023839
 20
24.1012794013
 30
0.0
 10
10.4516109689
 20
24.1526781276
 30
0.0
 10
10.43776321
 20
24.2307255368
 30
0.0
 10
10.4151883623
 20
24.3107083004
 30
0.0
 10
10.3738865012
 20
24.418314072
 30
0.0
 10
10.3045805185
 20
24.5463700997
 30
0.0
 10
10.2157383798
 20
24.6601273482
 30
0.0
 10
10.135788681
 20
24.7371601722
 30
0.0
 10
10.0745105828
 20
24.7851190122
 30
0.0
 10
10.012251788
 20
24.8232149771
 30
0.0
 10
9.9502574783
 20
24.85061375
 30
0.0
 10
9.8897661653
 20
24.8666790094
 30
0.0
 10
9.8319667181
 20
24.870946432
 30
0.0
 10
9.778143755
 20
24.863043378
 30
0.0
 10
9.7455310045
 20
24.8495043026
 30
0.0
 10
9.7307392768
 20
24.840961653
 30
0.0
  0
SPLINE
  5
2AA
100
AcDbEntity
  8
0
100
AcDbSpline
 62
7
  6
BYLAYER
 70
0
 71
3
 72
9
 73
5
 74
0
 42
0.0000001
 43
0.0000001
 44
0.0000000001
 40
0.0
 40
0.0
 40
0.0
 40
0.0
 40
0.5180960765
 40
1.0
 40
1.0
 40
1.0
 40
1.0
 10
9.6064707137
 20
24.1119926121
 30
0.0
 10
9.7423631628
 20
24.0106093683
 30
0.0
 10
10.0152599472
 20
23.8285885717
 30
0.0
 10
10.3090188338
 20
23.6817554168
 30
0.0
 10
10.4550023839
 20
23.6221037067
 30
0.0
  0
SPLINE
  5
2AB
100
AcDbEntity
  8
0
100
AcDbSpline
 62
7
  6
BYLAYER
 70
0
 71
3
 72
16
 73
12
 74
0
 42
0.0000001
 43
0.0000001
 44
0.0000000001
 40
0.0
 40
0.0
 40
0.0
 40
0.0
 40
0.1203458293
 40
0.2516566437
 40
0.3894626901
 40
0.5284518725
 40
0.6631676918
 40
0.7886878058
 40
0.8468523234
 40
0.9015405811
 40
1.0
 40
1.0
 40
1.0
 40
1.0
 10
11.2503561518
 20
27.515806005
 30
0.0
 10
11.2503561518
 20
27.5509165483
 30
0.0
 10
11.2422705233
 20
27.624417505
 30
0.0
 10
11.2110475945
 20
27.734094699
 30
0.0
 10
11.1618902413
 20
27.8429873127
 30
0.0
 10
11.0975943282
 20
27.9448409621
 30
0.0
 10
11.0218420024
 20
28.0338440847
 30
0.0
 10
10.9509491117
 20
28.094653667
 30
0.0
 10
10.8920525064
 20
28.1318913131
 30
0.0
 10
10.8366979981
 20
28.1591095748
 30
0.0
 10
10.79302976
 20
28.1717235777
 30
0.0
 10
10.7644808358
 20
28.1749014315
 30
0.0
  0
SPLINE
  5
2AC
100
AcDbEntity
  8
0
100
AcDbSpline
 62
7
  6
BYLAYER
 70
0
 71
3
 72
14
 73
10
 74
0
 42
0.0000001
 43
0.0000001
 44
0.0000000001
 40
0.0
 40
0.0
 40
0.0
 40
0.0
 40
0.1203925647
 40
0.2520789749
 40
0.5284793067
 40
0.663272574
 40
0.7887729431
 40
0.9015760312
 40
1.0
 40
1.0
 40
1.0
 40
1.0
 10
9.9119332831
 20
27.0696671371
 30
0.0
 10
9.9119332831
 20
27.0766995482
 30
0.0
 10
9.9102931714
 20
27.0914421935
 30
0.0
 10
9.9018199026
 20
27.121214479
 30
0.0
 10
9.886437951
 20
27.1495455574
 30
0.0
 10
9.8660498697
 20
27.1734640577
 30
0.0
 10
9.8493830509
 20
27.1876891018
 30
0.0
 10
9.8321899907
 20
27.1974925157
 30
0.0
 10
9.8201490705
 20
27.2009660495
 30
0.0
 10
9.8144351864
 20
27.2016020766
 30
0.0
  0
SPLINE
  5
2AD
100
AcDbEntity
  8
0
100
AcDbSpline
 62
7
  6
BYLAYER
 70
0
 71
3
 72
10
 73
6
 74
0
 42
0.0000001
 43
0.0000001
 44
0.0000000001
 40
0.0
 40
0.0
 40
0.0
 40
0.0
 40
0.5112975496
 40
0.7543848841
 40
1.0
 40
1.0
 40
1.0
 40
1.0
 10
9.8144351864
 20
27.2016020766
 30
0.0
 10
9.8085087336
 20
27.2022617652
 30
0.0
 10
9.7993233483
 20
27.2014219855
 30
0.0
 10
9.7888679499
 20
27.1960298861
 30
0.0
 10
9.7845625882
 20
27.1921885902
 30
0.0
 10
9.7826619454
 20
27.1900454686
 30
0.0
  0
SPLINE
  5
2AE
100
AcDbEntity
  8
0
100
AcDbSpline
 62
7
  6
BYLAYER
 70
0
 71
3
 72
11
 73
7
 74
0
 42
0.0000001
 43
0.0000001
 44
0.0000000001
 40
0.0
 40
0.0
 40
0.0
 40
0.0
 40
0.22248818
 40
0.4505877012
 40
0.7067133848
 40
1.0
 40
1.0
 40
1.0
 40
1.0
 10
9.8808384849
 20
29.9071498103
 30
0.0
 10
9.8854487973
 20
29.9080889683
 30
0.0
 10
9.8945516394
 20
29.9119065319
 30
0.0
 10
9.9048188246
 20
29.9233275561
 30
0.0
 10
9.9107861494
 20
29.9389363972
 30
0.0
 10
9.9119332831
 20
29.9506174998
 30
0.0
 10
9.9119332831
 20
29.9568196841
 30
0.0
  0
SPLINE
  5
2AF
100
AcDbEntity
  8
0
100
AcDbSpline
 62
7
  6
BYLAYER
 70
0
 71
3
 72
14
 73
10
 74
0
 42
0.0000001
 43
0.0000001
 44
0.0000000001
 40
0.0
 40
0.0
 40
0.0
 40
0.0
 40
0.1203925647
 40
0.2520789749
 40
0.5284793067
 40
0.663272574
 40
0.7887729431
 40
0.9015760312
 40
1.0
 40
1.0
 40
1.0
 40
1.0
 10
9.9119332831
 20
29.9568196841
 30
0.0
 10
9.9119332831
 20
29.9638520952
 30
0.0
 10
9.9102931714
 20
29.9785947405
 30
0.0
 10
9.9018199026
 20
30.0083670259
 30
0.0
 10
9.886437951
 20
30.0366981044
 30
0.0
 10
9.8660498697
 20
30.0606166047
 30
0.0
 10
9.8493830509
 20
30.0748416488
 30
0.0
 10
9.8321899907
 20
30.0846450627
 30
0.0
 10
9.8201490705
 20
30.0881185965
 30
0.0
 10
9.8144351864
 20
30.0887546235
 30
0.0
  0
SPLINE
  5
2B0
100
AcDbEntity
  8
0
100
AcDbSpline
 62
7
  6
BYLAYER
 70
0
 71
3
 72
10
 73
6
 74
0
 42
0.0000001
 43
0.0000001
 44
0.0000000001
 40
0.0
 40
0.0
 40
0.0
 40
0.0
 40
0.5112975496
 40
0.7543848841
 40
1.0
 40
1.0
 40
1.0
 40
1.0
 10
9.8144351864
 20
30.0887546235
 30
0.0
 10
9.8085087336
 20
30.0894143121
 30
0.0
 10
9.7993233483
 20
30.0885745325
 30
0.0
 10
9.7888679499
 20
30.083182433
 30
0.0
 10
9.7845625882
 20
30.0793411372
 30
0.0
 10
9.7826619454
 20
30.0771980156
 30
0.0
  0
SPLINE
  5
2B1
100
AcDbEntity
  8
0
100
AcDbSpline
 62
7
  6
BYLAYER
 70
0
 71
3
 72
18
 73
14
 74
0
 42
0.0000001
 43
0.0000001
 44
0.0000000001
 40
0.0
 40
0.0
 40
0.0
 40
0.0
 40
0.1323021013
 40
0.2784225631
 40
0.4290716925
 40
0.5744487375
 40
0.705642705
 40
0.7641921267
 40
0.8177209316
 40
0.8666397653
 40
0.9120985931
 40
0.9558353253
 40
1.0
 40
1.0
 40
1.0
 40
1.0
 10
12.4122732712
 20
25.6261278292
 30
0.0
 10
12.4122732712
 20
25.6354037645
 30
0.0
 10
12.4094507028
 20
25.654944414
 30
0.0
 10
12.3991378376
 20
25.683371533
 30
0.0
 10
12.3833813044
 20
25.7102752822
 30
0.0
 10
12.3637220237
 20
25.7330874558
 30
0.0
 10
12.3448394557
 20
25.7475091955
 30
0.0
 10
12.3293379768
 20
25.7547697598
 30
0.0
 10
12.3184092741
 20
25.7578348939
 30
0.0
 10
12.3079828894
 20
25.7585862258
 30
0.0
 10
12.2983292336
 20
25.7569598178
 30
0.0
 10
12.2897492207
 20
25.7529559299
 30
0.0
 10
12.2850486399
 20
25.7488326898
 30
0.0
 10
12.2829956279
 20
25.746514667
 30
0.0
  0
SPLINE
  5
2B2
100
AcDbEntity
  8
0
100
AcDbSpline
 62
7
  6
BYLAYER
 70
0
 71
3
 72
25
 73
21
 74
0
 42
0.0000001
 43
0.0000001
 44
0.0000000001
 40
0.0
 40
0.0
 40
0.0
 40
0.0
 40
0.0738306431
 40
0.1486570337
 40
0.2237742122
 40
0.2985348691
 40
0.3722690156
 40
0.4443424947
 40
0.514169968
 40
0.5812324627
 40
0.6451029805
 40
0.7054734357
 40
0.7621838969
 40
0.8152570973
 40
0.8649373173
 40
0.9117230465
 40
0.9342834414
 40
0.956427469
 40
0.9782861549
 40
1.0
 40
1.0
 40
1.0
 40
1.0
 10
8.4117285852
 20
24.9360253116
 30
0.0
 10
8.3112171113
 20
25.0574587382
 30
0.0
 10
8.1174943573
 20
25.3092569817
 30
0.0
 10
7.852352086
 20
25.7071210419
 30
0.0
 10
7.613406741
 20
26.1235632517
 30
0.0
 10
7.4038437364
 20
26.5529425547
 30
0.0
 10
7.2264597827
 20
26.9895967488
 30
0.0
 10
7.0836100274
 20
27.4276969725
 30
0.0
 10
6.9771896355
 20
27.8614288194
 30
0.0
 10
6.9086298709
 20
28.2850563028
 30
0.0
 10
6.8788659859
 20
28.692997503
 30
0.0
 10
6.888336225
 20
29.0799116785
 30
0.0
 10
6.9370197735
 20
29.440757216
 30
0.0
 10
7.0245118927
 20
29.7708515626
 30
0.0
 10
7.149930755
 20
30.065763664
 30
0.0
 10
7.2868478684
 20
30.2815318503
 30
0.0
 10
7.4134137285
 20
30.4306487059
 30
0.0
 10
7.5153884028
 20
30.5299671399
 30
0.0
 10
7.6251913579
 20
30.6176677715
 30
0.0
 10
7.7034673797
 20
30.6682846315
 30
0.0
 10
7.7436158716
 20
30.6914670926
 30
0.0
  0
SPLINE
  5
2B3
100
AcDbEntity
  8
0
100
AcDbSpline
 62
7
  6
BYLAYER
 70
0
 71
3
 72
39
 73
35
 74
0
 42
0.0000001
 43
0.0000001
 44
0.0000000001
 40
0.0
 40
0.0
 40
0.0
 40
0.0
 40
0.0374643323
 40
0.0740039238
 40
0.1093967775
 40
0.1434812592
 40
0.1761157526
 40
0.2071975275
 40
0.2366743632
 40
0.2645516825
 40
0.290901853
 40
0.3158741371
 40
0.3397015867
 40
0.362698063
 40
0.3852453242
 40
0.4077656143
 40
0.4306836362
 40
0.4543881121
 40
0.4792022728
 40
0.5053695752
 40
0.5330497649
 40
0.5623242922
 40
0.5932066512
 40
0.6256505582
 40
0.6595602492
 40
0.6947998454
 40
0.7311992383
 40
0.7685615383
 40
0.8066696403
 40
0.8452916341
 40
0.8841826861
 40
0.9230942436
 40
0.9617900413
 40
1.0
 40
1.0
 40
1.0
 40
1.0
 10
8.0134775781
 20
24.4176559356
 30
0.0
 10
8.1130923856
 20
24.2980525184
 30
0.0
 10
8.316912591
 20
24.0675527446
 30
0.0
 10
8.6388208772
 20
23.746262352
 30
0.0
 10
8.9707004569
 20
23.456133681
 30
0.0
 10
9.3093491717
 20
23.1999594749
 30
0.0
 10
9.6516028577
 20
22.9801320248
 30
0.0
 10
9.9942603181
 20
22.7987663662
 30
0.0
 10
10.3341393584
 20
22.6576307907
 30
0.0
 10
10.6680938604
 20
22.5581111948
 30
0.0
 10
10.993049824
 20
22.5012920844
 30
0.0
 10
11.3059764227
 20
22.4879511111
 30
0.0
 10
11.6038503718
 20
22.518473798
 30
0.0
 10
11.8836220578
 20
22.5928836415
 30
0.0
 10
12.1422162754
 20
22.7106570613
 30
0.0
 10
12.3767205056
 20
22.8705533736
 30
0.0
 10
12.5845566815
 20
23.0707354394
 30
0.0
 10
12.7636499008
 20
23.3088644226
 30
0.0
 10
12.9124518259
 20
23.5823003763
 30
0.0
 10
13.0297504231
 20
23.8882541159
 30
0.0
 10
13.1146525236
 20
24.223741715
 30
0.0
 10
13.166542404
 20
24.5855817877
 30
0.0
 10
13.1850137144
 20
24.9703830702
 30
0.0
 10
13.1699653357
 20
25.3745337696
 30
0.0
 10
13.1215917755
 20
25.7942345099
 30
0.0
 10
13.0403481702
 20
26.2255205072
 30
0.0
 10
12.9270254026
 20
26.6643068375
 30
0.0
 10
12.7827172104
 20
27.1064300687
 30
0.0
 10
12.6087779583
 20
27.5476805596
 30
0.0
 10
12.4068724275
 20
27.9838525841
 30
0.0
 10
12.1789467019
 20
28.4107895794
 30
0.0
 10
11.9271322443
 20
28.8244521225
 30
0.0
 10
11.6538592499
 20
29.220813836
 30
0.0
 10
11.4574921483
 20
29.4731494085
 30
0.0
 10
11.356268375
 20
29.5954434032
 30
0.0
  0
SPLINE
  5
2B4
100
AcDbEntity
  8
0
100
AcDbSpline
 62
7
  6
BYLAYER
 70
0
 71
3
 72
39
 73
35
 74
0
 42
0.0000001
 43
0.0000001
 44
0.0000000001
 40
0.0
 40
0.0
 40
0.0
 40
0.0
 40
0.0361002248
 40
0.0710097214
 40
0.1045650258
 40
0.1366711234
 40
0.1672625179
 40
0.1963143085
 40
0.2238592064
 40
0.2370990633
 40
0.250002781
 40
0.2748808787
 40
0.2987383335
 40
0.321875036
 40
0.3446447922
 40
0.3674313988
 40
0.3906172579
 40
0.4145522775
 40
0.4395308525
 40
0.45249135
 40
0.4657914507
 40
0.4934646355
 40
0.5226499311
 40
0.5533740419
 40
0.5856103643
 40
0.6192886826
 40
0.6543000271
 40
0.6905046509
 40
0.727737558
 40
0.7658117518
 40
0.8436393824
 40
0.9222858136
 40
0.9613823793
 40
1.0
 40
1.0
 40
1.0
 40
1.0
 10
10.7851700174
 20
30.2125186541
 30
0.0
 10
10.6841852637
 20
30.3097082632
 30
0.0
 10
10.4796745848
 20
30.4949096419
 30
0.0
 10
10.1613716144
 20
30.7473631374
 30
0.0
 10
9.8388318535
 20
30.968049076
 30
0.0
 10
9.5148373849
 20
31.1550531722
 30
0.0
 10
9.1920666494
 20
31.3068329415
 30
0.0
 10
8.8732128121
 20
31.4220133497
 30
0.0
 10
8.6094896511
 20
31.487494348
 30
0.0
 10
8.4034643602
 20
31.5198913197
 30
0.0
 10
8.2061794915
 20
31.5387656767
 30
0.0
 10
7.9661055883
 20
31.5389357634
 30
0.0
 10
7.6888116799
 20
31.4999960405
 30
0.0
 10
7.4282805042
 20
31.4220144088
 30
0.0
 10
7.1870839765
 20
31.3055419106
 30
0.0
 10
6.9675953866
 20
31.1517003317
 30
0.0
 10
6.7719447472
 20
30.9620221634
 30
0.0
 10
6.6018561625
 20
30.7384886758
 30
0.0
 10
6.4839488868
 20
30.5283286506
 30
0.0
 10
6.4032559912
 20
30.3463916899
 30
0.0
 10
6.3299622664
 20
30.1501226192
 30
0.0
 10
6.2569420784
 20
29.887097473
 30
0.0
 10
6.199835685
 20
29.5513758137
 30
0.0
 10
6.1724850353
 20
29.1942122145
 30
0.0
 10
6.1750451034
 20
28.8186365659
 30
0.0
 10
6.2074861163
 20
28.4277973914
 30
0.0
 10
6.2695002378
 20
28.0249917231
 30
0.0
 10
6.3605432671
 20
27.6136255829
 30
0.0
 10
6.4798628846
 20
27.1971825614
 30
0.0
 10
6.6766811551
 20
26.635876214
 30
0.0
 10
6.9863837907
 20
25.9452176175
 30
0.0
 10
7.3696069644
 20
25.2879653563
 30
0.0
 10
7.7166882041
 20
24.7896291068
 30
0.0
 10
7.902502243
 20
24.551673598
 30
0.0
 10
7.9981009715
 20
24.4361755414
 30
0.0
  0
SPLINE
  5
2B5
100
AcDbEntity
  8
0
100
AcDbSpline
 62
7
  6
BYLAYER
 70
0
 71
3
 72
9
 73
5
 74
0
 42
0.0000001
 43
0.0000001
 44
0.0000000001
 40
0.0
 40
0.0
 40
0.0
 40
0.0
 40
0.2540563906
 40
1.0
 40
1.0
 40
1.0
 40
1.0
 10
11.356268375
 20
29.5954434032
 30
0.0
 10
11.3108541889
 20
29.6503107733
 30
0.0
 10
11.1291909351
 20
29.8638457148
 30
0.0
 10
10.9358469387
 20
30.0675043768
 30
0.0
 10
10.7851700174
 20
30.2125186541
 30
0.0
  0
SPLINE
  5
2B6
100
AcDbEntity
  8
0
100
AcDbSpline
 62
7
  6
BYLAYER
 70
0
 71
3
 72
27
 73
23
 74
0
 42
0.0000001
 43
0.0000001
 44
0.0000000001
 40
0.0
 40
0.0
 40
0.0
 40
0.0
 40
0.075546406
 40
0.1520725954
 40
0.2287785328
 40
0.3048985924
 40
0.379660306
 40
0.4523451447
 40
0.5222992292
 40
0.5889685562
 40
0.6519314265
 40
0.7109350398
 40
0.7659413391
 40
0.8171767933
 40
0.8415592166
 40
0.8652274918
 40
0.8883010143
 40
0.9109170973
 40
0.9332287302
 40
0.9554003635
 40
0.9776012851
 40
1.0
 40
1.0
 40
1.0
 40
1.0
 10
11.1708241809
 20
29.2583990383
 30
0.0
 10
11.2830240241
 20
29.1216514081
 30
0.0
 10
11.4985071139
 20
28.8377086384
 30
0.0
 10
11.7908557791
 20
28.3883339757
 30
0.0
 10
12.0510812413
 20
27.9180570931
 30
0.0
 10
12.275235931
 20
27.4341043727
 30
0.0
 10
12.4599049476
 20
26.9437695691
 30
0.0
 10
12.602284698
 20
26.4545036209
 30
0.0
 10
12.7002159446
 20
25.9736976286
 30
0.0
 10
12.7521956031
 20
25.5085850848
 30
0.0
 10
12.7573907174
 20
25.0661238749
 30
0.0
 10
12.715571665
 20
24.6528533246
 30
0.0
 10
12.6271655114
 20
24.2749684549
 30
0.0
 10
12.5134313843
 20
23.9894700833
 30
0.0
 10
12.3998254109
 20
23.7863325863
 30
0.0
 10
12.3054392393
 20
23.6488253405
 30
0.0
 10
12.2008547359
 20
23.5242437776
 30
0.0
 10
12.086464533
 20
23.4130837455
 30
0.0
 10
11.9626916457
 20
23.3158425403
 30
0.0
 10
11.8300595692
 20
23.2328822152
 30
0.0
 10
11.6891026737
 20
23.1645936008
 30
0.0
 10
11.5906000824
 20
23.1292438103
 30
0.0
 10
11.5403917208
 20
23.1140916811
 30
0.0
  0
SPLINE
  5
2B7
100
AcDbEntity
  8
0
100
AcDbSpline
 62
7
  6
BYLAYER
 70
0
 71
3
 72
17
 73
13
 74
0
 42
0.0000001
 43
0.0000001
 44
0.0000000001
 40
0.0
 40
0.0
 40
0.0
 40
0.0
 40
0.047460244
 40
0.0961987437
 40
0.1465689385
 40
0.198862847
 40
0.3099355576
 40
0.4305383703
 40
0.5607552377
 40
0.6999374229
 40
0.8468983812
 40
1.0
 40
1.0
 40
1.0
 40
1.0
 10
11.5403917208
 20
23.1140916811
 30
0.0
 10
11.4811259422
 20
23.0962061594
 30
0.0
 10
11.3586784475
 20
23.0672453017
 30
0.0
 10
11.1684312394
 20
23.0449005807
 30
0.0
 10
10.9705809695
 20
23.0431725015
 30
0.0
 10
10.6925764068
 20
23.0688912129
 30
0.0
 10
10.3303139876
 20
23.1554059067
 30
0.0
 10
9.8925801893
 20
23.3361780995
 30
0.0
 10
9.4512657028
 20
23.5918514547
 30
0.0
 10
9.0150342116
 20
23.9171283332
 30
0.0
 10
8.5925351631
 20
24.305397022
 30
0.0
 10
8.329840805
 20
24.5963715032
 30
0.0
 10
8.2025065256
 20
24.750211033
 30
0.0
  0
SPLINE
  5
2B8
100
AcDbEntity
  8
0
100
AcDbSpline
 62
7
  6
BYLAYER
 70
0
 71
3
 72
15
 73
11
 74
0
 42
0.0000001
 43
0.0000001
 44
0.0000000001
 40
0.0
 40
0.0
 40
0.0
 40
0.0
 40
0.1453085963
 40
0.2844678244
 40
0.417310931
 40
0.5440129669
 40
0.6649538368
 40
0.7807017142
 40
0.8920424774
 40
1.0
 40
1.0
 40
1.0
 40
1.0
 10
6.6012573258
 20
28.7916568065
 30
0.0
 10
6.6012573258
 20
28.8865392636
 30
0.0
 10
6.6077154733
 20
29.0723731783
 30
0.0
 10
6.6380684603
 20
29.3434543622
 30
0.0
 10
6.6888253708
 20
29.5991491076
 30
0.0
 10
6.7596276638
 20
29.8377008598
 30
0.0
 10
6.850111207
 20
30.057538649
 30
0.0
 10
6.9597125864
 20
30.257214144
 30
0.0
 10
7.0878120332
 20
30.435241442
 30
0.0
 10
7.1862193695
 20
30.5399689396
 30
0.0
 10
7.2379518113
 20
30.587854768
 30
0.0
  0
SPLINE
  5
2B9
100
AcDbEntity
  8
0
100
AcDbSpline
 62
7
  6
BYLAYER
 70
0
 71
3
 72
23
 73
19
 74
0
 42
0.0000001
 43
0.0000001
 44
0.0000000001
 40
0.0
 40
0.0
 40
0.0
 40
0.0
 40
0.0488302525
 40
0.0973036846
 40
0.1461744289
 40
0.1961662855
 40
0.2479227181
 40
0.3019732314
 40
0.3587143995
 40
0.4184147847
 40
0.4812144646
 40
0.5471490151
 40
0.6161557013
 40
0.6880892311
 40
0.7627286979
 40
0.839816404
 40
0.9190516545
 40
1.0
 40
1.0
 40
1.0
 40
1.0
 10
7.2379518113
 20
30.587854768
 30
0.0
 10
7.2926955904
 20
30.6385280229
 30
0.0
 10
7.4094404417
 20
30.7316211148
 30
0.0
 10
7.6040304517
 20
30.8428863402
 30
0.0
 10
7.8150298465
 20
30.9237252282
 30
0.0
 10
8.0405032447
 20
30.9734732248
 30
0.0
 10
8.2785215072
 20
30.991895071
 30
0.0
 10
8.5271336534
 20
30.9789618082
 30
0.0
 10
8.7843985
 20
30.934983788
 30
0.0
 10
9.0483351828
 20
30.8603529992
 30
0.0
 10
9.3169636176
 20
30.7557861687
 30
0.0
 10
9.5882310911
 20
30.6220857153
 30
0.0
 10
9.8600886701
 20
30.4603402132
 30
0.0
 10
10.1304411903
 20
30.2718056624
 30
0.0
 10
10.3972263055
 20
30.0579550985
 30
0.0
 10
10.6584151784
 20
29.8204125947
 30
0.0
 10
10.9119008027
 20
29.5610502333
 30
0.0
 10
11.0730125503
 20
29.3766712501
 30
0.0
 10
11.1518627348
 20
29.2814080157
 30
0.0
  0
SPLINE
  5
2BA
100
AcDbEntity
  8
0
100
AcDbSpline
 62
7
  6
BYLAYER
 70
0
 71
3
 72
15
 73
11
 74
0
 42
0.0000001
 43
0.0000001
 44
0.0000000001
 40
0.0
 40
0.0
 40
0.0
 40
0.0
 40
0.1293672771
 40
0.2605099173
 40
0.3918460899
 40
0.52183356
 40
0.6489544628
 40
0.7718007184
 40
0.8891544134
 40
1.0
 40
1.0
 40
1.0
 40
1.0
 10
8.2025065256
 20
24.750211033
 30
0.0
 10
8.0808043508
 20
24.8972461081
 30
0.0
 10
7.847810683
 20
25.2035386759
 30
0.0
 10
7.5344417786
 20
25.6900188962
 30
0.0
 10
7.2589407804
 20
26.1999848901
 30
0.0
 10
7.0261800561
 20
26.7243464947
 30
0.0
 10
6.8402914096
 20
27.2538783477
 30
0.0
 10
6.704517724
 20
27.7792783551
 30
0.0
 10
6.6213143225
 20
28.2912336917
 30
0.0
 10
6.6012573258
 20
28.6281153274
 30
0.0
 10
6.6012573258
 20
28.7916568065
 30
0.0
  0
SPLINE
  5
2BB
100
AcDbEntity
  8
0
100
AcDbSpline
 62
7
  6
BYLAYER
 70
0
 71
3
 72
9
 73
5
 74
0
 42
0.0000001
 43
0.0000001
 44
0.0000000001
 40
0.0
 40
0.0
 40
0.0
 40
0.0
 40
0.2540563983
 40
1.0
 40
1.0
 40
1.0
 40
1.0
 10
11.5399029221
 20
29.765497004
 30
0.0
 10
11.4926827726
 20
29.8225462577
 30
0.0
 10
11.3037954452
 20
30.0445727597
 30
0.0
 10
11.1027628067
 20
30.2563301789
 30
0.0
 10
10.9460939972
 20
30.4071111611
 30
0.0
  0
SPLINE
  5
2BC
100
AcDbEntity
  8
0
100
AcDbSpline
 62
7
  6
BYLAYER
 70
0
 71
3
 72
11
 73
7
 74
0
 42
0.0000001
 43
0.0000001
 44
0.0000000001
 40
0.0
 40
0.0
 40
0.0
 40
0.0
 40
0.22248818
 40
0.4505877012
 40
0.7067133848
 40
1.0
 40
1.0
 40
1.0
 40
1.0
 10
9.8808384849
 20
27.0199972633
 30
0.0
 10
9.8854487973
 20
27.0209364213
 30
0.0
 10
9.8945516394
 20
27.0247539849
 30
0.0
 10
9.9048188246
 20
27.0361750091
 30
0.0
 10
9.9107861494
 20
27.0517838503
 30
0.0
 10
9.9119332831
 20
27.0634649528
 30
0.0
 10
9.9119332831
 20
27.0696671371
 30
0.0
  0
SPLINE
  5
2BD
100
AcDbEntity
  8
0
100
AcDbSpline
 62
7
  6
BYLAYER
 70
0
 71
3
 72
21
 73
17
 74
0
 42
0.0000001
 43
0.0000001
 44
0.0000000001
 40
0.0
 40
0.0
 40
0.0
 40
0.0
 40
0.0474935797
 40
0.095591123
 40
0.1448593944
 40
0.1957967394
 40
0.2488150687
 40
0.304227915
 40
0.3622549001
 40
0.4230212623
 40
0.4865734621
 40
0.5528824863
 40
0.6218598027
 40
0.6933525713
 40
0.8430286427
 40
1.0
 40
1.0
 40
1.0
 40
1.0
 10
11.8935949236
 20
23.5034496176
 30
0.0
 10
11.8379551484
 20
23.471322211
 30
0.0
 10
11.7212732506
 20
23.4144391621
 30
0.0
 10
11.5344422828
 20
23.3534355133
 30
0.0
 10
11.3365980089
 20
23.3168916827
 30
0.0
 10
11.1291595876
 20
23.3049456887
 30
0.0
 10
10.913492772
 20
23.3176151664
 30
0.0
 10
10.6909879102
 20
23.3546871656
 30
0.0
 10
10.4630619873
 20
23.4159019215
 30
0.0
 10
10.2311335329
 20
23.5007731802
 30
0.0
 10
9.9966753898
 20
23.6087735951
 30
0.0
 10
9.7611418886
 20
23.7391550422
 30
0.0
 10
9.5260438981
 20
23.8911171717
 30
0.0
 10
9.2103316753
 20
24.1247036313
 30
0.0
 10
8.8271357191
 20
24.4653034132
 30
0.0
 10
8.5471281799
 20
24.7724416319
 30
0.0
 10
8.4117285852
 20
24.9360253116
 30
0.0
  0
SPLINE
  5
2BE
100
AcDbEntity
  8
0
100
AcDbSpline
 62
7
  6
BYLAYER
 70
0
 71
3
 72
12
 73
8
 74
0
 42
0.0000001
 43
0.0000001
 44
0.0000000001
 40
0.0
 40
0.0
 40
0.0
 40
0.0
 40
0.1081703609
 40
0.2183752751
 40
0.4513293601
 40
0.710518119
 40
1.0
 40
1.0
 40
1.0
 40
1.0
 10
11.1468001701
 20
27.286913034
 30
0.0
 10
11.1549981036
 20
27.2916468117
 30
0.0
 10
11.1707537453
 20
27.3026566185
 30
0.0
 10
11.1990303011
 20
27.330457701
 30
0.0
 10
11.2270406885
 20
27.3761144408
 30
0.0
 10
11.2465033523
 20
27.4422856104
 30
0.0
 10
11.2503561518
 20
27.4904720559
 30
0.0
 10
11.2503561518
 20
27.515806005
 30
0.0
  0
SPLINE
  5
2BF
100
AcDbEntity
  8
0
100
AcDbSpline
 62
7
  6
BYLAYER
 70
0
 71
3
 72
22
 73
18
 74
0
 42
0.0000001
 43
0.0000001
 44
0.0000000001
 40
0.0
 40
0.0
 40
0.0
 40
0.0
 40
0.0803857407
 40
0.1586362264
 40
0.2344627686
 40
0.3076921863
 40
0.3781988939
 40
0.4458935055
 40
0.5107425924
 40
0.5727883975
 40
0.6888732209
 40
0.7435516309
 40
0.796417538
 40
0.8479385659
 40
0.8986519174
 40
0.9491405836
 40
1.0
 40
1.0
 40
1.0
 40
1.0
 10
10.9460939972
 20
30.4071111611
 30
0.0
 10
10.8585397939
 20
30.4913749581
 30
0.0
 10
10.6815008134
 20
30.6533169333
 30
0.0
 10
10.4073726975
 20
30.8782529457
 30
0.0
 10
10.1295462882
 20
31.0807846959
 30
0.0
 10
9.8497381924
 20
31.2597082065
 30
0.0
 10
9.5695311031
 20
31.4139682744
 30
0.0
 10
9.2905874762
 20
31.5426859572
 30
0.0
 10
9.0144278898
 20
31.6450487392
 30
0.0
 10
8.6602713563
 20
31.7433796222
 30
0.0
 10
8.3087276068
 20
31.7913441505
 30
0.0
 10
7.9702026686
 20
31.7805921379
 30
0.0
 10
7.7318345518
 20
31.744636914
 30
0.0
 10
7.5055849727
 20
31.6807402659
 30
0.0
 10
7.2928828032
 20
31.5892271975
 30
0.0
 10
7.0951710846
 20
31.4706903208
 30
0.0
 10
6.9750184883
 20
31.3747986822
 30
0.0
 10
6.9181370242
 20
31.3230747294
 30
0.0
  0
SPLINE
  5
2C0
100
AcDbEntity
  8
0
100
AcDbSpline
 62
7
  6
BYLAYER
 70
0
 71
3
 72
23
 73
19
 74
0
 42
0.0000001
 43
0.0000001
 44
0.0000000001
 40
0.0
 40
0.0
 40
0.0
 40
0.0
 40
0.0792482013
 40
0.1570060765
 40
0.2329147437
 40
0.3067219297
 40
0.3782085036
 40
0.4471774277
 40
0.5134794611
 40
0.5770241934
 40
0.6377848434
 40
0.6958046613
 40
0.75121227
 40
0.8042241307
 40
0.8551565409
 40
0.9044190543
 40
0.9525115513
 40
1.0
 40
1.0
 40
1.0
 40
1.0
 10
12.410104184
 20
30.3329526552
 30
0.0
 10
12.3219710293
 20
30.4394311552
 30
0.0
 10
12.1421993636
 20
30.6461795134
 30
0.0
 10
11.8603936995
 20
30.9390218073
 30
0.0
 10
11.5704075926
 20
31.2100833813
 30
0.0
 10
11.2741846794
 20
31.457600814
 30
0.0
 10
10.9735760855
 20
31.6800090417
 30
0.0
 10
10.6704959618
 20
31.8759011292
 30
0.0
 10
10.3668633122
 20
32.043995126
 30
0.0
 10
10.0646023741
 20
32.1832082232
 30
0.0
 10
9.7656183237
 20
32.2926419947
 30
0.0
 10
9.4717785922
 20
32.3715326056
 30
0.0
 10
9.1849403506
 20
32.4193523723
 30
0.0
 10
8.9069096669
 20
32.4356546754
 30
0.0
 10
8.6394874257
 20
32.4202871036
 30
0.0
 10
8.3844410715
 20
32.373143493
 30
0.0
 10
8.1435756595
 20
32.2945334894
 30
0.0
 10
7.9931664188
 20
32.2211759856
 30
0.0
 10
7.9214348694
 20
32.1797640758
 30
0.0
  0
SPLINE
  5
2C1
100
AcDbEntity
  8
0
100
AcDbSpline
 62
7
  6
BYLAYER
 70
0
 71
3
 72
23
 73
19
 74
0
 42
0.0000001
 43
0.0000001
 44
0.0000000001
 40
0.0
 40
0.0
 40
0.0
 40
0.0
 40
0.0462724876
 40
0.0923506659
 40
0.139230535
 40
0.1878252925
 40
0.2388858098
 40
0.29296202
 40
0.350397067
 40
0.4113419797
 40
0.4757832795
 40
0.543568963
 40
0.6144307278
 40
0.6880078635
 40
0.7638660152
 40
0.8415119184
 40
0.920411893
 40
1.0
 40
1.0
 40
1.0
 40
1.0
 10
12.0278389555
 20
22.4727583698
 30
0.0
 10
12.1272069504
 20
22.5045053112
 30
0.0
 10
12.3204466505
 20
22.5854910326
 30
0.0
 10
12.5844238398
 20
22.7583748102
 30
0.0
 10
12.816899679
 20
22.9794160815
 30
0.0
 10
13.0150901348
 20
23.2455352427
 30
0.0
 10
13.1770879622
 20
23.5533336921
 30
0.0
 10
13.301450264
 20
23.8992041186
 30
0.0
 10
13.3871272605
 20
24.2793231177
 30
0.0
 10
13.4334357245
 20
24.6895953284
 30
0.0
 10
13.4400125312
 20
25.1256455823
 30
0.0
 10
13.4068468039
 20
25.5828140288
 30
0.0
 10
13.3343505997
 20
26.0561944613
 30
0.0
 10
13.2233336888
 20
26.5406874291
 30
0.0
 10
13.0749962849
 20
27.0310485163
 30
0.0
 10
12.890950462
 20
27.521969032
 30
0.0
 10
12.6732170024
 20
28.008093539
 30
0.0
 10
12.5074640542
 20
28.3249050483
 30
0.0
 10
12.4195388251
 20
28.4813071133
 30
0.0
  0
SPLINE
  5
2C2
100
AcDbEntity
  8
0
100
AcDbSpline
 62
7
  6
BYLAYER
 70
0
 71
3
 72
25
 73
21
 74
0
 42
0.0000001
 43
0.0000001
 44
0.0000000001
 40
0.0
 40
0.0
 40
0.0
 40
0.0
 40
0.0738329985
 40
0.1486561008
 40
0.2237741785
 40
0.2985350056
 40
0.3722689335
 40
0.4443426094
 40
0.5141697824
 40
0.5812322132
 40
0.6451032142
 40
0.7054736344
 40
0.7621835835
 40
0.8152567539
 40
0.8649374603
 40
0.9117232373
 40
0.9342834602
 40
0.9564274162
 40
0.9782862422
 40
1.0
 40
1.0
 40
1.0
 40
1.0
 10
12.8697216782
 20
30.5983113552
 30
0.0
 10
12.9993008758
 20
30.4417596166
 30
0.0
 10
13.2490414561
 20
30.1171564943
 30
0.0
 10
13.5908466565
 20
29.6042441108
 30
0.0
 10
13.8988818421
 20
29.0673902731
 30
0.0
 10
14.1690429864
 20
28.5138511398
 30
0.0
 10
14.3977221441
 20
27.9509363178
 30
0.0
 10
14.5818770672
 20
27.3861568469
 30
0.0
 10
14.7190635038
 20
26.8270073704
 30
0.0
 10
14.8074483379
 20
26.2808851979
 30
0.0
 10
14.8458287707
 20
25.7549845721
 30
0.0
 10
14.8336171092
 20
25.2561912371
 30
0.0
 10
14.7708465143
 20
24.7910076065
 30
0.0
 10
14.658056361
 20
24.3654652202
 30
0.0
 10
14.4963851816
 20
23.9852692775
 30
0.0
 10
14.3198717984
 20
23.7071127356
 30
0.0
 10
14.1567090948
 20
23.5148769398
 30
0.0
 10
14.0252353886
 20
23.3868542988
 30
0.0
 10
13.8837016383
 20
23.2737700371
 30
0.0
 10
13.782781603
 20
23.2085302996
 30
0.0
 10
13.7310218619
 20
23.1786484729
 30
0.0
  0
SPLINE
  5
2C3
100
AcDbEntity
  8
0
100
AcDbSpline
 62
7
  6
BYLAYER
 70
0
 71
3
 72
25
 73
21
 74
0
 42
0.0000001
 43
0.0000001
 44
0.0000000001
 40
0.0
 40
0.0
 40
0.0
 40
0.0
 40
0.0217137578
 40
0.0435725838
 40
0.0657165398
 40
0.0882767627
 40
0.1350625397
 40
0.1847432461
 40
0.2378164165
 40
0.2945263656
 40
0.3548967858
 40
0.4187677868
 40
0.4858302176
 40
0.5556573906
 40
0.6277310665
 40
0.7014649944
 40
0.7762258215
 40
0.8513438992
 40
0.9261670015
 40
1.0
 40
1.0
 40
1.0
 40
1.0
 10
13.2714043677
 20
22.9132897729
 30
0.0
 10
13.3231641088
 20
22.9431715996
 30
0.0
 10
13.4240841441
 20
23.0084113371
 30
0.0
 10
13.5656178944
 20
23.1214955988
 30
0.0
 10
13.6970916006
 20
23.2495182398
 30
0.0
 10
13.8602543042
 20
23.4417540356
 30
0.0
 10
14.0367676874
 20
23.7199105775
 30
0.0
 10
14.1984388668
 20
24.1001065202
 30
0.0
 10
14.3112290201
 20
24.5256489064
 30
0.0
 10
14.373999615
 20
24.990832537
 30
0.0
 10
14.3862112765
 20
25.4896258721
 30
0.0
 10
14.3478308437
 20
26.0155264979
 30
0.0
 10
14.2594460096
 20
26.5616486704
 30
0.0
 10
14.122259573
 20
27.1207981469
 30
0.0
 10
13.9381046499
 20
27.6855776177
 30
0.0
 10
13.7094254922
 20
28.2484924398
 30
0.0
 10
13.4392643479
 20
28.8020315731
 30
0.0
 10
13.1312291623
 20
29.3388854107
 30
0.0
 10
12.7894239619
 20
29.8517977943
 30
0.0
 10
12.5396833816
 20
30.1764009165
 30
0.0
 10
12.410104184
 20
30.3329526552
 30
0.0
  0
SPLINE
  5
2C4
100
AcDbEntity
  8
0
100
AcDbSpline
 62
7
  6
BYLAYER
 70
0
 71
3
 72
11
 73
7
 74
0
 42
0.0000001
 43
0.0000001
 44
0.0000000001
 40
0.0
 40
0.0
 40
0.0
 40
0.0
 40
0.2229244128
 40
0.4509113799
 40
0.7067565742
 40
1.0
 40
1.0
 40
1.0
 40
1.0
 10
12.3812076267
 20
25.5763923944
 30
0.0
 10
12.3858199355
 20
25.5773652598
 30
0.0
 10
12.3948907524
 20
25.5812516115
 30
0.0
 10
12.4051666309
 20
25.5926502141
 30
0.0
 10
12.4111285661
 20
25.6082553427
 30
0.0
 10
12.4122732712
 20
25.6199271208
 30
0.0
 10
12.4122732712
 20
25.6261278292
 30
0.0
  0
SPLINE
  5
2C5
100
AcDbEntity
  8
0
100
AcDbSpline
 62
7
  6
BYLAYER
 70
0
 71
3
 72
15
 73
11
 74
0
 42
0.0000001
 43
0.0000001
 44
0.0000000001
 40
0.0
 40
0.0
 40
0.0
 40
0.0
 40
0.1293701092
 40
0.2605070034
 40
0.3918462069
 40
0.521833703
 40
0.6489540356
 40
0.7718041401
 40
0.8891501374
 40
1.0
 40
1.0
 40
1.0
 40
1.0
 10
17.4387644766
 20
33.4475506071
 30
0.0
 10
17.6066320587
 20
33.2447405703
 30
0.0
 10
17.9280011894
 20
32.8222788009
 30
0.0
 10
18.360225342
 20
32.151272491
 30
0.0
 10
18.7402333515
 20
31.4478870653
 30
0.0
 10
19.0612753847
 20
30.7246270245
 30
0.0
 10
19.3176855135
 20
29.994240734
 30
0.0
 10
19.5049401944
 20
29.2695608317
 30
0.0
 10
19.6197191186
 20
28.5634224955
 30
0.0
 10
19.6473778625
 20
28.0987676947
 30
0.0
 10
19.6473794518
 20
27.8731860996
 30
0.0
  0
SPLINE
  5
2C6
100
AcDbEntity
  8
0
100
AcDbSpline
 62
7
  6
BYLAYER
 70
0
 71
3
 72
26
 73
22
 74
0
 42
0.0000001
 43
0.0000001
 44
0.0000000001
 40
0.0
 40
0.0
 40
0.0
 40
0.0
 40
0.021712859
 40
0.0435706616
 40
0.0657136401
 40
0.0882730669
 40
0.1113672069
 40
0.1351004301
 40
0.184778625
 40
0.23784932
 40
0.2945570944
 40
0.3549251954
 40
0.4187932386
 40
0.4858525171
 40
0.5556766136
 40
0.6277474265
 40
0.70147799
 40
0.7762354291
 40
0.8513512382
 40
0.9261683646
 40
1.0
 40
1.0
 40
1.0
 40
1.0
 10
14.5156411762
 20
22.8810841477
 30
0.0
 10
14.5736888722
 20
22.9145978436
 30
0.0
 10
14.6868578522
 20
22.9877812153
 30
0.0
 10
14.8456036862
 20
23.1145861288
 30
0.0
 10
14.9930424615
 20
23.2581623218
 30
0.0
 10
15.1286507931
 20
23.4179652822
 30
0.0
 10
15.2520100534
 20
23.5934259419
 30
0.0
 10
15.4018154745
 20
23.8512981327
 30
0.0
 10
15.5553481418
 20
24.2121516109
 30
0.0
 10
15.6817902019
 20
24.6893249073
 30
0.0
 10
15.7521992918
 20
25.2110489547
 30
0.0
 10
15.7658819957
 20
25.7704387342
 30
0.0
 10
15.7228426674
 20
26.3602352955
 30
0.0
 10
15.6237236247
 20
26.972707729
 30
0.0
 10
15.4698721246
 20
27.599792224
 30
0.0
 10
15.2633388138
 20
28.2331887691
 30
0.0
 10
15.0068742106
 20
28.864494185
 30
0.0
 10
14.7038916903
 20
29.4852893054
 30
0.0
 10
14.3584323967
 20
30.0873622847
 30
0.0
 10
13.9751035378
 20
30.6625944671
 30
0.0
 10
13.6950195017
 20
31.0266312893
 30
0.0
 10
13.5496933719
 20
31.2022077608
 30
0.0
  0
SPLINE
  5
2C7
100
AcDbEntity
  8
0
100
AcDbSpline
 62
7
  6
BYLAYER
 70
0
 71
3
 72
15
 73
11
 74
0
 42
0.0000001
 43
0.0000001
 44
0.0000000001
 40
0.0
 40
0.0
 40
0.0
 40
0.0
 40
0.1108500945
 40
0.2281962168
 40
0.3510463805
 40
0.4781664113
 40
0.6081544319
 40
0.739491771
 40
0.8706320709
 40
1.0
 40
1.0
 40
1.0
 40
1.0
 10
19.6473788411
 20
28.4038950137
 30
0.0
 10
19.6473818259
 20
28.6050390671
 30
0.0
 10
19.6227108082
 20
29.0193569211
 30
0.0
 10
19.5203678776
 20
29.6489976076
 30
0.0
 10
19.353396648
 20
30.2951699729
 30
0.0
 10
19.1247652924
 20
30.9464321057
 30
0.0
 10
18.8385013975
 20
31.5913351808
 30
0.0
 10
18.4996638982
 20
32.2185265749
 30
0.0
 10
18.1142607715
 20
32.8168373504
 30
0.0
 10
17.8277072087
 20
33.1935356603
 30
0.0
 10
17.6780277712
 20
33.3743716015
 30
0.0
  0
SPLINE
  5
2C8
100
AcDbEntity
  8
0
100
AcDbSpline
 62
7
  6
BYLAYER
 70
0
 71
3
 72
11
 73
7
 74
0
 42
0.0000001
 43
0.0000001
 44
0.0000000001
 40
0.0
 40
0.0
 40
0.0
 40
0.0
 40
0.2654226625
 40
0.5219876773
 40
0.7674185833
 40
1.0
 40
1.0
 40
1.0
 40
1.0
 10
17.6780277712
 20
33.3743716015
 30
0.0
 10
17.5416129517
 20
33.53918183
 30
0.0
 10
17.2610520898
 20
33.8533963909
 30
0.0
 10
16.8128738877
 20
34.2807606509
 30
0.0
 10
16.3499416033
 20
34.6511425285
 30
0.0
 10
16.0267951354
 20
34.8624393105
 30
0.0
 10
15.8644400795
 20
34.9561741745
 30
0.0
  0
SPLINE
  5
2C9
100
AcDbEntity
  8
0
100
AcDbSpline
 62
7
  6
BYLAYER
 70
0
 71
3
 72
23
 73
19
 74
0
 42
0.0000001
 43
0.0000001
 44
0.0000000001
 40
0.0
 40
0.0
 40
0.0
 40
0.0
 40
0.0474884487
 40
0.0955809457
 40
0.1448434591
 40
0.1957758693
 40
0.24878773
 40
0.3041953387
 40
0.3622151566
 40
0.4229758066
 40
0.4865205389
 40
0.5528225723
 40
0.6217914964
 40
0.6932780703
 40
0.7670852563
 40
0.8429939235
 40
0.9207517987
 40
1.0
 40
1.0
 40
1.0
 40
1.0
 10
8.3810523636
 20
32.4451227759
 30
0.0
 10
8.452783913
 20
32.4865346856
 30
0.0
 10
8.6031931537
 20
32.5598921894
 30
0.0
 10
8.8440585657
 20
32.638502193
 30
0.0
 10
9.0991049198
 20
32.6856458036
 30
0.0
 10
9.3665271611
 20
32.7010133754
 30
0.0
 10
9.6445578448
 20
32.6847110723
 30
0.0
 10
9.9313960864
 20
32.6368913057
 30
0.0
 10
10.2252358178
 20
32.5580006947
 30
0.0
 10
10.5242198683
 20
32.4485669232
 30
0.0
 10
10.8264808064
 20
32.309353826
 30
0.0
 10
11.130113456
 20
32.1412598292
 30
0.0
 10
11.4331935797
 20
31.9453677417
 30
0.0
 10
11.7338021736
 20
31.722959514
 30
0.0
 10
12.0300250868
 20
31.4754420813
 30
0.0
 10
12.3200111937
 20
31.2043805073
 30
0.0
 10
12.6018168578
 20
30.9115382134
 30
0.0
 10
12.7815885235
 20
30.7047898553
 30
0.0
 10
12.8697216782
 20
30.5983113552
 30
0.0
  0
SPLINE
  5
2CA
100
AcDbEntity
  8
0
100
AcDbSpline
 62
7
  6
BYLAYER
 70
0
 71
3
 72
11
 73
7
 74
0
 42
0.0000001
 43
0.0000001
 44
0.0000000001
 40
0.0
 40
0.0
 40
0.0
 40
0.0
 40
0.2325800134
 40
0.4780150728
 40
0.7345715043
 40
1.0
 40
1.0
 40
1.0
 40
1.0
 10
15.404834355
 20
35.221534481
 30
0.0
 10
15.5869120701
 20
35.1164090612
 30
0.0
 10
15.9493264612
 20
34.8794473517
 30
0.0
 10
16.4684939875
 20
34.4640624552
 30
0.0
 10
16.9711289627
 20
33.984779429
 30
0.0
 10
17.2857725203
 20
33.6323885842
 30
0.0
 10
17.4387644766
 20
33.4475506071
 30
0.0
  0
SPLINE
  5
2CB
100
AcDbEntity
  8
0
100
AcDbSpline
 62
7
  6
BYLAYER
 70
0
 71
3
 72
23
 73
19
 74
0
 42
0.0000001
 43
0.0000001
 44
0.0000000001
 40
0.0
 40
0.0
 40
0.0
 40
0.0
 40
0.0792517124
 40
0.1570068395
 40
0.232913454
 40
0.3067216079
 40
0.3782092175
 40
0.4471773062
 40
0.5134795259
 40
0.5770241641
 40
0.6377849621
 40
0.6958047833
 40
0.7512121016
 40
0.8042244013
 40
0.8551562944
 40
0.9044192796
 40
0.9525114679
 40
1.0
 40
1.0
 40
1.0
 40
1.0
 10
13.5496933719
 20
31.2022077608
 30
0.0
 10
13.4508480588
 20
31.3216282072
 30
0.0
 10
13.2492363759
 20
31.5534988745
 30
0.0
 10
12.9331904647
 20
31.8819145763
 30
0.0
 10
12.6079797478
 20
32.1859059313
 30
0.0
 10
12.2757637004
 20
32.4634910756
 30
0.0
 10
11.9386373019
 20
32.7129315536
 30
0.0
 10
11.5987269158
 20
32.9326134369
 30
0.0
 10
11.2582109016
 20
33.121138989
 30
0.0
 10
10.9192223031
 20
33.277257938
 30
0.0
 10
10.5839153733
 20
33.3999931004
 30
0.0
 10
10.2543748492
 20
33.4884677691
 30
0.0
 10
9.9326864582
 20
33.5420900136
 30
0.0
 10
9.62087684
 20
33.560388679
 30
0.0
 10
9.3209657943
 20
33.5431297711
 30
0.0
 10
9.0349264204
 20
33.4902895606
 30
0.0
 10
8.7648084237
 20
33.4020935268
 30
0.0
 10
8.5961137546
 20
33.3198496399
 30
0.0
 10
8.5156680377
 20
33.2734045011
 30
0.0
  0
SPLINE
  5
2CC
100
AcDbEntity
  8
0
100
AcDbSpline
 62
7
  6
BYLAYER
 70
0
 71
3
 72
11
 73
7
 74
0
 42
0.0000001
 43
0.0000001
 44
0.0000000001
 40
0.0
 40
0.0
 40
0.0
 40
0.0
 40
0.2224606249
 40
0.4617901953
 40
0.7206798187
 40
1.0
 40
1.0
 40
1.0
 40
1.0
 10
40.9864682463
 20
51.8247083489
 30
0.0
 10
41.1567393676
 20
51.8461919749
 30
0.0
 10
41.5158171875
 20
51.8517354272
 30
0.0
 10
42.066156558
 20
51.7562957152
 30
0.0
 10
42.63549552
 20
51.5607484223
 30
0.0
 10
43.0073983003
 20
51.3732737358
 30
0.0
 10
43.1940151575
 20
51.2655308435
 30
0.0
  0
SPLINE
  5
2CD
100
AcDbEntity
  8
0
100
AcDbSpline
 62
7
  6
BYLAYER
 70
0
 71
3
 72
9
 73
5
 74
0
 42
0.0000001
 43
0.0000001
 44
0.0000000001
 40
0.0
 40
0.0
 40
0.0
 40
0.0
 40
0.2480763202
 40
1.0
 40
1.0
 40
1.0
 40
1.0
 10
23.8740825672
 20
29.1412126723
 30
0.0
 10
23.9257057424
 20
29.1273029497
 30
0.0
 10
24.1341935548
 20
29.0726969536
 30
0.0
 10
24.3441008733
 20
29.0235749838
 30
0.0
 10
24.5024495373
 20
28.9891320828
 30
0.0
  0
SPLINE
  5
2CE
100
AcDbEntity
  8
0
100
AcDbSpline
 62
7
  6
BYLAYER
 70
0
 71
3
 72
15
 73
11
 74
0
 42
0.0000001
 43
0.0000001
 44
0.0000000001
 40
0.0
 40
0.0
 40
0.0
 40
0.0
 40
0.1293604421
 40
0.2605108412
 40
0.3918435302
 40
0.5218322255
 40
0.6489511976
 40
0.7718024648
 40
0.8891496046
 40
1.0
 40
1.0
 40
1.0
 40
1.0
 10
45.3015647544
 20
49.4690292371
 30
0.0
 10
45.4638244508
 20
49.2729943947
 30
0.0
 10
45.7744763188
 20
48.8646026597
 30
0.0
 10
46.192306289
 20
48.2159787159
 30
0.0
 10
46.5596377712
 20
47.5360168195
 30
0.0
 10
46.8699864864
 20
46.8368848585
 30
0.0
 10
47.1178521551
 20
46.1308440264
 30
0.0
 10
47.2988655455
 20
45.4303190461
 30
0.0
 10
47.4098145174
 20
44.7477131342
 30
0.0
 10
47.4365518562
 20
44.2985440329
 30
0.0
 10
47.4365520987
 20
44.08048101
 30
0.0
  0
SPLINE
  5
2CF
100
AcDbEntity
  8
0
100
AcDbSpline
 62
7
  6
BYLAYER
 70
0
 71
3
 72
15
 73
11
 74
0
 42
0.0000001
 43
0.0000001
 44
0.0000000001
 40
0.0
 40
0.0
 40
0.0
 40
0.0
 40
0.1486067502
 40
0.2895000379
 40
0.4227229307
 40
0.5486435067
 40
0.6680005094
 40
0.7819391193
 40
0.8919876171
 40
1.0
 40
1.0
 40
1.0
 40
1.0
 10
47.4365565462
 20
43.9171834876
 30
0.0
 10
47.4365570649
 20
43.7608988624
 30
0.0
 10
47.4239891937
 20
43.4562296402
 30
0.0
 10
47.363982382
 20
43.01502793
 30
0.0
 10
47.2638138019
 20
42.6055310585
 30
0.0
 10
47.1242177474
 20
42.2316615207
 30
0.0
 10
46.9462367741
 20
41.897076965
 30
0.0
 10
46.7313256316
 20
41.6051467449
 30
0.0
 10
46.4813941912
 20
41.359213935
 30
0.0
 10
46.2922682838
 20
41.2272172368
 30
0.0
 10
46.1938902092
 20
41.1704272196
 30
0.0
  0
SPLINE
  5
2D0
100
AcDbEntity
  8
0
100
AcDbSpline
 62
7
  6
BYLAYER
 70
0
 71
3
 72
11
 73
7
 74
0
 42
0.0000001
 43
0.0000001
 44
0.0000000001
 40
0.0
 40
0.0
 40
0.0
 40
0.0
 40
0.2328440209
 40
0.4782916746
 40
0.7347149437
 40
1.0
 40
1.0
 40
1.0
 40
1.0
 10
43.3354323102
 20
51.1838787651
 30
0.0
 10
43.5071391871
 20
51.084744159
 30
0.0
 10
43.8489816619
 20
50.861876711
 30
0.0
 10
44.3394052346
 20
50.4721920287
 30
0.0
 10
44.8149566725
 20
50.0232904611
 30
0.0
 10
45.1133294315
 20
49.6934825043
 30
0.0
 10
45.2586288026
 20
49.520519788
 30
0.0
  0
SPLINE
  5
2D1
100
AcDbEntity
  8
0
100
AcDbSpline
 62
7
  6
BYLAYER
 70
0
 71
3
 72
9
 73
5
 74
0
 42
0.0000001
 43
0.0000001
 44
0.0000000001
 40
0.0
 40
0.0
 40
0.0
 40
0.0
 40
0.4936484515
 40
1.0
 40
1.0
 40
1.0
 40
1.0
 10
40.3225857585
 20
51.6309156305
 30
0.0
 10
40.4253535122
 20
51.6806744752
 30
0.0
 10
40.6425600645
 20
51.7637050143
 30
0.0
 10
40.8702709345
 20
51.8100473802
 30
0.0
 10
40.9864682463
 20
51.8247083489
 30
0.0
  0
SPLINE
  5
2D2
100
AcDbEntity
  8
0
100
AcDbSpline
 62
7
  6
BYLAYER
 70
0
 71
3
 72
13
 73
9
 74
0
 42
0.0000001
 43
0.0000001
 44
0.0000000001
 40
0.0
 40
0.0
 40
0.0
 40
0.0
 40
0.117067061
 40
0.2349805857
 40
0.3545415941
 40
0.4765029451
 40
0.7299838807
 40
1.0
 40
1.0
 40
1.0
 40
1.0
 10
19.58184238
 20
39.662426739
 30
0.0
 10
19.5217146455
 20
39.6277119827
 30
0.0
 10
19.4045804561
 20
39.551657028
 30
0.0
 10
19.2407372216
 20
39.419312105
 30
0.0
 10
19.0890350725
 20
39.2690272687
 30
0.0
 10
18.9014617409
 20
39.0426611218
 30
0.0
 10
18.7003125049
 20
38.714413606
 30
0.0
 10
18.5838915441
 20
38.4250824001
 30
0.0
 10
18.5346346532
 20
38.2727062205
 30
0.0
  0
SPLINE
  5
2D3
100
AcDbEntity
  8
0
100
AcDbSpline
 62
7
  6
BYLAYER
 70
0
 71
3
 72
14
 73
10
 74
0
 42
0.0000001
 43
0.0000001
 44
0.0000000001
 40
0.0
 40
0.0
 40
0.0
 40
0.0
 40
0.1433030923
 40
0.2827575271
 40
0.417397486
 40
0.5465587765
 40
0.6696924262
 40
0.786409949
 40
1.0
 40
1.0
 40
1.0
 40
1.0
 10
19.6926893403
 20
34.5714658036
 30
0.0
 10
19.5804584658
 20
34.7051365706
 30
0.0
 10
19.3506490327
 20
34.9620171935
 30
0.0
 10
18.9870223932
 20
35.3178348429
 30
0.0
 10
18.6121785066
 20
35.635909572
 30
0.0
 10
18.2302374694
 20
35.9127733031
 30
0.0
 10
17.8450083574
 20
36.1456592309
 30
0.0
 10
17.3477755141
 20
36.3866603369
 30
0.0
 10
16.9590335933
 20
36.5075050601
 30
0.0
 10
16.7023686735
 20
36.5499175402
 30
0.0
  0
SPLINE
  5
2D4
100
AcDbEntity
  8
0
100
AcDbSpline
 62
7
  6
BYLAYER
 70
0
 71
3
 72
18
 73
14
 74
0
 42
0.0000001
 43
0.0000001
 44
0.0000000001
 40
0.0
 40
0.0
 40
0.0
 40
0.0
 40
0.0475066101
 40
0.0956178715
 40
0.1448991157
 40
0.1958514598
 40
0.2488834864
 40
0.3043129083
 40
0.4230214455
 40
0.5528307653
 40
0.6932642249
 40
0.8429912365
 40
1.0
 40
1.0
 40
1.0
 40
1.0
 10
19.4265190135
 20
38.7067128801
 30
0.0
 10
19.4969066583
 20
38.7473555158
 30
0.0
 10
19.6445059707
 20
38.8193412543
 30
0.0
 10
19.880870597
 20
38.8964724196
 30
0.0
 10
20.1311482831
 20
38.9427490119
 30
0.0
 10
20.3935699928
 20
38.9578140865
 30
0.0
 10
20.6664141476
 20
38.9418315188
 30
0.0
 10
21.0503963867
 20
38.8777898619
 30
0.0
 10
21.5479656692
 20
38.7163829426
 30
0.0
 10
22.1419792161
 20
38.4114966849
 30
0.0
 10
22.7327918483
 20
37.9991880164
 30
0.0
 10
23.305733291
 20
37.4899461476
 30
0.0
 10
23.6600037678
 20
37.1013603254
 30
0.0
 10
23.8312857008
 20
36.8944252239
 30
0.0
  0
SPLINE
  5
2D5
100
AcDbEntity
  8
0
100
AcDbSpline
 62
7
  6
BYLAYER
 70
0
 71
3
 72
23
 73
19
 74
0
 42
0.0000001
 43
0.0000001
 44
0.0000000001
 40
0.0
 40
0.0
 40
0.0
 40
0.0
 40
0.0738315384
 40
0.1486742896
 40
0.2237987402
 40
0.2985649358
 40
0.3723078971
 40
0.4443892812
 40
0.5142233965
 40
0.5812926833
 40
0.6451706665
 40
0.7055470369
 40
0.7622630302
 40
0.8153422459
 40
0.8650274779
 40
0.9118180561
 40
0.956477131
 40
1.0
 40
1.0
 40
1.0
 40
1.0
 10
23.8312857008
 20
36.8944252239
 30
0.0
 10
23.9584270077
 20
36.7408188349
 30
0.0
 10
24.203491756
 20
36.4222685335
 30
0.0
 10
24.5389277905
 20
35.9189535374
 30
0.0
 10
24.8412209353
 20
35.3921178891
 30
0.0
 10
25.1063078416
 20
34.8489215357
 30
0.0
 10
25.3307200013
 20
34.2965352285
 30
0.0
 10
25.511445682
 20
33.7423130306
 30
0.0
 10
25.6460557646
 20
33.1936128014
 30
0.0
 10
25.7327867693
 20
32.6576996879
 30
0.0
 10
25.7704593684
 20
32.1416298372
 30
0.0
 10
25.7584663618
 20
31.6521606643
 30
0.0
 10
25.6968688817
 20
31.1956688701
 30
0.0
 10
25.5862133526
 20
30.7780872402
 30
0.0
 10
25.4275014866
 20
30.4049686281
 30
0.0
 10
25.2222785308
 20
30.0814788035
 30
0.0
 10
24.9729484922
 20
29.8126766286
 30
0.0
 10
24.7782773352
 20
29.6722278794
 30
0.0
 10
24.6764845494
 20
29.6134515541
 30
0.0
  0
SPLINE
  5
2D6
100
AcDbEntity
  8
0
100
AcDbSpline
 62
7
  6
BYLAYER
 70
0
 71
3
 72
15
 73
11
 74
0
 42
0.0000001
 43
0.0000001
 44
0.0000000001
 40
0.0
 40
0.0
 40
0.0
 40
0.0
 40
0.1463460777
 40
0.2889037652
 40
0.4259918382
 40
0.5559726793
 40
0.6777956842
 40
0.7915657816
 40
0.8984081774
 40
1.0
 40
1.0
 40
1.0
 40
1.0
 10
24.5024495373
 20
37.725707946
 30
0.0
 10
24.2851578104
 20
37.7729717326
 30
0.0
 10
23.8581044982
 20
37.8755281698
 30
0.0
 10
23.2380440022
 20
38.0629310899
 30
0.0
 10
22.6570124215
 20
38.2882363116
 30
0.0
 10
22.1278603368
 20
38.5537009634
 30
0.0
 10
21.6616718204
 20
38.8582066355
 30
0.0
 10
21.2635762044
 20
39.1954522221
 30
0.0
 10
20.9319649271
 20
39.5572236692
 30
0.0
 10
20.7455726675
 20
39.8141215199
 30
0.0
 10
20.6612097814
 20
39.9433985822
 30
0.0
  0
SPLINE
  5
2D7
100
AcDbEntity
  8
0
100
AcDbSpline
 62
7
  6
BYLAYER
 70
0
 71
3
 72
15
 73
11
 74
0
 42
0.0000001
 43
0.0000001
 44
0.0000000001
 40
0.0
 40
0.0
 40
0.0
 40
0.0
 40
0.1472548723
 40
0.2896598963
 40
0.4260801885
 40
0.5557149744
 40
0.6779633444
 40
0.7925655074
 40
0.8997121962
 40
1.0
 40
1.0
 40
1.0
 40
1.0
 10
28.2147446826
 20
39.8689897539
 30
0.0
 10
28.0687295635
 20
40.0388888387
 30
0.0
 10
27.7694553129
 20
40.3629893249
 30
0.0
 10
27.2941618031
 20
40.8047047836
 30
0.0
 10
26.805030537
 20
41.1892234556
 30
0.0
 10
26.3087530886
 20
41.5113095816
 30
0.0
 10
25.8118630083
 20
41.766531679
 30
0.0
 10
25.320843223
 20
41.9513908674
 30
0.0
 10
24.8422822074
 20
42.0630193646
 30
0.0
 10
24.5260692694
 20
42.0880378239
 30
0.0
 10
24.3735049268
 20
42.0866803901
 30
0.0
  0
SPLINE
  5
2D8
100
AcDbEntity
  8
0
100
AcDbSpline
 62
7
  6
BYLAYER
 70
0
 71
3
 72
11
 73
7
 74
0
 42
0.0000001
 43
0.0000001
 44
0.0000000001
 40
0.0
 40
0.0
 40
0.0
 40
0.0
 40
0.2350778768
 40
0.4811407813
 40
0.7367574577
 40
1.0
 40
1.0
 40
1.0
 40
1.0
 10
43.4110401742
 20
51.1338174827
 30
0.0
 10
43.5735440694
 20
51.0303800017
 30
0.0
 10
43.8962770165
 20
50.8028622788
 30
0.0
 10
44.3595245346
 20
50.4147722102
 30
0.0
 10
44.8081473111
 20
49.9762238266
 30
0.0
 10
45.0904031885
 20
49.6577180008
 30
0.0
 10
45.2279452791
 20
49.4915458542
 30
0.0
  0
SPLINE
  5
2D9
100
AcDbEntity
  8
0
100
AcDbSpline
 62
7
  6
BYLAYER
 70
0
 71
3
 72
9
 73
5
 74
0
 42
0.0000001
 43
0.0000001
 44
0.0000000001
 40
0.0
 40
0.0
 40
0.0
 40
0.0
 40
0.2387214106
 40
1.0
 40
1.0
 40
1.0
 40
1.0
 10
21.3650618941
 20
28.1392459323
 30
0.0
 10
21.3918985176
 20
28.1964137655
 30
0.0
 10
21.4953590821
 20
28.4400771383
 30
0.0
 10
21.563622933
 20
28.6979798946
 30
0.0
 10
21.5991249518
 20
28.8962215305
 30
0.0
  0
SPLINE
  5
2DA
100
AcDbEntity
  8
0
100
AcDbSpline
 62
7
  6
BYLAYER
 70
0
 71
3
 72
15
 73
11
 74
0
 42
0.0000001
 43
0.0000001
 44
0.0000000001
 40
0.0
 40
0.0
 40
0.0
 40
0.0
 40
0.1052773601
 40
0.2189739062
 40
0.3401712842
 40
0.4674656621
 40
0.5991148425
 40
0.7331394302
 40
0.8674791054
 40
1.0
 40
1.0
 40
1.0
 40
1.0
 10
21.6165808766
 20
29.0025363199
 30
0.0
 10
21.6476766202
 20
29.2104121536
 30
0.0
 10
21.6771285248
 20
29.6484416073
 30
0.0
 10
21.6327929067
 20
30.3277117819
 30
0.0
 10
21.5031087307
 20
31.0405789096
 30
0.0
 10
21.2911281324
 20
31.770593181
 30
0.0
 10
21.0017567674
 20
32.5010360251
 30
0.0
 10
20.6416993465
 20
33.215092758
 30
0.0
 10
20.2193068162
 20
33.8960932186
 30
0.0
 10
19.8987866024
 20
34.3227895902
 30
0.0
 10
19.7300834449
 20
34.5266091315
 30
0.0
  0
SPLINE
  5
2DB
100
AcDbEntity
  8
0
100
AcDbSpline
 62
7
  6
BYLAYER
 70
0
 71
3
 72
15
 73
11
 74
0
 42
0.0000001
 43
0.0000001
 44
0.0000000001
 40
0.0
 40
0.0
 40
0.0
 40
0.0
 40
0.129028291
 40
0.259699988
 40
0.3905450375
 40
0.5201620823
 40
0.6471410982
 40
0.7701799529
 40
0.888118586
 40
1.0
 40
1.0
 40
1.0
 40
1.0
 10
45.2668018995
 20
49.4442940452
 30
0.0
 10
45.4270779629
 20
49.2481164212
 30
0.0
 10
45.7342641381
 20
48.8404234695
 30
0.0
 10
46.1488841793
 20
48.1946270391
 30
0.0
 10
46.5152038977
 20
47.5188926536
 30
0.0
 10
46.8272555079
 20
46.8243776536
 30
0.0
 10
47.0799198829
 20
46.1223463845
 30
0.0
 10
47.2690763989
 20
45.4242342194
 30
0.0
 10
47.3916289675
 20
44.7414798701
 30
0.0
 10
47.4286496097
 20
44.2908518774
 30
0.0
 10
47.4344914742
 20
44.0712686441
 30
0.0
  0
SPLINE
  5
2DC
100
AcDbEntity
  8
0
100
AcDbSpline
 62
7
  6
BYLAYER
 70
0
 71
3
 72
23
 73
19
 74
0
 42
0.0000001
 43
0.0000001
 44
0.0000000001
 40
0.0
 40
0.0
 40
0.0
 40
0.0
 40
0.0435217817
 40
0.0881811463
 40
0.1349714984
 40
0.1846575828
 40
0.2377362063
 40
0.2944518718
 40
0.3548291553
 40
0.4187067318
 40
0.4857757693
 40
0.5556105483
 40
0.6276917463
 40
0.7014342001
 40
0.7762017554
 40
0.8513262
 40
0.9261652465
 40
1.0
 40
1.0
 40
1.0
 40
1.0
 10
25.5818169386
 20
29.270103926
 30
0.0
 10
25.698151745
 20
29.3372698434
 30
0.0
 10
25.9205965193
 20
29.4978289327
 30
0.0
 10
26.2055782265
 20
29.8049881461
 30
0.0
 10
26.4401285187
 20
30.1746947651
 30
0.0
 10
26.6214811263
 20
30.6011285079
 30
0.0
 10
26.7479641809
 20
31.078357351
 30
0.0
 10
26.8183752041
 20
31.6000622258
 30
0.0
 10
26.8320559021
 20
32.159456801
 30
0.0
 10
26.789012545
 20
32.7492514282
 30
0.0
 10
26.6899029144
 20
33.361726337
 30
0.0
 10
26.5360463268
 20
33.9888091751
 30
0.0
 10
26.3295075541
 20
34.6222068326
 30
0.0
 10
26.0730455099
 20
35.2535118695
 30
0.0
 10
25.7700758174
 20
35.8743043948
 30
0.0
 10
25.4246042742
 20
36.4763970579
 30
0.0
 10
25.0412570359
 20
37.0516182246
 30
0.0
 10
24.7611791144
 20
37.415670951
 30
0.0
 10
24.6158684243
 20
37.5912287689
 30
0.0
  0
ENDSEC
  0
SECTION
  2
OBJECTS
  0
DICTIONARY
  5
C
100
AcDbDictionary
280
0
281
1
  3
ACAD_GROUP
350
D
  3
ACAD_MLINESTYLE
350
17
  3
ACAD_LAYOUT
350
1A
  3
ACAD_PLOTSETTINGS
350
19
  3
ACAD_PLOTSTYLENAME
350
E
  0
DICTIONARY
  5
D
102
{ACAD_REACTORS
330
C
102
}
100
AcDbDictionary
280
0
281
1
  0
ACDBDICTIONARYWDFLT
  5
E
102
{ACAD_REACTORS
330
C
102
}
100
AcDbDictionary
281
1
  3
Normal
350
F
100
AcDbDictionaryWithDefault
340
F
  0
DICTIONARY
  5
17
102
{ACAD_REACTORS
330
C
102
}
100
AcDbDictionary
280
0
281
1
  3
Standard
350
18
  0
DICTIONARY
  5
19
102
{ACAD_REACTORS
330
C
102
}
100
AcDbDictionary
281
1
  0
DICTIONARY
  5
1A
102
{ACAD_REACTORS
330
C
102
}
100
AcDbDictionary
281
1
  3
Model
350
2DD
  3
Layout1
350
2DE
  0
ACDBPLACEHOLDER
  5
F
102
{ACAD_REACTORS
330
E
102
}
  0
MLINESTYLE
  5
18
102
{ACAD_REACTORS
330
17
102
}
100
AcDbMlineStyle
  2
STANDARD
 70
0
  3

 62
256
 51
90.0
 52
90.0
 71
2
 49
0.5
 62
256
  6
BYLAYER
 49
-0.5
 62
256
  6
BYLAYER
  0
LAYOUT
  5
2DD
102
{ACAD_REACTORS
330
1A
102
}
100
AcDbPlotSettings
  1

  2
none_device
  4

  6

 40
0.0
 41
0.0
 42
0.0
 43
0.0
 44
210.0
 45
297.0
 46
0.0
 47
0.0
 48
0.0
 49
0.0
140
0.0
141
0.0
142
1.0
143
1.0
 70
1024
 72
1
 73
0
 74
0
  7

 75
0
147
1.0
148
0.0
149
0.0
100
AcDbLayout
  1
Model
 70
0
 71
0
 10
0.0
 20
0.0
 11
210.0
 21
297.0
 12
0.0
 22
0.0
 32
0.0
 14
0.0
 24
0.0
 34
0.0
 15
0.0
 25
0.0
 35
0.0
146
0.0
 13
0.0
 23
0.0
 33
0.0
 16
1.0
 26
0.0
 36
0.0
 17
0.0
 27
1.0
 37
0.0
 76
0
330
210
345
0
346
0
  0
LAYOUT
  5
2DE
102
{ACAD_REACTORS
330
1A
102
}
100
AcDbPlotSettings
  1

  2
none_device
  4

  6

 40
0.0
 41
0.0
 42
0.0
 43
0.0
 44
210.0
 45
297.0
 46
0.0
 47
0.0
 48
0.0
 49
0.0
140
0.0
141
0.0
142
1.0
143
1.0
 70
0
 72
1
 73
0
 74
0
  7

 75
0
147
1.0
148
0.0
149
0.0
100
AcDbLayout
  1
Layout1
 70
0
 71
1
 10
0.0
 20
0.0
 11
210.0
 21
297.0
 12
0.0
 22
0.0
 32
0.0
 14
0.0
 24
0.0
 34
0.0
 15
0.0
 25
0.0
 35
0.0
146
0.0
 13
0.0
 23
0.0
 33
0.0
 16
1.0
 26
0.0
 36
0.0
 17
0.0
 27
1.0
 37
0.0
 76
0
330
211
345
0
346
0
  0
ENDSEC
  0
EOF
