999
DXF file: C:\Users\sesa63760\Dev\_Creo\CAD\MCADID0004560_3D-CAD\drw0001_1.dxf
999
Pro/ENGINEER 2019471 by Parametric Technology Corporation
  0
SECTION
  2
HEADER
  9
$ACADVER
  1
AC1024
  9
$DWGCODEPAGE
  3
ANSI_1252
  9
$EXTMAX
 10
52.207233959
 20
73.8359451706
 30
0.0
  9
$EXTMIN
 10
0.0
 20
0.0
 30
0.0
  9
$LIMMIN
 10
0.0
 20
0.0
  9
$LIMMAX
 10
52.207233959
 20
73.8359451706
  9
$VIEWCTR
 10
26.1036169795
 20
36.9179725853
  9
$VIEWSIZE
 40
73.8359451706
  9
$CLAYER
  8
0
  9
$LTSCALE
 40
4.8130097593
  9
$CELTYPE
  6
BYLAYER
  9
$DIMSCALE
 40
1.0
  9
$DIMASZ
 40
0.62151469
  9
$DIMEXO
 40
1.0
  9
$DIMDLI
 40
3.3253521973
  9
$DIMEXE
 40
1.0
  9
$DIMCEN
 40
0.7875834152
  9
$DIMLFAC
 40
1.0
  9
$DIMBLK
  1
_FILLED
  9
$DIMALT
 70
0
  9
$DIMALTF
 40
0.0393700787
  9
$DIMTXT
 40
0.870120566
  9
$DIMTOL
 70
1
  9
$DIMLIM
 70
0
  9
$DIMTFAC
 40
1.0
  9
$DIMTP
 40
0.01
  9
$DIMTM
 40
0.01
  9
$DIMGAP
 40
0.625
  9
$DIMDSEP
 70
46
  9
$AUNITS
 70
0
  9
$PDMODE
 70
3
  9
$PDSIZE
 40
0.3125
  9
$HANDSEED
  5
4DD
  9
$TILEMODE
 70
1
  9
$MEASUREMENT
 70
1
  9
$INSUNITS
 70
4
  0
ENDSEC
  0
SECTION
  2
CLASSES
  0
CLASS
  1
ACDBDICTIONARYWDFLT
  2
AcDbDictionaryWithDefault
  3
AutoCAD 2000
 90
0
 91
1
280
0
281
0
  0
CLASS
  1
ACDBPLACEHOLDER
  2
AcDbPlaceHolder
  3
AutoCAD 2000
 90
0
 91
1
280
0
281
0
  0
CLASS
  1
LAYOUT
  2
AcDbLayout
  3
AutoCAD 2000
 90
0
 91
0
280
0
281
0
  0
ENDSEC
  0
SECTION
  2
TABLES
  0
TABLE
  2
VPORT
  5
8
100
AcDbSymbolTable
 70
2
  0
VPORT
  5
1F4
100
AcDbSymbolTableRecord
100
AcDbViewportTableRecord
  2
*ACTIVE
 70
0
 10
0.0
 20
0.0
 11
1.0
 21
1.0
 12
26.1036169795
 22
36.9179725853
 13
0.0
 23
0.0
 14
1.0
 24
1.0
 15
0.0
 25
0.0
 16
0.0
 26
0.0
 36
1.0
 17
0.0
 27
0.0
 37
0.0
 40
73.8359451706
 41
0.7070707071
 42
50.0
 43
0.0
 44
0.0
 50
0.0
 51
0.0
 71
0
 72
100
 73
1
 74
1
 75
0
 76
0
 77
0
 78
0
  0
ENDTAB
  0
TABLE
  2
LTYPE
  5
5
100
AcDbSymbolTable
 70
6
  0
LTYPE
  5
14
100
AcDbSymbolTableRecord
100
AcDbLinetypeTableRecord
  2
BYBLOCK
 70
0
  3

 72
65
 73
0
 40
0.0
  0
LTYPE
  5
15
100
AcDbSymbolTableRecord
100
AcDbLinetypeTableRecord
  2
BYLAYER
 70
0
  3

 72
65
 73
0
 40
0.0
  0
LTYPE
  5
16
100
AcDbSymbolTableRecord
100
AcDbLinetypeTableRecord
  2
CONTINUOUS
 70
64
  3
Solid line
 72
65
 73
0
 40
0.0
  0
LTYPE
  5
1F5
100
AcDbSymbolTableRecord
100
AcDbLinetypeTableRecord
  2
CENTER
 70
64
  3
____ _ ____ _ ____ _ ____ _ ____ _ ____ _ ____
 72
65
 73
4
 40
0.6
 49
0.375
 74
0
 49
-0.075
 74
0
 49
0.075
 74
0
 49
-0.075
 74
0
  0
LTYPE
  5
1F6
100
AcDbSymbolTableRecord
100
AcDbLinetypeTableRecord
  2
HIDDEN
 70
64
  3
- - - - - - - - - - - - - - - - - - - -
 72
65
 73
2
 40
0.2
 49
0.1
 74
0
 49
-0.1
 74
0
  0
LTYPE
  5
1F7
100
AcDbSymbolTableRecord
100
AcDbLinetypeTableRecord
  2
PHANTOM
 70
64
  3
_____ _ _ _____ _ _ _____ _ _ _____
 72
65
 73
6
 40
0.8
 49
0.45
 74
0
 49
-0.05
 74
0
 49
0.1
 74
0
 49
-0.05
 74
0
 49
0.1
 74
0
 49
-0.05
 74
0
  0
LTYPE
  5
1F8
100
AcDbSymbolTableRecord
100
AcDbLinetypeTableRecord
  2
DOT
 70
64
  3
. . . . . . . . . . . . . . . . . . . .
 72
65
 73
2
 40
0.2
 49
0.1
 74
0
 49
-0.1
 74
0
  0
LTYPE
  5
1F9
100
AcDbSymbolTableRecord
100
AcDbLinetypeTableRecord
  2
DASHED
 70
64
  3
- - - - - - - - - - - - - - - - - - - -
 72
65
 73
2
 40
0.2
 49
0.1
 74
0
 49
-0.1
 74
0
  0
ENDTAB
  0
TABLE
  2
LAYER
  5
2
100
AcDbSymbolTable
 70
36
  0
LAYER
  5
10
100
AcDbSymbolTableRecord
100
AcDbLayerTableRecord
  2
0
 70
0
 62
7
  6
CONTINUOUS
370
-3
390
F
  0
LAYER
  5
1FA
100
AcDbSymbolTableRecord
100
AcDbLayerTableRecord
  2
DEFAULT_1
 70
0
 62
7
  6
CENTER
370
-3
390
F
  0
LAYER
  5
1FB
100
AcDbSymbolTableRecord
100
AcDbLayerTableRecord
  2
DEFAULT_2
 70
0
 62
7
  6
HIDDEN
370
-3
390
F
  0
LAYER
  5
1FC
100
AcDbSymbolTableRecord
100
AcDbLayerTableRecord
  2
DEFAULT_3
 70
0
 62
7
  6
PHANTOM
370
-3
390
F
  0
LAYER
  5
1FD
100
AcDbSymbolTableRecord
100
AcDbLayerTableRecord
  2
00_COMPONENTS
 70
0
 62
7
  6
CONTINUOUS
370
-3
390
F
  0
LAYER
  5
1FE
100
AcDbSymbolTableRecord
100
AcDbLayerTableRecord
  2
01_1_DEFAULT_DATUMS
 70
0
 62
7
  6
CONTINUOUS
370
-3
390
F
  0
LAYER
  5
1FF
100
AcDbSymbolTableRecord
100
AcDbLayerTableRecord
  2
01_PLANES
 70
0
 62
7
  6
CONTINUOUS
370
-3
390
F
  0
LAYER
  5
200
100
AcDbSymbolTableRecord
100
AcDbLayerTableRecord
  2
02_COORD_SYS
 70
0
 62
7
  6
CONTINUOUS
370
-3
390
F
  0
LAYER
  5
201
100
AcDbSymbolTableRecord
100
AcDbLayerTableRecord
  2
03_AXES
 70
0
 62
7
  6
CONTINUOUS
370
-3
390
F
  0
LAYER
  5
202
100
AcDbSymbolTableRecord
100
AcDbLayerTableRecord
  2
04_POINTS
 70
0
 62
7
  6
CONTINUOUS
370
-3
390
F
  0
LAYER
  5
203
100
AcDbSymbolTableRecord
100
AcDbLayerTableRecord
  2
05_CURVES
 70
0
 62
7
  6
CONTINUOUS
370
-3
390
F
  0
LAYER
  5
204
100
AcDbSymbolTableRecord
100
AcDbLayerTableRecord
  2
06_SURFS
 70
0
 62
7
  6
CONTINUOUS
370
-3
390
F
  0
LAYER
  5
205
100
AcDbSymbolTableRecord
100
AcDbLayerTableRecord
  2
07_COSMETICS
 70
0
 62
7
  6
CONTINUOUS
370
-3
390
F
  0
LAYER
  5
206
100
AcDbSymbolTableRecord
100
AcDbLayerTableRecord
  2
10_NOTES
 70
0
 62
7
  6
CONTINUOUS
370
-3
390
F
  0
LAYER
  5
207
100
AcDbSymbolTableRecord
100
AcDbLayerTableRecord
  2
11_NOTES_PUB
 70
0
 62
7
  6
CONTINUOUS
370
-3
390
F
  0
LAYER
  5
208
100
AcDbSymbolTableRecord
100
AcDbLayerTableRecord
  2
13_REF_GTOL
 70
0
 62
7
  6
CONTINUOUS
370
-3
390
F
  0
LAYER
  5
209
100
AcDbSymbolTableRecord
100
AcDbLayerTableRecord
  2
16_MISC
 70
0
 62
7
  6
CONTINUOUS
370
-3
390
F
  0
LAYER
  5
20A
100
AcDbSymbolTableRecord
100
AcDbLayerTableRecord
  2
17_NO_PRINT
 70
0
 62
7
  6
CONTINUOUS
370
-3
390
F
  0
LAYER
  5
20B
100
AcDbSymbolTableRecord
100
AcDbLayerTableRecord
  2
18_DATUM_CAMS_JOINTS
 70
0
 62
7
  6
CONTINUOUS
370
-3
390
F
  0
LAYER
  5
20C
100
AcDbSymbolTableRecord
100
AcDbLayerTableRecord
  2
19_DATUM_FUNCTIONAL
 70
0
 62
7
  6
CONTINUOUS
370
-3
390
F
  0
LAYER
  5
20D
100
AcDbSymbolTableRecord
100
AcDbLayerTableRecord
  2
20_DATUM_KINEMATIC_SCHEME
 70
0
 62
7
  6
CONTINUOUS
370
-3
390
F
  0
ENDTAB
  0
TABLE
  2
STYLE
  5
3
100
AcDbSymbolTable
 70
1
  0
STYLE
  5
11
100
AcDbSymbolTableRecord
100
AcDbTextStyleTableRecord
  2
STANDARD
 70
0
 40
0.0
 41
1.0
 50
0.0
 71
0
 42
0.2
  3
ARIAL.TTF
  4

  0
STYLE
  5
20E
100
AcDbSymbolTableRecord
100
AcDbTextStyleTableRecord
  2
TEXTSTYLE_1
 70
0
 40
0.0
 41
0.8
 50
0.0
 71
0
 42
0.2
  3
gdt
  4

  0
ENDTAB
  0
TABLE
  2
VIEW
  5
6
100
AcDbSymbolTable
 70
0
  0
ENDTAB
  0
TABLE
  2
UCS
  5
7
100
AcDbSymbolTable
 70
0
  0
ENDTAB
  0
TABLE
  2
APPID
  5
9
100
AcDbSymbolTable
 70
1
  0
APPID
  5
20F
100
AcDbSymbolTableRecord
100
AcDbRegAppTableRecord
  2
ACAD
 70
0
  0
ENDTAB
  0
TABLE
  2
BLOCK_RECORD
  5
1
100
AcDbSymbolTable
 70
0
  0
BLOCK_RECORD
  5
210
100
AcDbSymbolTableRecord
100
AcDbBlockTableRecord
  2
*Model_Space
  0
BLOCK_RECORD
  5
211
100
AcDbSymbolTableRecord
100
AcDbBlockTableRecord
  2
*Paper_Space
  0
BLOCK_RECORD
  5
212
100
AcDbSymbolTableRecord
100
AcDbBlockTableRecord
  2
_FILLED
  0
ENDTAB
  0
TABLE
  2
DIMSTYLE
  5
A
100
AcDbSymbolTable
 70
1
100
AcDbDimStyleTable
 71
0
  0
DIMSTYLE
105
213
100
AcDbSymbolTableRecord
100
AcDbDimStyleTableRecord
  2
STANDARD
 70
0
  3

  4

 40
1.0
 41
0.62151469
 42
1.0
 43
0.38
 44
1.0
 45
0.0
 46
0.0
 47
0.01
 48
0.01
140
0.870120566
141
0.09
142
0.0
143
25.4
144
1.0
145
0.0
146
1.0
147
0.625
 71
1
 72
0
 73
0
 74
0
 75
0
 76
0
 77
1
 78
8
 79
2
170
0
171
1
172
0
173
0
174
0
175
0
176
0
177
0
178
0
270
2
179
2
271
2
272
2
273
2
274
2
275
0
280
0
281
0
282
0
283
1
284
8
285
0
286
0
287
3
288
0
340
11
278
46
341
212
342
212
343
212
344
212
  0
ENDTAB
  0
ENDSEC
  0
SECTION
  2
BLOCKS
  0
BLOCK
  5
20
100
AcDbEntity
  8
0
100
AcDbBlockBegin
  2
*Model_Space
 70
0
 10
0.0
 20
0.0
 30
0.0
  3
*Model_Space
  1

  0
ENDBLK
  5
21
100
AcDbEntity
  8
0
100
AcDbBlockEnd
  0
BLOCK
  5
1C
100
AcDbEntity
  8
0
100
AcDbBlockBegin
  2
*Paper_Space
 70
0
 10
0.0
 20
0.0
 30
0.0
  3
*Paper_Space
  1

  0
ENDBLK
  5
1D
100
AcDbEntity
  8
0
100
AcDbBlockEnd
  0
BLOCK
  5
214
100
AcDbEntity
  8
0
100
AcDbBlockBegin
  2
_FILLED
 70
64
 10
0.0
 20
0.0
  3
_FILLED
  1

  0
SOLID
  5
215
100
AcDbEntity
  8
0
  6
BYBLOCK
 62
0
100
AcDbTrace
 10
0.0
 20
0.0
 11
-1.0
 21
0.25
 12
-1.0
 22
-0.25
 13
-1.0
 23
-0.25
  0
ENDBLK
  5
216
100
AcDbEntity
  8
0
  6
BYBLOCK
 62
0
100
AcDbBlockEnd
  0
ENDSEC
  0
SECTION
  2
ENTITIES
  0
LWPOLYLINE
  5
217
100
AcDbEntity
  8
0
100
AcDbPolyline
 62
7
  6
BYLAYER
 90
5
 70
0
 10
16.3407451988
 20
8.1649950996
 10
19.8254481635
 20
6.7122137203
 10
24.1884102621
 20
5.908092359
 10
28.8509855859
 20
5.9208483315
 10
33.2723046581
 20
6.7597236656
  0
LINE
  5
218
100
AcDbEntity
  8
0
100
AcDbLine
 62
7
  6
BYLAYER
 10
19.1267352005
 20
61.1545522055
 11
17.3773090178
 21
60.4450177642
  0
LINE
  5
219
100
AcDbEntity
  8
0
100
AcDbLine
 62
7
  6
BYLAYER
 10
27.1620657375
 20
11.6278394983
 11
30.0427952313
 21
12.0210453777
  0
LINE
  5
21A
100
AcDbEntity
  8
0
100
AcDbLine
 62
7
  6
BYLAYER
 10
22.6872179974
 20
11.8626400241
 11
27.1620657375
 21
11.6278394983
  0
LWPOLYLINE
  5
21B
100
AcDbEntity
  8
0
100
AcDbPolyline
 62
7
  6
BYLAYER
 90
4
 70
0
 10
19.790031373
 20
11.278476141
 10
24.0682523647
 20
10.474524592
 10
28.6134823338
 20
10.5062251766
 10
32.4149719443
 20
11.2749323594
  0
LINE
  5
21C
100
AcDbEntity
  8
0
100
AcDbLine
 62
7
  6
BYLAYER
 10
21.2625991132
 20
12.2268135583
 11
22.6872179974
 21
11.8626400241
  0
LINE
  5
21D
100
AcDbEntity
  8
0
100
AcDbLine
 62
7
  6
BYLAYER
 10
27.8745481769
 20
12.8920495262
 11
30.3859127824
 21
13.3146783334
  0
LINE
  5
21E
100
AcDbEntity
  8
0
100
AcDbLine
 62
7
  6
BYLAYER
 10
25.1035309992
 20
12.9582993196
 11
27.8745481769
 21
12.8920495262
  0
LWPOLYLINE
  5
21F
100
AcDbEntity
  8
0
100
AcDbPolyline
 62
7
  6
BYLAYER
 90
3
 70
0
 10
21.9996093298
 20
14.425922363
 10
26.4680964298
 20
14.0586889309
 10
28.0011728535
 20
14.2223660906
  0
LWPOLYLINE
  5
220
100
AcDbEntity
  8
0
100
AcDbPolyline
 62
7
  6
BYLAYER
 90
3
 70
0
 10
21.5006958646
 20
13.4083112589
 10
23.334154185
 20
13.0006017814
 10
23.9560698996
 20
12.9857329499
  0
LINE
  5
221
100
AcDbEntity
  8
0
100
AcDbLine
 62
7
  6
BYLAYER
 10
20.9480441957
 20
14.7330355936
 11
21.9996093298
 21
14.425922363
  0
LWPOLYLINE
  5
222
100
AcDbEntity
  8
0
100
AcDbPolyline
 62
7
  6
BYLAYER
 90
8
 70
0
 10
11.6969886808
 20
14.990761952
 10
13.1531474603
 20
12.4765203598
 10
15.9115263707
 20
10.350798578
 10
19.7108460616
 20
8.8212517277
 10
24.1704632783
 20
8.0478436288
 10
28.8849781115
 20
8.1127917781
 10
33.3204612117
 20
9.0086885985
 10
37.1157122573
 20
10.6621066398
  0
LINE
  5
223
100
AcDbEntity
  8
0
100
AcDbLine
 62
7
  6
BYLAYER
 10
13.1356132894
 20
12.6467345175
 11
11.6941472866
 21
15.1516832473
  0
LWPOLYLINE
  5
224
100
AcDbEntity
  8
0
100
AcDbPolyline
 62
7
  6
BYLAYER
 90
3
 70
0
 10
20.8434525616
 20
66.9568969939
 10
20.1153507937
 20
65.8754180118
 10
20.2040691887
 20
64.697240023
  0
LINE
  5
225
100
AcDbEntity
  8
0
100
AcDbLine
 62
7
  6
BYLAYER
 10
29.7032485513
 20
14.4040862654
 11
30.9287634622
 21
14.5349269702
  0
LWPOLYLINE
  5
226
100
AcDbEntity
  8
0
100
AcDbPolyline
 62
7
  6
BYLAYER
 90
3
 70
0
 10
25.0438053489
 20
15.308354754
 10
29.5873775908
 20
15.5250433382
 10
31.2564313952
 20
15.9395658123
  0
LINE
  5
227
100
AcDbEntity
  8
0
100
AcDbLine
 62
7
  6
BYLAYER
 10
22.9064841402
 20
15.6168101746
 11
25.0438053489
 21
15.308354754
  0
LINE
  5
228
100
AcDbEntity
  8
0
100
AcDbLine
 62
7
  6
BYLAYER
 10
21.5553911628
 20
17.073111702
 11
23.5488559151
 21
16.6501653677
  0
LWPOLYLINE
  5
229
100
AcDbEntity
  8
0
100
AcDbPolyline
 62
7
  6
BYLAYER
 90
4
 70
0
 10
29.2306017166
 20
58.7088591291
 10
27.3189530588
 20
57.921899416
 10
25.0285375496
 20
57.6076185662
 10
22.7258234489
 20
57.8206564065
  0
LINE
  5
22A
100
AcDbEntity
  8
0
100
AcDbLine
 62
7
  6
BYLAYER
 10
29.2306070316
 20
57.8923641913
 11
27.3189552301
 21
57.1053974749
  0
LWPOLYLINE
  5
22B
100
AcDbEntity
  8
0
100
AcDbPolyline
 62
7
  6
BYLAYER
 90
7
 70
0
 10
29.2668066729
 20
58.6209119266
 10
27.3055839226
 20
57.8153832921
 10
25.0121355678
 20
57.5045741771
 10
22.7195478402
 20
57.7196613135
 10
20.7758112453
 20
58.4197860602
 10
19.477185337
 20
59.4958566557
 10
19.024148322
 20
60.7637651601
  0
LINE
  5
22C
100
AcDbEntity
  8
0
100
AcDbLine
 62
7
  6
BYLAYER
 10
28.0613500371
 20
16.580250752
 11
30.5129560173
 21
17.0145427804
  0
LINE
  5
22D
100
AcDbEntity
  8
0
100
AcDbLine
 62
7
  6
BYLAYER
 10
23.5488559151
 20
16.6501653677
 11
28.0613500371
 21
16.580250752
  0
LWPOLYLINE
  5
22E
100
AcDbEntity
  8
0
100
AcDbPolyline
 62
7
  6
BYLAYER
 90
5
 70
0
 10
19.9544480656
 20
18.5802672981
 10
19.9670015618
 20
18.575001338
 10
24.2467009467
 20
17.808490178
 10
28.7747273543
 20
17.8720869432
 10
31.218803737
 20
18.3829403849
  0
LWPOLYLINE
  5
22F
100
AcDbEntity
  8
0
100
AcDbPolyline
 62
7
  6
BYLAYER
 90
8
 70
0
 10
12.9735800056
 20
47.8443590508
 10
12.1154882706
 20
46.1639021315
 10
12.1657431269
 20
43.6099162251
 10
13.6098363218
 20
41.2324340444
 10
16.3016964563
 20
39.2335126362
 10
19.9531816971
 20
37.8270389063
 10
24.2368926191
 20
37.1448293639
 10
28.7038524821
 20
37.2679756611
  0
LWPOLYLINE
  5
230
100
AcDbEntity
  8
0
100
AcDbPolyline
 62
7
  6
BYLAYER
 90
9
 70
0
 10
13.0669926821
 20
47.7961721288
 10
12.4699147656
 20
46.6339016825
 10
12.4914576208
 20
44.0988775374
 10
13.8779601875
 20
41.7234333059
 10
15.0408980636
 20
40.6610311761
 10
18.1805253694
 20
38.9086504833
 10
22.0869865487
 20
37.8136050302
 10
26.4337287689
 20
37.466940036
 10
30.757889932
 20
37.9124713609
  0
LINE
  5
231
100
AcDbEntity
  8
0
100
AcDbLine
 62
7
  6
BYLAYER
 10
13.0090663801
 20
48.0064681531
 11
12.9090695221
 21
47.877371288
  0
LINE
  5
232
100
AcDbEntity
  8
0
100
AcDbLine
 62
7
  6
BYLAYER
 10
27.3157613481
 20
54.6536614661
 11
29.2303081627
 21
55.4431158918
  0
LWPOLYLINE
  5
233
100
AcDbEntity
  8
0
100
AcDbPolyline
 62
7
  6
BYLAYER
 90
7
 70
0
 10
33.3163712349
 20
20.1810605259
 10
28.8644664717
 20
19.2842636823
 10
24.1347341407
 20
19.2242880035
 10
19.6693600573
 20
20.0065038733
 10
15.8846388947
 20
21.5394736221
 10
13.1356509556
 20
23.6694754117
 10
11.6941661705
 20
26.1743986075
  0
LWPOLYLINE
  5
234
100
AcDbEntity
  8
0
100
AcDbPolyline
 62
7
  6
BYLAYER
 90
3
 70
0
 10
26.0424646115
 20
20.1812801145
 10
30.5351144578
 20
20.5814468367
 10
31.7024149349
 20
20.9290573292
  0
LWPOLYLINE
  5
235
100
AcDbEntity
  8
0
100
AcDbPolyline
 62
7
  6
BYLAYER
 90
3
 70
0
 10
22.879489371
 20
19.1837987735
 10
27.392899093
 20
18.9870719139
 10
29.6608814054
 20
19.21005225
  0
LINE
  5
236
100
AcDbEntity
  8
0
100
AcDbLine
 62
7
  6
BYLAYER
 10
23.1503372746
 20
20.4726455691
 11
26.0424646115
 21
20.1812801145
  0
LINE
  5
237
100
AcDbEntity
  8
0
100
AcDbLine
 62
7
  6
BYLAYER
 10
21.8887077057
 20
19.4268949537
 11
22.879489371
 21
19.1837987735
  0
LWPOLYLINE
  5
238
100
AcDbEntity
  8
0
100
AcDbPolyline
 62
7
  6
BYLAYER
 90
3
 70
0
 10
20.0667241883
 20
22.234014565
 10
20.1733188986
 20
22.1907880916
 10
22.2772020144
 20
21.7259621154
  0
LINE
  5
239
100
AcDbEntity
  8
0
100
AcDbLine
 62
7
  6
BYLAYER
 10
11.6780424443
 20
15.1254204438
 11
11.6969886808
 21
14.990761952
  0
LINE
  5
23A
100
AcDbEntity
  8
0
100
AcDbLine
 62
7
  6
BYLAYER
 10
12.6934530971
 20
30.1781080166
 11
12.6934595624
 21
30.3289220405
  0
LINE
  5
23B
100
AcDbEntity
  8
0
100
AcDbLine
 62
7
  6
BYLAYER
 10
12.6934446696
 20
31.4029244928
 11
12.6934707074
 21
31.55361367
  0
LINE
  5
23C
100
AcDbEntity
  8
0
100
AcDbLine
 62
7
  6
BYLAYER
 10
19.024148322
 20
61.6839511483
 11
19.1515851311
 21
62.0406008072
  0
LINE
  5
23D
100
AcDbEntity
  8
0
100
AcDbLine
 62
7
  6
BYLAYER
 10
19.024148322
 20
60.8674487248
 11
19.1515422744
 21
61.2239782117
  0
LINE
  5
23E
100
AcDbEntity
  8
0
100
AcDbLine
 62
7
  6
BYLAYER
 10
19.024148322
 20
60.0509463361
 11
19.1514982982
 21
60.4073525217
  0
LINE
  5
23F
100
AcDbEntity
  8
0
100
AcDbLine
 62
7
  6
BYLAYER
 10
19.024148322
 20
62.5004585029
 11
19.2400537922
 21
63.1046982577
  0
LINE
  5
240
100
AcDbEntity
  8
0
100
AcDbLine
 62
7
  6
BYLAYER
 10
19.024148322
 20
58.417941776
 11
19.1519826338
 21
58.7757025372
  0
LINE
  5
241
100
AcDbEntity
  8
0
100
AcDbLine
 62
7
  6
BYLAYER
 10
19.1532695045
 20
57.9555329799
 11
19.024148322
 21
57.6000382526
  0
LINE
  5
242
100
AcDbEntity
  8
0
100
AcDbLine
 62
7
  6
BYLAYER
 10
28.7633542188
 20
55.1480537092
 11
28.2830852578
 21
54.8667487052
  0
LINE
  5
243
100
AcDbEntity
  8
0
100
AcDbLine
 62
7
  6
BYLAYER
 10
26.759879253
 20
21.41254991
 11
29.8540411522
 21
21.7825024102
  0
LWPOLYLINE
  5
244
100
AcDbEntity
  8
0
100
AcDbPolyline
 62
7
  6
BYLAYER
 90
3
 70
0
 10
25.1981902521
 20
22.6497414058
 10
29.7232461228
 20
22.8935821001
 10
31.3000513144
 20
23.2970855736
  0
LINE
  5
245
100
AcDbEntity
  8
0
100
AcDbLine
 62
7
  6
BYLAYER
 10
22.2772020144
 20
21.7259621154
 11
26.759879253
 21
21.41254991
  0
LINE
  5
246
100
AcDbEntity
  8
0
100
AcDbLine
 62
7
  6
BYLAYER
 10
22.9396348379
 20
22.9593513422
 11
25.1981902521
 21
22.6497414058
  0
LWPOLYLINE
  5
247
100
AcDbEntity
  8
0
100
AcDbPolyline
 62
7
  6
BYLAYER
 90
3
 70
0
 10
15.8846474447
 20
26.4384833294
 10
13.1356577908
 20
28.5684823426
 10
11.6941688453
 20
31.0734035978
  0
LINE
  5
248
100
AcDbEntity
  8
0
100
AcDbLine
 62
7
  6
BYLAYER
 10
15.1790845163
 20
28.4066045743
 11
16.3711503608
 21
27.4493573766
  0
LINE
  5
249
100
AcDbEntity
  8
0
100
AcDbLine
 62
7
  6
BYLAYER
 10
11.6930959524
 20
34.6006367468
 11
13.1473600698
 21
32.0789564204
  0
LINE
  5
24A
100
AcDbEntity
  8
0
100
AcDbLine
 62
7
  6
BYLAYER
 10
13.0090663801
 20
54.018195695
 11
13.0090663801
 21
46.3430729739
  0
LWPOLYLINE
  5
24B
100
AcDbEntity
  8
0
100
AcDbPolyline
 62
7
  6
BYLAYER
 90
3
 70
0
 10
26.0453506429
 20
23.8555292659
 10
30.5380721525
 20
24.2562636688
 10
31.673713794
 20
24.5940211785
  0
LWPOLYLINE
  5
24C
100
AcDbEntity
  8
0
100
AcDbPolyline
 62
7
  6
BYLAYER
 90
3
 70
0
 10
24.4011851063
 20
25.145086178
 10
28.9237802948
 20
25.2373015427
 10
29.2715630707
 20
25.3125711056
  0
LINE
  5
24D
100
AcDbEntity
  8
0
100
AcDbLine
 62
7
  6
BYLAYER
 10
23.6596388245
 20
24.0937267366
 11
26.0453506429
 21
23.8555292659
  0
LINE
  5
24E
100
AcDbEntity
  8
0
100
AcDbLine
 62
7
  6
BYLAYER
 10
20.6872027028
 20
25.8729201696
 11
20.6671932697
 21
25.875623258
  0
LINE
  5
24F
100
AcDbEntity
  8
0
100
AcDbLine
 62
7
  6
BYLAYER
 10
20.6778857398
 20
25.7868370598
 11
24.4011851063
 21
25.145086178
  0
LINE
  5
250
100
AcDbEntity
  8
0
100
AcDbLine
 62
7
  6
BYLAYER
 10
20.6860241009
 20
25.8712962879
 11
20.6671932697
 21
25.875623258
  0
LWPOLYLINE
  5
251
100
AcDbEntity
  8
0
100
AcDbPolyline
 62
7
  6
BYLAYER
 90
3
 70
0
 10
16.4584230848
 20
27.3792760376
 10
20.0918719909
 20
25.8878428622
 10
20.274450218
 20
25.8563735317
  0
LINE
  5
252
100
AcDbEntity
  8
0
100
AcDbLine
 62
7
  6
BYLAYER
 10
15.1473602979
 20
28.3670982093
 11
17.7319963353
 21
26.8748578559
  0
LINE
  5
253
100
AcDbEntity
  8
0
100
AcDbLine
 62
7
  6
BYLAYER
 10
13.1473600698
 20
32.0789564204
 11
15.9024452329
 21
29.9519282848
  0
LWPOLYLINE
  5
254
100
AcDbEntity
  8
0
100
AcDbPolyline
 62
7
  6
BYLAYER
 90
3
 70
0
 10
15.3353757808
 20
30.505248697
 10
12.9674263749
 20
32.4351600579
 10
11.7299495429
 20
34.8126734277
  0
LINE
  5
255
100
AcDbEntity
  8
0
100
AcDbLine
 62
7
  6
BYLAYER
 10
15.0476457269
 20
29.664749231
 11
15.3652165477
 21
29.3356832084
  0
LINE
  5
256
100
AcDbEntity
  8
0
100
AcDbLine
 62
7
  6
BYLAYER
 10
26.3457545144
 20
27.5301858779
 11
29.6569482385
 21
27.8652862697
  0
LWPOLYLINE
  5
257
100
AcDbEntity
  8
0
100
AcDbPolyline
 62
7
  6
BYLAYER
 90
3
 70
0
 10
26.2075162305
 20
26.304533953
 10
30.6149717976
 20
26.7198808246
 10
31.746284368
 20
27.0586025789
  0
LINE
  5
258
100
AcDbEntity
  8
0
100
AcDbLine
 62
7
  6
BYLAYER
 10
21.9051581435
 20
27.9159466129
 11
26.3457545144
 21
27.5301858779
  0
LINE
  5
259
100
AcDbEntity
  8
0
100
AcDbLine
 62
7
  6
BYLAYER
 10
21.8302295146
 20
26.7051209799
 11
26.2075162305
 21
26.304533953
  0
LINE
  5
25A
100
AcDbEntity
  8
0
100
AcDbLine
 62
7
  6
BYLAYER
 10
20.6871836138
 20
27.0976201427
 11
20.6671935241
 21
27.1003203676
  0
LINE
  5
25B
100
AcDbEntity
  8
0
100
AcDbLine
 62
7
  6
BYLAYER
 10
20.6860061457
 20
27.0959981651
 11
20.6671935241
 21
27.1003203676
  0
LINE
  5
25C
100
AcDbEntity
  8
0
100
AcDbLine
 62
7
  6
BYLAYER
 10
20.9328533572
 20
28.2050874823
 11
21.9051581435
 21
27.9159466129
  0
LINE
  5
25D
100
AcDbEntity
  8
0
100
AcDbLine
 62
7
  6
BYLAYER
 10
17.9231618633
 20
27.8755426605
 11
18.9397141934
 21
27.5710189121
  0
LINE
  5
25E
100
AcDbEntity
  8
0
100
AcDbLine
 62
7
  6
BYLAYER
 10
21.2992226694
 20
26.8641921759
 11
21.8302295146
 21
26.7051209799
  0
LINE
  5
25F
100
AcDbEntity
  8
0
100
AcDbLine
 62
7
  6
BYLAYER
 10
12.6934595624
 20
30.3289220405
 11
12.7386879134
 21
30.3148466562
  0
LINE
  5
260
100
AcDbEntity
  8
0
100
AcDbLine
 62
7
  6
BYLAYER
 10
12.6934707074
 20
31.55361367
 11
12.7386397342
 21
31.539559521
  0
LINE
  5
261
100
AcDbEntity
  8
0
100
AcDbLine
 62
7
  6
BYLAYER
 10
12.6934707074
 20
31.55361367
 11
12.7388440367
 21
31.5384135193
  0
LINE
  5
262
100
AcDbEntity
  8
0
100
AcDbLine
 62
7
  6
BYLAYER
 10
12.6934595624
 20
30.3289220405
 11
12.7388930419
 21
30.313695822
  0
LWPOLYLINE
  5
263
100
AcDbEntity
  8
0
100
AcDbPolyline
 62
7
  6
BYLAYER
 90
6
 70
0
 10
15.9024452329
 20
29.9519282848
 10
19.7104558391
 20
28.4174185619
 10
24.1580175449
 20
27.644874799
 10
28.8758214269
 20
27.7078828281
 10
33.3089377317
 20
28.6011920232
 10
37.1157122573
 20
30.25818863
  0
LINE
  5
264
100
AcDbEntity
  8
0
100
AcDbLine
 62
7
  6
BYLAYER
 10
19.649148322
 20
56.0803878307
 11
19.649148322
 21
55.2021390147
  0
LINE
  5
265
100
AcDbEntity
  8
0
100
AcDbLine
 62
7
  6
BYLAYER
 10
19.849148322
 20
63.6121139111
 11
19.849148322
 21
65.2451187454
  0
LINE
  5
266
100
AcDbEntity
  8
0
100
AcDbLine
 62
7
  6
BYLAYER
 10
27.877075398
 20
30.0392142263
 11
30.3955251322
 21
30.4636705856
  0
LWPOLYLINE
  5
267
100
AcDbEntity
  8
0
100
AcDbPolyline
 62
7
  6
BYLAYER
 90
3
 70
0
 10
24.7715497375
 20
28.7948524239
 10
29.3046786041
 20
28.9585872146
 10
30.2463283973
 20
29.1791676129
  0
LINE
  5
268
100
AcDbEntity
  8
0
100
AcDbLine
 62
7
  6
BYLAYER
 10
23.3406227567
 20
30.146578165
 11
27.877075398
 21
30.0392142263
  0
LINE
  5
269
100
AcDbEntity
  8
0
100
AcDbLine
 62
7
  6
BYLAYER
 10
21.0343486236
 20
29.3780941067
 11
24.7715497375
 21
28.7948524239
  0
LINE
  5
26A
100
AcDbEntity
  8
0
100
AcDbLine
 62
7
  6
BYLAYER
 10
21.4626927095
 20
30.563138678
 11
23.3406227567
 21
30.146578165
  0
LINE
  5
26B
100
AcDbEntity
  8
0
100
AcDbLine
 62
7
  6
BYLAYER
 10
41.4174106128
 20
21.0116507261
 11
41.0466447845
 21
21.2112686557
  0
LINE
  5
26C
100
AcDbEntity
  8
0
100
AcDbLine
 62
7
  6
BYLAYER
 10
20.6671782968
 20
27.1003290109
 11
20.667187368
 21
26.9495855265
  0
LINE
  5
26D
100
AcDbEntity
  8
0
100
AcDbLine
 62
7
  6
BYLAYER
 10
20.667188194
 20
25.8756261147
 11
20.6671927745
 21
25.7248018733
  0
LWPOLYLINE
  5
26E
100
AcDbEntity
  8
0
100
AcDbPolyline
 62
7
  6
BYLAYER
 90
3
 70
0
 10
31.0145997283
 20
62.6036985197
 10
30.5017960296
 20
61.3368869585
 10
29.2668066729
 20
60.2541478676
  0
LINE
  5
26F
100
AcDbEntity
  8
0
100
AcDbLine
 62
7
  6
BYLAYER
 10
28.5390166443
 20
31.3197754609
 11
30.6506596736
 21
31.7397193948
  0
LINE
  5
270
100
AcDbEntity
  8
0
100
AcDbLine
 62
7
  6
BYLAYER
 10
27.1771946761
 20
32.4494334687
 11
30.062351925
 21
32.8464626171
  0
LINE
  5
271
100
AcDbEntity
  8
0
100
AcDbLine
 62
7
  6
BYLAYER
 10
22.6546570336
 20
32.6884932505
 11
27.1771946761
 21
32.4494334687
  0
LWPOLYLINE
  5
272
100
AcDbEntity
  8
0
100
AcDbPolyline
 62
7
  6
BYLAYER
 90
3
 70
0
 10
21.3307323838
 20
31.8105480304
 10
24.0148410465
 20
31.3001645688
 10
28.5390166443
 20
31.3197754609
  0
LINE
  5
273
100
AcDbEntity
  8
0
100
AcDbLine
 62
7
  6
BYLAYER
 10
21.2582103901
 20
33.0480765573
 11
22.6546570336
 21
32.6884932505
  0
LWPOLYLINE
  5
274
100
AcDbEntity
  8
0
100
AcDbPolyline
 62
7
  6
BYLAYER
 90
5
 70
0
 10
13.6142573699
 20
42.1752257165
 10
15.3995376422
 20
40.3118173993
 10
18.691279528
 20
38.5907203591
 10
22.8011353637
 20
37.565800777
 10
27.3170465339
 20
37.3543141248
  0
LINE
  5
275
100
AcDbEntity
  8
0
100
AcDbLine
 62
7
  6
BYLAYER
 10
22.624148322
 20
63.4488064569
 11
22.624148322
 21
63.4037553209
  0
LINE
  5
276
100
AcDbEntity
  8
0
100
AcDbLine
 62
7
  6
BYLAYER
 10
27.8370983813
 20
33.7106673502
 11
30.3660336851
 21
34.1323472994
  0
LWPOLYLINE
  5
277
100
AcDbEntity
  8
0
100
AcDbPolyline
 62
7
  6
BYLAYER
 90
3
 70
0
 10
26.2511100313
 20
34.8780766767
 10
30.7253172924
 20
35.3150165342
 10
31.7969707254
 20
35.6449653747
  0
LINE
  5
278
100
AcDbEntity
  8
0
100
AcDbLine
 62
7
  6
BYLAYER
 10
23.9334165634
 20
33.8078655573
 11
27.8370983813
 21
33.7106673502
  0
LINE
  5
279
100
AcDbEntity
  8
0
100
AcDbLine
 62
7
  6
BYLAYER
 10
24.8747036071
 20
35.0032045973
 11
26.2511100313
 21
34.8780766767
  0
LINE
  5
27A
100
AcDbEntity
  8
0
100
AcDbLine
 62
7
  6
BYLAYER
 10
21.4406624362
 20
34.2429239596
 11
23.3201337158
 21
33.823135755
  0
LWPOLYLINE
  5
27B
100
AcDbEntity
  8
0
100
AcDbPolyline
 62
7
  6
BYLAYER
 90
3
 70
0
 10
20.8820364554
 20
35.5632552142
 10
21.8112569756
 20
35.2816998877
 10
23.2531295535
 20
35.1506204956
  0
LINE
  5
27C
100
AcDbEntity
  8
0
100
AcDbLine
 62
7
  6
BYLAYER
 10
24.5241362481
 20
65.1231052725
 11
24.524148322
 21
63.0048168037
  0
LINE
  5
27D
100
AcDbEntity
  8
0
100
AcDbLine
 62
7
  6
BYLAYER
 10
25.5241362481
 20
65.1231052725
 11
25.524148322
 21
62.9749202937
  0
LINE
  5
27E
100
AcDbEntity
  8
0
100
AcDbLine
 62
7
  6
BYLAYER
 10
26.9688040985
 20
63.7765843682
 11
26.9654394333
 21
63.2519052733
  0
LINE
  5
27F
100
AcDbEntity
  8
0
100
AcDbLine
 62
7
  6
BYLAYER
 10
13.8349335326
 20
26.6523076188
 11
14.5193579054
 21
27.2842952448
  0
LINE
  5
280
100
AcDbEntity
  8
0
100
AcDbLine
 62
7
  6
BYLAYER
 10
30.757889932
 20
37.9124713609
 11
32.1949959619
 21
38.249791585
  0
LWPOLYLINE
  5
281
100
AcDbEntity
  8
0
100
AcDbPolyline
 62
7
  6
BYLAYER
 90
3
 70
0
 10
29.022208746
 20
36.2713958964
 10
33.2804665809
 20
37.2110160715
 10
34.3472384099
 20
37.7142799647
  0
LWPOLYLINE
  5
282
100
AcDbEntity
  8
0
100
AcDbPolyline
 62
7
  6
BYLAYER
 90
3
 70
0
 10
28.7038524821
 20
37.2679756611
 10
32.9011318306
 20
38.1815331396
 10
36.4526193305
 20
39.8071445252
  0
LINE
  5
283
100
AcDbEntity
  8
0
100
AcDbLine
 62
7
  6
BYLAYER
 10
27.3170465339
 20
37.3543141248
 11
31.7517915516
 21
37.9921991415
  0
LINE
  5
284
100
AcDbEntity
  8
0
100
AcDbLine
 62
7
  6
BYLAYER
 10
19.4925614046
 20
56.207860631
 11
19.024148322
 21
57.5495834639
  0
LWPOLYLINE
  5
285
100
AcDbEntity
  8
0
100
AcDbPolyline
 62
7
  6
BYLAYER
 90
5
 70
0
 10
19.849148322
 20
65.2451187454
 10
20.0109428139
 20
64.5038701584
 10
20.9523589567
 20
63.4011316975
 10
21.6965936864
 20
62.9569203251
 10
23.5742596097
 20
62.3770333138
  0
LINE
  5
286
100
AcDbEntity
  8
0
100
AcDbLine
 62
7
  6
BYLAYER
 10
29.8833659122
 20
18.1874435282
 11
29.660881323
 21
19.2100518948
  0
LINE
  5
287
100
AcDbEntity
  8
0
100
AcDbLine
 62
7
  6
BYLAYER
 10
27.1228722573
 20
63.2867803216
 11
27.124103352
 21
63.5589869121
  0
LINE
  5
288
100
AcDbEntity
  8
0
100
AcDbLine
 62
7
  6
BYLAYER
 10
30.199148322
 20
63.6121139111
 11
30.199148322
 21
65.2451187454
  0
LINE
  5
289
100
AcDbEntity
  8
0
100
AcDbLine
 62
7
  6
BYLAYER
 10
30.399148322
 20
56.3692452714
 11
30.399148322
 21
55.2021390147
  0
LINE
  5
28A
100
AcDbEntity
  8
0
100
AcDbLine
 62
7
  6
BYLAYER
 10
31.024148322
 20
62.806402131
 11
31.0145997283
 21
62.6036985197
  0
LINE
  5
28B
100
AcDbEntity
  8
0
100
AcDbLine
 62
7
  6
BYLAYER
 10
26.4356103301
 20
56.6877689079
 11
26.5768994599
 21
56.125848616
  0
LINE
  5
28C
100
AcDbEntity
  8
0
100
AcDbLine
 62
7
  6
BYLAYER
 10
32.6002257839
 20
57.3903349014
 11
32.6002257839
 21
56.9611506543
  0
LWPOLYLINE
  5
28D
100
AcDbEntity
  8
0
100
AcDbPolyline
 62
7
  6
BYLAYER
 90
5
 70
0
 10
36.8407324752
 20
38.8068437734
 10
39.4885859217
 20
40.9845648716
 10
40.8667918801
 20
43.5138196258
 10
40.851075828
 20
46.1952381595
 10
40.0090663801
 20
47.8278783273
  0
LINE
  5
28E
100
AcDbEntity
  8
0
100
AcDbLine
 62
7
  6
BYLAYER
 10
30.8665676789
 20
63.72718666
 11
31.024148322
 21
62.9087076
  0
LINE
  5
28F
100
AcDbEntity
  8
0
100
AcDbLine
 62
7
  6
BYLAYER
 10
20.8106422097
 20
55.1348498459
 11
19.4925614046
 21
56.207860631
  0
LINE
  5
290
100
AcDbEntity
  8
0
100
AcDbLine
 62
7
  6
BYLAYER
 10
19.5480654719
 20
56.2745943444
 11
20.7668060243
 21
55.2609379154
  0
LWPOLYLINE
  5
291
100
AcDbEntity
  8
0
100
AcDbPolyline
 62
7
  6
BYLAYER
 90
4
 70
0
 10
30.4671388535
 20
56.0705007663
 10
30.8991057506
 20
54.7820704956
 10
30.4505356057
 20
53.4939175289
 10
29.1784179572
 20
52.3954733733
  0
LINE
  5
292
100
AcDbEntity
  8
0
100
AcDbLine
 62
7
  6
BYLAYER
 10
31.024148322
 20
58.0089330195
 11
30.9052345447
 21
58.3641586254
  0
LINE
  5
293
100
AcDbEntity
  8
0
100
AcDbLine
 62
7
  6
BYLAYER
 10
30.9058930869
 20
59.181906276
 11
31.024148322
 21
58.8261816804
  0
LINE
  5
294
100
AcDbEntity
  8
0
100
AcDbLine
 62
7
  6
BYLAYER
 10
30.905776448
 20
59.998759636
 11
31.0241483217
 21
59.6426580692
  0
LINE
  5
295
100
AcDbEntity
  8
0
100
AcDbLine
 62
7
  6
BYLAYER
 10
30.9057793989
 20
60.815251769
 11
31.0241483217
 21
60.4591598243
  0
LINE
  5
296
100
AcDbEntity
  8
0
100
AcDbLine
 62
7
  6
BYLAYER
 10
40.0090663801
 20
54.018195695
 11
40.0090663801
 21
46.3430729739
  0
LWPOLYLINE
  5
297
100
AcDbEntity
  8
0
100
AcDbPolyline
 62
7
  6
BYLAYER
 90
6
 70
0
 10
37.060533566
 20
26.7106349393
 10
33.316367932
 20
25.0800732203
 10
28.8644679302
 20
24.1832782349
 10
24.13474013
 20
24.1233020229
 10
19.6693678902
 20
24.905516173
 10
15.8846474447
 20
26.4384833294
  0
LINE
  5
298
100
AcDbEntity
  8
0
100
AcDbLine
 62
7
  6
BYLAYER
 10
21.277670367
 20
54.9257918155
 11
21.1398068921
 21
55.018238674
  0
LWPOLYLINE
  5
299
100
AcDbEntity
  8
0
100
AcDbPolyline
 62
7
  6
BYLAYER
 90
3
 70
0
 10
20.2040691887
 20
64.697240023
 10
21.1081007144
 20
63.6369028195
 10
21.5710858551
 20
63.3600646108
  0
LINE
  5
29A
100
AcDbEntity
  8
0
100
AcDbLine
 62
7
  6
BYLAYER
 10
30.9057901585
 20
61.6317216293
 11
31.0241483217
 21
61.2756622255
  0
LINE
  5
29B
100
AcDbEntity
  8
0
100
AcDbLine
 62
7
  6
BYLAYER
 10
41.5090663801
 20
21.9882018251
 11
41.5090663801
 21
21.9669576893
  0
LINE
  5
29C
100
AcDbEntity
  8
0
100
AcDbLine
 62
7
  6
BYLAYER
 10
41.4175274366
 20
22.0857477628
 11
41.5090663801
 21
23.0625589556
  0
LINE
  5
29D
100
AcDbEntity
  8
0
100
AcDbLine
 62
7
  6
BYLAYER
 10
21.1850980679
 20
55.0021936444
 11
20.8106422097
 21
55.1348498459
  0
LWPOLYLINE
  5
29E
100
AcDbEntity
  8
0
100
AcDbPolyline
 62
7
  6
BYLAYER
 90
4
 70
0
 10
20.7668060243
 20
55.2609379154
 10
22.7077900446
 20
54.5577830735
 10
25.0022332406
 20
54.3406872279
 10
27.3157613481
 20
54.6536614661
  0
LINE
  5
29F
100
AcDbEntity
  8
0
100
AcDbLine
 62
7
  6
BYLAYER
 10
37.0605091316
 20
21.8116094742
 11
33.3163712349
 21
20.1810605259
  0
LWPOLYLINE
  5
2A0
100
AcDbEntity
  8
0
100
AcDbPolyline
 62
7
  6
BYLAYER
 90
4
 70
0
 10
22.7258234489
 20
57.8206564065
 10
20.7816308446
 20
58.5199897088
 10
19.4826724018
 20
59.5904390057
 10
19.0571254566
 20
60.7756059551
  0
LWPOLYLINE
  5
2A1
100
AcDbEntity
  8
0
100
AcDbPolyline
 62
7
  6
BYLAYER
 90
3
 70
0
 10
22.004160064
 20
60.2636283539
 10
20.468899624
 20
61.1017208034
 10
20.1787783923
 20
61.5008640461
  0
LINE
  5
2A2
100
AcDbEntity
  8
0
100
AcDbLine
 62
7
  6
BYLAYER
 10
30.399148322
 20
56.1303957955
 11
30.4671388535
 21
56.0705007663
  0
LWPOLYLINE
  5
2A3
100
AcDbEntity
  8
0
100
AcDbPolyline
 62
7
  6
BYLAYER
 90
3
 70
0
 10
40.0090663801
 20
47.7629682551
 10
41.2984919446
 20
45.5129052503
 10
41.5090663801
 20
44.0342051838
  0
LWPOLYLINE
  5
2A4
100
AcDbEntity
  8
0
100
AcDbPolyline
 62
7
  6
BYLAYER
 90
4
 70
0
 10
40.0090663801
 20
54.018195695
 10
39.3321790287
 20
56.7830644647
 10
37.2330673556
 20
59.3435093776
 10
33.8827975307
 20
61.2997608684
  0
LWPOLYLINE
  5
2A5
100
AcDbEntity
  8
0
100
AcDbPolyline
 62
7
  6
BYLAYER
 90
5
 70
0
 10
27.3189552301
 20
57.1053974749
 10
25.0285395564
 20
56.7911161795
 10
22.7258245056
 20
57.00415376
 10
20.7816311757
 20
57.7034871106
 10
19.4847129148
 20
58.7722550645
  0
LINE
  5
2A6
100
AcDbEntity
  8
0
100
AcDbLine
 62
7
  6
BYLAYER
 10
26.435645264
 20
56.6879477538
 11
24.5222812829
 21
56.5832457254
  0
LWPOLYLINE
  5
2A7
100
AcDbEntity
  8
0
100
AcDbPolyline
 62
7
  6
BYLAYER
 90
3
 70
0
 10
41.3421313477
 20
15.7721069415
 10
39.900421215
 20
13.0968120869
 10
37.1157122573
 20
10.8122844099
  0
LWPOLYLINE
  5
2A8
100
AcDbEntity
  8
0
100
AcDbPolyline
 62
7
  6
BYLAYER
 90
3
 70
0
 10
39.8650344931
 20
12.9047168898
 10
41.3178357349
 20
15.5291925272
 10
41.3459140393
 20
15.736161438
  0
LINE
  5
2A9
100
AcDbEntity
  8
0
100
AcDbLine
 62
7
  6
BYLAYER
 10
30.9287634622
 20
14.5349269702
 11
31.9047558252
 21
14.8466240191
  0
LINE
  5
2AA
100
AcDbEntity
  8
0
100
AcDbLine
 62
7
  6
BYLAYER
 10
24.0129150489
 20
59.8435353838
 11
22.004160064
 21
60.2636283539
  0
LINE
  5
2AB
100
AcDbEntity
  8
0
100
AcDbLine
 62
7
  6
BYLAYER
 10
27.124103352
 20
63.5589869121
 11
27.4381962103
 21
63.3776494182
  0
LWPOLYLINE
  5
2AC
100
AcDbEntity
  8
0
100
AcDbPolyline
 62
7
  6
BYLAYER
 90
4
 70
0
 10
23.5742596097
 20
62.3770333138
 10
25.6974190426
 20
62.2827672696
 10
27.7065810419
 20
62.6900832118
 10
28.5597075154
 20
63.063373428
  0
LINE
  5
2AD
100
AcDbEntity
  8
0
100
AcDbLine
 62
7
  6
BYLAYER
 10
33.8827975307
 20
61.2997608684
 11
31.0200538351
 21
62.0751490105
  0
LINE
  5
2AE
100
AcDbEntity
  8
0
100
AcDbLine
 62
7
  6
BYLAYER
 10
28.2251380879
 20
63.7891676682
 11
27.873961368
 21
63.9919150552
  0
LINE
  5
2AF
100
AcDbEntity
  8
0
100
AcDbLine
 62
7
  6
BYLAYER
 10
37.1157122573
 20
10.6621066306
 11
39.8650344931
 21
12.9047168898
  0
LWPOLYLINE
  5
2B0
100
AcDbEntity
  8
0
100
AcDbPolyline
 62
7
  6
BYLAYER
 90
7
 70
0
 10
37.0607498711
 20
10.7883570008
 10
33.3164838641
 20
9.1583119242
 10
28.8645482965
 20
8.2614895427
 10
24.1347617892
 20
8.2015031697
 10
19.6693528603
 20
8.9837232654
 10
15.8846072293
 20
10.516708752
 10
13.1356132894
 20
12.6467345175
  0
LINE
  5
2B1
100
AcDbEntity
  8
0
100
AcDbLine
 62
7
  6
BYLAYER
 10
33.2723046581
 20
6.7597236656
 11
36.7627298988
 21
8.2263743805
  0
ARC
  5
2B2
100
AcDbEntity
  8
0
100
AcDbCircle
 62
7
  6
BYLAYER
 10
6.4943471034
 20
11.53600162
 40
20.9555128584
100
AcDbArc
 50
66.3512564176
 51
72.6637714883
  0
ARC
  5
2B3
100
AcDbEntity
  8
0
100
AcDbCircle
 62
7
  6
BYLAYER
 10
6.5819374084
 20
10.5541945814
 40
20.6975589673
100
AcDbArc
 50
64.6732887845
 51
72.6947331161
  0
ARC
  5
2B4
100
AcDbEntity
  8
0
100
AcDbCircle
 62
7
  6
BYLAYER
 10
16.6147374877
 20
21.2828772217
 40
5.1112601773
100
AcDbArc
 50
194.2715713453
 51
195.7282203456
  0
ARC
  5
2B5
100
AcDbEntity
  8
0
100
AcDbCircle
 62
7
  6
BYLAYER
 10
16.6137074764
 20
24.9568710457
 40
5.1101962356
100
AcDbArc
 50
194.2725281686
 51
195.6868989527
  0
ARC
  5
2B6
100
AcDbEntity
  8
0
100
AcDbCircle
 62
7
  6
BYLAYER
 10
16.6120449425
 20
22.5069412415
 40
5.1084812257
100
AcDbArc
 50
194.274519226
 51
195.6042868803
  0
ARC
  5
2B7
100
AcDbEntity
  8
0
100
AcDbCircle
 62
7
  6
BYLAYER
 10
16.6118446316
 20
18.8326282416
 40
5.1082742575
100
AcDbArc
 50
194.2747060119
 51
195.5958002492
  0
ARC
  5
2B8
100
AcDbEntity
  8
0
100
AcDbCircle
 62
7
  6
BYLAYER
 10
16.2979272121
 20
18.9264645604
 40
4.7888608378
100
AcDbArc
 50
173.5146939328
 51
179.9964157645
  0
ARC
  5
2B9
100
AcDbEntity
  8
0
100
AcDbCircle
 62
7
  6
BYLAYER
 10
16.2978507326
 20
15.2522044289
 40
4.7887843604
100
AcDbArc
 50
173.5200639638
 51
179.9960871246
  0
ARC
  5
2BA
100
AcDbEntity
  8
0
100
AcDbCircle
 62
7
  6
BYLAYER
 10
16.297809258
 20
20.151220714
 40
4.7887428833
100
AcDbArc
 50
173.5384627373
 51
179.9964718702
  0
ARC
  5
2BB
100
AcDbEntity
  8
0
100
AcDbCircle
 62
7
  6
BYLAYER
 10
16.2978018344
 20
16.47695923
 40
4.7887354619
100
AcDbArc
 50
173.5317020836
 51
179.996105287
  0
ARC
  5
2BC
100
AcDbEntity
  8
0
100
AcDbCircle
 62
7
  6
BYLAYER
 10
16.2977644999
 20
23.8254825277
 40
4.7886981252
100
AcDbArc
 50
173.5472608865
 51
179.9964825561
  0
ARC
  5
2BD
100
AcDbEntity
  8
0
100
AcDbCircle
 62
7
  6
BYLAYER
 10
16.2977135268
 20
25.0502371643
 40
4.7886471519
100
AcDbArc
 50
173.5568324398
 51
179.9965199937
  0
ARC
  5
2BE
100
AcDbEntity
  8
0
100
AcDbCircle
 62
7
  6
BYLAYER
 10
16.2976725714
 20
21.3759771396
 40
4.7886061964
100
AcDbArc
 50
173.5648828437
 51
179.9965303392
  0
ARC
  5
2BF
100
AcDbEntity
  8
0
100
AcDbCircle
 62
7
  6
BYLAYER
 10
16.296946213
 20
22.6007814978
 40
4.7878798253
100
AcDbArc
 50
173.5738513914
 51
179.9970829366
  0
ARC
  5
2C0
100
AcDbEntity
  8
0
100
AcDbCircle
 62
7
  6
BYLAYER
 10
16.2965374586
 20
17.7017855214
 40
4.7874710205
100
AcDbArc
 50
173.617100518
 51
179.9973046593
  0
ARC
  5
2C1
100
AcDbEntity
  8
0
100
AcDbCircle
 62
7
  6
BYLAYER
 10
16.2821238204
 20
17.7020740146
 40
4.7730573774
100
AcDbArc
 50
180.0007595925
 51
181.7807806956
  0
ARC
  5
2C2
100
AcDbEntity
  8
0
100
AcDbCircle
 62
7
  6
BYLAYER
 10
16.2819724199
 20
22.6010756562
 40
4.7729060262
100
AcDbArc
 50
180.0006049745
 51
181.780570322
  0
ARC
  5
2C3
100
AcDbEntity
  8
0
100
AcDbCircle
 62
7
  6
BYLAYER
 10
16.2811186415
 20
20.1515198221
 40
4.7720522578
100
AcDbArc
 50
180.0000507801
 51
181.7793192374
  0
ARC
  5
2C4
100
AcDbEntity
  8
0
100
AcDbCircle
 62
7
  6
BYLAYER
 10
16.2811186409
 20
23.8257806995
 40
4.7720522572
100
AcDbArc
 50
180.0000502943
 51
181.7793200151
  0
ARC
  5
2C5
100
AcDbEntity
  8
0
100
AcDbCircle
 62
7
  6
BYLAYER
 10
16.281117186
 20
18.9267662164
 40
4.7720508023
100
AcDbArc
 50
180.0000249806
 51
181.7793191068
  0
ARC
  5
2C6
100
AcDbEntity
  8
0
100
AcDbCircle
 62
7
  6
BYLAYER
 10
16.2811167878
 20
25.0505343078
 40
4.772050404
100
AcDbArc
 50
180.0000755543
 51
181.7792958823
  0
ARC
  5
2C7
100
AcDbEntity
  8
0
100
AcDbCircle
 62
7
  6
BYLAYER
 10
16.2811167133
 20
21.3762734301
 40
4.7720503295
100
AcDbArc
 50
180.0000757229
 51
181.7792955769
  0
ARC
  5
2C8
100
AcDbEntity
  8
0
100
AcDbCircle
 62
7
  6
BYLAYER
 10
16.2810975656
 20
16.4772591506
 40
4.7720311821
100
AcDbArc
 50
179.999692674
 51
181.7792813189
  0
ARC
  5
2C9
100
AcDbEntity
  8
0
100
AcDbCircle
 62
7
  6
BYLAYER
 10
16.2810935339
 20
15.2525055955
 40
4.7720271506
100
AcDbArc
 50
179.9996893695
 51
181.7793028809
  0
ARC
  5
2CA
100
AcDbEntity
  8
0
100
AcDbCircle
 62
7
  6
BYLAYER
 10
16.6140607088
 20
29.8559883771
 40
5.1105642016
100
AcDbArc
 50
194.272586456
 51
195.6894208019
  0
ARC
  5
2CB
100
AcDbEntity
  8
0
100
AcDbCircle
 62
7
  6
BYLAYER
 10
16.6133260043
 20
35.9795567792
 40
5.1098027574
100
AcDbArc
 50
194.2732448193
 51
195.6558041588
  0
ARC
  5
2CC
100
AcDbEntity
  8
0
100
AcDbCircle
 62
7
  6
BYLAYER
 10
16.6129350687
 20
26.1814342003
 40
5.1094010588
100
AcDbArc
 50
194.2736673517
 51
195.6419381499
  0
ARC
  5
2CD
100
AcDbEntity
  8
0
100
AcDbCircle
 62
7
  6
BYLAYER
 10
16.6125654256
 20
28.630837321
 40
5.1090169645
100
AcDbArc
 50
194.2735733574
 51
195.6406035274
  0
ARC
  5
2CE
100
AcDbEntity
  8
0
100
AcDbCircle
 62
7
  6
BYLAYER
 10
16.6119091427
 20
39.6534537674
 40
5.1083401491
100
AcDbArc
 50
194.2746315332
 51
195.5973181778
  0
ARC
  5
2CF
100
AcDbEntity
  8
0
100
AcDbCircle
 62
7
  6
BYLAYER
 10
16.3699496263
 20
27.3536338421
 40
4.8608785365
100
AcDbArc
 50
180.052457628
 51
193.7028114534
  0
ARC
  5
2D0
100
AcDbEntity
  8
0
100
AcDbCircle
 62
7
  6
BYLAYER
 10
16.3697433715
 20
37.1516301825
 40
4.860666795
100
AcDbArc
 50
180.0520573923
 51
193.6714780702
  0
ARC
  5
2D1
100
AcDbEntity
  8
0
100
AcDbCircle
 62
7
  6
BYLAYER
 10
16.3677441195
 20
33.4771211619
 40
4.8586606772
100
AcDbArc
 50
180.0491509002
 51
193.6102852358
  0
ARC
  5
2D2
100
AcDbEntity
  8
0
100
AcDbCircle
 62
7
  6
BYLAYER
 10
16.3675694927
 20
34.7018613264
 40
4.8584860234
100
AcDbArc
 50
180.0490362402
 51
193.6105459976
  0
ARC
  5
2D3
100
AcDbEntity
  8
0
100
AcDbCircle
 62
7
  6
BYLAYER
 10
16.300480371
 20
31.1742631886
 40
4.7914056403
100
AcDbArc
 50
172.3812538965
 51
179.9995498265
  0
ARC
  5
2D4
100
AcDbEntity
  8
0
100
AcDbCircle
 62
7
  6
BYLAYER
 10
16.2978977072
 20
39.7472767582
 40
4.7888313329
100
AcDbArc
 50
173.5198284063
 51
179.9964176678
  0
ARC
  5
2D5
100
AcDbEntity
  8
0
100
AcDbCircle
 62
7
  6
BYLAYER
 10
16.2978611271
 20
37.2977702052
 40
4.7887947524
100
AcDbArc
 50
173.52639634
 51
179.996471579
  0
ARC
  5
2D6
100
AcDbEntity
  8
0
100
AcDbCircle
 62
7
  6
BYLAYER
 10
16.2978493618
 20
29.9492486959
 40
4.7887829871
100
AcDbArc
 50
173.5286795255
 51
179.9964736511
  0
ARC
  5
2D7
100
AcDbEntity
  8
0
100
AcDbCircle
 62
7
  6
BYLAYER
 10
16.2977650836
 20
28.7244969657
 40
4.7886987087
100
AcDbArc
 50
173.5467042004
 51
179.9965069747
  0
ARC
  5
2D8
100
AcDbEntity
  8
0
100
AcDbCircle
 62
7
  6
BYLAYER
 10
16.297714262
 20
27.4997444547
 40
4.7886478872
100
AcDbArc
 50
173.5571463098
 51
179.9964945935
  0
ARC
  5
2D9
100
AcDbEntity
  8
0
100
AcDbCircle
 62
7
  6
BYLAYER
 10
16.2976567804
 20
38.5225281018
 40
4.7885904057
100
AcDbArc
 50
173.5664219727
 51
179.9964926387
  0
ARC
  5
2DA
100
AcDbEntity
  8
0
100
AcDbCircle
 62
7
  6
BYLAYER
 10
16.292207744
 20
34.8488405134
 40
4.7831225251
100
AcDbArc
 50
174.2034527264
 51
181.7969711196
  0
ARC
  5
2DB
100
AcDbEntity
  8
0
100
AcDbCircle
 62
7
  6
BYLAYER
 10
16.2921740923
 20
33.6240887121
 40
4.7830888847
100
AcDbArc
 50
175.4892817115
 51
181.7969644568
  0
ARC
  5
2DC
100
AcDbEntity
  8
0
100
AcDbCircle
 62
7
  6
BYLAYER
 10
16.2914997912
 20
32.3988760496
 40
4.7824334106
100
AcDbArc
 50
174.8738689087
 51
179.9979183741
  0
ARC
  5
2DD
100
AcDbEntity
  8
0
100
AcDbCircle
 62
7
  6
BYLAYER
 10
16.2899885987
 20
31.1745151217
 40
4.7809138727
100
AcDbArc
 50
180.0025680739
 51
181.7196552912
  0
ARC
  5
2DE
100
AcDbEntity
  8
0
100
AcDbCircle
 62
7
  6
BYLAYER
 10
16.2899753202
 20
36.073562764
 40
4.7808960446
100
AcDbArc
 50
174.8088252702
 51
181.7913657774
  0
ARC
  5
2DF
100
AcDbEntity
  8
0
100
AcDbCircle
 62
7
  6
BYLAYER
 10
16.2884788181
 20
26.2755332452
 40
4.7794063459
100
AcDbArc
 50
174.5706666546
 51
181.7909909326
  0
ARC
  5
2E0
100
AcDbEntity
  8
0
100
AcDbCircle
 62
7
  6
BYLAYER
 10
16.2811184895
 20
27.5000415751
 40
4.7720521058
100
AcDbArc
 50
180.0000497877
 51
181.7792792321
  0
ARC
  5
2E1
100
AcDbEntity
  8
0
100
AcDbCircle
 62
7
  6
BYLAYER
 10
16.2811169533
 20
32.3990560627
 40
4.7720505696
100
AcDbArc
 50
180.0000751778
 51
181.7793084669
  0
ARC
  5
2E2
100
AcDbEntity
  8
0
100
AcDbCircle
 62
7
  6
BYLAYER
 10
16.2811168487
 20
28.724795185
 40
4.7720504649
100
AcDbArc
 50
180.0000753682
 51
181.7792958984
  0
ARC
  5
2E3
100
AcDbEntity
  8
0
100
AcDbCircle
 62
7
  6
BYLAYER
 10
16.2811154021
 20
39.7475778633
 40
4.7720490184
100
AcDbArc
 50
180.0000202979
 51
181.7793062747
  0
ARC
  5
2E4
100
AcDbEntity
  8
0
100
AcDbCircle
 62
7
  6
BYLAYER
 10
16.2811130392
 20
38.5228242386
 40
4.7720466555
100
AcDbArc
 50
180.0000360583
 51
181.7792809269
  0
ARC
  5
2E5
100
AcDbEntity
  8
0
100
AcDbCircle
 62
7
  6
BYLAYER
 10
16.2811129726
 20
37.2980705881
 40
4.7720465889
100
AcDbArc
 50
180.0000657559
 51
181.7792713316
  0
ARC
  5
2E6
100
AcDbEntity
  8
0
100
AcDbCircle
 62
7
  6
BYLAYER
 10
16.2811129058
 20
29.9495488349
 40
4.7720465221
100
AcDbArc
 50
180.0000649156
 51
181.7792681478
  0
ARC
  5
2E7
100
AcDbEntity
  8
0
100
AcDbCircle
 62
7
  6
BYLAYER
 10
18.3472680313
 20
44.1433555584
 40
6.585649739
100
AcDbArc
 50
144.9463191646
 51
145.659056293
  0
ARC
  5
2E8
100
AcDbEntity
  8
0
100
AcDbCircle
 62
7
  6
BYLAYER
 10
16.6124855066
 20
42.1031050991
 40
5.1089339554
100
AcDbArc
 50
194.2740532525
 51
195.6216952556
  0
ARC
  5
2E9
100
AcDbEntity
  8
0
100
AcDbCircle
 62
7
  6
BYLAYER
 10
16.6108291819
 20
43.3274377511
 40
5.1072254279
100
AcDbArc
 50
194.2757259543
 51
195.5522503269
  0
ARC
  5
2EA
100
AcDbEntity
  8
0
100
AcDbCircle
 62
7
  6
BYLAYER
 10
16.2976176487
 20
42.1967899753
 40
4.7885512738
100
AcDbArc
 50
173.5760893601
 51
179.996523858
  0
ARC
  5
2EB
100
AcDbEntity
  8
0
100
AcDbCircle
 62
7
  6
BYLAYER
 10
16.2971563909
 20
40.9720752541
 40
4.7880900085
100
AcDbArc
 50
173.5825377878
 51
179.9969865052
  0
ARC
  5
2EC
100
AcDbEntity
  8
0
100
AcDbCircle
 62
7
  6
BYLAYER
 10
16.2814585411
 20
40.9723703939
 40
4.7723921523
100
AcDbArc
 50
180.0005199438
 51
181.7795254103
  0
ARC
  5
2ED
100
AcDbEntity
  8
0
100
AcDbCircle
 62
7
  6
BYLAYER
 10
16.2811184894
 20
42.1970850916
 40
4.7720521057
100
AcDbArc
 50
180.0000551616
 51
181.7793092108
  0
ARC
  5
2EE
100
AcDbEntity
  8
0
100
AcDbCircle
 62
7
  6
BYLAYER
 10
16.2811133624
 20
43.4218387413
 40
4.7720469787
100
AcDbArc
 50
180.0000344626
 51
181.7793098795
  0
ARC
  5
2EF
100
AcDbEntity
  8
0
100
AcDbCircle
 62
7
  6
BYLAYER
 10
20.8751302007
 20
62.5005237778
 40
1.8509819175
100
AcDbArc
 50
180.0020206729
 51
182.8639584415
  0
ARC
  5
2F0
100
AcDbEntity
  8
0
100
AcDbCircle
 62
7
  6
BYLAYER
 10
20.8751182223
 20
60.0510167883
 40
1.8509699397
100
AcDbArc
 50
180.0021814753
 51
182.865239313
  0
ARC
  5
2F1
100
AcDbEntity
  8
0
100
AcDbCircle
 62
7
  6
BYLAYER
 10
20.8751159272
 20
61.6840215617
 40
1.8509676446
100
AcDbArc
 50
180.0021802632
 51
182.8639601716
  0
ARC
  5
2F2
100
AcDbEntity
  8
0
100
AcDbCircle
 62
7
  6
BYLAYER
 10
20.8751156407
 20
60.8675191476
 40
1.8509673581
100
AcDbArc
 50
180.0021805633
 51
182.8639023805
  0
ARC
  5
2F3
100
AcDbEntity
  8
0
100
AcDbCircle
 62
7
  6
BYLAYER
 10
20.8750629059
 20
58.4180107862
 40
1.8509146231
100
AcDbArc
 50
180.002136797
 51
182.8361219128
  0
ARC
  5
2F4
100
AcDbEntity
  8
0
100
AcDbCircle
 62
7
  6
BYLAYER
 10
20.8744315047
 20
57.6002092296
 40
1.8502824403
100
AcDbArc
 50
180.00531722
 51
181.3991337652
  0
ARC
  5
2F5
100
AcDbEntity
  8
0
100
AcDbCircle
 62
7
  6
BYLAYER
 10
20.8734119991
 20
59.2343128157
 40
1.8492614616
100
AcDbArc
 50
179.9951103585
 51
182.7849694448
  0
ARC
  5
2F6
100
AcDbEntity
  8
0
100
AcDbCircle
 62
7
  6
BYLAYER
 10
22.9665928988
 20
20.2068175679
 40
13.7779921007
100
AcDbArc
 50
240.0007498842
 51
241.0952386095
  0
ARC
  5
2F7
100
AcDbEntity
  8
0
100
AcDbCircle
 62
7
  6
BYLAYER
 10
22.7368273905
 20
38.3038605454
 40
12.6001938453
100
AcDbArc
 50
239.5645207574
 51
240.1138385482
  0
ARC
  5
2F8
100
AcDbEntity
  8
0
100
AcDbCircle
 62
7
  6
BYLAYER
 10
21.6193473732
 20
37.8183762888
 40
10.5566456295
100
AcDbArc
 50
233.5442695351
 51
234.1444911045
  0
ARC
  5
2F9
100
AcDbEntity
  8
0
100
AcDbCircle
 62
7
  6
BYLAYER
 10
30.160060615
 20
20.4105151323
 40
13.9001367687
100
AcDbArc
 50
299.9910696518
 51
303.1963882868
  0
ARC
  5
2FA
100
AcDbEntity
  8
0
100
AcDbCircle
 62
7
  6
BYLAYER
 10
29.2456017044
 20
21.236492341
 40
15.0726880099
100
AcDbArc
 50
298.2861520798
 51
299.9962622694
  0
ARC
  5
2FB
100
AcDbEntity
  8
0
100
AcDbCircle
 62
7
  6
BYLAYER
 10
29.7502456924
 20
21.1199692229
 40
14.7194494601
100
AcDbArc
 50
298.634742794
 51
299.9922797454
  0
ARC
  5
2FC
100
AcDbEntity
  8
0
100
AcDbCircle
 62
7
  6
BYLAYER
 10
29.7460129094
 20
21.9820446097
 40
14.4199859816
100
AcDbArc
 50
300.515741233
 51
300.7354846836
  0
ARC
  5
2FD
100
AcDbEntity
  8
0
100
AcDbCircle
 62
7
  6
BYLAYER
 10
29.7531488029
 20
23.1938999118
 40
14.4052677588
100
AcDbArc
 50
300.5173272482
 51
300.7372719298
  0
ARC
  5
2FE
100
AcDbEntity
  8
0
100
AcDbCircle
 62
7
  6
BYLAYER
 10
29.8256290666
 20
24.2752097885
 40
14.2444325594
100
AcDbArc
 50
300.5590722966
 51
300.7827835569
  0
ARC
  5
2FF
100
AcDbEntity
  8
0
100
AcDbCircle
 62
7
  6
BYLAYER
 10
29.8583934375
 20
25.439490125
 40
14.1757116164
100
AcDbArc
 50
300.5695851608
 51
300.7941034121
  0
ARC
  5
300
100
AcDbEntity
  8
0
100
AcDbCircle
 62
7
  6
BYLAYER
 10
29.8633942451
 20
26.6550226301
 40
14.1652312586
100
AcDbArc
 50
300.5711342208
 51
300.7958204877
  0
ARC
  5
301
100
AcDbEntity
  8
0
100
AcDbCircle
 62
7
  6
BYLAYER
 10
35.9367249293
 20
19.5987967112
 40
5.5780855639
100
AcDbArc
 50
344.9426897994
 51
345.3418585581
  0
ARC
  5
302
100
AcDbEntity
  8
0
100
AcDbCircle
 62
7
  6
BYLAYER
 10
35.936764163
 20
18.3740349076
 40
5.5780455351
100
AcDbArc
 50
344.9425843317
 51
345.3418124898
  0
ARC
  5
303
100
AcDbEntity
  8
0
100
AcDbCircle
 62
7
  6
BYLAYER
 10
35.9393673039
 20
15.9238527805
 40
5.5753563051
100
AcDbArc
 50
344.9414263194
 51
345.4471224015
  0
ARC
  5
304
100
AcDbEntity
  8
0
100
AcDbCircle
 62
7
  6
BYLAYER
 10
35.9875361315
 20
18.2103408984
 40
5.5256757813
100
AcDbArc
 50
345.6579536477
 51
346.8920145881
  0
ARC
  5
305
100
AcDbEntity
  8
0
100
AcDbCircle
 62
7
  6
BYLAYER
 10
36.1592099325
 20
19.5482887821
 40
5.3500658809
100
AcDbArc
 50
345.2622230924
 51
358.3129137578
  0
ARC
  5
306
100
AcDbEntity
  8
0
100
AcDbCircle
 62
7
  6
BYLAYER
 10
36.1592168003
 20
18.3235341866
 40
5.3500589931
100
AcDbArc
 50
345.262187988
 51
358.3129018402
  0
ARC
  5
307
100
AcDbEntity
  8
0
100
AcDbCircle
 62
7
  6
BYLAYER
 10
36.1608324083
 20
15.8738576696
 40
5.3484391352
100
AcDbArc
 50
345.3693786465
 51
358.3141925584
  0
ARC
  5
308
100
AcDbEntity
  8
0
100
AcDbCircle
 62
7
  6
BYLAYER
 10
36.1651233739
 20
17.0981303161
 40
5.3441322543
100
AcDbArc
 50
345.6332960983
 51
358.3152040558
  0
ARC
  5
309
100
AcDbEntity
  8
0
100
AcDbCircle
 62
7
  6
BYLAYER
 10
36.1971211492
 20
18.1679690705
 40
5.3119459442
100
AcDbArc
 50
346.8244565878
 51
359.9521759881
  0
ARC
  5
30A
100
AcDbEntity
  8
0
100
AcDbCircle
 62
7
  6
BYLAYER
 10
36.1976715307
 20
20.6174485377
 40
5.3113966817
100
AcDbArc
 50
346.8431313518
 51
359.9524795973
  0
ARC
  5
30B
100
AcDbEntity
  8
0
100
AcDbCircle
 62
7
  6
BYLAYER
 10
36.1977018005
 20
16.9431848867
 40
5.3113664018
100
AcDbArc
 50
346.8436333786
 51
359.9524721185
  0
ARC
  5
30C
100
AcDbEntity
  8
0
100
AcDbCircle
 62
7
  6
BYLAYER
 10
36.1978577723
 20
19.3926689928
 40
5.3112103618
100
AcDbArc
 50
346.8421740262
 51
359.9527684261
  0
ARC
  5
30D
100
AcDbEntity
  8
0
100
AcDbCircle
 62
7
  6
BYLAYER
 10
36.1991192585
 20
15.7183166014
 40
5.3099488332
100
AcDbArc
 50
346.9495820881
 51
359.9537191909
  0
ARC
  5
30E
100
AcDbEntity
  8
0
100
AcDbCircle
 62
7
  6
BYLAYER
 10
36.2600918807
 20
15.8640463247
 40
5.2489745562
100
AcDbArc
 50
0.0086781062
 51
5.9459158982
  0
ARC
  5
30F
100
AcDbEntity
  8
0
100
AcDbCircle
 62
7
  6
BYLAYER
 10
36.2601425837
 20
19.5383089545
 40
5.2489238576
100
AcDbArc
 50
0.0089952611
 51
5.9408948721
  0
ARC
  5
310
100
AcDbEntity
  8
0
100
AcDbCircle
 62
7
  6
BYLAYER
 10
36.2601981133
 20
18.3135578411
 40
5.2488683274
100
AcDbArc
 50
0.0089522783
 51
5.9342607921
  0
ARC
  5
311
100
AcDbEntity
  8
0
100
AcDbCircle
 62
7
  6
BYLAYER
 10
36.2604034224
 20
20.7630741083
 40
5.2486630174
100
AcDbArc
 50
0.0088985436
 51
5.9102252617
  0
ARC
  5
312
100
AcDbEntity
  8
0
100
AcDbCircle
 62
7
  6
BYLAYER
 10
36.2658230963
 20
17.0890951678
 40
5.2432418441
100
AcDbArc
 50
0.0054700652
 51
5.5499557794
  0
ARC
  5
313
100
AcDbEntity
  8
0
100
AcDbCircle
 62
7
  6
BYLAYER
 10
36.2698348333
 20
14.6401085842
 40
5.2392134273
100
AcDbArc
 50
359.9997613707
 51
5.1929213636
  0
ARC
  5
314
100
AcDbEntity
  8
0
100
AcDbCircle
 62
7
  6
BYLAYER
 10
36.2843903554
 20
17.0898150848
 40
5.2246745657
100
AcDbArc
 50
358.3678982792
 51
359.99759462
  0
ARC
  5
315
100
AcDbEntity
  8
0
100
AcDbCircle
 62
7
  6
BYLAYER
 10
36.2876455201
 20
15.8649301347
 40
5.2214208574
100
AcDbArc
 50
358.3711764892
 51
359.9990256626
  0
ARC
  5
316
100
AcDbEntity
  8
0
100
AcDbCircle
 62
7
  6
BYLAYER
 10
36.2876822649
 20
18.3144379261
 40
5.221384112
100
AcDbArc
 50
358.3711716257
 51
359.9993419695
  0
ARC
  5
317
100
AcDbEntity
  8
0
100
AcDbCircle
 62
7
  6
BYLAYER
 10
36.287686979
 20
19.5391916138
 40
5.2213793979
100
AcDbArc
 50
358.3711901055
 51
359.9993570262
  0
ARC
  5
318
100
AcDbEntity
  8
0
100
AcDbCircle
 62
7
  6
BYLAYER
 10
36.287687252
 20
20.7639452669
 40
5.2213791248
100
AcDbArc
 50
358.3711787051
 51
359.9993855542
  0
ARC
  5
319
100
AcDbEntity
  8
0
100
AcDbCircle
 62
7
  6
BYLAYER
 10
35.9367227869
 20
20.8235506063
 40
5.5780877055
100
AcDbArc
 50
344.9428306452
 51
345.341876994
  0
ARC
  5
31A
100
AcDbEntity
  8
0
100
AcDbCircle
 62
7
  6
BYLAYER
 10
35.9367249917
 20
23.2730576019
 40
5.5780855069
100
AcDbArc
 50
344.9426884079
 51
345.3418369999
  0
ARC
  5
31B
100
AcDbEntity
  8
0
100
AcDbCircle
 62
7
  6
BYLAYER
 10
35.9367840677
 20
25.7225521002
 40
5.578025124
100
AcDbArc
 50
344.9428361841
 51
345.3418348106
  0
ARC
  5
31C
100
AcDbEntity
  8
0
100
AcDbCircle
 62
7
  6
BYLAYER
 10
36.004280244
 20
23.2559398424
 40
5.5083973396
100
AcDbArc
 50
345.3362790498
 51
347.7948015149
  0
ARC
  5
31D
100
AcDbEntity
  8
0
100
AcDbCircle
 62
7
  6
BYLAYER
 10
36.1592090012
 20
20.7730425484
 40
5.350066816
100
AcDbArc
 50
345.2622403799
 51
358.3129017962
  0
ARC
  5
31E
100
AcDbEntity
  8
0
100
AcDbCircle
 62
7
  6
BYLAYER
 10
36.1592192952
 20
25.6720556074
 40
5.3500564917
100
AcDbArc
 50
345.2622145967
 51
358.3128822449
  0
ARC
  5
31F
100
AcDbEntity
  8
0
100
AcDbCircle
 62
7
  6
BYLAYER
 10
36.1593049845
 20
26.8968062233
 40
5.3499718868
100
AcDbArc
 50
345.2662975497
 51
358.313555591
  0
ARC
  5
320
100
AcDbEntity
  8
0
100
AcDbCircle
 62
7
  6
BYLAYER
 10
36.1929568079
 20
23.2192865811
 40
5.3162380454
100
AcDbArc
 50
347.7510018274
 51
358.3374366058
  0
ARC
  5
321
100
AcDbEntity
  8
0
100
AcDbCircle
 62
7
  6
BYLAYER
 10
36.1976283708
 20
24.291713145
 40
5.3114398535
100
AcDbArc
 50
346.8424017284
 51
359.9524398144
  0
ARC
  5
322
100
AcDbEntity
  8
0
100
AcDbCircle
 62
7
  6
BYLAYER
 10
36.1976546791
 20
21.8421965274
 40
5.3114135263
100
AcDbArc
 50
346.8397688126
 51
359.9525092706
  0
ARC
  5
323
100
AcDbEntity
  8
0
100
AcDbCircle
 62
7
  6
BYLAYER
 10
36.1977807737
 20
25.5164448564
 40
5.3112874005
100
AcDbArc
 50
346.8414708563
 51
359.9526434594
  0
ARC
  5
324
100
AcDbEntity
  8
0
100
AcDbCircle
 62
7
  6
BYLAYER
 10
36.1979333969
 20
26.7411831648
 40
5.3111346856
100
AcDbArc
 50
346.8431468367
 51
359.9527981084
  0
ARC
  5
325
100
AcDbEntity
  8
0
100
AcDbCircle
 62
7
  6
BYLAYER
 10
36.2254199107
 20
21.9909214804
 40
5.2836454863
100
AcDbArc
 50
349.319301991
 51
358.3512998947
  0
ARC
  5
326
100
AcDbEntity
  8
0
100
AcDbCircle
 62
7
  6
BYLAYER
 10
36.2592561529
 20
26.8867764919
 40
5.249810281
100
AcDbArc
 50
0.0095852306
 51
5.9708179634
  0
ARC
  5
327
100
AcDbEntity
  8
0
100
AcDbCircle
 62
7
  6
BYLAYER
 10
36.260116247
 20
25.6620759847
 40
5.2489501949
100
AcDbArc
 50
0.0090439932
 51
5.9438791371
  0
ARC
  5
328
100
AcDbEntity
  8
0
100
AcDbCircle
 62
7
  6
BYLAYER
 10
36.2602081361
 20
23.2125727368
 40
5.2488583047
100
AcDbArc
 50
0.0089632566
 51
5.9331895619
  0
ARC
  5
329
100
AcDbEntity
  8
0
100
AcDbCircle
 62
7
  6
BYLAYER
 10
36.2602609726
 20
24.4373286928
 40
5.2488054682
100
AcDbArc
 50
0.0089665947
 51
5.9270043976
  0
ARC
  5
32A
100
AcDbEntity
  8
0
100
AcDbCircle
 62
7
  6
BYLAYER
 10
36.2686051514
 20
21.9890159671
 40
5.2404233412
100
AcDbArc
 50
358.3585403384
 51
359.9948343919
  0
ARC
  5
32B
100
AcDbEntity
  8
0
100
AcDbCircle
 62
7
  6
BYLAYER
 10
36.2698320725
 20
21.9888704612
 40
5.2391984177
100
AcDbArc
 50
1.1953060005
 51
4.2033623282
  0
ARC
  5
32C
100
AcDbEntity
  8
0
100
AcDbCircle
 62
7
  6
BYLAYER
 10
36.2727606672
 20
21.9889968712
 40
5.2362678237
100
AcDbArc
 50
359.9950392413
 51
1.1945915846
  0
ARC
  5
32D
100
AcDbEntity
  8
0
100
AcDbCircle
 62
7
  6
BYLAYER
 10
36.287679962
 20
25.6629597045
 40
5.2213864148
100
AcDbArc
 50
358.3711491497
 51
359.9993944235
  0
ARC
  5
32E
100
AcDbEntity
  8
0
100
AcDbCircle
 62
7
  6
BYLAYER
 10
36.2876872274
 20
23.2134524867
 40
5.2213791495
100
AcDbArc
 50
358.3712696304
 51
359.9993566653
  0
ARC
  5
32F
100
AcDbEntity
  8
0
100
AcDbCircle
 62
7
  6
BYLAYER
 10
36.2876873152
 20
24.438206144
 40
5.2213790617
100
AcDbArc
 50
358.3711787875
 51
359.9993851546
  0
ARC
  5
330
100
AcDbEntity
  8
0
100
AcDbCircle
 62
7
  6
BYLAYER
 10
36.2885131475
 20
26.8876587021
 40
5.2205532129
100
AcDbArc
 50
358.3721732237
 51
359.9999566557
  0
ARC
  5
331
100
AcDbEntity
  8
0
100
AcDbCircle
 62
7
  6
BYLAYER
 10
29.800160061
 20
27.9940828197
 40
14.295663055
100
AcDbArc
 50
300.5564417544
 51
300.7792848335
  0
ARC
  5
332
100
AcDbEntity
  8
0
100
AcDbCircle
 62
7
  6
BYLAYER
 10
29.8165967735
 20
31.6404737022
 40
14.2634396581
100
AcDbArc
 50
300.5564287906
 51
300.7795328236
  0
ARC
  5
333
100
AcDbEntity
  8
0
100
AcDbCircle
 62
7
  6
BYLAYER
 10
29.8579959264
 20
29.1144793718
 40
14.176541043
100
AcDbArc
 50
300.5695818078
 51
300.7939758258
  0
ARC
  5
334
100
AcDbEntity
  8
0
100
AcDbCircle
 62
7
  6
BYLAYER
 10
29.8636324
 20
30.3288380149
 40
14.1647263533
100
AcDbArc
 50
300.5712212558
 51
300.7959162988
  0
ARC
  5
335
100
AcDbEntity
  8
0
100
AcDbCircle
 62
7
  6
BYLAYER
 10
29.9058746674
 20
32.7084668259
 40
14.0831085515
100
AcDbArc
 50
300.5587126163
 51
300.7937592014
  0
ARC
  5
336
100
AcDbEntity
  8
0
100
AcDbCircle
 62
7
  6
BYLAYER
 10
29.7872056099
 20
36.5937584462
 40
14.3251053596
100
AcDbArc
 50
300.5473292613
 51
300.7694525118
  0
ARC
  5
337
100
AcDbEntity
  8
0
100
AcDbCircle
 62
7
  6
BYLAYER
 10
29.817553627
 20
35.3129674456
 40
14.2614317967
100
AcDbArc
 50
300.5567270021
 51
300.7798631581
  0
ARC
  5
338
100
AcDbEntity
  8
0
100
AcDbCircle
 62
7
  6
BYLAYER
 10
29.8184941792
 20
38.9854859897
 40
14.2594532974
100
AcDbArc
 50
300.5570365421
 51
300.7801995523
  0
ARC
  5
339
100
AcDbEntity
  8
0
100
AcDbCircle
 62
7
  6
BYLAYER
 10
29.8635801556
 20
37.6773631562
 40
14.1647562069
100
AcDbArc
 50
300.5670793919
 51
300.7960903408
  0
ARC
  5
33A
100
AcDbEntity
  8
0
100
AcDbCircle
 62
7
  6
BYLAYER
 10
29.8638802993
 20
34.0026390084
 40
14.1642043889
100
AcDbArc
 50
300.5712100654
 51
300.7960073585
  0
ARC
  5
33B
100
AcDbEntity
  8
0
100
AcDbCircle
 62
7
  6
BYLAYER
 10
35.9367207799
 20
28.1720728504
 40
5.5780897713
100
AcDbArc
 50
344.9428258388
 51
345.3418283161
  0
ARC
  5
33C
100
AcDbEntity
  8
0
100
AcDbCircle
 62
7
  6
BYLAYER
 10
35.9367827356
 20
33.0710740981
 40
5.5780264785
100
AcDbArc
 50
344.9428964316
 51
345.3418227207
  0
ARC
  5
33D
100
AcDbEntity
  8
0
100
AcDbCircle
 62
7
  6
BYLAYER
 10
35.9367829267
 20
29.3968132152
 40
5.5780262881
100
AcDbArc
 50
344.9428402199
 51
345.3418351023
  0
ARC
  5
33E
100
AcDbEntity
  8
0
100
AcDbCircle
 62
7
  6
BYLAYER
 10
35.9368158883
 20
30.6215601146
 40
5.5779926946
100
AcDbArc
 50
344.9426339148
 51
345.3417908708
  0
ARC
  5
33F
100
AcDbEntity
  8
0
100
AcDbCircle
 62
7
  6
BYLAYER
 10
36.1592081276
 20
28.1215643988
 40
5.3500676919
100
AcDbArc
 50
345.2621906478
 51
358.3129008993
  0
ARC
  5
340
100
AcDbEntity
  8
0
100
AcDbCircle
 62
7
  6
BYLAYER
 10
36.1592189982
 20
33.0205773816
 40
5.3500567899
100
AcDbArc
 50
345.2622015086
 51
358.3128851015
  0
ARC
  5
341
100
AcDbEntity
  8
0
100
AcDbCircle
 62
7
  6
BYLAYER
 10
36.1592190757
 20
29.346316515
 40
5.3500567118
100
AcDbArc
 50
345.2622145551
 51
358.3128822698
  0
ARC
  5
342
100
AcDbEntity
  8
0
100
AcDbCircle
 62
7
  6
BYLAYER
 10
36.1592253892
 20
30.5710692471
 40
5.3500503795
100
AcDbArc
 50
345.2621801316
 51
358.3128805429
  0
ARC
  5
343
100
AcDbEntity
  8
0
100
AcDbCircle
 62
7
  6
BYLAYER
 10
36.1594521619
 20
31.7957974363
 40
5.349824182
100
AcDbArc
 50
345.264601286
 51
358.313547602
  0
ARC
  5
344
100
AcDbEntity
  8
0
100
AcDbCircle
 62
7
  6
BYLAYER
 10
36.1973739609
 20
32.8650136717
 40
5.3116942216
100
AcDbArc
 50
346.8395393926
 51
359.9521425948
  0
ARC
  5
345
100
AcDbEntity
  8
0
100
AcDbCircle
 62
7
  6
BYLAYER
 10
36.1975732051
 20
31.6402391816
 40
5.3114950255
100
AcDbArc
 50
346.8409013918
 51
359.9523816748
  0
ARC
  5
346
100
AcDbEntity
  8
0
100
AcDbCircle
 62
7
  6
BYLAYER
 10
36.1975900492
 20
27.9659765315
 40
5.3114781799
100
AcDbArc
 50
346.8412290361
 51
359.9524128259
  0
ARC
  5
347
100
AcDbEntity
  8
0
100
AcDbCircle
 62
7
  6
BYLAYER
 10
36.1977354892
 20
29.1907110121
 40
5.3113327013
100
AcDbArc
 50
346.8412507425
 51
359.952587188
  0
ARC
  5
348
100
AcDbEntity
  8
0
100
AcDbCircle
 62
7
  6
BYLAYER
 10
36.197980109
 20
30.4154396918
 40
5.3110879296
100
AcDbArc
 50
346.8439530078
 51
359.9528448635
  0
ARC
  5
349
100
AcDbEntity
  8
0
100
AcDbCircle
 62
7
  6
BYLAYER
 10
36.2598254747
 20
31.7858056382
 40
5.2492409412
100
AcDbArc
 50
0.0094520518
 51
5.9133236696
  0
ARC
  5
34A
100
AcDbEntity
  8
0
100
AcDbCircle
 62
7
  6
BYLAYER
 10
36.2600512995
 20
29.3363339775
 40
5.2490151429
100
AcDbArc
 50
0.0090755733
 51
5.9515064421
  0
ARC
  5
34B
100
AcDbEntity
  8
0
100
AcDbCircle
 62
7
  6
BYLAYER
 10
36.2602817513
 20
28.1115904883
 40
5.2487846894
100
AcDbArc
 50
0.0089562026
 51
5.9245596297
  0
ARC
  5
34C
100
AcDbEntity
  8
0
100
AcDbCircle
 62
7
  6
BYLAYER
 10
36.2603166813
 20
30.5610994034
 40
5.248749759
100
AcDbArc
 50
0.0089221289
 51
5.9201910703
  0
ARC
  5
34D
100
AcDbEntity
  8
0
100
AcDbCircle
 62
7
  6
BYLAYER
 10
36.2604445883
 20
33.0106122181
 40
5.2486218514
100
AcDbArc
 50
0.0088867207
 51
5.9052112285
  0
ARC
  5
34E
100
AcDbEntity
  8
0
100
AcDbCircle
 62
7
  6
BYLAYER
 10
36.2876761909
 20
30.5619741345
 40
5.221390186
100
AcDbArc
 50
358.3711418822
 51
359.9993702107
  0
ARC
  5
34F
100
AcDbEntity
  8
0
100
AcDbCircle
 62
7
  6
BYLAYER
 10
36.287680092
 20
29.3372205838
 40
5.2213862848
100
AcDbArc
 50
358.3711493748
 51
359.99939461
  0
ARC
  5
350
100
AcDbEntity
  8
0
100
AcDbCircle
 62
7
  6
BYLAYER
 10
36.2876803143
 20
33.0114814177
 40
5.2213860625
100
AcDbArc
 50
358.3711525399
 51
359.9993950976
  0
ARC
  5
351
100
AcDbEntity
  8
0
100
AcDbCircle
 62
7
  6
BYLAYER
 10
36.2876873607
 20
28.1124670212
 40
5.2213790161
100
AcDbArc
 50
358.3711785242
 51
359.9993847495
  0
ARC
  5
352
100
AcDbEntity
  8
0
100
AcDbCircle
 62
7
  6
BYLAYER
 10
36.2883071644
 20
31.7866729606
 40
5.2207591802
100
AcDbArc
 50
358.372023982
 51
359.999985095
  0
ARC
  5
353
100
AcDbEntity
  8
0
100
AcDbCircle
 62
7
  6
BYLAYER
 10
35.9367933927
 20
39.1948403655
 40
5.5780156915
100
AcDbArc
 50
344.9425586021
 51
345.3417984934
  0
ARC
  5
354
100
AcDbEntity
  8
0
100
AcDbCircle
 62
7
  6
BYLAYER
 10
35.936798186
 20
35.5205785619
 40
5.5780108157
100
AcDbArc
 50
344.942466558
 51
345.341796089
  0
ARC
  5
355
100
AcDbEntity
  8
0
100
AcDbCircle
 62
7
  6
BYLAYER
 10
35.9368169213
 20
37.970081595
 40
5.577991626
100
AcDbArc
 50
344.9426419471
 51
345.3418287282
  0
ARC
  5
356
100
AcDbEntity
  8
0
100
AcDbCircle
 62
7
  6
BYLAYER
 10
35.9368212402
 20
34.2958199937
 40
5.577987265
100
AcDbArc
 50
344.9425264148
 51
345.3417919219
  0
ARC
  5
357
100
AcDbEntity
  8
0
100
AcDbCircle
 62
7
  6
BYLAYER
 10
35.9374536186
 20
36.74519004
 40
5.5773409704
100
AcDbArc
 50
344.9703305685
 51
345.3408921212
  0
ARC
  5
358
100
AcDbEntity
  8
0
100
AcDbCircle
 62
7
  6
BYLAYER
 10
35.9636986162
 20
39.0368872081
 40
5.550189058
100
AcDbArc
 50
344.9621610823
 51
346.9044995893
  0
ARC
  5
359
100
AcDbEntity
  8
0
100
AcDbCircle
 62
7
  6
BYLAYER
 10
36.1592220103
 20
39.1443450925
 40
5.3500537668
100
AcDbArc
 50
345.2621819657
 51
358.3129022348
  0
ARC
  5
35A
100
AcDbEntity
  8
0
100
AcDbCircle
 62
7
  6
BYLAYER
 10
36.1592230011
 20
35.4700840892
 40
5.3500527723
100
AcDbArc
 50
345.2621814566
 51
358.3129054748
  0
ARC
  5
35B
100
AcDbEntity
  8
0
100
AcDbCircle
 62
7
  6
BYLAYER
 10
36.1592259948
 20
37.9195909347
 40
5.3500497718
100
AcDbArc
 50
345.2622186029
 51
358.3128848652
  0
ARC
  5
35C
100
AcDbEntity
  8
0
100
AcDbCircle
 62
7
  6
BYLAYER
 10
36.1592270954
 20
34.2453298854
 40
5.3500486686
100
AcDbArc
 50
345.2621832142
 51
358.3128855279
  0
ARC
  5
35D
100
AcDbEntity
  8
0
100
AcDbCircle
 62
7
  6
BYLAYER
 10
36.1594944885
 20
36.6948009025
 40
5.3497811605
100
AcDbArc
 50
345.2611841376
 51
358.3131315574
  0
ARC
  5
35E
100
AcDbEntity
  8
0
100
AcDbCircle
 62
7
  6
BYLAYER
 10
36.1973676963
 20
35.3145220359
 40
5.311700486
100
AcDbArc
 50
346.839526443
 51
359.9521464414
  0
ARC
  5
35F
100
AcDbEntity
  8
0
100
AcDbCircle
 62
7
  6
BYLAYER
 10
36.1973706312
 20
34.0897678147
 40
5.3116975519
100
AcDbArc
 50
346.8395181073
 51
359.9521277439
  0
ARC
  5
360
100
AcDbEntity
  8
0
100
AcDbCircle
 62
7
  6
BYLAYER
 10
36.1975208107
 20
38.9887626604
 40
5.3115473968
100
AcDbArc
 50
346.8386425195
 51
359.9523614443
  0
ARC
  5
361
100
AcDbEntity
  8
0
100
AcDbCircle
 62
7
  6
BYLAYER
 10
36.1976836766
 20
36.5392394768
 40
5.3113845238
100
AcDbArc
 50
346.8411919076
 51
359.9525549629
  0
ARC
  5
362
100
AcDbEntity
  8
0
100
AcDbCircle
 62
7
  6
BYLAYER
 10
36.197726425
 20
37.7639869019
 40
5.3113417684
100
AcDbArc
 50
346.8406387043
 51
359.9525764488
  0
ARC
  5
363
100
AcDbEntity
  8
0
100
AcDbCircle
 62
7
  6
BYLAYER
 10
36.2602740033
 20
36.6848447094
 40
5.2487924437
100
AcDbArc
 50
0.0091928475
 51
5.8962142776
  0
ARC
  5
364
100
AcDbEntity
  8
0
100
AcDbCircle
 62
7
  6
BYLAYER
 10
36.2602822201
 20
39.1343732352
 40
5.2487842201
100
AcDbArc
 50
0.0089155063
 51
5.9242913062
  0
ARC
  5
365
100
AcDbEntity
  8
0
100
AcDbCircle
 62
7
  6
BYLAYER
 10
36.2602869479
 20
35.4601126086
 40
5.2487794923
100
AcDbArc
 50
0.0089125612
 51
5.9237206505
  0
ARC
  5
366
100
AcDbEntity
  8
0
100
AcDbCircle
 62
7
  6
BYLAYER
 10
36.2604416401
 20
34.2353657754
 40
5.2486247993
100
AcDbArc
 50
0.0088626348
 51
5.9053944989
  0
ARC
  5
367
100
AcDbEntity
  8
0
100
AcDbCircle
 62
7
  6
BYLAYER
 10
36.2604977204
 20
37.9096291419
 40
5.2485687186
100
AcDbArc
 50
0.0088362061
 51
5.8988429979
  0
ARC
  5
368
100
AcDbEntity
  8
0
100
AcDbCircle
 62
7
  6
BYLAYER
 10
36.2876758407
 20
34.2362349514
 40
5.2213905363
100
AcDbArc
 50
358.3711456926
 51
359.9993711502
  0
ARC
  5
369
100
AcDbEntity
  8
0
100
AcDbCircle
 62
7
  6
BYLAYER
 10
36.2876761768
 20
37.9104958901
 40
5.2213902001
100
AcDbArc
 50
358.3711457661
 51
359.9993711295
  0
ARC
  5
36A
100
AcDbEntity
  8
0
100
AcDbCircle
 62
7
  6
BYLAYER
 10
36.2876783798
 20
35.4609886628
 40
5.2213879971
100
AcDbArc
 50
358.3711694167
 51
359.9993461241
  0
ARC
  5
36B
100
AcDbEntity
  8
0
100
AcDbCircle
 62
7
  6
BYLAYER
 10
36.2876788683
 20
39.1352495255
 40
5.2213875086
100
AcDbArc
 50
358.3711671667
 51
359.9993465024
  0
ARC
  5
36C
100
AcDbEntity
  8
0
100
AcDbCircle
 62
7
  6
BYLAYER
 10
36.2877889306
 20
36.6857114707
 40
5.2212774489
100
AcDbArc
 50
358.3713885385
 51
359.999729872
  0
ARC
  5
36D
100
AcDbEntity
  8
0
100
AcDbCircle
 62
7
  6
BYLAYER
 10
26.2952759301
 20
41.9711556885
 40
23.008584672
100
AcDbArc
 50
278.411180757
 51
278.9856248764
  0
ARC
  5
36E
100
AcDbEntity
  8
0
100
AcDbCircle
 62
7
  6
BYLAYER
 10
26.771329215
 20
45.4777836761
 40
20.6746407898
100
AcDbArc
 50
244.6658358244
 51
252.8276195976
  0
ARC
  5
36F
100
AcDbEntity
  8
0
100
AcDbCircle
 62
7
  6
BYLAYER
 10
26.7419959069
 20
46.6266363134
 40
20.5934364897
100
AcDbArc
 50
244.6491562234
 51
252.8432057976
  0
ARC
  5
370
100
AcDbEntity
  8
0
100
AcDbCircle
 62
7
  6
BYLAYER
 10
24.0024618535
 20
44.90193526
 40
16.8752840997
100
AcDbArc
 50
245.2883646835
 51
248.0300152262
  0
ARC
  5
371
100
AcDbEntity
  8
0
100
AcDbCircle
 62
7
  6
BYLAYER
 10
24.6864465333
 20
42.1468781727
 40
16.7811281043
100
AcDbArc
 50
240.559294389
 51
242.7831335238
  0
ARC
  5
372
100
AcDbEntity
  8
0
100
AcDbCircle
 62
7
  6
BYLAYER
 10
24.5236238141
 20
41.8217447643
 40
16.4175247996
100
AcDbArc
 50
242.7694961511
 51
245.5639805869
  0
ARC
  5
373
100
AcDbEntity
  8
0
100
AcDbCircle
 62
7
  6
BYLAYER
 10
22.1889301139
 20
41.4001181115
 40
12.9282481667
100
AcDbArc
 50
237.6769310349
 51
238.4744906875
  0
ARC
  5
374
100
AcDbEntity
  8
0
100
AcDbCircle
 62
7
  6
BYLAYER
 10
23.7632699884
 20
49.3839679534
 40
12.7721306146
100
AcDbArc
 50
119.9994595388
 51
120.4296099819
  0
ARC
  5
375
100
AcDbEntity
  8
0
100
AcDbCircle
 62
7
  6
BYLAYER
 10
24.1505193579
 20
50.3263242844
 40
11.5638799682
100
AcDbArc
 50
116.2854415295
 51
119.9435963389
  0
ARC
  5
376
100
AcDbEntity
  8
0
100
AcDbCircle
 62
7
  6
BYLAYER
 10
25.0157821519
 20
59.8272728686
 40
8.4531834519
100
AcDbArc
 50
93.4170741197
 51
95.3630402666
  0
ARC
  5
377
100
AcDbEntity
  8
0
100
AcDbCircle
 62
7
  6
BYLAYER
 10
25.1003265983
 20
60.3473700487
 40
7.9285475292
100
AcDbArc
 50
79.7394028742
 51
81.4463139324
  0
ARC
  5
378
100
AcDbEntity
  8
0
100
AcDbCircle
 62
7
  6
BYLAYER
 10
24.5374072061
 20
61.891248559
 40
6.3291977056
100
AcDbArc
 50
108.3195132343
 51
111.5250068248
  0
ARC
  5
379
100
AcDbEntity
  8
0
100
AcDbCircle
 62
7
  6
BYLAYER
 10
23.7805618126
 20
60.6865703618
 40
6.2967460976
100
AcDbArc
 50
245.2003618238
 51
245.973459976
  0
ARC
  5
37A
100
AcDbEntity
  8
0
100
AcDbCircle
 62
7
  6
BYLAYER
 10
23.8493627617
 20
59.877751401
 40
5.6387430197
100
AcDbArc
 50
242.1787254221
 51
246.6096873568
  0
ARC
  5
37B
100
AcDbEntity
  8
0
100
AcDbCircle
 62
7
  6
BYLAYER
 10
22.7103295456
 20
60.6325093321
 40
4.2062480847
100
AcDbArc
 50
231.1698325292
 51
232.9486038017
  0
ARC
  5
37C
100
AcDbEntity
  8
0
100
AcDbCircle
 62
7
  6
BYLAYER
 10
21.7727693905
 20
58.0396812044
 40
2.8612716886
100
AcDbArc
 50
216.5303281673
 51
218.2365679288
  0
ARC
  5
37D
100
AcDbEntity
  8
0
100
AcDbCircle
 62
7
  6
BYLAYER
 10
21.7039953477
 20
60.4388689934
 40
2.7760179953
100
AcDbArc
 50
215.8562782051
 51
216.8999184402
  0
ARC
  5
37E
100
AcDbEntity
  8
0
100
AcDbCircle
 62
7
  6
BYLAYER
 10
24.8687668904
 20
66.4412489095
 40
9.7518543773
100
AcDbArc
 50
279.2797480907
 51
280.0889156675
  0
ARC
  5
37F
100
AcDbEntity
  8
0
100
AcDbCircle
 62
7
  6
BYLAYER
 10
24.9315595714
 20
66.1813252622
 40
9.4849641069
100
AcDbArc
 50
279.9905170992
 51
281.9940946915
  0
ARC
  5
380
100
AcDbEntity
  8
0
100
AcDbCircle
 62
7
  6
BYLAYER
 10
24.8048504177
 20
67.6222851474
 40
9.4450987254
100
AcDbArc
 50
268.2890837999
 51
273.9312506103
  0
ARC
  5
381
100
AcDbEntity
  8
0
100
AcDbCircle
 62
7
  6
BYLAYER
 10
24.797982225
 20
69.2172551947
 40
9.4069399571
100
AcDbArc
 50
268.3055650744
 51
274.4840132584
  0
ARC
  5
382
100
AcDbEntity
  8
0
100
AcDbCircle
 62
7
  6
BYLAYER
 10
24.8127775873
 20
67.4830804862
 40
9.3056782695
100
AcDbArc
 50
273.9413191361
 51
274.3961943887
  0
ARC
  5
383
100
AcDbEntity
  8
0
100
AcDbCircle
 62
7
  6
BYLAYER
 10
24.7968276737
 20
69.0714244898
 40
9.2611394179
100
AcDbArc
 50
265.144396508
 51
268.2860272376
  0
ARC
  5
384
100
AcDbEntity
  8
0
100
AcDbCircle
 62
7
  6
BYLAYER
 10
24.8586170741
 20
65.4359206978
 40
8.889142998
100
AcDbArc
 50
280.2187483407
 51
281.3043380124
  0
ARC
  5
385
100
AcDbEntity
  8
0
100
AcDbCircle
 62
7
  6
BYLAYER
 10
24.8886676954
 20
65.2841708061
 40
8.7344465515
100
AcDbArc
 50
281.3061645019
 51
281.9755714158
  0
ARC
  5
386
100
AcDbEntity
  8
0
100
AcDbCircle
 62
7
  6
BYLAYER
 10
24.9325695109
 20
65.0786533171
 40
8.5242925273
100
AcDbArc
 50
281.9735377142
 51
283.5286466049
  0
ARC
  5
387
100
AcDbEntity
  8
0
100
AcDbCircle
 62
7
  6
BYLAYER
 10
23.9000827217
 20
63.1293376938
 40
4.9881184391
100
AcDbArc
 50
118.3665111729
 51
119.9966260457
  0
ARC
  5
388
100
AcDbEntity
  8
0
100
AcDbCircle
 62
7
  6
BYLAYER
 10
23.9350457444
 20
63.2293967455
 40
4.8603775778
100
AcDbArc
 50
118.3745864237
 51
119.4482665279
  0
ARC
  5
389
100
AcDbEntity
  8
0
100
AcDbCircle
 62
7
  6
BYLAYER
 10
23.8709663824
 20
63.3435062653
 40
4.7295072048
100
AcDbArc
 50
119.4519034694
 51
119.999095506
  0
ARC
  5
38A
100
AcDbEntity
  8
0
100
AcDbCircle
 62
7
  6
BYLAYER
 10
23.8094587796
 20
63.4499930576
 40
4.6065331366
100
AcDbArc
 50
119.9987759537
 51
120.9850854262
  0
ARC
  5
38B
100
AcDbEntity
  8
0
100
AcDbCircle
 62
7
  6
BYLAYER
 10
23.0943239502
 20
64.4496841772
 40
3.3756556788
100
AcDbArc
 50
130.4534051161
 51
131.9724631589
  0
ARC
  5
38C
100
AcDbEntity
  8
0
100
AcDbCircle
 62
7
  6
BYLAYER
 10
22.1750941426
 20
65.4082734165
 40
1.4271805734
100
AcDbArc
 50
177.9900100376
 51
180.5445983203
  0
ARC
  5
38D
100
AcDbEntity
  8
0
100
AcDbCircle
 62
7
  6
BYLAYER
 10
25.0241362481
 20
65.1231052725
 40
0.5
100
AcDbArc
 50
0.0
 51
180.0
  0
ARC
  5
38E
100
AcDbEntity
  8
0
100
AcDbCircle
 62
7
  6
BYLAYER
 10
22.124148322
 20
63.4488064569
 40
0.5
100
AcDbArc
 50
0.0
 51
133.6873742206
  0
ARC
  5
38F
100
AcDbEntity
  8
0
100
AcDbCircle
 62
7
  6
BYLAYER
 10
25.024148322
 20
63.4488134277
 40
0.5
100
AcDbArc
 50
0.0
 51
180.0
  0
ARC
  5
390
100
AcDbEntity
  8
0
100
AcDbCircle
 62
7
  6
BYLAYER
 10
22.4543354094
 20
63.4489044625
 40
0.1697949712
100
AcDbArc
 50
345.7930863577
 51
359.9669274015
  0
ARC
  5
391
100
AcDbEntity
  8
0
100
AcDbCircle
 62
7
  6
BYLAYER
 10
26.1055938467
 20
56.8601596366
 40
23.2048110844
100
AcDbArc
 50
263.1057017966
 51
264.5890187346
  0
ARC
  5
392
100
AcDbEntity
  8
0
100
AcDbCircle
 62
7
  6
BYLAYER
 10
26.7801124134
 20
58.070900374
 40
20.6850631287
100
AcDbArc
 50
283.9072676588
 51
285.3566074833
  0
ARC
  5
393
100
AcDbEntity
  8
0
100
AcDbCircle
 62
7
  6
BYLAYER
 10
26.2222631367
 20
60.4715955889
 40
5.8654686745
100
AcDbArc
 50
300.9204540349
 51
301.2693720081
  0
ARC
  5
394
100
AcDbEntity
  8
0
100
AcDbCircle
 62
7
  6
BYLAYER
 10
26.2648956325
 20
62.8556311732
 40
5.7877269644
100
AcDbArc
 50
300.8922942214
 51
301.2429722102
  0
ARC
  5
395
100
AcDbEntity
  8
0
100
AcDbCircle
 62
7
  6
BYLAYER
 10
26.2801937508
 20
62.0144708269
 40
5.7587558384
100
AcDbArc
 50
300.7908507239
 51
301.2398103683
  0
ARC
  5
396
100
AcDbEntity
  8
0
100
AcDbCircle
 62
7
  6
BYLAYER
 10
26.3454913459
 20
61.0719189757
 40
5.6170113263
100
AcDbArc
 50
300.9746267695
 51
301.3378576576
  0
ARC
  5
397
100
AcDbEntity
  8
0
100
AcDbCircle
 62
7
  6
BYLAYER
 10
25.9116357669
 20
62.8397526441
 40
5.2991259736
100
AcDbArc
 50
63.7401218017
 51
64.5797448671
  0
ARC
  5
398
100
AcDbEntity
  8
0
100
AcDbCircle
 62
7
  6
BYLAYER
 10
26.2554589876
 20
57.4584888633
 40
5.13907274
100
AcDbArc
 50
298.8889107851
 51
299.9982972863
  0
ARC
  5
399
100
AcDbEntity
  8
0
100
AcDbCircle
 62
7
  6
BYLAYER
 10
28.521159026
 20
62.1885978515
 40
2.5175431632
100
AcDbArc
 50
334.5160168314
 51
339.0627606273
  0
ARC
  5
39A
100
AcDbEntity
  8
0
100
AcDbCircle
 62
7
  6
BYLAYER
 10
28.7899227478
 20
62.9193011874
 40
2.2349937246
100
AcDbArc
 50
346.3714017923
 51
350.3724532999
  0
ARC
  5
39B
100
AcDbEntity
  8
0
100
AcDbCircle
 62
7
  6
BYLAYER
 10
28.8403389391
 20
62.0904005942
 40
2.1838055126
100
AcDbArc
 50
0.0462825705
 51
10.5818520696
  0
ARC
  5
39C
100
AcDbEntity
  8
0
100
AcDbCircle
 62
7
  6
BYLAYER
 10
28.8491753253
 20
62.9099100718
 40
2.1750051766
100
AcDbArc
 50
350.3553115813
 51
357.291615021
  0
ARC
  5
39D
100
AcDbEntity
  8
0
100
AcDbCircle
 62
7
  6
BYLAYER
 10
28.8611096054
 20
62.092754435
 40
2.1630540236
100
AcDbArc
 50
354.0353423427
 51
357.3642169183
  0
ARC
  5
39E
100
AcDbEntity
  8
0
100
AcDbCircle
 62
7
  6
BYLAYER
 10
28.8686038863
 20
62.9087971894
 40
2.15554574
100
AcDbArc
 50
357.2967607305
 51
359.9976501771
  0
ARC
  5
39F
100
AcDbEntity
  8
0
100
AcDbCircle
 62
7
  6
BYLAYER
 10
28.8739518579
 20
58.8262016525
 40
2.1501965017
100
AcDbArc
 50
357.5234471942
 51
359.9994679186
  0
ARC
  5
3A0
100
AcDbEntity
  8
0
100
AcDbCircle
 62
7
  6
BYLAYER
 10
28.8739838331
 20
59.6427058579
 40
2.1501645251
100
AcDbArc
 50
357.4986758242
 51
359.9987276929
  0
ARC
  5
3A1
100
AcDbEntity
  8
0
100
AcDbCircle
 62
7
  6
BYLAYER
 10
28.8739938991
 20
62.0920255179
 40
2.1501498446
100
AcDbArc
 50
357.3678313002
 51
0.0037071147
  0
ARC
  5
3A2
100
AcDbEntity
  8
0
100
AcDbCircle
 62
7
  6
BYLAYER
 10
28.8740715818
 20
60.4592066747
 40
2.1500767765
100
AcDbArc
 50
357.5420458607
 51
359.9987525929
  0
ARC
  5
3A3
100
AcDbEntity
  8
0
100
AcDbCircle
 62
7
  6
BYLAYER
 10
28.8740721811
 20
61.2757090592
 40
2.1500761772
100
AcDbArc
 50
357.542762721
 51
359.9987530299
  0
ARC
  5
3A4
100
AcDbEntity
  8
0
100
AcDbCircle
 62
7
  6
BYLAYER
 10
28.8813675038
 20
58.0089222778
 40
2.1427808133
100
AcDbArc
 50
357.5406942248
 51
0.0002830691
  0
ARC
  5
3A5
100
AcDbEntity
  8
0
100
AcDbCircle
 62
7
  6
BYLAYER
 10
26.2671296303
 20
63.6680548683
 40
5.783085673
100
AcDbArc
 50
300.8939627663
 51
301.2449803586
  0
ARC
  5
3A6
100
AcDbEntity
  8
0
100
AcDbCircle
 62
7
  6
BYLAYER
 10
26.2692885562
 20
64.4806280896
 40
5.7786117904
100
AcDbArc
 50
300.8956006544
 51
301.2468552997
  0
ARC
  5
3A7
100
AcDbEntity
  8
0
100
AcDbCircle
 62
7
  6
BYLAYER
 10
26.2892902906
 20
65.2543966526
 40
5.7313299292
100
AcDbArc
 50
300.9445756975
 51
301.2997770921
  0
ARC
  5
3A8
100
AcDbEntity
  8
0
100
AcDbCircle
 62
7
  6
BYLAYER
 10
26.1734581116
 20
67.4816697528
 40
5.0215066097
100
AcDbArc
 50
298.3727548752
 51
299.9898520819
  0
ARC
  5
3A9
100
AcDbEntity
  8
0
100
AcDbCircle
 62
7
  6
BYLAYER
 10
26.348992096
 20
64.9932087017
 40
4.866317691
100
AcDbArc
 50
303.0800932368
 51
303.6899109848
  0
ARC
  5
3AA
100
AcDbEntity
  8
0
100
AcDbCircle
 62
7
  6
BYLAYER
 10
26.1290401917
 20
67.5585337513
 40
4.8274390295
100
AcDbArc
 50
298.3727549268
 51
299.9898520303
  0
ARC
  5
3AB
100
AcDbEntity
  8
0
100
AcDbCircle
 62
7
  6
BYLAYER
 10
27.1177755219
 20
63.2936933408
 40
4.3172284752
100
AcDbArc
 50
309.8138814417
 51
312.8052873196
  0
ARC
  5
3AC
100
AcDbEntity
  8
0
100
AcDbCircle
 62
7
  6
BYLAYER
 10
26.1948693579
 20
66.8822495505
 40
3.7147623773
100
AcDbArc
 50
299.9230381174
 51
304.7137673865
  0
ARC
  5
3AD
100
AcDbEntity
  8
0
100
AcDbCircle
 62
7
  6
BYLAYER
 10
27.924148322
 20
63.4488203984
 40
0.5
100
AcDbArc
 50
42.7795598396
 51
84.8452219401
  0
ARC
  5
3AE
100
AcDbEntity
  8
0
100
AcDbCircle
 62
7
  6
BYLAYER
 10
29.7850496419
 20
40.2716081078
 40
14.3293157649
100
AcDbArc
 50
300.5427779733
 51
300.7694617654
  0
ARC
  5
3AF
100
AcDbEntity
  8
0
100
AcDbCircle
 62
7
  6
BYLAYER
 10
29.7873426199
 20
43.9420336431
 40
14.3248237604
100
AcDbArc
 50
300.547359572
 51
300.7694853384
  0
ARC
  5
3B0
100
AcDbEntity
  8
0
100
AcDbCircle
 62
7
  6
BYLAYER
 10
29.8020651325
 20
41.465078725
 40
14.2937307643
100
AcDbArc
 50
300.5478834825
 51
300.7750100145
  0
ARC
  5
3B1
100
AcDbEntity
  8
0
100
AcDbCircle
 62
7
  6
BYLAYER
 10
29.8028530069
 20
45.1381254542
 40
14.2922610747
100
AcDbArc
 50
300.5521965962
 51
300.7748425973
  0
ARC
  5
3B2
100
AcDbEntity
  8
0
100
AcDbCircle
 62
7
  6
BYLAYER
 10
29.8151605949
 20
42.6652030062
 40
14.2658470928
100
AcDbArc
 50
300.5161021716
 51
300.7804874505
  0
ARC
  5
3B3
100
AcDbEntity
  8
0
100
AcDbCircle
 62
7
  6
BYLAYER
 10
29.816843489
 20
47.5617020478
 40
14.2628200513
100
AcDbArc
 50
300.5567156808
 51
300.7798618085
  0
ARC
  5
3B4
100
AcDbEntity
  8
0
100
AcDbCircle
 62
7
  6
BYLAYER
 10
29.8244438012
 20
48.772431624
 40
14.246881512
100
AcDbArc
 50
300.5590705458
 51
300.782464906
  0
ARC
  5
3B5
100
AcDbEntity
  8
0
100
AcDbCircle
 62
7
  6
BYLAYER
 10
29.8376617329
 20
49.9727414362
 40
14.2191152792
100
AcDbArc
 50
300.563274572
 51
300.7871190334
  0
ARC
  5
3B6
100
AcDbEntity
  8
0
100
AcDbCircle
 62
7
  6
BYLAYER
 10
29.8383169789
 20
46.2973975153
 40
14.2178562537
100
AcDbArc
 50
300.5632323652
 51
300.7870683052
  0
ARC
  5
3B7
100
AcDbEntity
  8
0
100
AcDbCircle
 62
7
  6
BYLAYER
 10
35.9367727225
 20
42.8691051996
 40
5.5780366929
100
AcDbArc
 50
344.9428819202
 51
345.3418527106
  0
ARC
  5
3B8
100
AcDbEntity
  8
0
100
AcDbCircle
 62
7
  6
BYLAYER
 10
35.9367743439
 20
41.644351608
 40
5.5780351313
100
AcDbArc
 50
344.9425627776
 51
345.3418520194
  0
ARC
  5
3B9
100
AcDbEntity
  8
0
100
AcDbCircle
 62
7
  6
BYLAYER
 10
35.9646827231
 20
42.7109144642
 40
5.5491779456
100
AcDbArc
 50
344.9935686354
 51
346.903919421
  0
ARC
  5
3BA
100
AcDbEntity
  8
0
100
AcDbCircle
 62
7
  6
BYLAYER
 10
35.968067141
 20
43.9348483742
 40
5.5456964948
100
AcDbArc
 50
345.1085169473
 51
346.9017626474
  0
ARC
  5
3BB
100
AcDbEntity
  8
0
100
AcDbCircle
 62
7
  6
BYLAYER
 10
36.1592171117
 20
42.8186066834
 40
5.350058683
100
AcDbArc
 50
345.2622294279
 51
358.3128716127
  0
ARC
  5
3BC
100
AcDbEntity
  8
0
100
AcDbCircle
 62
7
  6
BYLAYER
 10
36.1592194403
 20
41.593852718
 40
5.3500563426
100
AcDbArc
 50
345.2622306288
 51
358.3129262539
  0
ARC
  5
3BD
100
AcDbEntity
  8
0
100
AcDbCircle
 62
7
  6
BYLAYER
 10
36.1974155898
 20
43.8877828246
 40
5.3116525024
100
AcDbArc
 50
346.8355940681
 51
359.9522749923
  0
ARC
  5
3BE
100
AcDbEntity
  8
0
100
AcDbCircle
 62
7
  6
BYLAYER
 10
36.1975322331
 20
42.6630204038
 40
5.3115359651
100
AcDbArc
 50
346.8379919454
 51
359.9523700534
  0
ARC
  5
3BF
100
AcDbEntity
  8
0
100
AcDbCircle
 62
7
  6
BYLAYER
 10
36.1976531897
 20
40.2135044548
 40
5.311415017
100
AcDbArc
 50
346.841295236
 51
359.9525112323
  0
ARC
  5
3C0
100
AcDbEntity
  8
0
100
AcDbCircle
 62
7
  6
BYLAYER
 10
36.1984305097
 20
41.4381744604
 40
5.3106369044
100
AcDbArc
 50
346.8487694881
 51
359.9534106495
  0
ARC
  5
3C1
100
AcDbEntity
  8
0
100
AcDbCircle
 62
7
  6
BYLAYER
 10
36.2565995806
 20
40.3589386993
 40
5.2524662627
100
AcDbArc
 50
0.0109611736
 51
6.1598108857
  0
ARC
  5
3C2
100
AcDbEntity
  8
0
100
AcDbCircle
 62
7
  6
BYLAYER
 10
36.2605523094
 20
41.5838923698
 40
5.2485141289
100
AcDbArc
 50
0.0087869856
 51
5.8924767416
  0
ARC
  5
3C3
100
AcDbEntity
  8
0
100
AcDbCircle
 62
7
  6
BYLAYER
 10
36.2607509723
 20
42.8086547093
 40
5.2483154652
100
AcDbArc
 50
0.0087380891
 51
5.8690509741
  0
ARC
  5
3C4
100
AcDbEntity
  8
0
100
AcDbCircle
 62
7
  6
BYLAYER
 10
36.2850852507
 20
44.0343834406
 40
5.2239798271
100
AcDbArc
 50
358.4951165845
 51
359.9980448491
  0
ARC
  5
3C5
100
AcDbEntity
  8
0
100
AcDbCircle
 62
7
  6
BYLAYER
 10
36.287681195
 20
42.8095104911
 40
5.2213851818
100
AcDbArc
 50
358.3711403399
 51
359.9993924151
  0
ARC
  5
3C6
100
AcDbEntity
  8
0
100
AcDbCircle
 62
7
  6
BYLAYER
 10
36.2876813435
 20
41.5847567953
 40
5.2213850335
100
AcDbArc
 50
358.3711940771
 51
359.9993470484
  0
ARC
  5
3C7
100
AcDbEntity
  8
0
100
AcDbCircle
 62
7
  6
BYLAYER
 10
36.2889073531
 20
40.3598599671
 40
5.2201583947
100
AcDbArc
 50
358.3741455769
 51
0.0009172972
  0
ARC
  5
3C8
100
AcDbEntity
  8
0
100
AcDbCircle
 62
7
  6
BYLAYER
 10
29.7323967407
 20
59.4583689411
 40
12.6455363651
100
AcDbArc
 50
299.9993865492
 51
300.4295369923
  0
ARC
  5
3C9
100
AcDbEntity
  8
0
100
AcDbCircle
 62
7
  6
BYLAYER
 10
29.4885523091
 20
59.890727667
 40
10.3134392465
100
AcDbArc
 50
300.4207764251
 51
303.2535591706
  0
ARC
  5
3CA
100
AcDbEntity
  8
0
100
AcDbCircle
 62
7
  6
BYLAYER
 10
31.6002257839
 20
57.3903349014
 40
1.0
100
AcDbArc
 50
0.0
 51
119.9998513991
  0
SPLINE
  5
3CB
100
AcDbEntity
  8
0
100
AcDbSpline
 62
7
  6
BYLAYER
 70
0
 71
3
 72
9
 73
5
 74
0
 42
0.0000001
 43
0.0000001
 44
0.0000000001
 40
0.0
 40
0.0
 40
0.0
 40
0.0
 40
0.5214445902
 40
1.0
 40
1.0
 40
1.0
 40
1.0
 10
21.1453687138
 20
54.8900474409
 30
0.0
 10
20.969792376
 20
54.9914140999
 30
0.0
 10
20.6443284088
 20
55.2064219896
 30
0.0
 10
20.3537588398
 20
55.4677808586
 30
0.0
 10
20.2274618481
 20
55.604411772
 30
0.0
  0
SPLINE
  5
3CC
100
AcDbEntity
  8
0
100
AcDbSpline
 62
7
  6
BYLAYER
 70
0
 71
3
 72
9
 73
5
 74
0
 42
0.0000001
 43
0.0000001
 44
0.0000000001
 40
0.0
 40
0.0
 40
0.0
 40
0.0
 40
0.254809698
 40
1.0
 40
1.0
 40
1.0
 40
1.0
 10
29.0148590473
 20
54.9546727483
 30
0.0
 10
29.0506257402
 20
54.9753225924
 30
0.0
 10
29.1900684612
 20
55.0579468304
 30
0.0
 10
29.3257361386
 20
55.1469831093
 30
0.0
 10
29.4241019499
 20
55.2170705255
 30
0.0
  0
SPLINE
  5
3CD
100
AcDbEntity
  8
0
100
AcDbSpline
 62
7
  6
BYLAYER
 70
0
 71
3
 72
11
 73
7
 74
0
 42
0.0000001
 43
0.0000001
 44
0.0000000001
 40
0.0
 40
0.0
 40
0.0
 40
0.0
 40
0.270471342
 40
0.5268806913
 40
0.7696590135
 40
1.0
 40
1.0
 40
1.0
 40
1.0
 10
29.4241019499
 20
55.2170705255
 30
0.0
 10
29.5400510982
 20
55.2996863866
 30
0.0
 10
29.7588472911
 20
55.4709498912
 30
0.0
 10
30.050977283
 20
55.7527844716
 30
0.0
 10
30.2955771264
 20
56.0499764704
 30
0.0
 10
30.4282271522
 20
56.2618242283
 30
0.0
 10
30.4849906602
 20
56.3689635482
 30
0.0
  0
SPLINE
  5
3CE
100
AcDbEntity
  8
0
100
AcDbSpline
 62
7
  6
BYLAYER
 70
0
 71
3
 72
16
 73
12
 74
0
 42
0.0000001
 43
0.0000001
 44
0.0000000001
 40
0.0
 40
0.0
 40
0.0
 40
0.0
 40
0.123200271
 40
0.2581532235
 40
0.3993155362
 40
0.5404875796
 40
0.6753406439
 40
0.7985098249
 40
0.8546394536
 40
0.9068520342
 40
1.0
 40
1.0
 40
1.0
 40
1.0
 10
32.3073355091
 20
56.5493478658
 30
0.0
 10
32.2419109831
 20
56.5115752236
 30
0.0
 10
32.0952948109
 20
56.448579053
 30
0.0
 10
31.85587727
 20
56.3927674627
 30
0.0
 10
31.5997052583
 20
56.3738394924
 30
0.0
 10
31.3436212785
 20
56.3929263318
 30
0.0
 10
31.1042707891
 20
56.4488821433
 30
0.0
 10
30.92599625
 20
56.5255560344
 30
0.0
 10
30.8068638853
 20
56.6035034438
 30
0.0
 10
30.7128862343
 20
56.6838691207
 30
0.0
 10
30.6579418459
 20
56.7570483925
 30
0.0
 10
30.6339845037
 20
56.8088989664
 30
0.0
  0
SPLINE
  5
3CF
100
AcDbEntity
  8
0
100
AcDbSpline
 62
7
  6
BYLAYER
 70
0
 71
3
 72
13
 73
9
 74
0
 42
0.0000001
 43
0.0000001
 44
0.0000000001
 40
0.0
 40
0.0
 40
0.0
 40
0.0
 40
0.1134078756
 40
0.2280950381
 40
0.3452689159
 40
0.4660256477
 40
0.7214556688
 40
1.0
 40
1.0
 40
1.0
 40
1.0
 10
19.0241540009
 20
59.9472143056
 30
0.0
 10
19.0241471448
 20
59.8670508864
 30
0.0
 10
19.0346853421
 20
59.7056267242
 30
0.0
 10
19.0818647692
 20
59.4655437363
 30
0.0
 10
19.1600559919
 20
59.2282087815
 30
0.0
 10
19.3078460696
 20
58.9115570481
 30
0.0
 10
19.5730739055
 20
58.5280014593
 30
0.0
 10
19.8433770716
 20
58.261666694
 30
0.0
 10
19.9935003967
 20
58.134272357
 30
0.0
  0
SPLINE
  5
3D0
100
AcDbEntity
  8
0
100
AcDbSpline
 62
7
  6
BYLAYER
 70
0
 71
3
 72
14
 73
10
 74
0
 42
0.0000001
 43
0.0000001
 44
0.0000000001
 40
0.0
 40
0.0
 40
0.0
 40
0.0
 40
0.1022883128
 40
0.2136861427
 40
0.3334290911
 40
0.4602047045
 40
0.5923075039
 40
0.72775227
 40
1.0
 40
1.0
 40
1.0
 40
1.0
 10
19.9935003967
 20
58.134272357
 30
0.0
 10
20.1692301839
 20
57.9851484302
 30
0.0
 10
20.5640473777
 20
57.7055916925
 30
0.0
 10
21.2333946697
 20
57.3602914108
 30
0.0
 10
21.9908020894
 20
57.0782800135
 30
0.0
 10
22.8186469096
 20
56.8664659565
 30
0.0
 10
23.6980624946
 20
56.7303021241
 30
0.0
 10
24.9129460955
 20
56.6537258203
 30
0.0
 10
25.8359048936
 20
56.7180912692
 30
0.0
 10
26.4413021147
 20
56.8170192382
 30
0.0
  0
SPLINE
  5
3D1
100
AcDbEntity
  8
0
100
AcDbSpline
 62
7
  6
BYLAYER
 70
0
 71
3
 72
15
 73
11
 74
0
 42
0.0000001
 43
0.0000001
 44
0.0000000001
 40
0.0
 40
0.0
 40
0.0
 40
0.0
 40
0.1092797309
 40
0.22053993
 40
0.335371909
 40
0.4550484508
 40
0.5806215822
 40
0.7130882469
 40
0.8529923707
 40
1.0
 40
1.0
 40
1.0
 40
1.0
 10
31.0241484241
 20
60.3572987627
 30
0.0
 10
31.0241495056
 20
60.2393657699
 30
0.0
 10
31.0043910291
 20
60.0009271448
 30
0.0
 10
30.9165815844
 20
59.6483349794
 30
0.0
 10
30.7714449989
 20
59.3030636705
 30
0.0
 10
30.5709466608
 20
58.9687792733
 30
0.0
 10
30.316752045
 20
58.6487913423
 30
0.0
 10
30.0119786825
 20
58.3450349355
 30
0.0
 10
29.6600698562
 20
58.059367165
 30
0.0
 10
29.4022866747
 20
57.8869800228
 30
0.0
 10
29.2668066729
 20
57.804430219
 30
0.0
  0
SPLINE
  5
3D2
100
AcDbEntity
  8
0
100
AcDbSpline
 62
7
  6
BYLAYER
 70
0
 71
3
 72
37
 73
33
 74
0
 42
0.0000001
 43
0.0000001
 44
0.0000000001
 40
0.0
 40
0.0
 40
0.0
 40
0.0
 40
0.0323624717
 40
0.0660325121
 40
0.1367490332
 40
0.1735632372
 40
0.2111222569
 40
0.2877324731
 40
0.3264315279
 40
0.3651243908
 40
0.4036164911
 40
0.4417146366
 40
0.4792322674
 40
0.5159933468
 40
0.551831875
 40
0.5865977545
 40
0.6201618974
 40
0.6524193787
 40
0.6832890258
 40
0.7127262856
 40
0.7407237891
 40
0.7673217567
 40
0.7926094296
 40
0.8167277754
 40
0.8398801123
 40
0.8623337571
 40
0.8843925844
 40
0.9063793517
 40
0.9286345956
 40
0.9514830142
 40
0.9751982341
 40
1.0
 40
1.0
 40
1.0
 40
1.0
 10
36.8407324752
 20
38.8068437734
 30
0.0
 10
36.5349073647
 20
38.6234189636
 30
0.0
 10
35.8959958134
 20
38.2735304432
 30
0.0
 10
34.5262481323
 20
37.6433282623
 30
0.0
 10
33.0513781345
 20
37.1331425259
 30
0.0
 10
31.5009576718
 20
36.7405775144
 30
0.0
 10
29.8674752712
 20
36.4209753643
 30
0.0
 10
28.1903653943
 20
36.2290471451
 30
0.0
 10
26.4941080363
 20
36.1635018363
 30
0.0
 10
25.2166472609
 20
36.17872893
 30
0.0
 10
23.9482264411
 20
36.2576196733
 30
0.0
 10
22.6982720676
 20
36.3992762113
 30
0.0
 10
21.4762457713
 20
36.6031332641
 30
0.0
 10
20.2913969729
 20
36.8677620016
 30
0.0
 10
19.152414408
 20
37.1902266982
 30
0.0
 10
18.0677235764
 20
37.5680042159
 30
0.0
 10
17.0456131229
 20
37.9988781972
 30
0.0
 10
16.0935845756
 20
38.4792882079
 30
0.0
 10
15.2185826819
 20
39.0054477342
 30
0.0
 10
14.4269698235
 20
39.5733101514
 30
0.0
 10
13.7246759982
 20
40.1789147097
 30
0.0
 10
13.1169850586
 20
40.8179628672
 30
0.0
 10
12.6086993172
 20
41.4859261149
 30
0.0
 10
12.2033962304
 20
42.1775804008
 30
0.0
 10
11.9045070543
 20
42.8880108919
 30
0.0
 10
11.715453425
 20
43.6120358035
 30
0.0
 10
11.6377366548
 20
44.3435055197
 30
0.0
 10
11.6719955812
 20
45.0761266977
 30
0.0
 10
11.8177920933
 20
45.8036814873
 30
0.0
 10
12.0738786424
 20
46.5201619318
 30
0.0
 10
12.4372881471
 20
47.2199755843
 30
0.0
 10
12.7417149776
 20
47.6612567772
 30
0.0
 10
12.9090661525
 20
47.8773272061
 30
0.0
  0
SPLINE
  5
3D3
100
AcDbEntity
  8
0
100
AcDbSpline
 62
7
  6
BYLAYER
 70
0
 71
3
 72
14
 73
10
 74
0
 42
0.0000001
 43
0.0000001
 44
0.0000000001
 40
0.0
 40
0.0
 40
0.0
 40
0.0
 40
0.1443846029
 40
0.2829142059
 40
0.5418356793
 40
0.6630225699
 40
0.77925258
 40
0.8912602909
 40
1.0
 40
1.0
 40
1.0
 40
1.0
 10
37.1157122573
 20
35.157202294
 30
0.0
 10
37.396692596
 20
35.3245622329
 30
0.0
 10
37.9362805171
 20
35.6717054179
 30
0.0
 10
38.9155880279
 20
36.4124704939
 30
0.0
 10
39.7653194521
 20
37.2350651979
 30
0.0
 10
40.4461490912
 20
38.131974391
 30
0.0
 10
40.8543157757
 20
38.8121631483
 30
0.0
 10
41.1678424412
 20
39.5100517029
 30
0.0
 10
41.3140390363
 20
39.9899716893
 30
0.0
 10
41.3697849136
 20
40.2298872597
 30
0.0
  0
SPLINE
  5
3D4
100
AcDbEntity
  8
0
100
AcDbSpline
 62
7
  6
BYLAYER
 70
0
 71
3
 72
15
 73
11
 74
0
 42
0.0000001
 43
0.0000001
 44
0.0000000001
 40
0.0
 40
0.0
 40
0.0
 40
0.0
 40
0.1092698634
 40
0.2205275948
 40
0.3353672283
 40
0.4550559431
 40
0.5806390711
 40
0.7131070965
 40
0.8530021972
 40
1.0
 40
1.0
 40
1.0
 40
1.0
 10
31.0241484251
 20
61.1738310636
 30
0.0
 10
31.0241494903
 20
61.0559066384
 30
0.0
 10
31.0043892301
 20
60.8174771406
 30
0.0
 10
30.9165756376
 20
60.4648851422
 30
0.0
 10
30.7714416717
 20
60.1195861961
 30
0.0
 10
30.5709496275
 20
59.7852529741
 30
0.0
 10
30.3167635405
 20
59.4652162481
 30
0.0
 10
30.011994239
 20
59.1614392353
 30
0.0
 10
29.6600709219
 20
58.8758045531
 30
0.0
 10
29.4022842152
 20
58.7034504481
 30
0.0
 10
29.2668066729
 20
58.620911608
 30
0.0
  0
SPLINE
  5
3D5
100
AcDbEntity
  8
0
100
AcDbSpline
 62
7
  6
BYLAYER
 70
0
 71
3
 72
15
 73
11
 74
0
 42
0.0000001
 43
0.0000001
 44
0.0000000001
 40
0.0
 40
0.0
 40
0.0
 40
0.0
 40
0.1261925732
 40
0.2557213517
 40
0.3867320702
 40
0.5173141654
 40
0.6455857504
 40
0.7697797554
 40
0.8883353646
 40
1.0
 40
1.0
 40
1.0
 40
1.0
 10
20.6671932697
 20
25.7248016684
 30
0.0
 10
21.3617427081
 20
25.5649973329
 30
0.0
 10
22.7855363214
 20
25.3089168435
 30
0.0
 10
24.9634956327
 20
25.1134506245
 30
0.0
 10
27.1751243448
 20
25.1047041527
 30
0.0
 10
29.3723978561
 20
25.2835300248
 30
0.0
 10
31.5079304662
 20
25.6466892478
 30
0.0
 10
33.535835675
 20
26.1870980321
 30
0.0
 10
35.412197694
 20
26.8937170979
 30
0.0
 10
36.5739352506
 20
27.4858318049
 30
0.0
 10
37.1157122573
 20
27.8086221728
 30
0.0
  0
SPLINE
  5
3D6
100
AcDbEntity
  8
0
100
AcDbSpline
 62
7
  6
BYLAYER
 70
0
 71
3
 72
14
 73
10
 74
0
 42
0.0000001
 43
0.0000001
 44
0.0000000001
 40
0.0
 40
0.0
 40
0.0
 40
0.0
 40
0.1443851803
 40
0.2829130389
 40
0.5418337029
 40
0.6630195306
 40
0.7792496767
 40
0.891258301
 40
1.0
 40
1.0
 40
1.0
 40
1.0
 10
37.1157122573
 20
27.8086221728
 30
0.0
 10
37.3966332311
 20
27.9759946957
 30
0.0
 10
37.9361270548
 20
28.3231079945
 30
0.0
 10
38.9153275983
 20
29.0637210684
 30
0.0
 10
39.7649630303
 20
29.8861631622
 30
0.0
 10
40.445758496
 20
30.7828928632
 30
0.0
 10
40.8539453119
 20
31.4629389837
 30
0.0
 10
41.1675194874
 20
32.1606950433
 30
0.0
 10
41.3137812531
 20
32.6405276661
 30
0.0
 10
41.36956266
 20
32.8804041389
 30
0.0
  0
SPLINE
  5
3D7
100
AcDbEntity
  8
0
100
AcDbSpline
 62
7
  6
BYLAYER
 70
0
 71
3
 72
9
 73
5
 74
0
 42
0.0000001
 43
0.0000001
 44
0.0000000001
 40
0.0
 40
0.0
 40
0.0
 40
0.0
 40
0.492309796
 40
1.0
 40
1.0
 40
1.0
 40
1.0
 10
15.4359227609
 20
29.4039194547
 30
0.0
 10
14.9670664743
 20
29.7048621787
 30
0.0
 10
14.034955736
 20
30.3480281815
 30
0.0
 10
13.139760845
 20
31.041134886
 30
0.0
 10
12.6934446696
 20
31.4029244928
 30
0.0
  0
SPLINE
  5
3D8
100
AcDbEntity
  8
0
100
AcDbSpline
 62
7
  6
BYLAYER
 70
0
 71
3
 72
9
 73
5
 74
0
 42
0.0000001
 43
0.0000001
 44
0.0000000001
 40
0.0
 40
0.0
 40
0.0
 40
0.0
 40
0.251523125
 40
1.0
 40
1.0
 40
1.0
 40
1.0
 10
17.9247151052
 20
26.791473431
 30
0.0
 10
17.9169005261
 20
26.7951847945
 30
0.0
 10
17.8857924492
 20
26.8098572577
 30
0.0
 10
17.8545006286
 20
26.8241459796
 30
0.0
 10
17.8309193096
 20
26.8344738538
 30
0.0
  0
SPLINE
  5
3D9
100
AcDbEntity
  8
0
100
AcDbSpline
 62
7
  6
BYLAYER
 70
0
 71
3
 72
14
 73
10
 74
0
 42
0.0000001
 43
0.0000001
 44
0.0000000001
 40
0.0
 40
0.0
 40
0.0
 40
0.0
 40
0.1443761341
 40
0.2829101882
 40
0.5418315908
 40
0.6630175982
 40
0.7792488134
 40
0.8912579873
 40
1.0
 40
1.0
 40
1.0
 40
1.0
 10
37.1157122573
 20
26.5839312657
 30
0.0
 10
37.3966612194
 20
26.7512141443
 30
0.0
 10
37.9361733514
 20
27.0982936497
 30
0.0
 10
38.9152928715
 20
27.8389948821
 30
0.0
 10
39.7649666945
 20
28.6614056481
 30
0.0
 10
40.4457613033
 20
29.5581384983
 30
0.0
 10
40.8539452394
 20
30.2381868443
 30
0.0
 10
41.1675200736
 20
30.9359439637
 30
0.0
 10
41.3137819138
 20
31.4157764798
 30
0.0
 10
41.3695631961
 20
31.6556526756
 30
0.0
  0
SPLINE
  5
3DA
100
AcDbEntity
  8
0
100
AcDbSpline
 62
7
  6
BYLAYER
 70
0
 71
3
 72
9
 73
5
 74
0
 42
0.0000001
 43
0.0000001
 44
0.0000000001
 40
0.0
 40
0.0
 40
0.0
 40
0.0
 40
0.4932692955
 40
1.0
 40
1.0
 40
1.0
 40
1.0
 10
15.1473602979
 20
28.3670982093
 30
0.0
 10
14.7288769466
 20
28.643653447
 30
0.0
 10
13.8966785454
 20
29.2290280891
 30
0.0
 10
13.0936889235
 20
29.8535424411
 30
0.0
 10
12.6934530971
 20
30.1781080166
 30
0.0
  0
SPLINE
  5
3DB
100
AcDbEntity
  8
0
100
AcDbSpline
 62
7
  6
BYLAYER
 70
0
 71
3
 72
9
 73
5
 74
0
 42
0.0000001
 43
0.0000001
 44
0.0000000001
 40
0.0
 40
0.0
 40
0.0
 40
0.0
 40
0.5090400664
 40
1.0
 40
1.0
 40
1.0
 40
1.0
 10
16.4381431377
 20
27.5327838953
 30
0.0
 10
16.2108201257
 20
27.6607652206
 30
0.0
 10
15.7714877677
 20
27.925292062
 30
0.0
 10
15.3494276212
 20
28.2167324428
 30
0.0
 10
15.1475719428
 20
28.3669347882
 30
0.0
  0
SPLINE
  5
3DC
100
AcDbEntity
  8
0
100
AcDbSpline
 62
7
  6
BYLAYER
 70
0
 71
3
 72
15
 73
11
 74
0
 42
0.0000001
 43
0.0000001
 44
0.0000000001
 40
0.0
 40
0.0
 40
0.0
 40
0.0
 40
0.1092623287
 40
0.2205179543
 40
0.3353633164
 40
0.4550589214
 40
0.5806446032
 40
0.7131120526
 40
0.8530051223
 40
1.0
 40
1.0
 40
1.0
 40
1.0
 10
31.0241484261
 20
61.9903333554
 30
0.0
 10
31.0241494575
 20
61.8724170549
 30
0.0
 10
31.0043879663
 20
61.6339979226
 30
0.0
 10
30.9165708415
 20
61.2814115355
 30
0.0
 10
30.771440859
 20
60.9360992962
 30
0.0
 10
30.570954934
 20
60.6017430607
 30
0.0
 10
30.3167679936
 20
60.2816940579
 30
0.0
 10
30.0119967911
 20
59.9779186455
 30
0.0
 10
29.6600723402
 20
59.6922945252
 30
0.0
 10
29.402284518
 20
59.5199514882
 30
0.0
 10
29.2668066729
 20
59.4374191951
 30
0.0
  0
SPLINE
  5
3DD
100
AcDbEntity
  8
0
100
AcDbSpline
 62
7
  6
BYLAYER
 70
0
 71
3
 72
14
 73
10
 74
0
 42
0.0000001
 43
0.0000001
 44
0.0000000001
 40
0.0
 40
0.0
 40
0.0
 40
0.0
 40
0.1443772387
 40
0.2829121479
 40
0.5418344506
 40
0.6630193352
 40
0.7792493631
 40
0.891258357
 40
1.0
 40
1.0
 40
1.0
 40
1.0
 10
37.1157122573
 20
22.9096668033
 30
0.0
 10
37.3966714456
 20
23.0769563772
 30
0.0
 10
37.9362024921
 20
23.4240500226
 30
0.0
 10
38.9153516083
 20
24.1647834516
 30
0.0
 10
39.7650438968
 20
24.987228114
 30
0.0
 10
40.4458451053
 20
25.8839943681
 30
0.0
 10
40.8540199328
 20
26.5640693141
 30
0.0
 10
41.1675836899
 20
27.2618520268
 30
0.0
 10
41.3138340923
 20
27.7417024331
 30
0.0
 10
41.3696088163
 20
27.9815868031
 30
0.0
  0
SPLINE
  5
3DE
100
AcDbEntity
  8
0
100
AcDbSpline
 62
7
  6
BYLAYER
 70
0
 71
3
 72
14
 73
10
 74
0
 42
0.0000001
 43
0.0000001
 44
0.0000000001
 40
0.0
 40
0.0
 40
0.0
 40
0.0
 40
0.1443861746
 40
0.2829116985
 40
0.5418336574
 40
0.6630198968
 40
0.7792496473
 40
0.8912585096
 40
1.0
 40
1.0
 40
1.0
 40
1.0
 10
37.1157122573
 20
24.1344213289
 30
0.0
 10
37.3966527376
 20
24.3018076589
 30
0.0
 10
37.9361891156
 20
24.6489259099
 30
0.0
 10
38.9154777898
 20
25.3895590583
 30
0.0
 10
39.7651359473
 20
26.2120924034
 30
0.0
 10
40.4459490833
 20
27.1089053679
 30
0.0
 10
40.8541256991
 20
27.7890200364
 30
0.0
 10
41.16767604
 20
28.4868416364
 30
0.0
 10
41.313907557
 20
28.9667185316
 30
0.0
 10
41.3696721094
 20
29.2066151184
 30
0.0
  0
SPLINE
  5
3DF
100
AcDbEntity
  8
0
100
AcDbSpline
 62
7
  6
BYLAYER
 70
0
 71
3
 72
14
 73
10
 74
0
 42
0.0000001
 43
0.0000001
 44
0.0000000001
 40
0.0
 40
0.0
 40
0.0
 40
0.0
 40
0.1443895586
 40
0.2829086593
 40
0.5418308653
 40
0.663018712
 40
0.7792493122
 40
0.8912582556
 40
1.0
 40
1.0
 40
1.0
 40
1.0
 10
37.1157122573
 20
25.3591749436
 30
0.0
 10
37.3966155208
 20
25.5266072991
 30
0.0
 10
37.9361099818
 20
25.8737112265
 30
0.0
 10
38.9154171806
 20
26.6142119768
 30
0.0
 10
39.7650117377
 20
27.436718693
 30
0.0
 10
40.4458147428
 20
28.3334745923
 30
0.0
 10
40.8540053715
 20
29.0135421513
 30
0.0
 10
41.1675707644
 20
29.7113185845
 30
0.0
 10
41.3138214193
 20
30.1911643499
 30
0.0
 10
41.3695972215
 20
30.431046484
 30
0.0
  0
SPLINE
  5
3E0
100
AcDbEntity
  8
0
100
AcDbSpline
 62
7
  6
BYLAYER
 70
0
 71
3
 72
23
 73
19
 74
0
 42
0.0000001
 43
0.0000001
 44
0.0000000001
 40
0.0
 40
0.0
 40
0.0
 40
0.0
 40
0.0505054008
 40
0.1043274103
 40
0.1613240892
 40
0.2212732295
 40
0.2838268228
 40
0.3485638638
 40
0.4150024477
 40
0.4826155658
 40
0.5508477604
 40
0.6191290688
 40
0.6868920644
 40
0.7535854926
 40
0.8186864548
 40
0.8817136958
 40
0.9422721414
 40
1.0
 40
1.0
 40
1.0
 40
1.0
 10
13.8348363399
 20
27.7264694521
 30
0.0
 10
14.144294402
 20
27.4518715752
 30
0.0
 10
14.8199758946
 20
26.9248583661
 30
0.0
 10
15.9456647965
 20
26.2285439402
 30
0.0
 10
17.2023809112
 20
25.6096263757
 30
0.0
 10
18.5741301952
 20
25.0755455945
 30
0.0
 10
20.0443211613
 20
24.6332118545
 30
0.0
 10
21.5947130711
 20
24.2882482053
 30
0.0
 10
23.2061424708
 20
24.0451607264
 30
0.0
 10
24.8586340433
 20
23.9072578373
 30
0.0
 10
26.5316570295
 20
23.876547161
 30
0.0
 10
28.2044164524
 20
23.9536574245
 30
0.0
 10
29.8561342085
 20
24.1378981262
 30
0.0
 10
31.4663195147
 20
24.4272617172
 30
0.0
 10
33.014928144
 20
24.8185175401
 30
0.0
 10
34.4830161735
 20
25.3069341681
 30
0.0
 10
35.8520245426
 20
25.8870824278
 30
0.0
 10
36.7093946895
 20
26.3420013087
 30
0.0
 10
37.1157122573
 20
26.5839312731
 30
0.0
  0
SPLINE
  5
3E1
100
AcDbEntity
  8
0
100
AcDbSpline
 62
7
  6
BYLAYER
 70
0
 71
3
 72
14
 73
10
 74
0
 42
0.0000001
 43
0.0000001
 44
0.0000000001
 40
0.0
 40
0.0
 40
0.0
 40
0.0
 40
0.1443792492
 40
0.2829143928
 40
0.5418335505
 40
0.6630197434
 40
0.779251053
 40
0.8912593816
 40
1.0
 40
1.0
 40
1.0
 40
1.0
 10
37.1157122573
 20
21.6848496394
 30
0.0
 10
37.3966701695
 20
21.8521520829
 30
0.0
 10
37.9361945066
 20
22.199268852
 30
0.0
 10
38.915327941
 20
22.9400238522
 30
0.0
 10
39.76503023
 20
23.7624564333
 30
0.0
 10
40.4458315847
 20
24.6592254703
 30
0.0
 10
40.8540145544
 20
25.339303045
 30
0.0
 10
41.1675808985
 20
26.0370862258
 30
0.0
 10
41.313830067
 20
26.5169344852
 30
0.0
 10
41.369604577
 20
26.756817245
 30
0.0
  0
SPLINE
  5
3E2
100
AcDbEntity
  8
0
100
AcDbSpline
 62
7
  6
BYLAYER
 70
0
 71
3
 72
11
 73
7
 74
0
 42
0.0000001
 43
0.0000001
 44
0.0000000001
 40
0.0
 40
0.0
 40
0.0
 40
0.0
 40
0.265510539
 40
0.5224742748
 40
0.7680661255
 40
1.0
 40
1.0
 40
1.0
 40
1.0
 10
29.8833907551
 20
19.2615590797
 30
0.0
 10
30.5551918814
 20
19.3602247413
 30
0.0
 10
31.8701478253
 20
19.6077082831
 30
0.0
 10
33.7633085375
 20
20.1413848632
 30
0.0
 10
35.517408437
 20
20.821267016
 30
0.0
 10
36.6060835704
 20
21.3813803166
 30
0.0
 10
37.1157122573
 20
21.6848497008
 30
0.0
  0
SPLINE
  5
3E3
100
AcDbEntity
  8
0
100
AcDbSpline
 62
7
  6
BYLAYER
 70
0
 71
3
 72
14
 73
10
 74
0
 42
0.0000001
 43
0.0000001
 44
0.0000000001
 40
0.0
 40
0.0
 40
0.0
 40
0.0
 40
0.2837053745
 40
0.416356604
 40
0.5429649328
 40
0.6639084534
 40
0.7797943036
 40
0.8914832624
 40
1.0
 40
1.0
 40
1.0
 40
1.0
 10
37.1157122573
 20
16.7860007767
 30
0.0
 10
37.6866188461
 20
17.1261588573
 30
0.0
 10
38.4931049975
 20
17.6844767454
 30
0.0
 10
39.4338051818
 20
18.5426330507
 30
0.0
 10
40.0324417566
 20
19.2041173673
 30
0.0
 10
40.5353635254
 20
19.8931152179
 30
0.0
 10
40.9386847957
 20
20.6052112215
 30
0.0
 10
41.2390845259
 20
21.3351632636
 30
0.0
 10
41.3705491082
 20
21.8359331846
 30
0.0
 10
41.4175274366
 20
22.0857477628
 30
0.0
  0
SPLINE
  5
3E4
100
AcDbEntity
  8
0
100
AcDbSpline
 62
7
  6
BYLAYER
 70
0
 71
3
 72
14
 73
10
 74
0
 42
0.0000001
 43
0.0000001
 44
0.0000000001
 40
0.0
 40
0.0
 40
0.0
 40
0.0
 40
0.1440205041
 40
0.2823228213
 40
0.5412174665
 40
0.6625350857
 40
0.7789513498
 40
0.8911438201
 40
1.0
 40
1.0
 40
1.0
 40
1.0
 10
37.1157122573
 20
11.8868608372
 30
0.0
 10
37.3909511884
 20
12.0508858649
 30
0.0
 10
37.9200016669
 20
12.3907641936
 30
0.0
 10
38.8825499171
 20
13.1150864678
 30
0.0
 10
39.7208893607
 20
13.9181541818
 30
0.0
 10
40.3983122005
 20
14.7930655542
 30
0.0
 10
40.8082746919
 20
15.4567991806
 30
0.0
 10
41.1277848088
 20
16.1380169609
 30
0.0
 10
41.2810143123
 20
16.6069462151
 30
0.0
 10
41.340999867
 20
16.8415754428
 30
0.0
  0
SPLINE
  5
3E5
100
AcDbEntity
  8
0
100
AcDbSpline
 62
7
  6
BYLAYER
 70
0
 71
3
 72
9
 73
5
 74
0
 42
0.0000001
 43
0.0000001
 44
0.0000000001
 40
0.0
 40
0.0
 40
0.0
 40
0.0
 40
0.2433542068
 40
1.0
 40
1.0
 40
1.0
 40
1.0
 10
36.3881776292
 20
7.963605202
 30
0.0
 10
36.2144138236
 20
7.8700560669
 30
0.0
 10
35.4930751816
 20
7.4992777319
 30
0.0
 10
34.7446093175
 20
7.1819725816
 30
0.0
 10
34.1689259883
 20
6.9696364508
 30
0.0
  0
SPLINE
  5
3E6
100
AcDbEntity
  8
0
100
AcDbSpline
 62
7
  6
BYLAYER
 70
0
 71
3
 72
16
 73
12
 74
0
 42
0.0000001
 43
0.0000001
 44
0.0000000001
 40
0.0
 40
0.0
 40
0.0
 40
0.0
 40
0.0602470582
 40
0.1221513831
 40
0.2497332637
 40
0.3805699614
 40
0.5122298109
 40
0.6422441894
 40
0.768232608
 40
0.8880603209
 40
1.0
 40
1.0
 40
1.0
 40
1.0
 10
34.1693318289
 20
6.9697899569
 30
0.0
 10
33.8223374643
 20
6.8439436277
 30
0.0
 10
33.1108933764
 20
6.6100980825
 30
0.0
 10
31.6322096663
 20
6.2146740008
 30
0.0
 10
29.6976308555
 20
5.86243735
 30
0.0
 10
27.3118755949
 20
5.6698769523
 30
0.0
 10
24.9036391957
 20
5.7086165154
 30
0.0
 10
22.5399909416
 20
5.9775007557
 30
0.0
 10
20.2860763693
 20
6.4692457177
 30
0.0
 10
18.2045519056
 20
7.1700922985
 30
0.0
 10
16.9204595316
 20
7.7881227731
 30
0.0
 10
16.326525689
 20
8.1310208279
 30
0.0
  0
SPLINE
  5
3E7
100
AcDbEntity
  8
0
100
AcDbSpline
 62
7
  6
BYLAYER
 70
0
 71
3
 72
14
 73
10
 74
0
 42
0.0000001
 43
0.0000001
 44
0.0000000001
 40
0.0
 40
0.0
 40
0.0
 40
0.0
 40
0.1443837332
 40
0.2829107027
 40
0.5418325202
 40
0.663018889
 40
0.7792492348
 40
0.8912584147
 40
1.0
 40
1.0
 40
1.0
 40
1.0
 10
37.1157122573
 20
13.1116372422
 30
0.0
 10
37.3966501525
 20
13.279000316
 30
0.0
 10
37.9361735542
 20
13.6261060046
 30
0.0
 10
38.9154153373
 20
14.3667422147
 30
0.0
 10
39.76506992
 20
15.1892362983
 30
0.0
 10
40.4458773107
 20
16.0860186279
 30
0.0
 10
40.8540579038
 20
16.7661090658
 30
0.0
 10
41.1676168232
 20
17.4639070951
 30
0.0
 10
41.3138603193
 20
17.9437673422
 30
0.0
 10
41.3696314552
 20
18.1836559739
 30
0.0
  0
SPLINE
  5
3E8
100
AcDbEntity
  8
0
100
AcDbSpline
 62
7
  6
BYLAYER
 70
0
 71
3
 72
14
 73
10
 74
0
 42
0.0000001
 43
0.0000001
 44
0.0000000001
 40
0.0
 40
0.0
 40
0.0
 40
0.0
 40
0.1443787393
 40
0.2829118156
 40
0.5418319397
 40
0.6630187394
 40
0.7792500883
 40
0.8912587155
 40
1.0
 40
1.0
 40
1.0
 40
1.0
 10
37.1157122573
 20
14.3363906692
 30
0.0
 10
37.3966764111
 20
14.5036946816
 30
0.0
 10
37.9362182126
 20
14.8507988558
 30
0.0
 10
38.9153963392
 20
15.591536318
 30
0.0
 10
39.7650974295
 20
16.4140100844
 30
0.0
 10
40.4459044622
 20
17.3108103392
 30
0.0
 10
40.8540844642
 20
17.9909132332
 30
0.0
 10
41.1676424088
 20
18.6887216753
 30
0.0
 10
41.3138792216
 20
19.1685879512
 30
0.0
 10
41.3696468427
 20
19.4084795218
 30
0.0
  0
SPLINE
  5
3E9
100
AcDbEntity
  8
0
100
AcDbSpline
 62
7
  6
BYLAYER
 70
0
 71
3
 72
14
 73
10
 74
0
 42
0.0000001
 43
0.0000001
 44
0.0000000001
 40
0.0
 40
0.0
 40
0.0
 40
0.0
 40
0.1443764567
 40
0.2829107089
 40
0.54183365
 40
0.6630190932
 40
0.7792495905
 40
0.8912585713
 40
1.0
 40
1.0
 40
1.0
 40
1.0
 10
37.1157122573
 20
15.5611451052
 30
0.0
 10
37.3966632248
 20
15.7284310638
 30
0.0
 10
37.9361799765
 20
16.0755147899
 30
0.0
 10
38.9153094809
 20
16.8162265931
 30
0.0
 10
39.7649899103
 20
17.6386478183
 30
0.0
 10
40.4457872301
 20
18.535390626
 30
0.0
 10
40.8539663196
 20
19.2154453528
 30
0.0
 10
41.1675362625
 20
19.9132074694
 30
0.0
 10
41.3137954676
 20
20.3930430186
 30
0.0
 10
41.3695754333
 20
20.6329201488
 30
0.0
  0
SPLINE
  5
3EA
100
AcDbEntity
  8
0
100
AcDbSpline
 62
7
  6
BYLAYER
 70
0
 71
3
 72
14
 73
10
 74
0
 42
0.0000001
 43
0.0000001
 44
0.0000000001
 40
0.0
 40
0.0
 40
0.0
 40
0.0
 40
0.1443784106
 40
0.2829112706
 40
0.5418315988
 40
0.6630185035
 40
0.7792500193
 40
0.8912587455
 40
1.0
 40
1.0
 40
1.0
 40
1.0
 10
37.1157122573
 20
18.0106515453
 30
0.0
 10
37.3966723587
 20
18.1779539779
 30
0.0
 10
37.9362073097
 20
18.5250535229
 30
0.0
 10
38.915376092
 20
19.2657799704
 30
0.0
 10
39.7650706388
 20
20.0882421937
 30
0.0
 10
40.4458755576
 20
20.9850299326
 30
0.0
 10
40.8540574041
 20
21.66512262
 30
0.0
 10
41.1676184164
 20
22.3629211031
 30
0.0
 10
41.313860019
 20
22.8427803055
 30
0.0
 10
41.3696303256
 20
23.0826684404
 30
0.0
  0
SPLINE
  5
3EB
100
AcDbEntity
  8
0
100
AcDbSpline
 62
7
  6
BYLAYER
 70
0
 71
3
 72
14
 73
10
 74
0
 42
0.0000001
 43
0.0000001
 44
0.0000000001
 40
0.0
 40
0.0
 40
0.0
 40
0.0
 40
0.1443774208
 40
0.2829123528
 40
0.5418346955
 40
0.6630195605
 40
0.7792495358
 40
0.8912584811
 40
1.0
 40
1.0
 40
1.0
 40
1.0
 10
37.1157122573
 20
19.2354059568
 30
0.0
 10
37.3966725777
 20
19.4026968294
 30
0.0
 10
37.9362059046
 20
19.7497921654
 30
0.0
 10
38.9153593525
 20
20.4905284562
 30
0.0
 10
39.7650536299
 20
21.3129777396
 30
0.0
 10
40.4458556385
 20
22.2097486058
 30
0.0
 10
40.8540297923
 20
22.8898271319
 30
0.0
 10
41.1675920769
 20
23.5876131098
 30
0.0
 10
41.3138408032
 20
24.0674655931
 30
0.0
 10
41.3696146345
 20
24.3073508289
 30
0.0
  0
SPLINE
  5
3EC
100
AcDbEntity
  8
0
100
AcDbSpline
 62
7
  6
BYLAYER
 70
0
 71
3
 72
14
 73
10
 74
0
 42
0.0000001
 43
0.0000001
 44
0.0000000001
 40
0.0
 40
0.0
 40
0.0
 40
0.0
 40
0.1443859221
 40
0.2829110564
 40
0.5418330663
 40
0.6630194557
 40
0.7792494164
 40
0.8912584395
 40
1.0
 40
1.0
 40
1.0
 40
1.0
 10
37.1157122573
 20
20.4601604829
 30
0.0
 10
37.3966479317
 20
20.6275461394
 30
0.0
 10
37.936176466
 20
20.9746594381
 30
0.0
 10
38.9154557717
 20
21.7152785033
 30
0.0
 10
39.7651057522
 20
22.5377993223
 30
0.0
 10
40.4459165948
 20
23.4345981279
 30
0.0
 10
40.8540955044
 20
24.1147017151
 30
0.0
 10
41.1676495184
 20
24.8125126775
 30
0.0
 10
41.3138863925
 20
25.2923821393
 30
0.0
 10
41.3696539169
 20
25.5322751816
 30
0.0
  0
SPLINE
  5
3ED
100
AcDbEntity
  8
0
100
AcDbSpline
 62
7
  6
BYLAYER
 70
0
 71
3
 72
14
 73
10
 74
0
 42
0.0000001
 43
0.0000001
 44
0.0000000001
 40
0.0
 40
0.0
 40
0.0
 40
0.0
 40
0.144418108
 40
0.2829604043
 40
0.541884057
 40
0.6630590961
 40
0.7792733422
 40
0.8912672627
 40
1.0
 40
1.0
 40
1.0
 40
1.0
 10
37.1157122573
 20
9.4373535451
 30
0.0
 10
37.397114565
 20
9.6050423877
 30
0.0
 10
37.9375089992
 20
9.9527712938
 30
0.0
 10
38.9181940674
 20
10.6947332106
 30
0.0
 10
39.7687694959
 20
11.51888521
 30
0.0
 10
40.4498389833
 20
12.4175136761
 30
0.0
 10
40.8578500826
 20
13.0989824149
 30
0.0
 10
41.1708813753
 20
13.7981775212
 30
0.0
 10
41.316515101
 20
14.2789561369
 30
0.0
 10
41.3719213525
 20
14.5192856977
 30
0.0
  0
SPLINE
  5
3EE
100
AcDbEntity
  8
0
100
AcDbSpline
 62
7
  6
BYLAYER
 70
0
 71
3
 72
15
 73
11
 74
0
 42
0.0000001
 43
0.0000001
 44
0.0000000001
 40
0.0
 40
0.0
 40
0.0
 40
0.0
 40
0.1075260323
 40
0.2184481529
 40
0.3339370628
 40
0.4548140807
 40
0.5815877357
 40
0.7146053605
 40
0.8540602368
 40
1.0
 40
1.0
 40
1.0
 40
1.0
 10
11.9692514857
 20
13.1735114346
 30
0.0
 10
12.0151888996
 20
12.9420375547
 30
0.0
 10
12.142782649
 20
12.4779698252
 30
0.0
 10
12.4320972777
 20
11.8024148631
 30
0.0
 10
12.8194052627
 20
11.1437506176
 30
0.0
 10
13.3008956147
 20
10.5066462393
 30
0.0
 10
13.872548934
 20
9.8954905207
 30
0.0
 10
14.5299789025
 20
9.3143945448
 30
0.0
 10
15.2687299392
 20
8.7672734467
 30
0.0
 10
15.8003717967
 20
8.4347879257
 30
0.0
 10
16.0777530156
 20
8.2746362337
 30
0.0
  0
SPLINE
  5
3EF
100
AcDbEntity
  8
0
100
AcDbSpline
 62
7
  6
BYLAYER
 70
0
 71
3
 72
15
 73
11
 74
0
 42
0.0000001
 43
0.0000001
 44
0.0000000001
 40
0.0
 40
0.0
 40
0.0
 40
0.0
 40
0.1261925209
 40
0.2557209908
 40
0.3867313629
 40
0.51731311
 40
0.6455843556
 40
0.7697780364
 40
0.888333303
 40
1.0
 40
1.0
 40
1.0
 40
1.0
 10
20.6671935241
 20
26.9495821486
 30
0.0
 10
21.361789758
 20
26.7899741341
 30
0.0
 10
22.7855123803
 20
26.5335709784
 30
0.0
 10
24.9635028003
 20
26.3382282006
 30
0.0
 10
27.1751236839
 20
26.32945256
 30
0.0
 10
29.3723997832
 20
26.5082847489
 30
0.0
 10
31.5079307805
 20
26.8714436102
 30
0.0
 10
33.5358398249
 20
27.4118489217
 30
0.0
 10
35.412200431
 20
28.1184887087
 30
0.0
 10
36.5739834249
 20
28.710567841
 30
0.0
 10
37.1157122573
 20
29.0334650904
 30
0.0
  0
SPLINE
  5
3F0
100
AcDbEntity
  8
0
100
AcDbSpline
 62
7
  6
BYLAYER
 70
0
 71
3
 72
14
 73
10
 74
0
 42
0.0000001
 43
0.0000001
 44
0.0000000001
 40
0.0
 40
0.0
 40
0.0
 40
0.0
 40
0.1443884936
 40
0.2829069274
 40
0.5418302735
 40
0.6630176017
 40
0.7792477836
 40
0.8912571928
 40
1.0
 40
1.0
 40
1.0
 40
1.0
 10
37.1157122573
 20
29.0334650739
 30
0.0
 10
37.3966064813
 20
29.2008919614
 30
0.0
 10
37.9360885914
 20
29.5479774924
 30
0.0
 10
38.9153868146
 20
30.2884378944
 30
0.0
 10
39.7649597216
 20
31.1109252685
 30
0.0
 10
40.4457562268
 20
32.0076507798
 30
0.0
 10
40.8539472485
 20
32.6876937343
 30
0.0
 10
41.1675200186
 20
33.3854484652
 30
0.0
 10
41.3137813299
 20
33.8652814509
 30
0.0
 10
41.3695627581
 20
34.1051584445
 30
0.0
  0
SPLINE
  5
3F1
100
AcDbEntity
  8
0
100
AcDbSpline
 62
7
  6
BYLAYER
 70
0
 71
3
 72
14
 73
10
 74
0
 42
0.0000001
 43
0.0000001
 44
0.0000000001
 40
0.0
 40
0.0
 40
0.0
 40
0.0
 40
0.1443872447
 40
0.2829106736
 40
0.541833866
 40
0.6630196157
 40
0.7792488132
 40
0.8912578353
 40
1.0
 40
1.0
 40
1.0
 40
1.0
 10
37.1157122573
 20
30.2581886052
 30
0.0
 10
37.3966294101
 20
30.4255912649
 30
0.0
 10
37.936135984
 20
30.7726965938
 30
0.0
 10
38.9154163646
 20
31.5132547538
 30
0.0
 10
39.7650341267
 20
32.3357541735
 30
0.0
 10
40.4458366819
 20
33.2325132887
 30
0.0
 10
40.8540175245
 20
33.9125830976
 30
0.0
 10
41.1675806025
 20
34.6103631535
 30
0.0
 10
41.313831128
 20
35.0902133617
 30
0.0
 10
41.3696062239
 20
35.3300981596
 30
0.0
  0
SPLINE
  5
3F2
100
AcDbEntity
  8
0
100
AcDbSpline
 62
7
  6
BYLAYER
 70
0
 71
3
 72
14
 73
10
 74
0
 42
0.0000001
 43
0.0000001
 44
0.0000000001
 40
0.0
 40
0.0
 40
0.0
 40
0.0
 40
0.1443843327
 40
0.2829101058
 40
0.5418332664
 40
0.66301967
 40
0.7792497686
 40
0.8912586401
 40
1.0
 40
1.0
 40
1.0
 40
1.0
 10
37.1157122573
 20
31.4829439469
 30
0.0
 10
37.3966370956
 20
31.6503164554
 30
0.0
 10
37.9361444876
 20
31.9974142191
 30
0.0
 10
38.9153845926
 20
32.7380078827
 30
0.0
 10
39.76501794
 20
33.5604857749
 30
0.0
 10
40.4458191967
 20
34.4572416236
 30
0.0
 10
40.8540020966
 20
35.1373073073
 30
0.0
 10
41.167566633
 20
35.8350808719
 30
0.0
 10
41.3138190947
 20
36.3149245276
 30
0.0
 10
41.3695956648
 20
36.5548053824
 30
0.0
  0
SPLINE
  5
3F3
100
AcDbEntity
  8
0
100
AcDbSpline
 62
7
  6
BYLAYER
 70
0
 71
3
 72
14
 73
10
 74
0
 42
0.0000001
 43
0.0000001
 44
0.0000000001
 40
0.0
 40
0.0
 40
0.0
 40
0.0
 40
0.1438174679
 40
0.2819873955
 40
0.5408573532
 40
0.6622494494
 40
0.7787712195
 40
0.8910706442
 40
1.0
 40
1.0
 40
1.0
 40
1.0
 10
37.1157122573
 20
32.7076967267
 30
0.0
 10
37.3877663124
 20
32.8698543396
 30
0.0
 10
37.9109513784
 20
33.2056748261
 30
0.0
 10
38.864100676
 20
33.9208607091
 30
0.0
 10
39.6959693676
 20
34.7131087088
 30
0.0
 10
40.3712921572
 20
35.5758166047
 30
0.0
 10
40.7820465707
 20
36.2304331477
 30
0.0
 10
41.1046487629
 20
36.9023850484
 30
0.0
 10
41.2615850785
 20
37.3651814402
 30
0.0
 10
41.3238197184
 20
37.5968523648
 30
0.0
  0
SPLINE
  5
3F4
100
AcDbEntity
  8
0
100
AcDbSpline
 62
7
  6
BYLAYER
 70
0
 71
3
 72
14
 73
10
 74
0
 42
0.0000001
 43
0.0000001
 44
0.0000000001
 40
0.0
 40
0.0
 40
0.0
 40
0.0
 40
0.1443873531
 40
0.282910619
 40
0.5418335553
 40
0.663019468
 40
0.7792487961
 40
0.8912577977
 40
1.0
 40
1.0
 40
1.0
 40
1.0
 10
37.1157122573
 20
33.9324495084
 30
0.0
 10
37.3966294104
 20
34.0998532609
 30
0.0
 10
37.9361362123
 20
34.446959015
 30
0.0
 10
38.9154180158
 20
35.1875161227
 30
0.0
 10
39.7650356045
 20
36.0100166829
 30
0.0
 10
40.4458383054
 20
36.9067771086
 30
0.0
 10
40.854019847
 20
37.5868481077
 30
0.0
 10
41.1675829902
 20
38.2846293426
 30
0.0
 10
41.3138328591
 20
38.7644803145
 30
0.0
 10
41.3696076101
 20
39.004365523
 30
0.0
  0
SPLINE
  5
3F5
100
AcDbEntity
  8
0
100
AcDbSpline
 62
7
  6
BYLAYER
 70
0
 71
3
 72
14
 73
10
 74
0
 42
0.0000001
 43
0.0000001
 44
0.0000000001
 40
0.0
 40
0.0
 40
0.0
 40
0.0
 40
0.1438141668
 40
0.2820040463
 40
0.5408751929
 40
0.662262169
 40
0.7787800753
 40
0.891074746
 40
1.0
 40
1.0
 40
1.0
 40
1.0
 10
37.1157122573
 20
36.3819464586
 30
0.0
 10
37.3879582861
 20
36.5440561454
 30
0.0
 10
37.9114396244
 20
36.8800404671
 30
0.0
 10
38.8648584594
 20
37.5958531336
 30
0.0
 10
39.6971008579
 20
38.3885325345
 30
0.0
 10
40.3725286156
 20
39.2517937046
 30
0.0
 10
40.7832421136
 20
39.9068276007
 30
0.0
 10
41.1057088548
 20
40.5792014324
 30
0.0
 10
41.2624813382
 20
41.0422756125
 30
0.0
 10
41.3246157667
 20
41.2740798737
 30
0.0
  0
SPLINE
  5
3F6
100
AcDbEntity
  8
0
100
AcDbSpline
 62
7
  6
BYLAYER
 70
0
 71
3
 72
14
 73
10
 74
0
 42
0.0000001
 43
0.0000001
 44
0.0000000001
 40
0.0
 40
0.0
 40
0.0
 40
0.0
 40
0.1438501346
 40
0.2820611709
 40
0.5409357941
 40
0.6623096734
 40
0.7788093171
 40
0.8910863531
 40
1.0
 40
1.0
 40
1.0
 40
1.0
 10
37.1157122573
 20
37.6066997971
 30
0.0
 10
37.3884793772
 20
37.7691371393
 30
0.0
 10
37.9129294693
 20
38.1057972954
 30
0.0
 10
38.8679295566
 20
38.8230892523
 30
0.0
 10
39.7012324526
 20
39.6175643628
 30
0.0
 10
40.3770134526
 20
40.4828354776
 30
0.0
 10
40.7876039168
 20
41.1393723221
 30
0.0
 10
41.1095700717
 20
41.8132779435
 30
0.0
 10
41.2657398913
 20
42.2773687471
 30
0.0
 10
41.3275074877
 20
42.509664603
 30
0.0
  0
SPLINE
  5
3F7
100
AcDbEntity
  8
0
100
AcDbSpline
 62
7
  6
BYLAYER
 70
0
 71
3
 72
10
 73
6
 74
0
 42
0.0000001
 43
0.0000001
 44
0.0000000001
 40
0.0
 40
0.0
 40
0.0
 40
0.0
 40
0.2342386303
 40
0.4801204947
 40
1.0
 40
1.0
 40
1.0
 40
1.0
 10
29.2668066729
 20
57.8044256202
 30
0.0
 10
29.0974420367
 20
57.7012294489
 30
0.0
 10
28.7388935045
 20
57.5079930886
 30
0.0
 10
27.9597977079
 20
57.174637603
 30
0.0
 10
27.3332017276
 20
56.9949195031
 30
0.0
 10
26.9026382609
 20
56.9034271754
 30
0.0
  0
SPLINE
  5
3F8
100
AcDbEntity
  8
0
100
AcDbSpline
 62
7
  6
BYLAYER
 70
0
 71
3
 72
25
 73
21
 74
0
 42
0.0000001
 43
0.0000001
 44
0.0000000001
 40
0.0
 40
0.0
 40
0.0
 40
0.0
 40
0.0635335682
 40
0.1308993124
 40
0.2013547001
 40
0.2740747262
 40
0.3480751275
 40
0.4222906903
 40
0.4956587627
 40
0.5671564072
 40
0.6357922073
 40
0.7006999654
 40
0.7612602181
 40
0.8171485305
 40
0.868322991
 40
0.9151011315
 40
0.9371388252
 40
0.9584807236
 40
0.97934988
 40
1.0
 40
1.0
 40
1.0
 40
1.0
 10
29.2668066729
 20
59.4374195168
 30
0.0
 10
29.0517461211
 20
59.3064059145
 30
0.0
 10
28.5904177174
 20
59.0657569401
 30
0.0
 10
27.8451174133
 20
58.7765689098
 30
0.0
 10
27.0395631386
 20
58.5536321943
 30
0.0
 10
26.1912233711
 20
58.4012718181
 30
0.0
 10
25.3182732016
 20
58.3199486914
 30
0.0
 10
24.4389801932
 20
58.311863139
 30
0.0
 10
23.5720635667
 20
58.378716199
 30
0.0
 10
22.7364114213
 20
58.5193818126
 30
0.0
 10
21.9495938267
 20
58.7277100498
 30
0.0
 10
21.2278522753
 20
58.9983273707
 30
0.0
 10
20.5864016525
 20
59.3267965797
 30
0.0
 10
20.0391400045
 20
59.7077577228
 30
0.0
 10
19.5978840587
 20
60.1327122559
 30
0.0
 10
19.3207080541
 20
60.5238043414
 30
0.0
 10
19.1661761144
 20
60.8468333272
 30
0.0
 10
19.0844258695
 20
61.0887267962
 30
0.0
 10
19.0351566766
 20
61.3336430302
 30
0.0
 10
19.0241494419
 20
61.4984156881
 30
0.0
 10
19.0241483462
 20
61.5802654465
 30
0.0
  0
SPLINE
  5
3F9
100
AcDbEntity
  8
0
100
AcDbSpline
 62
7
  6
BYLAYER
 70
0
 71
3
 72
25
 73
21
 74
0
 42
0.0000001
 43
0.0000001
 44
0.0000000001
 40
0.0
 40
0.0
 40
0.0
 40
0.0
 40
0.063538089
 40
0.1309066073
 40
0.2013613278
 40
0.2740805069
 40
0.3480801274
 40
0.4222950926
 40
0.4956622856
 40
0.5671591923
 40
0.6357951567
 40
0.7007032972
 40
0.7612624142
 40
0.8171480756
 40
0.8683225695
 40
0.9151029928
 40
0.9371415951
 40
0.958483397
 40
0.9793514664
 40
1.0
 40
1.0
 40
1.0
 40
1.0
 10
29.2668066729
 20
60.2541483594
 30
0.0
 10
29.0517246108
 20
60.12313157
 30
0.0
 10
28.5904434982
 20
59.8823329335
 30
0.0
 10
27.8451459023
 20
59.5930209546
 30
0.0
 10
27.0395703072
 20
59.3701132274
 30
0.0
 10
26.191230782
 20
59.2177619988
 30
0.0
 10
25.3182774043
 20
59.1364886235
 30
0.0
 10
24.4389881762
 20
59.1283907377
 30
0.0
 10
23.5720694937
 20
59.1951976311
 30
0.0
 10
22.7364116772
 20
59.3358471794
 30
0.0
 10
21.9495963614
 20
59.5442119808
 30
0.0
 10
21.2278642281
 20
59.8148637548
 30
0.0
 10
20.586416384
 20
60.1433154188
 30
0.0
 10
20.0391300204
 20
60.524226345
 30
0.0
 10
19.597876882
 20
60.9491939614
 30
0.0
 10
19.3207102561
 20
61.3403128742
 30
0.0
 10
19.1661788427
 20
61.6633586653
 30
0.0
 10
19.0844277136
 20
61.9052527228
 30
0.0
 10
19.0351569955
 20
62.1501595366
 30
0.0
 10
19.0241494012
 20
62.3149229976
 30
0.0
 10
19.0241483422
 20
62.3967671538
 30
0.0
  0
SPLINE
  5
3FA
100
AcDbEntity
  8
0
100
AcDbSpline
 62
7
  6
BYLAYER
 70
0
 71
3
 72
14
 73
10
 74
0
 42
0.0000001
 43
0.0000001
 44
0.0000000001
 40
0.0
 40
0.0
 40
0.0
 40
0.0
 40
0.1106872907
 40
0.2230902442
 40
0.3387026211
 40
0.4587810371
 40
0.584345435
 40
0.7161609029
 40
1.0
 40
1.0
 40
1.0
 40
1.0
 10
29.3003158879
 20
65.394708231
 30
0.0
 10
29.2996264213
 20
65.3237219139
 30
0.0
 10
29.2874878611
 20
65.1805319471
 30
0.0
 10
29.2373526345
 20
64.9684257036
 30
0.0
 10
29.1556794543
 20
64.7598955671
 30
0.0
 10
29.0434167691
 20
64.5565254264
 30
0.0
 10
28.9013570929
 20
64.3598176314
 30
0.0
 10
28.6682062023
 20
64.1019621313
 30
0.0
 10
28.4599308909
 20
63.9324277913
 30
0.0
 10
28.3103413036
 20
63.8286880288
 30
0.0
  0
SPLINE
  5
3FB
100
AcDbEntity
  8
0
100
AcDbSpline
 62
7
  6
BYLAYER
 70
0
 71
3
 72
15
 73
11
 74
0
 42
0.0000001
 43
0.0000001
 44
0.0000000001
 40
0.0
 40
0.0
 40
0.0
 40
0.0
 40
0.1493370239
 40
0.2897472427
 40
0.4213465644
 40
0.5450445335
 40
0.6623529618
 40
0.7754478662
 40
0.8871182163
 40
1.0
 40
1.0
 40
1.0
 40
1.0
 10
28.9475916604
 20
61.0419369827
 30
0.0
 10
29.0927885323
 20
61.1320889652
 30
0.0
 10
29.3663285013
 20
61.3208285733
 30
0.0
 10
29.729954128
 20
61.639367666
 30
0.0
 10
30.0287487872
 20
61.9817148245
 30
0.0
 10
30.25858065
 20
62.3430723876
 30
0.0
 10
30.4157421265
 20
62.7189670093
 30
0.0
 10
30.4967553285
 20
63.1045868434
 30
0.0
 10
30.4988878743
 20
63.4935366041
 30
0.0
 10
30.4489522256
 20
63.7475536169
 30
0.0
 10
30.4124168214
 20
63.8714665806
 30
0.0
  0
SPLINE
  5
3FC
100
AcDbEntity
  8
0
100
AcDbSpline
 62
7
  6
BYLAYER
 70
0
 71
3
 72
9
 73
5
 74
0
 42
0.0000001
 43
0.0000001
 44
0.0000000001
 40
0.0
 40
0.0
 40
0.0
 40
0.0
 40
0.2557407666
 40
1.0
 40
1.0
 40
1.0
 40
1.0
 10
30.2223380759
 20
64.3217239224
 30
0.0
 10
30.242510519
 20
64.285218078
 30
0.0
 10
30.3177696127
 20
64.140520179
 30
0.0
 10
30.377993425
 20
63.9878637184
 30
0.0
 10
30.4124168214
 20
63.8714665806
 30
0.0
  0
SPLINE
  5
3FD
100
AcDbEntity
  8
0
100
AcDbSpline
 62
7
  6
BYLAYER
 70
0
 71
3
 72
23
 73
19
 74
0
 42
0.0000001
 43
0.0000001
 44
0.0000000001
 40
0.0
 40
0.0
 40
0.0
 40
0.0
 40
0.0630310204
 40
0.1295813079
 40
0.198951959
 40
0.2703774098
 40
0.3429327151
 40
0.4156456824
 40
0.4875383775
 40
0.557672083
 40
0.6252002709
 40
0.6894259881
 40
0.749860965
 40
0.8062874637
 40
0.8588275421
 40
0.9079964745
 40
0.9546498568
 40
1.0
 40
1.0
 40
1.0
 40
1.0
 10
21.5301778609
 20
67.5185148961
 30
0.0
 10
21.7187467043
 20
67.6203717658
 30
0.0
 10
22.1197521272
 20
67.8056667758
 30
0.0
 10
22.7614924925
 20
68.0229987635
 30
0.0
 10
23.4489274322
 20
68.1840774873
 30
0.0
 10
24.1680856676
 20
68.2860586187
 30
0.0
 10
24.9046374444
 20
68.326938691
 30
0.0
 10
25.6436040045
 20
68.3059759204
 30
0.0
 10
26.3700084758
 20
68.2235864678
 30
0.0
 10
27.0691842413
 20
68.0813101878
 30
0.0
 10
27.7271465572
 20
67.8817580322
 30
0.0
 10
28.3309421646
 20
67.6284743326
 30
0.0
 10
28.8688403656
 20
67.325600537
 30
0.0
 10
29.3303041714
 20
66.9775729485
 30
0.0
 10
29.7057407535
 20
66.5890686209
 30
0.0
 10
29.9853741977
 20
66.1650975445
 30
0.0
 10
30.1594246822
 20
65.7134414788
 30
0.0
 10
30.199148322
 20
65.3993196335
 30
0.0
 10
30.199148322
 20
65.2451187454
 30
0.0
  0
SPLINE
  5
3FE
100
AcDbEntity
  8
0
100
AcDbSpline
 62
7
  6
BYLAYER
 70
0
 71
3
 72
19
 73
15
 74
0
 42
0.0000001
 43
0.0000001
 44
0.0000000001
 40
0.0
 40
0.0
 40
0.0
 40
0.0
 40
0.1240734722
 40
0.1826161028
 40
0.2394013305
 40
0.2950251215
 40
0.3501482762
 40
0.4054693854
 40
0.4616821968
 40
0.5194324011
 40
0.5792765129
 40
0.7067633995
 40
0.8467867359
 40
1.0
 40
1.0
 40
1.0
 40
1.0
 10
19.7919902307
 20
64.5634297273
 30
0.0
 10
19.6701913682
 20
64.4183029635
 30
0.0
 10
19.5101727967
 20
64.186365879
 30
0.0
 10
19.3591413439
 20
63.852644893
 30
0.0
 10
19.2819940297
 20
63.6024558971
 30
0.0
 10
19.2395752917
 20
63.3493863637
 30
0.0
 10
19.2321895375
 20
63.0950899833
 30
0.0
 10
19.2601481229
 20
62.8413315984
 30
0.0
 10
19.3230600952
 20
62.5898190273
 30
0.0
 10
19.4205866237
 20
62.342206686
 30
0.0
 10
19.599423297
 20
62.0125512894
 30
0.0
 10
19.9122610458
 20
61.6174809484
 30
0.0
 10
20.4004990432
 20
61.1955435002
 30
0.0
 10
20.7822180332
 20
60.9579247077
 30
0.0
 10
20.9884416751
 20
60.8474261601
 30
0.0
  0
SPLINE
  5
3FF
100
AcDbEntity
  8
0
100
AcDbSpline
 62
7
  6
BYLAYER
 70
0
 71
3
 72
16
 73
12
 74
0
 42
0.0000001
 43
0.0000001
 44
0.0000000001
 40
0.0
 40
0.0
 40
0.0
 40
0.0
 40
0.1141649411
 40
0.2373370752
 40
0.3669751647
 40
0.4999825091
 40
0.6329877434
 40
0.7626193149
 40
0.8857716466
 40
0.9441616761
 40
1.0
 40
1.0
 40
1.0
 40
1.0
 10
20.988441675
 20
60.8474261598
 30
0.0
 10
21.2658836253
 20
60.6987674886
 30
0.0
 10
21.8689732859
 20
60.4374293143
 30
0.0
 10
22.846550644
 20
60.1666900175
 30
0.0
 10
23.9010198573
 20
60.008915496
 30
0.0
 10
24.9934912801
 20
59.9713560333
 30
0.0
 10
26.0833848626
 20
60.0564203274
 30
0.0
 10
27.1294355699
 20
60.2619702886
 30
0.0
 10
27.9466904782
 20
60.5326448837
 30
0.0
 10
28.5416771084
 20
60.8065523252
 30
0.0
 10
28.8168020179
 20
60.9607303813
 30
0.0
 10
28.9475916573
 20
61.0419369881
 30
0.0
  0
SPLINE
  5
400
100
AcDbEntity
  8
0
100
AcDbSpline
 62
7
  6
BYLAYER
 70
0
 71
3
 72
25
 73
21
 74
0
 42
0.0000001
 43
0.0000001
 44
0.0000000001
 40
0.0
 40
0.0
 40
0.0
 40
0.0
 40
0.0623167745
 40
0.1286153901
 40
0.1981311738
 40
0.270039021
 40
0.3433513998
 40
0.4170279205
 40
0.4900172032
 40
0.5612900176
 40
0.6298985928
 40
0.6950246778
 40
0.7560340987
 40
0.8125525103
 40
0.8645446929
 40
0.9124033693
 40
0.9350798206
 40
0.9571065821
 40
0.9786757042
 40
1.0
 40
1.0
 40
1.0
 40
1.0
 10
28.0479275692
 20
63.6626789603
 30
0.0
 10
27.8946996865
 20
63.5742133291
 30
0.0
 10
27.5662658359
 20
63.4122611452
 30
0.0
 10
27.0365907882
 20
63.2200425396
 30
0.0
 10
26.4641500247
 20
63.0744040991
 30
0.0
 10
25.8612779965
 20
62.9783525708
 30
0.0
 10
25.2406123365
 20
62.9339148693
 30
0.0
 10
24.6153541305
 20
62.9420256536
 30
0.0
 10
23.9987711905
 20
63.0025099986
 30
0.0
 10
23.4039447974
 20
63.1141288864
 30
0.0
 10
22.8434542969
 20
63.2744832333
 30
0.0
 10
22.3290909261
 20
63.48024867
 30
0.0
 10
21.8716406668
 20
63.7272749927
 30
0.0
 10
21.4806099703
 20
64.0107341289
 30
0.0
 10
21.1643000224
 20
64.3251338089
 30
0.0
 10
20.9654413814
 20
64.613786478
 30
0.0
 10
20.8538485444
 20
64.8522800906
 30
0.0
 10
20.7942252506
 20
65.0312304085
 30
0.0
 10
20.7575231763
 20
65.2123211309
 30
0.0
 10
20.7485541639
 20
65.3341662456
 30
0.0
 10
20.7479780385
 20
65.3947082212
 30
0.0
  0
SPLINE
  5
401
100
AcDbEntity
  8
0
100
AcDbSpline
 62
7
  6
BYLAYER
 70
0
 71
3
 72
14
 73
10
 74
0
 42
0.0000001
 43
0.0000001
 44
0.0000000001
 40
0.0
 40
0.0
 40
0.0
 40
0.0
 40
0.1114490137
 40
0.2243198373
 40
0.3401957747
 40
0.4603698141
 40
0.7169802138
 40
0.8552247223
 40
1.0
 40
1.0
 40
1.0
 40
1.0
 10
19.849148322
 20
65.2451187454
 30
0.0
 10
19.849148322
 20
65.3500251997
 30
0.0
 10
19.8672455602
 20
65.5615919149
 30
0.0
 10
19.9474107759
 20
65.8730106389
 30
0.0
 10
20.079050922
 20
66.1753456129
 30
0.0
 10
20.324381939
 20
66.5704445774
 30
0.0
 10
20.6611979181
 20
66.9267288822
 30
0.0
 10
21.0629168343
 20
67.2381507375
 30
0.0
 10
21.288258959
 20
67.3811839852
 30
0.0
 10
21.4062778871
 20
67.4493218383
 30
0.0
  0
SPLINE
  5
402
100
AcDbEntity
  8
0
100
AcDbSpline
 62
7
  6
BYLAYER
 70
0
 71
3
 72
11
 73
7
 74
0
 42
0.0000001
 43
0.0000001
 44
0.0000000001
 40
0.0
 40
0.0
 40
0.0
 40
0.0
 40
0.2894162825
 40
0.5490291047
 40
0.7822679162
 40
1.0
 40
1.0
 40
1.0
 40
1.0
 10
27.1241002301
 20
63.9919132528
 30
0.0
 10
27.1009516307
 20
63.9785484825
 30
0.0
 10
27.0589264239
 20
63.9495912992
 30
0.0
 10
27.00858031
 20
63.8968970903
 30
0.0
 10
26.9765828969
 20
63.8385759165
 30
0.0
 10
26.9689619042
 20
63.796693016
 30
0.0
 10
26.9688337438
 20
63.7765843118
 30
0.0
  0
SPLINE
  5
403
100
AcDbEntity
  8
0
100
AcDbSpline
 62
7
  6
BYLAYER
 70
0
 71
3
 72
13
 73
9
 74
0
 42
0.0000001
 43
0.0000001
 44
0.0000000001
 40
0.0
 40
0.0
 40
0.0
 40
0.0
 40
0.1141762243
 40
0.2375705078
 40
0.5000006893
 40
0.7624304955
 40
0.8858242827
 40
1.0
 40
1.0
 40
1.0
 40
1.0
 10
27.873961368
 20
63.9919150552
 30
0.0
 10
27.8483126526
 20
64.006723013
 30
0.0
 10
27.792164783
 20
64.032836291
 30
0.0
 10
27.6677864522
 20
64.0706770344
 30
0.0
 10
27.4990301011
 20
64.0889609948
 30
0.0
 10
27.3302739683
 20
64.0706762023
 30
0.0
 10
27.2058961808
 20
64.0328348875
 30
0.0
 10
27.1497487248
 20
64.0067213297
 30
0.0
 10
27.1241002301
 20
63.9919132528
 30
0.0
  0
SPLINE
  5
404
100
AcDbEntity
  8
0
100
AcDbSpline
 62
7
  6
BYLAYER
 70
0
 71
3
 72
15
 73
11
 74
0
 42
0.0000001
 43
0.0000001
 44
0.0000000001
 40
0.0
 40
0.0
 40
0.0
 40
0.0
 40
0.1094143609
 40
0.2205746821
 40
0.335120024
 40
0.4546153547
 40
0.5802949381
 40
0.7129481523
 40
0.8529428739
 40
1.0
 40
1.0
 40
1.0
 40
1.0
 10
31.024148474
 20
58.7235105899
 30
0.0
 10
31.0241488657
 20
58.6054573966
 30
0.0
 10
31.0044557484
 20
58.3670285182
 30
0.0
 10
30.9166983415
 20
58.0147646011
 30
0.0
 10
30.7713516731
 20
57.6703143365
 30
0.0
 10
30.5706131962
 20
57.3367548464
 30
0.0
 10
30.3166372937
 20
57.0165923443
 30
0.0
 10
30.0120981534
 20
56.7121336738
 30
0.0
 10
29.6601149858
 20
56.4261266961
 30
0.0
 10
29.4022790461
 20
56.253667701
 30
0.0
 10
29.2668066729
 20
56.1710675416
 30
0.0
  0
SPLINE
  5
405
100
AcDbEntity
  8
0
100
AcDbSpline
 62
7
  6
BYLAYER
 70
0
 71
3
 72
15
 73
11
 74
0
 42
0.0000001
 43
0.0000001
 44
0.0000000001
 40
0.0
 40
0.0
 40
0.0
 40
0.0
 40
0.1094138285
 40
0.2205706378
 40
0.3351110719
 40
0.4546056895
 40
0.5802921252
 40
0.7129511183
 40
0.8529445762
 40
1.0
 40
1.0
 40
1.0
 40
1.0
 10
31.0241484325
 20
57.9069849575
 30
0.0
 10
31.0241500785
 20
57.7889339927
 30
0.0
 10
31.0044563099
 20
57.5505126968
 30
0.0
 10
30.9166997753
 20
57.1982637255
 30
0.0
 10
30.7713507534
 20
56.8538304717
 30
0.0
 10
30.5706073477
 20
56.5202797678
 30
0.0
 10
30.31664497
 20
56.2000985973
 30
0.0
 10
30.0121151917
 20
55.8956200552
 30
0.0
 10
29.6601191747
 20
55.6096323125
 30
0.0
 10
29.4022782062
 20
55.4371952027
 30
0.0
 10
29.2668066729
 20
55.3546014645
 30
0.0
  0
SPLINE
  5
406
100
AcDbEntity
  8
0
100
AcDbSpline
 62
7
  6
BYLAYER
 70
0
 71
3
 72
9
 73
5
 74
0
 42
0.0000001
 43
0.0000001
 44
0.0000000001
 40
0.0
 40
0.0
 40
0.0
 40
0.0
 40
0.4803765437
 40
1.0
 40
1.0
 40
1.0
 40
1.0
 10
30.8665676789
 20
63.72718666
 30
0.0
 10
30.7975651755
 20
63.8976607574
 30
0.0
 10
30.6109372824
 20
64.2359238821
 30
0.0
 10
30.3614394683
 20
64.5293385313
 30
0.0
 10
30.2207988462
 20
64.6700346727
 30
0.0
  0
SPLINE
  5
407
100
AcDbEntity
  8
0
100
AcDbSpline
 62
7
  6
BYLAYER
 70
0
 71
3
 72
16
 73
12
 74
0
 42
0.0000001
 43
0.0000001
 44
0.0000000001
 40
0.0
 40
0.0
 40
0.0
 40
0.0
 40
0.1142035284
 40
0.2365407567
 40
0.3649458045
 40
0.4967512637
 40
0.6290320475
 40
0.7588439773
 40
0.8219360378
 40
0.883352109
 40
1.0
 40
1.0
 40
1.0
 40
1.0
 10
29.2668066729
 20
55.3546015599
 30
0.0
 10
28.996016555
 20
55.1895073328
 30
0.0
 10
28.4057873355
 20
54.8946096237
 30
0.0
 10
27.4443221475
 20
54.5667024644
 30
0.0
 10
26.4036348254
 20
54.3424157573
 30
0.0
 10
25.3175086092
 20
54.2285345466
 30
0.0
 10
24.2215646714
 20
54.2327142664
 30
0.0
 10
23.3221391619
 20
54.3326842028
 30
0.0
 10
22.6287793653
 20
54.4690130252
 30
0.0
 10
21.9800749617
 20
54.6361933631
 30
0.0
 10
21.5126466717
 20
54.8034914207
 30
0.0
 10
21.2167801604
 20
54.9353935206
 30
0.0
  0
SPLINE
  5
408
100
AcDbEntity
  8
0
100
AcDbSpline
 62
7
  6
BYLAYER
 70
0
 71
3
 72
25
 73
21
 74
0
 42
0.0000001
 43
0.0000001
 44
0.0000000001
 40
0.0
 40
0.0
 40
0.0
 40
0.0
 40
0.0635182798
 40
0.1308525779
 40
0.2013036889
 40
0.2740365661
 40
0.3480349352
 40
0.4222478092
 40
0.4956220125
 40
0.5671003015
 40
0.6356959879
 40
0.7006015652
 40
0.7612136062
 40
0.8171353391
 40
0.868238259
 40
0.9149212411
 40
0.936951459
 40
0.9583365681
 40
0.979282631
 40
1.0
 40
1.0
 40
1.0
 40
1.0
 10
29.2668066729
 20
56.1710676105
 30
0.0
 10
29.051832968
 20
56.039993932
 30
0.0
 10
28.5904896803
 20
55.7996091342
 30
0.0
 10
27.8448815693
 20
55.5116355066
 30
0.0
 10
27.0394045961
 20
55.2887984857
 30
0.0
 10
26.1913547777
 20
55.1344813651
 30
0.0
 10
25.318323686
 20
55.0522192583
 30
0.0
 10
24.4388950391
 20
55.0459377423
 30
0.0
 10
23.5721733348
 20
55.1144878403
 30
0.0
 10
22.7365491219
 20
55.2539547411
 30
0.0
 10
21.9494098102
 20
55.4604426033
 30
0.0
 10
21.2275535547
 20
55.7312379841
 30
0.0
 10
20.5864555953
 20
56.0612914705
 30
0.0
 10
20.0396834235
 20
56.4429753327
 30
0.0
 10
19.5980171421
 20
56.8666994582
 30
0.0
 10
19.3205526711
 20
57.2568399567
 30
0.0
 10
19.166070441
 20
57.5796769043
 30
0.0
 10
19.0843868742
 20
57.8220906468
 30
0.0
 10
19.0351751719
 20
58.0677903773
 30
0.0
 10
19.0241490635
 20
58.2331430983
 30
0.0
 10
19.0241482615
 20
58.3152651822
 30
0.0
  0
SPLINE
  5
409
100
AcDbEntity
  8
0
100
AcDbSpline
 62
7
  6
BYLAYER
 70
0
 71
3
 72
25
 73
21
 74
0
 42
0.0000001
 43
0.0000001
 44
0.0000000001
 40
0.0
 40
0.0
 40
0.0
 40
0.0
 40
0.0635197007
 40
0.1308545253
 40
0.2013052262
 40
0.2740379034
 40
0.3480365188
 40
0.4222494091
 40
0.4956235952
 40
0.5671024866
 40
0.6356988043
 40
0.7006035029
 40
0.7612142558
 40
0.8171369531
 40
0.8682421608
 40
0.9149256386
 40
0.9369549677
 40
0.9583386737
 40
0.979283317
 40
1.0
 40
1.0
 40
1.0
 40
1.0
 10
29.2668066729
 20
56.9875773728
 30
0.0
 10
29.0518324686
 20
56.8564947499
 30
0.0
 10
28.5904948959
 20
56.6160846062
 30
0.0
 10
27.8448833262
 20
56.328103156
 30
0.0
 10
27.0393981894
 20
56.1053004914
 30
0.0
 10
26.1913458153
 20
55.9510218722
 30
0.0
 10
25.3183198966
 20
55.8687397765
 30
0.0
 10
24.438892236
 20
55.8624135845
 30
0.0
 10
23.5721678796
 20
55.9309568256
 30
0.0
 10
22.7365470392
 20
56.0704680874
 30
0.0
 10
21.9494184917
 20
56.2769885115
 30
0.0
 10
21.2275577515
 20
56.5477438133
 30
0.0
 10
20.5864445106
 20
56.8777575123
 30
0.0
 10
20.0396764853
 20
57.2594627483
 30
0.0
 10
19.5980241222
 20
57.6832198423
 30
0.0
 10
19.3205576296
 20
58.07336471
 30
0.0
 10
19.1660713459
 20
58.3961908705
 30
0.0
 10
19.0843868425
 20
58.6385881805
 30
0.0
 10
19.0351743867
 20
58.884273135
 30
0.0
 10
19.0241490125
 20
59.0496172337
 30
0.0
 10
19.0241482596
 20
59.1317364193
 30
0.0
  0
SPLINE
  5
40A
100
AcDbEntity
  8
0
100
AcDbSpline
 62
7
  6
BYLAYER
 70
0
 71
3
 72
15
 73
11
 74
0
 42
0.0000001
 43
0.0000001
 44
0.0000000001
 40
0.0
 40
0.0
 40
0.0
 40
0.0
 40
0.1469727861
 40
0.2867994125
 40
0.4194345827
 40
0.5452612382
 40
0.6649847613
 40
0.7796842338
 40
0.8907808188
 40
1.0
 40
1.0
 40
1.0
 40
1.0
 10
29.2668066729
 20
56.9875772984
 30
0.0
 10
29.4021764651
 20
57.0701203528
 30
0.0
 10
29.6600057822
 20
57.2419605198
 30
0.0
 10
30.0123535804
 20
57.5269639595
 30
0.0
 10
30.3168733904
 20
57.8313245138
 30
0.0
 10
30.5707214163
 20
58.1520084807
 30
0.0
 10
30.7713049181
 20
58.4862490226
 30
0.0
 10
30.9165744496
 20
58.8310185165
 30
0.0
 10
31.0044296592
 20
59.1830698726
 30
0.0
 10
31.0241513183
 20
59.4211814924
 30
0.0
 10
31.0241483863
 20
59.5390045413
 30
0.0
  0
SPLINE
  5
40B
100
AcDbEntity
  8
0
100
AcDbSpline
 62
7
  6
BYLAYER
 70
0
 71
3
 72
15
 73
11
 74
0
 42
0.0000001
 43
0.0000001
 44
0.0000000001
 40
0.0
 40
0.0
 40
0.0
 40
0.0
 40
0.1361860883
 40
0.2680831111
 40
0.3959178561
 40
0.5203961637
 40
0.6423083199
 40
0.7624718085
 40
0.8813757067
 40
1.0
 40
1.0
 40
1.0
 40
1.0
 10
17.294448473
 20
60.396763631
 30
0.0
 10
16.9795961073
 20
60.2118191466
 30
0.0
 10
16.3750819286
 20
59.8207440976
 30
0.0
 10
15.5420752551
 20
59.1598654892
 30
0.0
 10
14.8067072221
 20
58.4352608669
 30
0.0
 10
14.1791333067
 20
57.6489951589
 30
0.0
 10
13.6704262183
 20
56.8044149471
 30
0.0
 10
13.2941609496
 20
55.9086987341
 30
0.0
 10
13.0614179356
 20
54.97437021
 30
0.0
 10
13.0090663801
 20
54.3362603249
 30
0.0
 10
13.0090663801
 20
54.018195695
 30
0.0
  0
SPLINE
  5
40C
100
AcDbEntity
  8
0
100
AcDbSpline
 62
7
  6
BYLAYER
 70
0
 71
3
 72
11
 73
7
 74
0
 42
0.0000001
 43
0.0000001
 44
0.0000000001
 40
0.0
 40
0.0
 40
0.0
 40
0.0
 40
0.217748339
 40
0.4507274594
 40
0.710261059
 40
1.0
 40
1.0
 40
1.0
 40
1.0
 10
32.600163012
 20
56.9611510021
 30
0.0
 10
32.6005721392
 20
56.9228161005
 30
0.0
 10
32.5872287962
 20
56.8427546998
 30
0.0
 10
32.5272216712
 20
56.7310278963
 30
0.0
 10
32.4316261539
 20
56.6301607528
 30
0.0
 10
32.351513136
 20
56.5748536783
 30
0.0
 10
32.3073355091
 20
56.5493478658
 30
0.0
  0
SPLINE
  5
40D
100
AcDbEntity
  8
0
100
AcDbSpline
 62
7
  6
BYLAYER
 70
0
 71
3
 72
9
 73
5
 74
0
 42
0.0000001
 43
0.0000001
 44
0.0000000001
 40
0.0
 40
0.0
 40
0.0
 40
0.0
 40
0.4973596158
 40
1.0
 40
1.0
 40
1.0
 40
1.0
 10
11.5090663969
 20
42.0462244861
 30
0.0
 10
11.5090673946
 20
41.8448375714
 30
0.0
 10
11.5348369273
 20
41.4395260827
 30
0.0
 10
11.6111004593
 20
41.0406884791
 30
0.0
 10
11.6612771808
 20
40.8434455121
 30
0.0
  0
SPLINE
  5
40E
100
AcDbEntity
  8
0
100
AcDbSpline
 62
7
  6
BYLAYER
 70
0
 71
3
 72
25
 73
21
 74
0
 42
0.0000001
 43
0.0000001
 44
0.0000000001
 40
0.0
 40
0.0
 40
0.0
 40
0.0
 40
0.0211953177
 40
0.0430047715
 40
0.0655733405
 40
0.0890175039
 40
0.1388194354
 40
0.1928605032
 40
0.2511701368
 40
0.3134855489
 40
0.3793209065
 40
0.448023424
 40
0.5188193948
 40
0.5908515088
 40
0.6632182766
 40
0.7350116949
 40
0.8053529604
 40
0.8734185469
 40
0.9384978793
 40
1.0
 40
1.0
 40
1.0
 40
1.0
 10
11.692272147
 20
40.727348341
 30
0.0
 10
11.7464435224
 20
40.533595187
 30
0.0
 10
11.8796075857
 20
40.1466294765
 30
0.0
 10
12.1461902339
 20
39.5829579867
 30
0.0
 10
12.4807802965
 20
39.031677601
 30
0.0
 10
13.0259029377
 20
38.3022143563
 30
0.0
 10
13.8778940342
 20
37.4369633322
 30
0.0
 10
15.1137112901
 20
36.5117555833
 30
0.0
 10
16.5605497642
 20
35.6940839273
 30
0.0
 10
18.191642062
 20
34.9988770339
 30
0.0
 10
19.9771600887
 20
34.4388857466
 30
0.0
 10
21.8841770863
 20
34.0248244876
 30
0.0
 10
23.8773692772
 20
33.7648259954
 30
0.0
 10
25.9196534399
 20
33.6642274237
 30
0.0
 10
27.9729512061
 20
33.7254114
 30
0.0
 10
29.9990236328
 20
33.9477116726
 30
0.0
 10
31.9601043151
 20
34.3275782207
 30
0.0
 10
33.8199716099
 20
34.858396698
 30
0.0
 10
35.5437683413
 20
35.5309512026
 30
0.0
 10
36.6141292103
 20
36.0832773877
 30
0.0
 10
37.1157122573
 20
36.3819464667
 30
0.0
  0
SPLINE
  5
40F
100
AcDbEntity
  8
0
100
AcDbSpline
 62
7
  6
BYLAYER
 70
0
 71
3
 72
9
 73
5
 74
0
 42
0.0000001
 43
0.0000001
 44
0.0000000001
 40
0.0
 40
0.0
 40
0.0
 40
0.0
 40
0.2486616543
 40
1.0
 40
1.0
 40
1.0
 40
1.0
 10
17.8311548314
 20
28.0587559283
 30
0.0
 10
17.8389594604
 20
28.0553478404
 30
0.0
 10
17.8702716503
 20
28.0414716326
 30
0.0
 10
17.9013713211
 20
28.0271227839
 30
0.0
 10
17.924710757
 20
28.0162867992
 30
0.0
  0
SPLINE
  5
410
100
AcDbEntity
  8
0
100
AcDbSpline
 62
7
  6
BYLAYER
 70
0
 71
3
 72
10
 73
6
 74
0
 42
0.0000001
 43
0.0000001
 44
0.0000000001
 40
0.0
 40
0.0
 40
0.0
 40
0.0
 40
0.2393835354
 40
0.4849594004
 40
1.0
 40
1.0
 40
1.0
 40
1.0
 10
11.6455209153
 20
33.5585574855
 30
0.0
 10
11.690548932
 20
33.3715041511
 30
0.0
 10
11.8035808994
 20
32.9974379584
 30
0.0
 10
12.1184397521
 20
32.2567680578
 30
0.0
 10
12.4448559428
 20
31.7339049955
 30
0.0
 10
12.6934532502
 20
31.402919395
 30
0.0
  0
SPLINE
  5
411
100
AcDbEntity
  8
0
100
AcDbSpline
 62
7
  6
BYLAYER
 70
0
 71
3
 72
9
 73
5
 74
0
 42
0.0000001
 43
0.0000001
 44
0.0000000001
 40
0.0
 40
0.0
 40
0.0
 40
0.0
 40
0.252307574
 40
1.0
 40
1.0
 40
1.0
 40
1.0
 10
15.5770871492
 20
29.3094279893
 30
0.0
 10
15.5653930795
 20
29.31763603
 30
0.0
 10
15.5188425412
 20
29.3498799658
 30
0.0
 10
15.471561307
 20
29.3810618359
 30
0.0
 10
15.4359227609
 20
29.4039194547
 30
0.0
  0
SPLINE
  5
412
100
AcDbEntity
  8
0
100
AcDbSpline
 62
7
  6
BYLAYER
 70
0
 71
3
 72
10
 73
6
 74
0
 42
0.0000001
 43
0.0000001
 44
0.0000000001
 40
0.0
 40
0.0
 40
0.0
 40
0.0
 40
0.2393826293
 40
0.4849424322
 40
1.0
 40
1.0
 40
1.0
 40
1.0
 10
11.6455205896
 20
32.3337977129
 30
0.0
 10
11.6905480491
 20
32.1467414614
 30
0.0
 10
11.8035739004
 20
31.7726808009
 30
0.0
 10
12.1184521003
 20
31.0319986439
 30
0.0
 10
12.4449198562
 20
30.509167833
 30
0.0
 10
12.6934531684
 20
30.1781078848
 30
0.0
  0
SPLINE
  5
413
100
AcDbEntity
  8
0
100
AcDbSpline
 62
7
  6
BYLAYER
 70
0
 71
3
 72
9
 73
5
 74
0
 42
0.0000001
 43
0.0000001
 44
0.0000000001
 40
0.0
 40
0.0
 40
0.0
 40
0.0
 40
0.4973581436
 40
1.0
 40
1.0
 40
1.0
 40
1.0
 10
11.5090663932
 20
43.2709781339
 30
0.0
 10
11.509067334
 20
43.0695671881
 30
0.0
 10
11.534842311
 20
42.6642060151
 30
0.0
 10
11.6111241651
 20
42.2653210013
 30
0.0
 10
11.6613134016
 20
42.0680549215
 30
0.0
  0
SPLINE
  5
414
100
AcDbEntity
  8
0
100
AcDbSpline
 62
7
  6
BYLAYER
 70
0
 71
3
 72
25
 73
21
 74
0
 42
0.0000001
 43
0.0000001
 44
0.0000000001
 40
0.0
 40
0.0
 40
0.0
 40
0.0
 40
0.0211921088
 40
0.0429971743
 40
0.0655605684
 40
0.0889990111
 40
0.1387883228
 40
0.19281757
 40
0.251118338
 40
0.3134281604
 40
0.3792607268
 40
0.4479631937
 40
0.5187613065
 40
0.5907987027
 40
0.6631738598
 40
0.7349764421
 40
0.8053265673
 40
0.8734013363
 40
0.9384900809
 40
1.0
 40
1.0
 40
1.0
 40
1.0
 10
11.690597933
 20
41.9581035959
 30
0.0
 10
11.7445384734
 20
41.76427211
 30
0.0
 10
11.8772569508
 20
41.377133593
 30
0.0
 10
12.1432454882
 20
40.8131629171
 30
0.0
 10
12.4773057442
 20
40.2615640239
 30
0.0
 10
13.0217893243
 20
39.5316515551
 30
0.0
 10
13.8731541845
 20
38.6657984187
 30
0.0
 10
15.1084781717
 20
37.7398840667
 30
0.0
 10
16.5550589834
 20
36.9215145898
 30
0.0
 10
18.1861139515
 20
36.2256399619
 30
0.0
 10
19.9717880972
 20
35.6650388546
 30
0.0
 10
21.8791186958
 20
35.2504356227
 30
0.0
 10
23.8727653006
 20
34.9899743311
 30
0.0
 10
25.9156297437
 20
34.8890019684
 30
0.0
 10
27.9696023928
 20
34.9499160251
 30
0.0
 10
29.996394128
 20
35.1720504396
 30
0.0
 10
31.9581948583
 20
35.551856631
 30
0.0
 10
33.8187605893
 20
36.0827249672
 30
0.0
 10
35.5431984304
 20
36.755433929
 30
0.0
 10
36.6139702046
 20
37.3079040891
 30
0.0
 10
37.1157122573
 20
37.6066998
 30
0.0
  0
SPLINE
  5
415
100
AcDbEntity
  8
0
100
AcDbSpline
 62
7
  6
BYLAYER
 70
0
 71
3
 72
9
 73
5
 74
0
 42
0.0000001
 43
0.0000001
 44
0.0000000001
 40
0.0
 40
0.0
 40
0.0
 40
0.0
 40
0.4973591862
 40
1.0
 40
1.0
 40
1.0
 40
1.0
 10
11.5090663635
 20
29.7986917729
 30
0.0
 10
11.5090662048
 20
29.5973290797
 30
0.0
 10
11.5348286992
 20
29.1920659022
 30
0.0
 10
11.6110749778
 20
28.7932746223
 30
0.0
 10
11.6612402101
 20
28.5960536302
 30
0.0
  0
SPLINE
  5
416
100
AcDbEntity
  8
0
100
AcDbSpline
 62
7
  6
BYLAYER
 70
0
 71
3
 72
25
 73
21
 74
0
 42
0.0000001
 43
0.0000001
 44
0.0000000001
 40
0.0
 40
0.0
 40
0.0
 40
0.0
 40
0.0211987183
 40
0.0430129776
 40
0.0655872603
 40
0.0890377121
 40
0.1388525997
 40
0.192904688
 40
0.2512223734
 40
0.3135434602
 40
0.3793820659
 40
0.448084167
 40
0.5188761792
 40
0.5909009759
 40
0.6632595021
 40
0.7350436032
 40
0.8053753813
 40
0.8734327881
 40
0.9385041376
 40
1.0
 40
1.0
 40
1.0
 40
1.0
 10
11.6939074711
 20
28.4739758675
 30
0.0
 10
11.7483045662
 20
28.2802967509
 30
0.0
 10
11.8819058617
 20
27.8934927822
 30
0.0
 10
12.1490720993
 20
27.3300999884
 30
0.0
 10
12.4841885213
 20
26.7791148866
 30
0.0
 10
13.0299525637
 20
26.0500793101
 30
0.0
 10
13.8825626953
 20
25.1854124639
 30
0.0
 10
15.1188615391
 20
24.2609005661
 30
0.0
 10
16.5659473178
 20
23.4439179719
 30
0.0
 10
18.1970798422
 20
22.7493646998
 30
0.0
 10
19.9824511971
 20
22.1899727513
 30
0.0
 10
21.8891476797
 20
21.7764472116
 30
0.0
 10
23.8818559471
 20
21.5169082867
 30
0.0
 10
25.9235364616
 20
21.4166697737
 30
0.0
 10
27.9761531193
 20
21.4781147799
 30
0.0
 10
30.001513656
 20
21.7005724087
 30
0.0
 10
31.9618924718
 20
22.0804767967
 30
0.0
 10
33.8210909041
 20
22.6112686095
 30
0.0
 10
35.5442715027
 20
23.2836929998
 30
0.0
 10
36.6143646668
 20
23.8357148799
 30
0.0
 10
37.1157122573
 20
24.1344213289
 30
0.0
  0
SPLINE
  5
417
100
AcDbEntity
  8
0
100
AcDbSpline
 62
7
  6
BYLAYER
 70
0
 71
3
 72
9
 73
5
 74
0
 42
0.0000001
 43
0.0000001
 44
0.0000000001
 40
0.0
 40
0.0
 40
0.0
 40
0.0
 40
0.4955264179
 40
1.0
 40
1.0
 40
1.0
 40
1.0
 10
11.5090663837
 20
43.421835871
 30
0.0
 10
11.5090679753
 20
43.6858491136
 30
0.0
 10
11.5536602593
 20
44.2195384998
 30
0.0
 10
11.6845412234
 20
44.7386026368
 30
0.0
 10
11.7699246802
 20
44.9934603993
 30
0.0
  0
SPLINE
  5
418
100
AcDbEntity
  8
0
100
AcDbSpline
 62
7
  6
BYLAYER
 70
0
 71
3
 72
9
 73
5
 74
0
 42
0.0000001
 43
0.0000001
 44
0.0000000001
 40
0.0
 40
0.0
 40
0.0
 40
0.0
 40
0.4973599998
 40
1.0
 40
1.0
 40
1.0
 40
1.0
 10
11.509066387
 20
31.0234442106
 30
0.0
 10
11.509066942
 20
30.8221125451
 30
0.0
 10
11.5348230731
 20
30.4169127408
 30
0.0
 10
11.6110454383
 20
30.0181817317
 30
0.0
 10
11.6611946162
 20
29.8209896951
 30
0.0
  0
SPLINE
  5
419
100
AcDbEntity
  8
0
100
AcDbSpline
 62
7
  6
BYLAYER
 70
0
 71
3
 72
24
 73
20
 74
0
 42
0.0000001
 43
0.0000001
 44
0.0000000001
 40
0.0
 40
0.0
 40
0.0
 40
0.0
 40
0.0211379486
 40
0.0428638011
 40
0.0886030907
 40
0.1381619157
 40
0.1919778905
 40
0.2501077436
 40
0.3123035612
 40
0.37808513
 40
0.4467996171
 40
0.5176651209
 40
0.5898162484
 40
0.6623414253
 40
0.7343168417
 40
0.8048490394
 40
0.8731028713
 40
0.9383528245
 40
1.0
 40
1.0
 40
1.0
 40
1.0
 10
11.6611946162
 20
29.8209896951
 30
0.0
 10
11.7108522167
 20
29.6257305944
 30
0.0
 10
11.8353228815
 20
29.2354488528
 30
0.0
 10
12.1810141079
 20
28.4633531866
 30
0.0
 10
12.7988395756
 20
27.5249549836
 30
0.0
 10
13.7863325539
 20
26.494114487
 30
0.0
 10
15.012484674
 20
25.5548635585
 30
0.0
 10
16.4539076809
 20
24.7237885849
 30
0.0
 10
18.0839260546
 20
24.0156343832
 30
0.0
 10
19.8722763435
 20
23.4436835763
 30
0.0
 10
21.785592221
 20
23.0189438678
 30
0.0
 10
23.7879918639
 20
22.7498526129
 30
0.0
 10
25.8417770117
 20
22.6419735813
 30
0.0
 10
27.9081947404
 20
22.6978691443
 30
0.0
 10
29.9482750811
 20
22.91697637
 30
0.0
 10
31.9235200879
 20
23.2957200298
 30
0.0
 10
33.7969704877
 20
23.8275359355
 30
0.0
 10
35.5330760991
 20
24.5029833646
 30
0.0
 10
36.6109850099
 20
25.058332342
 30
0.0
 10
37.1157122573
 20
25.3591749556
 30
0.0
  0
SPLINE
  5
41A
100
AcDbEntity
  8
0
100
AcDbSpline
 62
7
  6
BYLAYER
 70
0
 71
3
 72
14
 73
10
 74
0
 42
0.0000001
 43
0.0000001
 44
0.0000000001
 40
0.0
 40
0.0
 40
0.0
 40
0.0
 40
0.1141280919
 40
0.2294442542
 40
0.3470781228
 40
0.4680442647
 40
0.7230185745
 40
0.8586166076
 40
1.0
 40
1.0
 40
1.0
 40
1.0
 10
11.5090764486
 20
32.2481942246
 30
0.0
 10
11.5090854556
 20
32.0489248771
 30
0.0
 10
11.5342764224
 20
31.6478676436
 30
0.0
 10
11.647203682
 20
31.0510179168
 30
0.0
 10
11.8346811521
 20
30.4606396205
 30
0.0
 10
12.188204913
 20
29.673015756
 30
0.0
 10
12.6862769688
 20
28.9229763241
 30
0.0
 10
13.300663871
 20
28.2255832052
 30
0.0
 10
13.6502712181
 20
27.8904034176
 30
0.0
 10
13.8348363399
 20
27.7264694521
 30
0.0
  0
SPLINE
  5
41B
100
AcDbEntity
  8
0
100
AcDbSpline
 62
7
  6
BYLAYER
 70
0
 71
3
 72
9
 73
5
 74
0
 42
0.0000001
 43
0.0000001
 44
0.0000000001
 40
0.0
 40
0.0
 40
0.0
 40
0.0
 40
0.4973566763
 40
1.0
 40
1.0
 40
1.0
 40
1.0
 10
11.5090665154
 20
28.5739357222
 30
0.0
 10
11.5090687468
 20
28.3725571994
 30
0.0
 10
11.5348361736
 20
27.9672604231
 30
0.0
 10
11.6110926608
 20
27.5684362575
 30
0.0
 10
11.6612661028
 20
27.371198738
 30
0.0
  0
SPLINE
  5
41C
100
AcDbEntity
  8
0
100
AcDbSpline
 62
7
  6
BYLAYER
 70
0
 71
3
 72
24
 73
20
 74
0
 42
0.0000001
 43
0.0000001
 44
0.0000000001
 40
0.0
 40
0.0
 40
0.0
 40
0.0
 40
0.0211980549
 40
0.0430106126
 40
0.0889763422
 40
0.1387849889
 40
0.1928324191
 40
0.251148222
 40
0.3134696684
 40
0.3793097916
 40
0.4480151806
 40
0.5188117596
 40
0.5908443737
 40
0.6632128427
 40
0.7350072795
 40
0.8053487639
 40
0.873415168
 40
0.9384961218
 40
1.0
 40
1.0
 40
1.0
 40
1.0
 10
11.6927264143
 20
27.2534345309
 30
0.0
 10
11.7469625292
 20
27.0596959486
 30
0.0
 10
11.8802689103
 20
26.6727487195
 30
0.0
 10
12.2420912613
 20
25.9081979957
 30
0.0
 10
12.8768395017
 20
24.980828688
 30
0.0
 10
13.8790867382
 20
23.9637578347
 30
0.0
 10
15.1152565088
 20
23.0384235206
 30
0.0
 10
16.562129973
 20
22.2210389843
 30
0.0
 10
18.1932749817
 20
21.5259850183
 30
0.0
 10
19.9787591311
 20
20.9661803532
 30
0.0
 10
21.8856690393
 20
20.5522830988
 30
0.0
 10
23.8786889754
 20
20.2924249383
 30
0.0
 10
25.9207750581
 20
20.1919303286
 30
0.0
 10
27.9738700234
 20
20.2531929755
 30
0.0
 10
29.9997360243
 20
20.4755314218
 30
0.0
 10
31.9606045206
 20
20.8554163361
 30
0.0
 10
33.8202778885
 20
21.3862119033
 30
0.0
 10
35.5439112488
 20
22.0587279402
 30
0.0
 10
36.6141645656
 20
22.6110337592
 30
0.0
 10
37.1157122573
 20
22.9096668104
 30
0.0
  0
SPLINE
  5
41D
100
AcDbEntity
  8
0
100
AcDbSpline
 62
7
  6
BYLAYER
 70
0
 71
3
 72
22
 73
18
 74
0
 42
0.0000001
 43
0.0000001
 44
0.0000000001
 40
0.0
 40
0.0
 40
0.0
 40
0.0
 40
0.0434036695
 40
0.0888076859
 40
0.1368273159
 40
0.1878828199
 40
0.2422060888
 40
0.2998612896
 40
0.3607729496
 40
0.4247485321
 40
0.491499852
 40
0.5606638092
 40
0.6318169913
 40
0.7044903599
 40
0.7781787139
 40
0.8523548603
 40
1.0
 40
1.0
 40
1.0
 40
1.0
 10
11.6474238578
 20
26.2021606497
 30
0.0
 10
11.7189419499
 20
25.9071477507
 30
0.0
 10
11.9203311902
 20
25.3157446212
 30
0.0
 10
12.3754791615
 20
24.4697656764
 30
0.0
 10
12.9826410897
 20
23.6578575261
 30
0.0
 10
13.7344426214
 20
22.8886851731
 30
0.0
 10
14.6224691201
 20
22.169850775
 30
0.0
 10
15.6371261389
 20
21.5086821348
 30
0.0
 10
16.7676765492
 20
20.9121265756
 30
0.0
 10
18.0021309592
 20
20.3865322649
 30
0.0
 10
19.3273843335
 20
19.9375529827
 30
0.0
 10
20.7293681582
 20
19.5701680941
 30
0.0
 10
22.193172035
 20
19.2884875326
 30
0.0
 10
23.7031338567
 20
19.0957276326
 30
0.0
 10
25.2432186113
 20
18.9941589008
 30
0.0
 10
27.3107214894
 20
18.9819112626
 30
0.0
 10
28.8616753338
 20
19.1119884642
 30
0.0
 10
29.8833907551
 20
19.2615590797
 30
0.0
  0
SPLINE
  5
41E
100
AcDbEntity
  8
0
100
AcDbSpline
 62
7
  6
BYLAYER
 70
0
 71
3
 72
9
 73
5
 74
0
 42
0.0000001
 43
0.0000001
 44
0.0000000001
 40
0.0
 40
0.0
 40
0.0
 40
0.0
 40
0.4973595102
 40
1.0
 40
1.0
 40
1.0
 40
1.0
 10
11.5090663903
 20
40.8214696196
 30
0.0
 10
11.5090656826
 20
40.6201534701
 30
0.0
 10
11.5348171323
 20
40.2149843409
 30
0.0
 10
11.6110297269
 20
39.8162830418
 30
0.0
 10
11.6611721834
 20
39.6191050645
 30
0.0
  0
SPLINE
  5
41F
100
AcDbEntity
  8
0
100
AcDbSpline
 62
7
  6
BYLAYER
 70
0
 71
3
 72
24
 73
20
 74
0
 42
0.0000001
 43
0.0000001
 44
0.0000000001
 40
0.0
 40
0.0
 40
0.0
 40
0.0
 40
0.0211380134
 40
0.0428641365
 40
0.0886041148
 40
0.1381631841
 40
0.1919781654
 40
0.2501061371
 40
0.3123010064
 40
0.3780830572
 40
0.4467971445
 40
0.5176631865
 40
0.5898145704
 40
0.6623396686
 40
0.7343154122
 40
0.8048486782
 40
0.8731031228
 40
0.9383533139
 40
1.0
 40
1.0
 40
1.0
 40
1.0
 10
11.6611721834
 20
39.6191050645
 30
0.0
 10
11.71082716
 20
39.423844032
 30
0.0
 10
11.8352938159
 20
39.0335563484
 30
0.0
 10
12.1809790863
 20
38.2614444622
 30
0.0
 10
12.798804545
 20
37.3230277271
 30
0.0
 10
13.786294332
 20
36.2921789483
 30
0.0
 10
15.0124237765
 20
35.3529322573
 30
0.0
 10
16.4538142951
 20
34.521863923
 30
0.0
 10
18.0838129792
 20
33.8137073474
 30
0.0
 10
19.8721566817
 20
33.2417444618
 30
0.0
 10
21.785481764
 20
32.8169909779
 30
0.0
 10
23.7878902525
 20
32.5478914875
 30
0.0
 10
25.8416880695
 20
32.4400022181
 30
0.0
 10
27.9081166719
 20
32.4958953122
 30
0.0
 10
29.9482176848
 20
32.714988349
 30
0.0
 10
31.9234847139
 20
33.093756679
 30
0.0
 10
33.7969621491
 20
33.6255439551
 30
0.0
 10
35.5331005928
 20
34.3009827147
 30
0.0
 10
36.6108939966
 20
34.8565181032
 30
0.0
 10
37.1157122573
 20
35.1572023208
 30
0.0
  0
SPLINE
  5
420
100
AcDbEntity
  8
0
100
AcDbSpline
 62
7
  6
BYLAYER
 70
0
 71
3
 72
9
 73
5
 74
0
 42
0.0000001
 43
0.0000001
 44
0.0000000001
 40
0.0
 40
0.0
 40
0.0
 40
0.0
 40
0.4973584694
 40
1.0
 40
1.0
 40
1.0
 40
1.0
 10
11.5090663872
 20
39.5967175257
 30
0.0
 10
11.5090671493
 20
39.3953228909
 30
0.0
 10
11.5348382176
 20
38.9899948559
 30
0.0
 10
11.6111079691
 20
38.5911415067
 30
0.0
 10
11.6612890033
 20
38.3938906232
 30
0.0
  0
SPLINE
  5
421
100
AcDbEntity
  8
0
100
AcDbSpline
 62
7
  6
BYLAYER
 70
0
 71
3
 72
25
 73
21
 74
0
 42
0.0000001
 43
0.0000001
 44
0.0000000001
 40
0.0
 40
0.0
 40
0.0
 40
0.0
 40
0.0211942304
 40
0.0430022725
 40
0.0655692488
 40
0.0890116564
 40
0.1388092679
 40
0.1928460638
 40
0.2511528275
 40
0.3134667504
 40
0.3793012644
 40
0.4480033489
 40
0.5187989361
 40
0.5908322
 40
0.6632021637
 40
0.734998797
 40
0.8053426172
 40
0.8734114894
 40
0.9384941771
 40
1.0
 40
1.0
 40
1.0
 40
1.0
 10
11.6916828381
 20
38.2799501486
 30
0.0
 10
11.7457733161
 20
38.0861690465
 30
0.0
 10
11.8787815893
 20
37.6991410029
 30
0.0
 10
12.1451573112
 20
37.1353608033
 30
0.0
 10
12.4795656219
 20
36.5839640572
 30
0.0
 10
13.0244698052
 20
35.854340126
 30
0.0
 10
13.8762432193
 20
34.9888761286
 30
0.0
 10
15.1118914663
 20
34.0634210852
 30
0.0
 10
16.5586464698
 20
33.2455043601
 30
0.0
 10
18.1897344857
 20
32.550061493
 30
0.0
 10
19.9753111981
 20
31.9898601672
 30
0.0
 10
21.8824263648
 20
31.5756146944
 30
0.0
 10
23.8757574867
 20
31.3154569431
 30
0.0
 10
25.9182307682
 20
31.2147277124
 30
0.0
 10
27.9717621103
 20
31.2758139167
 30
0.0
 10
29.9980836953
 20
31.4980631218
 30
0.0
 10
31.9594166901
 20
31.8778844196
 30
0.0
 10
33.8195228612
 20
32.4087509545
 30
0.0
 10
35.5435324015
 20
33.0813701045
 30
0.0
 10
36.6141631434
 20
33.6335670947
 30
0.0
 10
37.1157122573
 20
33.9324495331
 30
0.0
  0
SPLINE
  5
422
100
AcDbEntity
  8
0
100
AcDbSpline
 62
7
  6
BYLAYER
 70
0
 71
3
 72
9
 73
5
 74
0
 42
0.0000001
 43
0.0000001
 44
0.0000000001
 40
0.0
 40
0.0
 40
0.0
 40
0.0
 40
0.4973602147
 40
1.0
 40
1.0
 40
1.0
 40
1.0
 10
11.5090663793
 20
20.0006583541
 30
0.0
 10
11.5090665187
 20
19.7993505666
 30
0.0
 10
11.5348170101
 20
19.3941990315
 30
0.0
 10
11.6110222997
 20
18.9955142661
 30
0.0
 10
11.6611598574
 20
18.7983443544
 30
0.0
  0
SPLINE
  5
423
100
AcDbEntity
  8
0
100
AcDbSpline
 62
7
  6
BYLAYER
 70
0
 71
3
 72
24
 73
20
 74
0
 42
0.0000001
 43
0.0000001
 44
0.0000000001
 40
0.0
 40
0.0
 40
0.0
 40
0.0
 40
0.02113794
 40
0.0428637494
 40
0.0886026454
 40
0.1381611432
 40
0.1919761956
 40
0.2501044052
 40
0.3122995865
 40
0.3780816606
 40
0.4467951536
 40
0.5176616315
 40
0.5898144475
 40
0.6623400064
 40
0.7343160082
 40
0.8048492138
 40
0.8731029406
 40
0.9383535281
 40
1.0
 40
1.0
 40
1.0
 40
1.0
 10
11.6611598574
 20
18.7983443544
 30
0.0
 10
11.710812103
 20
18.6030829713
 30
0.0
 10
11.8352727105
 20
18.2127963592
 30
0.0
 10
12.1809465982
 20
17.4406931202
 30
0.0
 10
12.7987488051
 20
16.5022814595
 30
0.0
 10
13.7862217761
 20
15.471433405
 30
0.0
 10
15.0123420095
 20
14.5321743713
 30
0.0
 10
16.4537349873
 20
13.7010917922
 30
0.0
 10
18.0837383189
 20
12.9929239787
 30
0.0
 10
19.872080588
 20
12.4209533662
 30
0.0
 10
21.7854062546
 20
11.9961922449
 30
0.0
 10
23.7878296094
 20
11.7270834951
 30
0.0
 10
25.8416533472
 20
11.6191922275
 30
0.0
 10
27.9081063701
 20
11.6750813305
 30
0.0
 10
29.9482171691
 20
11.8941771177
 30
0.0
 10
31.9234830123
 20
12.2729468624
 30
0.0
 10
33.7969599871
 20
12.8047269849
 30
0.0
 10
35.53310726
 20
13.4801577096
 30
0.0
 10
36.6108582721
 20
14.0357683641
 30
0.0
 10
37.1157122573
 20
14.33639069
 30
0.0
  0
SPLINE
  5
424
100
AcDbEntity
  8
0
100
AcDbSpline
 62
7
  6
BYLAYER
 70
0
 71
3
 72
9
 73
5
 74
0
 42
0.0000001
 43
0.0000001
 44
0.0000000001
 40
0.0
 40
0.0
 40
0.0
 40
0.0
 40
0.497357474
 40
1.0
 40
1.0
 40
1.0
 40
1.0
 10
11.5090664359
 20
21.2254139917
 30
0.0
 10
11.5090679127
 20
21.0240661453
 30
0.0
 10
11.5348278499
 20
20.618831776
 30
0.0
 10
11.6110620717
 20
20.2200674159
 30
0.0
 10
11.6612201709
 20
20.0228586536
 30
0.0
  0
SPLINE
  5
425
100
AcDbEntity
  8
0
100
AcDbSpline
 62
7
  6
BYLAYER
 70
0
 71
3
 72
24
 73
20
 74
0
 42
0.0000001
 43
0.0000001
 44
0.0000000001
 40
0.0
 40
0.0
 40
0.0
 40
0.0
 40
0.0212021349
 40
0.0430204712
 40
0.0890011041
 40
0.1388259463
 40
0.1928879637
 40
0.2512152211
 40
0.3135444241
 40
0.3793883053
 40
0.4480933178
 40
0.5188854155
 40
0.5909101565
 40
0.6632685218
 40
0.7350513139
 40
0.805380794
 40
0.8734355664
 40
0.9385053167
 40
1.0
 40
1.0
 40
1.0
 40
1.0
 10
11.6948513318
 20
19.8973445396
 30
0.0
 10
11.7493785335
 20
19.7037049767
 30
0.0
 10
11.8832469634
 20
19.3169741473
 30
0.0
 10
12.2460961839
 20
18.5529111106
 30
0.0
 10
12.8819185152
 20
17.6262502834
 30
0.0
 10
13.8851004056
 20
16.6100647461
 30
0.0
 10
15.1218962524
 20
15.6856257432
 30
0.0
 10
16.5691020249
 20
14.869123016
 30
0.0
 10
18.2003053456
 20
14.174909199
 30
0.0
 10
19.9855992923
 20
13.6158797079
 30
0.0
 10
21.8920960626
 20
13.2026747694
 30
0.0
 10
23.8845106622
 20
12.9434065802
 30
0.0
 10
25.9258410281
 20
12.8433817672
 30
0.0
 10
27.9780771188
 20
12.904986869
 30
0.0
 10
30.0030324556
 20
13.1275295627
 30
0.0
 10
31.9629842227
 20
13.507486624
 30
0.0
 10
33.8217763031
 20
14.0382186293
 30
0.0
 10
35.5446072843
 20
14.7105476057
 30
0.0
 10
36.6143785393
 20
15.2626371823
 30
0.0
 10
37.1157122573
 20
15.5611451119
 30
0.0
  0
SPLINE
  5
426
100
AcDbEntity
  8
0
100
AcDbSpline
 62
7
  6
BYLAYER
 70
0
 71
3
 72
9
 73
5
 74
0
 42
0.0000001
 43
0.0000001
 44
0.0000000001
 40
0.0
 40
0.0
 40
0.0
 40
0.0
 40
0.4973591528
 40
1.0
 40
1.0
 40
1.0
 40
1.0
 10
11.5090663732
 20
22.4501701368
 30
0.0
 10
11.509066905
 20
22.2487769106
 30
0.0
 10
11.534837134
 20
21.8434522352
 30
0.0
 10
11.6111055018
 20
21.4446020914
 30
0.0
 10
11.6612856133
 20
21.2473530161
 30
0.0
  0
SPLINE
  5
427
100
AcDbEntity
  8
0
100
AcDbSpline
 62
7
  6
BYLAYER
 70
0
 71
3
 72
25
 73
21
 74
0
 42
0.0000001
 43
0.0000001
 44
0.0000000001
 40
0.0
 40
0.0
 40
0.0
 40
0.0
 40
0.0211946218
 40
0.0430031356
 40
0.0655705811
 40
0.089013508
 40
0.1388126192
 40
0.1928503732
 40
0.2511566685
 40
0.3134699355
 40
0.3793048113
 40
0.448007485
 40
0.5188040915
 40
0.5908368004
 40
0.6632051318
 40
0.7350004911
 40
0.8053442335
 40
0.8734132845
 40
0.938495306
 40
1.0
 40
1.0
 40
1.0
 40
1.0
 10
11.6918498523
 20
21.132801253
 30
0.0
 10
11.7459636766
 20
20.9390273543
 30
0.0
 10
11.879017181
 20
20.5520157611
 30
0.0
 10
12.145452426
 20
19.9882649741
 30
0.0
 10
12.4799122589
 20
19.4368999147
 30
0.0
 10
13.0248812539
 20
18.7073197977
 30
0.0
 10
13.8767190064
 20
17.8419181243
 30
0.0
 10
15.1124050378
 20
16.9165398943
 30
0.0
 10
16.5591607593
 20
16.0987023068
 30
0.0
 10
18.1902299532
 20
15.4033336137
 30
0.0
 10
19.9757833306
 20
14.8431858934
 30
0.0
 10
21.8828839883
 20
14.4289855223
 30
0.0
 10
23.8761864913
 20
14.1688702477
 30
0.0
 10
25.9186056567
 20
14.0681746243
 30
0.0
 10
27.9720584177
 20
14.129285934
 30
0.0
 10
29.9983057898
 20
14.3515449615
 30
0.0
 10
31.95958066
 20
14.7313796978
 30
0.0
 10
33.8196390208
 20
15.2622355139
 30
0.0
 10
35.5435983185
 20
15.9348420603
 30
0.0
 10
36.6141617119
 20
16.4870653566
 30
0.0
 10
37.1157122573
 20
16.7858996567
 30
0.0
  0
SPLINE
  5
428
100
AcDbEntity
  8
0
100
AcDbSpline
 62
7
  6
BYLAYER
 70
0
 71
3
 72
9
 73
5
 74
0
 42
0.0000001
 43
0.0000001
 44
0.0000000001
 40
0.0
 40
0.0
 40
0.0
 40
0.0
 40
0.4973607461
 40
1.0
 40
1.0
 40
1.0
 40
1.0
 10
11.5090663783
 20
38.3719660923
 30
0.0
 10
11.5090665679
 20
38.170637968
 30
0.0
 10
11.5348217645
 20
37.7654458582
 30
0.0
 10
11.61104168
 20
37.3667223372
 30
0.0
 10
11.6611889015
 20
37.1695341225
 30
0.0
  0
SPLINE
  5
429
100
AcDbEntity
  8
0
100
AcDbSpline
 62
7
  6
BYLAYER
 70
0
 71
3
 72
24
 73
20
 74
0
 42
0.0000001
 43
0.0000001
 44
0.0000000001
 40
0.0
 40
0.0
 40
0.0
 40
0.0
 40
0.0211378413
 40
0.0428635847
 40
0.0886028126
 40
0.1381615906
 40
0.1919773754
 40
0.2501067954
 40
0.3123021798
 40
0.3780837081
 40
0.4467980683
 40
0.5176636553
 40
0.5898150343
 40
0.6623403046
 40
0.7343157969
 40
0.8048483545
 40
0.8731025984
 40
0.9383527814
 40
1.0
 40
1.0
 40
1.0
 40
1.0
 10
11.6611889015
 20
37.1695341225
 30
0.0
 10
11.7108453749
 20
36.9742756206
 30
0.0
 10
11.8353131858
 20
36.5839947982
 30
0.0
 10
12.1809999765
 20
35.8118992404
 30
0.0
 10
12.7988215541
 20
34.8734998578
 30
0.0
 10
13.7863091545
 20
33.8426565038
 30
0.0
 10
15.0124549125
 20
32.9034056417
 30
0.0
 10
16.4538676184
 20
32.0723303378
 30
0.0
 10
18.0838776791
 20
31.364175075
 30
0.0
 10
19.8722221024
 20
30.7922197154
 30
0.0
 10
21.7855377669
 20
30.3674752615
 30
0.0
 10
23.7879403398
 20
30.0983783572
 30
0.0
 10
25.8417311149
 20
29.9904959299
 30
0.0
 10
27.9081546332
 20
30.0463878285
 30
0.0
 10
29.9482420092
 20
30.2654929043
 30
0.0
 10
31.9234969294
 20
30.6442365463
 30
0.0
 10
33.7969586913
 20
31.1760533266
 30
0.0
 10
35.5330720885
 20
31.8515031544
 30
0.0
 10
36.6109841038
 20
32.4068539055
 30
0.0
 10
37.1157122573
 20
32.7076967382
 30
0.0
  0
SPLINE
  5
42A
100
AcDbEntity
  8
0
100
AcDbSpline
 62
7
  6
BYLAYER
 70
0
 71
3
 72
9
 73
5
 74
0
 42
0.0000001
 43
0.0000001
 44
0.0000000001
 40
0.0
 40
0.0
 40
0.0
 40
0.0
 40
0.4973570433
 40
1.0
 40
1.0
 40
1.0
 40
1.0
 10
11.5090664747
 20
24.8996748457
 30
0.0
 10
11.5090683643
 20
24.6983122498
 30
0.0
 10
11.5348319489
 20
24.2930478447
 30
0.0
 10
11.6110768388
 20
23.8942546849
 30
0.0
 10
11.6612423043
 20
23.6970320536
 30
0.0
  0
SPLINE
  5
42B
100
AcDbEntity
  8
0
100
AcDbSpline
 62
7
  6
BYLAYER
 70
0
 71
3
 72
24
 73
20
 74
0
 42
0.0000001
 43
0.0000001
 44
0.0000000001
 40
0.0
 40
0.0
 40
0.0
 40
0.0
 40
0.0212002162
 40
0.0430158309
 40
0.0889894411
 40
0.1388066535
 40
0.1928617955
 40
0.2511836622
 40
0.3135092206
 40
0.379351323
 40
0.4480564969
 40
0.5188506662
 40
0.5908790998
 40
0.6632422332
 40
0.7350305262
 40
0.805365657
 40
0.8734259007
 40
0.9385009675
 40
1.0
 40
1.0
 40
1.0
 40
1.0
 10
11.6938476754
 20
23.5751745867
 30
0.0
 10
11.7482376389
 20
23.381488217
 30
0.0
 10
11.8818411365
 20
22.9946551544
 30
0.0
 10
12.2442063807
 20
22.2303618679
 30
0.0
 10
12.879522584
 20
21.3033667338
 30
0.0
 10
13.8822641376
 20
20.2867636274
 30
0.0
 10
15.1187650971
 20
19.3619022844
 30
0.0
 10
16.5658146464
 20
18.5449837926
 30
0.0
 10
18.1969907536
 20
17.8503737929
 30
0.0
 10
19.982374446
 20
17.2909789414
 30
0.0
 10
21.8890655415
 20
16.8774478302
 30
0.0
 10
23.8817649117
 20
16.6179015016
 30
0.0
 10
25.9234511406
 20
16.517655171
 30
0.0
 10
27.9760922206
 20
16.5790987279
 30
0.0
 10
30.0014770552
 20
16.8015451127
 30
0.0
 10
31.9618610356
 20
17.1814680195
 30
0.0
 10
33.8210688282
 20
17.7122299707
 30
0.0
 10
35.544278512
 20
18.3846472574
 30
0.0
 10
36.614277482
 20
18.9368390308
 30
0.0
 10
37.1157122573
 20
19.2354059638
 30
0.0
  0
SPLINE
  5
42C
100
AcDbEntity
  8
0
100
AcDbSpline
 62
7
  6
BYLAYER
 70
0
 71
3
 72
9
 73
5
 74
0
 42
0.0000001
 43
0.0000001
 44
0.0000000001
 40
0.0
 40
0.0
 40
0.0
 40
0.0
 40
0.4973591602
 40
1.0
 40
1.0
 40
1.0
 40
1.0
 10
11.5090663649
 20
26.1244309659
 30
0.0
 10
11.5090665798
 20
25.9230512109
 30
0.0
 10
11.5348333833
 20
25.5177536605
 30
0.0
 10
11.6110920199
 20
25.1189294837
 30
0.0
 10
11.6612655754
 20
24.9216927948
 30
0.0
  0
SPLINE
  5
42D
100
AcDbEntity
  8
0
100
AcDbSpline
 62
7
  6
BYLAYER
 70
0
 71
3
 72
15
 73
11
 74
0
 42
0.0000001
 43
0.0000001
 44
0.0000000001
 40
0.0
 40
0.0
 40
0.0
 40
0.0
 40
0.1066739902
 40
0.2172084996
 40
0.3325830617
 40
0.4535304986
 40
0.5805589937
 40
0.7139483687
 40
0.8537917358
 40
1.0
 40
1.0
 40
1.0
 40
1.0
 10
11.6927582738
 20
24.8038132487
 30
0.0
 10
11.7576621759
 20
24.5719886382
 30
0.0
 10
11.9232729493
 20
24.1087480149
 30
0.0
 10
12.2665035771
 20
23.4391761349
 30
0.0
 10
12.7056923856
 20
22.7890943557
 30
0.0
 10
13.2373269171
 20
22.1628351247
 30
0.0
 10
13.8578270792
 20
21.5645640051
 30
0.0
 10
14.5628377656
 20
20.9980532643
 30
0.0
 10
15.3476680616
 20
20.467181233
 30
0.0
 10
15.9085098976
 20
20.1461910895
 30
0.0
 10
16.200257914
 20
19.9920619995
 30
0.0
  0
SPLINE
  5
42E
100
AcDbEntity
  8
0
100
AcDbSpline
 62
7
  6
BYLAYER
 70
0
 71
3
 72
23
 73
19
 74
0
 42
0.0000001
 43
0.0000001
 44
0.0000000001
 40
0.0
 40
0.0
 40
0.0
 40
0.0
 40
0.0560278587
 40
0.1145114594
 40
0.1752015546
 40
0.2377999544
 40
0.3019674779
 40
0.3673350724
 40
0.4335093587
 40
0.5000841057
 40
0.5666473831
 40
0.6327877118
 40
0.6981057148
 40
0.7622188171
 40
0.8247641942
 40
0.8854194891
 40
0.9439211537
 40
1.0
 40
1.0
 40
1.0
 40
1.0
 10
16.200257914
 20
19.9920619995
 30
0.0
 10
16.5587467642
 20
19.8026740444
 30
0.0
 10
17.3077157058
 20
19.445806764
 30
0.0
 10
18.4903864081
 20
18.986233464
 30
0.0
 10
19.7470605588
 20
18.5943674398
 30
0.0
 10
21.0661262824
 20
18.2741361246
 30
0.0
 10
22.4354516783
 20
18.0285417755
 30
0.0
 10
23.8424105406
 20
17.8600547928
 30
0.0
 10
25.274014615
 20
17.7704485898
 30
0.0
 10
26.7170292587
 20
17.7606314714
 30
0.0
 10
28.1581201161
 20
17.8309753184
 30
0.0
 10
29.5839852157
 20
17.9809259206
 30
0.0
 10
30.9814826772
 20
18.2092826103
 30
0.0
 10
32.3376920703
 20
18.5142117102
 30
0.0
 10
33.6401370584
 20
18.8929151339
 30
0.0
 10
34.876936865
 20
19.342271262
 30
0.0
 10
36.0364086946
 20
19.8583198204
 30
0.0
 10
36.7670914221
 20
20.2524470002
 30
0.0
 10
37.1157122573
 20
20.4601604829
 30
0.0
  0
SPLINE
  5
42F
100
AcDbEntity
  8
0
100
AcDbSpline
 62
7
  6
BYLAYER
 70
0
 71
3
 72
9
 73
5
 74
0
 42
0.0000001
 43
0.0000001
 44
0.0000000001
 40
0.0
 40
0.0
 40
0.0
 40
0.0
 40
0.4973591319
 40
1.0
 40
1.0
 40
1.0
 40
1.0
 10
11.5090664025
 20
23.6749191669
 30
0.0
 10
11.5090674736
 20
23.4735781921
 30
0.0
 10
11.5348261577
 20
23.0683589799
 30
0.0
 10
11.6110555281
 20
22.6696093328
 30
0.0
 10
11.6612096902
 20
22.4724081272
 30
0.0
  0
SPLINE
  5
430
100
AcDbEntity
  8
0
100
AcDbSpline
 62
7
  6
BYLAYER
 70
0
 71
3
 72
24
 73
20
 74
0
 42
0.0000001
 43
0.0000001
 44
0.0000000001
 40
0.0
 40
0.0
 40
0.0
 40
0.0
 40
0.0211380591
 40
0.0428640409
 40
0.088603536
 40
0.1381625355
 40
0.1919787348
 40
0.2501089008
 40
0.312304996
 40
0.3780866404
 40
0.4468011777
 40
0.5176665087
 40
0.5898173698
 40
0.6623423945
 40
0.7343176742
 40
0.8048496709
 40
0.8731029497
 40
0.938353483
 40
1.0
 40
1.0
 40
1.0
 40
1.0
 10
11.6612096902
 20
22.4724081272
 30
0.0
 10
11.710869905
 20
22.2771490731
 30
0.0
 10
11.8353461893
 20
21.8868677082
 30
0.0
 10
12.1810466472
 20
21.1147736604
 30
0.0
 10
12.7988827686
 20
20.176379752
 30
0.0
 10
13.7863858728
 20
19.1455456265
 30
0.0
 10
15.0125466751
 20
18.2063006986
 30
0.0
 10
16.4539777943
 20
17.3752318416
 30
0.0
 10
18.0840014984
 20
16.6670840718
 30
0.0
 10
19.8723538982
 20
16.0951412314
 30
0.0
 10
21.7856664918
 20
15.6704092237
 30
0.0
 10
23.7880586826
 20
15.4013254775
 30
0.0
 10
25.8418339064
 20
15.2934501039
 30
0.0
 10
27.9082410538
 20
15.3493546077
 30
0.0
 10
29.948313516
 20
15.5684505612
 30
0.0
 10
31.923540869
 20
15.9472244263
 30
0.0
 10
33.7969886049
 20
16.4789968825
 30
0.0
 10
35.5331178668
 20
17.1544251868
 30
0.0
 10
36.6108621387
 20
17.7100300456
 30
0.0
 10
37.1157122573
 20
18.0106515664
 30
0.0
  0
SPLINE
  5
431
100
AcDbEntity
  8
0
100
AcDbSpline
 62
7
  6
BYLAYER
 70
0
 71
3
 72
25
 73
21
 74
0
 42
0.0000001
 43
0.0000001
 44
0.0000000001
 40
0.0
 40
0.0
 40
0.0
 40
0.0
 40
0.0211101523
 40
0.0427943952
 40
0.0652086176
 40
0.0884796526
 40
0.1379144512
 40
0.1916128215
 40
0.2496455443
 40
0.3117743089
 40
0.3775228385
 40
0.4462359919
 40
0.5171305437
 40
0.5893352166
 40
0.6619325572
 40
0.7339926282
 40
0.8046154332
 40
0.8729572497
 40
0.938287205
 40
1.0
 40
1.0
 40
1.0
 40
1.0
 10
11.6467943445
 20
36.0027898192
 30
0.0
 10
11.694197512
 20
35.8068007417
 30
0.0
 10
11.8142654354
 20
35.4149262477
 30
0.0
 10
12.0633253002
 20
34.8427380301
 30
0.0
 10
12.3821585043
 20
34.2824191704
 30
0.0
 10
12.9082185106
 20
33.5400943046
 30
0.0
 10
13.7415968857
 20
32.6574872123
 30
0.0
 10
14.9624953533
 20
31.7117637029
 30
0.0
 10
16.4011649778
 20
30.8738764675
 30
0.0
 10
18.0304975614
 20
30.1593156765
 30
0.0
 10
19.8201658589
 20
29.5813688473
 30
0.0
 10
21.7365561349
 20
29.1512766066
 30
0.0
 10
23.7435054481
 20
28.8776215688
 30
0.0
 10
25.8030007263
 20
28.7660884071
 30
0.0
 10
27.875939103
 20
28.8193285911
 30
0.0
 10
29.9230005509
 20
29.0368142653
 30
0.0
 10
31.905306819
 20
29.4150176004
 30
0.0
 10
33.7855448685
 20
29.9472765825
 30
0.0
 10
35.52780033
 20
30.6241464604
 30
0.0
 10
36.6093088057
 20
31.181233295
 30
0.0
 10
37.1157122573
 20
31.4829439469
 30
0.0
  0
SPLINE
  5
432
100
AcDbEntity
  8
0
100
AcDbSpline
 62
7
  6
BYLAYER
 70
0
 71
3
 72
9
 73
5
 74
0
 42
0.0000001
 43
0.0000001
 44
0.0000000001
 40
0.0
 40
0.0
 40
0.0
 40
0.0
 40
0.497359222
 40
1.0
 40
1.0
 40
1.0
 40
1.0
 10
11.5090663761
 20
18.7759047679
 30
0.0
 10
11.5090671729
 20
18.5745093162
 30
0.0
 10
11.5348383312
 20
18.1691802441
 30
0.0
 10
11.6111086331
 20
17.7703259309
 30
0.0
 10
11.6612899867
 20
17.5730749091
 30
0.0
  0
SPLINE
  5
433
100
AcDbEntity
  8
0
100
AcDbSpline
 62
7
  6
BYLAYER
 70
0
 71
3
 72
25
 73
21
 74
0
 42
0.0000001
 43
0.0000001
 44
0.0000000001
 40
0.0
 40
0.0
 40
0.0
 40
0.0
 40
0.021194213
 40
0.043002153
 40
0.0655689141
 40
0.089011086
 40
0.1388086153
 40
0.192844946
 40
0.2511501223
 40
0.3134626171
 40
0.3792971155
 40
0.4479998426
 40
0.5187969093
 40
0.590830442
 40
0.6631997598
 40
0.7349962393
 40
0.8053411924
 40
0.8734113595
 40
0.9384945494
 40
1.0
 40
1.0
 40
1.0
 40
1.0
 10
11.6916454064
 20
17.459272689
 30
0.0
 10
11.7457309778
 20
17.2654893776
 30
0.0
 10
11.8787298313
 20
16.8784571587
 30
0.0
 10
12.1450921209
 20
16.3146707911
 30
0.0
 10
12.4794863783
 20
15.7632679772
 30
0.0
 10
13.0243758839
 20
15.033633737
 30
0.0
 10
13.8761364084
 20
14.1681588565
 30
0.0
 10
15.1117613082
 20
13.2426942029
 30
0.0
 10
16.5584842373
 20
12.4247712366
 30
0.0
 10
18.1895471536
 20
11.7293211669
 30
0.0
 10
19.9751185515
 20
11.1690981084
 30
0.0
 10
21.8822593356
 20
10.7548304773
 30
0.0
 10
23.8756212765
 20
10.4946576469
 30
0.0
 10
25.9181144514
 20
10.393916305
 30
0.0
 10
27.9716507802
 20
10.4549950973
 30
0.0
 10
29.9979870027
 20
10.6772322051
 30
0.0
 10
31.9593500588
 20
11.0570649791
 30
0.0
 10
33.8194955931
 20
11.5879199248
 30
0.0
 10
35.5435366124
 20
12.2605429677
 30
0.0
 10
36.6141221119
 20
12.812825077
 30
0.0
 10
37.1157122573
 20
13.1116372698
 30
0.0
  0
SPLINE
  5
434
100
AcDbEntity
  8
0
100
AcDbSpline
 62
7
  6
BYLAYER
 70
0
 71
3
 72
9
 73
5
 74
0
 42
0.0000001
 43
0.0000001
 44
0.0000000001
 40
0.0
 40
0.0
 40
0.0
 40
0.0
 40
0.4973579744
 40
1.0
 40
1.0
 40
1.0
 40
1.0
 10
11.5090664045
 20
17.5511535855
 30
0.0
 10
11.5090674015
 20
17.3498177466
 30
0.0
 10
11.5348242126
 20
16.944607927
 30
0.0
 10
11.6110498037
 20
16.5458671437
 30
0.0
 10
11.6612019029
 20
16.3486697971
 30
0.0
  0
SPLINE
  5
435
100
AcDbEntity
  8
0
100
AcDbSpline
 62
7
  6
BYLAYER
 70
0
 71
3
 72
25
 73
21
 74
0
 42
0.0000001
 43
0.0000001
 44
0.0000000001
 40
0.0
 40
0.0
 40
0.0
 40
0.0
 40
0.0211371964
 40
0.0428624011
 40
0.0653270736
 40
0.0886553881
 40
0.1382120172
 40
0.1920245958
 40
0.250150425
 40
0.3123429743
 40
0.3781215489
 40
0.4468315559
 40
0.5176924839
 40
0.5898395168
 40
0.6623608035
 40
0.7343324392
 40
0.8048611571
 40
0.8731112927
 40
0.9383568874
 40
1.0
 40
1.0
 40
1.0
 40
1.0
 10
11.6612019029
 20
16.3486697971
 30
0.0
 10
11.7108618676
 20
16.1534075159
 30
0.0
 10
11.8353233715
 20
15.7631347472
 30
0.0
 10
12.0902958654
 20
15.19376644
 30
0.0
 10
12.4143915498
 20
14.6364110039
 30
0.0
 10
12.9469078309
 20
13.89836726
 30
0.0
 10
13.786548119
 20
13.0215087579
 30
0.0
 10
15.0125040162
 20
12.0826068995
 30
0.0
 10
16.4539798515
 20
11.2514465467
 30
0.0
 10
18.083980918
 20
10.5433294601
 30
0.0
 10
19.8723364584
 20
9.9713754656
 30
0.0
 10
21.7856428225
 20
9.5466466503
 30
0.0
 10
23.788026419
 20
9.277559306
 30
0.0
 10
25.8418024023
 20
9.1696835193
 30
0.0
 10
27.908218902
 20
9.2255815467
 30
0.0
 10
29.9483032913
 20
9.4446888572
 30
0.0
 10
31.9235505009
 20
9.8234409168
 30
0.0
 10
33.7969960874
 20
10.3552502576
 30
0.0
 10
35.5330896086
 20
11.0306957003
 30
0.0
 10
36.6109660486
 20
11.5860639655
 30
0.0
 10
37.1157122573
 20
11.8868608426
 30
0.0
  0
SPLINE
  5
436
100
AcDbEntity
  8
0
100
AcDbSpline
 62
7
  6
BYLAYER
 70
0
 71
3
 72
9
 73
5
 74
0
 42
0.0000001
 43
0.0000001
 44
0.0000000001
 40
0.0
 40
0.0
 40
0.0
 40
0.0
 40
0.4973596004
 40
1.0
 40
1.0
 40
1.0
 40
1.0
 10
11.509066381
 20
16.3264010139
 30
0.0
 10
11.5090666355
 20
16.1250841826
 30
0.0
 10
11.5348189788
 20
15.7199139257
 30
0.0
 10
11.6110305916
 20
15.3212111545
 30
0.0
 10
11.6611726784
 20
15.124032448
 30
0.0
  0
SPLINE
  5
437
100
AcDbEntity
  8
0
100
AcDbSpline
 62
7
  6
BYLAYER
 70
0
 71
3
 72
27
 73
23
 74
0
 42
0.0000001
 43
0.0000001
 44
0.0000000001
 40
0.0
 40
0.0
 40
0.0
 40
0.0
 40
0.0209345869
 40
0.0421060757
 40
0.0637392582
 40
0.0860346832
 40
0.1091630182
 40
0.1332596233
 40
0.1584253563
 40
0.1847270722
 40
0.2408164235
 40
0.3015429169
 40
0.3665270044
 40
0.4351279804
 40
0.506516776
 40
0.5797350185
 40
0.6537463469
 40
0.7274833048
 40
0.7998968341
 40
0.8700041861
 40
0.9369395725
 40
1.0
 40
1.0
 40
1.0
 40
1.0
 10
11.5090664304
 20
15.1016457811
 30
0.0
 10
11.5090648127
 20
14.8936245824
 30
0.0
 10
11.5365964963
 20
14.4747295264
 30
0.0
 10
11.6596766349
 20
13.851774982
 30
0.0
 10
11.8639730235
 20
13.23627794
 30
0.0
 10
12.1478787483
 20
12.6318482632
 30
0.0
 10
12.5097516222
 20
12.0418664361
 30
0.0
 10
12.9472914501
 20
11.4694629281
 30
0.0
 10
13.4580811698
 20
10.9177027565
 30
0.0
 10
14.2498374086
 20
10.1981535782
 30
0.0
 10
15.4142862372
 20
9.3719885914
 30
0.0
 10
17.0169768156
 20
8.5291648808
 30
0.0
 10
18.8212461141
 20
7.8309942291
 30
0.0
 10
20.7888712208
 20
7.2925917169
 30
0.0
 10
22.8783811129
 20
6.9257500187
 30
0.0
 10
25.0453707461
 20
6.7388590219
 30
0.0
 10
27.2436698652
 20
6.7365333258
 30
0.0
 10
29.4263784078
 20
6.9194305455
 30
0.0
 10
31.5469157467
 20
7.2843057011
 30
0.0
 10
33.5603410578
 20
7.8240688308
 30
0.0
 10
35.4235301008
 20
8.5278966845
 30
0.0
 10
36.5774249642
 20
9.1165858497
 30
0.0
 10
37.1157122573
 20
9.4373535574
 30
0.0
  0
SPLINE
  5
438
100
AcDbEntity
  8
0
100
AcDbSpline
 62
7
  6
BYLAYER
 70
0
 71
3
 72
15
 73
11
 74
0
 42
0.0000001
 43
0.0000001
 44
0.0000000001
 40
0.0
 40
0.0
 40
0.0
 40
0.0
 40
0.1099357295
 40
0.2216128139
 40
0.3366492949
 40
0.4564436158
 40
0.5820442257
 40
0.7142430088
 40
0.8535661387
 40
1.0
 40
1.0
 40
1.0
 40
1.0
 10
41.5090276963
 20
14.4994130885
 30
0.0
 10
41.5090035973
 20
14.2387706023
 30
0.0
 10
41.4676459913
 20
13.7124584516
 30
0.0
 10
41.2824762251
 20
12.9330984034
 30
0.0
 10
40.9763354618
 20
12.1677175307
 30
0.0
 10
40.5524020875
 20
11.4229542451
 30
0.0
 10
40.0147650438
 20
10.7045176143
 30
0.0
 10
39.3679217145
 20
10.0178789749
 30
0.0
 10
38.6178252882
 20
9.3681252292
 30
0.0
 10
38.066427559
 20
8.9727246184
 30
0.0
 10
37.7761782828
 20
8.7822370443
 30
0.0
  0
SPLINE
  5
439
100
AcDbEntity
  8
0
100
AcDbSpline
 62
7
  6
BYLAYER
 70
0
 71
3
 72
9
 73
5
 74
0
 42
0.0000001
 43
0.0000001
 44
0.0000000001
 40
0.0
 40
0.0
 40
0.0
 40
0.0
 40
0.4973589334
 40
1.0
 40
1.0
 40
1.0
 40
1.0
 10
11.5090663802
 20
35.9224565563
 30
0.0
 10
11.5090668714
 20
35.7210827635
 30
0.0
 10
11.5348329842
 20
35.3157971046
 30
0.0
 10
11.6110873612
 20
34.9169842765
 30
0.0
 10
11.6612579225
 20
34.7197528529
 30
0.0
  0
SPLINE
  5
43A
100
AcDbEntity
  8
0
100
AcDbSpline
 62
7
  6
BYLAYER
 70
0
 71
3
 72
9
 73
5
 74
0
 42
0.0000001
 43
0.0000001
 44
0.0000000001
 40
0.0
 40
0.0
 40
0.0
 40
0.0
 40
0.2631551016
 40
1.0
 40
1.0
 40
1.0
 40
1.0
 10
32.307335508
 20
56.9820941463
 30
0.0
 10
32.3224785298
 20
56.9908369216
 30
0.0
 10
32.3790506881
 20
57.0256689884
 30
0.0
 10
32.4317189826
 20
57.0671867115
 30
0.0
 10
32.4663519336
 20
57.1017943124
 30
0.0
  0
SPLINE
  5
43B
100
AcDbEntity
  8
0
100
AcDbSpline
 62
7
  6
BYLAYER
 70
0
 71
3
 72
11
 73
7
 74
0
 42
0.0000001
 43
0.0000001
 44
0.0000000001
 40
0.0
 40
0.0
 40
0.0
 40
0.0
 40
0.2732668595
 40
0.5274969018
 40
0.7675420221
 40
1.0
 40
1.0
 40
1.0
 40
1.0
 10
32.4663519336
 20
57.1017943124
 30
0.0
 10
32.4873602921
 20
57.1227872936
 30
0.0
 10
32.5250543635
 20
57.1663739856
 30
0.0
 10
32.5679899236
 20
57.2384557618
 30
0.0
 10
32.5942915845
 20
57.313536683
 30
0.0
 10
32.6001883527
 20
57.3650706954
 30
0.0
 10
32.6001895562
 20
57.390334902
 30
0.0
  0
SPLINE
  5
43C
100
AcDbEntity
  8
0
100
AcDbSpline
 62
7
  6
BYLAYER
 70
0
 71
3
 72
9
 73
5
 74
0
 42
0.0000001
 43
0.0000001
 44
0.0000000001
 40
0.0
 40
0.0
 40
0.0
 40
0.0
 40
0.503150341
 40
1.0
 40
1.0
 40
1.0
 40
1.0
 10
11.6941688453
 20
31.0734035978
 30
0.0
 10
11.6399934842
 20
31.2661545684
 30
0.0
 10
11.5546625609
 20
31.6559269387
 30
0.0
 10
11.5175052723
 20
32.0532677455
 30
0.0
 10
11.5113672818
 20
32.2508848476
 30
0.0
  0
SPLINE
  5
43D
100
AcDbEntity
  8
0
100
AcDbSpline
 62
7
  6
BYLAYER
 70
0
 71
3
 72
24
 73
20
 74
0
 42
0.0000001
 43
0.0000001
 44
0.0000000001
 40
0.0
 40
0.0
 40
0.0
 40
0.0
 40
0.0634302952
 40
0.1306098871
 40
0.2008252061
 40
0.2732550278
 40
0.3469392854
 40
0.42086563
 40
0.4940014697
 40
0.5653355777
 40
0.633928555
 40
0.6989617276
 40
0.7597913055
 40
0.8160124702
 40
0.8675420704
 40
0.9147172062
 40
0.9583826003
 40
0.9793520371
 40
1.0
 40
1.0
 40
1.0
 40
1.0
 10
29.2363335817
 20
56.2559198679
 30
0.0
 10
29.0230675751
 20
56.1279033211
 30
0.0
 10
28.5663983747
 20
55.8928972111
 30
0.0
 10
27.8302244356
 20
55.6096867185
 30
0.0
 10
27.0359998189
 20
55.3899849662
 30
0.0
 10
26.2002192949
 20
55.2384647531
 30
0.0
 10
25.340116877
 20
55.1575721977
 30
0.0
 10
24.4735179335
 20
55.1486369706
 30
0.0
 10
23.6183690718
 20
55.211412515
 30
0.0
 10
22.7923765274
 20
55.3442291596
 30
0.0
 10
22.0126051902
 20
55.5439762286
 30
0.0
 10
21.2950576873
 20
55.8061576762
 30
0.0
 10
20.6543560641
 20
56.1251643982
 30
0.0
 10
20.103499825
 20
56.4944723216
 30
0.0
 10
19.6537628156
 20
56.9070765945
 30
0.0
 10
19.3149240041
 20
57.355176795
 30
0.0
 10
19.1298935865
 20
57.7575496726
 30
0.0
 10
19.0492385727
 20
58.0828903788
 30
0.0
 10
19.030420429
 20
58.2455579161
 30
0.0
 10
19.0264153909
 20
58.3264285418
 30
0.0
  0
SPLINE
  5
43E
100
AcDbEntity
  8
0
100
AcDbSpline
 62
7
  6
BYLAYER
 70
0
 71
3
 72
10
 73
6
 74
0
 42
0.0000001
 43
0.0000001
 44
0.0000000001
 40
0.0
 40
0.0
 40
0.0
 40
0.0
 40
0.2378708361
 40
0.4838396935
 40
1.0
 40
1.0
 40
1.0
 40
1.0
 10
38.546690351
 20
41.4812267068
 30
0.0
 10
38.3994520298
 20
41.3272538197
 30
0.0
 10
38.0882518679
 20
41.0250708947
 30
0.0
 10
37.4055972641
 20
40.4446635932
 30
0.0
 10
36.8448409079
 20
40.051826578
 30
0.0
 10
36.4526164624
 20
39.8071519174
 30
0.0
  0
SPLINE
  5
43F
100
AcDbEntity
  8
0
100
AcDbSpline
 62
7
  6
BYLAYER
 70
0
 71
3
 72
15
 73
11
 74
0
 42
0.0000001
 43
0.0000001
 44
0.0000000001
 40
0.0
 40
0.0
 40
0.0
 40
0.0
 40
0.1339400672
 40
0.2691958842
 40
0.4036176606
 40
0.535274426
 40
0.6622457721
 40
0.7828522649
 40
0.8957391407
 40
1.0
 40
1.0
 40
1.0
 40
1.0
 10
26.577164725
 20
56.1258988178
 30
0.0
 10
26.2840864482
 20
56.074187726
 30
0.0
 10
25.6899744697
 20
55.9973339562
 30
0.0
 10
24.7929374737
 20
55.9592418996
 30
0.0
 10
23.9009084106
 20
55.9981719235
 30
0.0
 10
23.0339912905
 20
56.1131619021
 30
0.0
 10
22.2112438917
 20
56.3010021835
 30
0.0
 10
21.4507908051
 20
56.5572508923
 30
0.0
 10
20.7694642617
 20
56.8757862219
 30
0.0
 10
20.3608114445
 20
57.1359273827
 30
0.0
 10
20.1759339101
 20
57.2755223329
 30
0.0
  0
SPLINE
  5
440
100
AcDbEntity
  8
0
100
AcDbSpline
 62
7
  6
BYLAYER
 70
0
 71
3
 72
13
 73
9
 74
0
 42
0.0000001
 43
0.0000001
 44
0.0000000001
 40
0.0
 40
0.0
 40
0.0
 40
0.0
 40
0.2794590525
 40
0.5356143874
 40
0.6564640114
 40
0.7734454017
 40
0.887575487
 40
1.0
 40
1.0
 40
1.0
 40
1.0
 10
20.0729528447
 20
57.3558086916
 30
0.0
 10
19.9181364644
 20
57.4804689771
 30
0.0
 10
19.6379701704
 20
57.7414072236
 30
0.0
 10
19.3571868162
 20
58.1186098222
 30
0.0
 10
19.1956105015
 20
58.4313571164
 30
0.0
 10
19.1067811248
 20
58.6660483215
 30
0.0
 10
19.0485338324
 20
58.9039589212
 30
0.0
 10
19.0302205355
 20
59.0645792253
 30
0.0
 10
19.026335339
 20
59.1444473994
 30
0.0
  0
SPLINE
  5
441
100
AcDbEntity
  8
0
100
AcDbSpline
 62
7
  6
BYLAYER
 70
0
 71
3
 72
10
 73
6
 74
0
 42
0.0000001
 43
0.0000001
 44
0.0000000001
 40
0.0
 40
0.0
 40
0.0
 40
0.0
 40
0.2334334658
 40
0.4793650998
 40
1.0
 40
1.0
 40
1.0
 40
1.0
 10
29.2281336625
 20
57.0674597006
 30
0.0
 10
29.0392358941
 20
56.9548923969
 30
0.0
 10
28.6380330364
 20
56.7454865971
 30
0.0
 10
27.7639270446
 20
56.3918037135
 30
0.0
 10
27.0600177371
 20
56.2118274058
 30
0.0
 10
26.577164725
 20
56.1258988178
 30
0.0
  0
SPLINE
  5
442
100
AcDbEntity
  8
0
100
AcDbSpline
 62
7
  6
BYLAYER
 70
0
 71
3
 72
11
 73
7
 74
0
 42
0.0000001
 43
0.0000001
 44
0.0000000001
 40
0.0
 40
0.0
 40
0.0
 40
0.0
 40
0.2663233224
 40
0.5229358262
 40
0.7679008236
 40
1.0
 40
1.0
 40
1.0
 40
1.0
 10
26.9266700295
 20
56.7908836405
 30
0.0
 10
27.1325517427
 20
56.8404530954
 30
0.0
 10
27.5332780137
 20
56.953318801
 30
0.0
 10
28.1062381435
 20
57.1664322069
 30
0.0
 10
28.6334527386
 20
57.4180625472
 30
0.0
 10
28.9584959094
 20
57.6152783146
 30
0.0
 10
29.1104621476
 20
57.7199954211
 30
0.0
  0
SPLINE
  5
443
100
AcDbEntity
  8
0
100
AcDbSpline
 62
7
  6
BYLAYER
 70
0
 71
3
 72
42
 73
38
 74
0
 42
0.0000001
 43
0.0000001
 44
0.0000000001
 40
0.0
 40
0.0
 40
0.0
 40
0.0
 40
0.1269960824
 40
0.2532391954
 40
0.3160397115
 40
0.3786267222
 40
0.4410355651
 40
0.5033164182
 40
0.5654633271
 40
0.6273667111
 40
0.6889324394
 40
0.7195767371
 40
0.7501525701
 40
0.7807002757
 40
0.811261995
 40
0.8418965123
 40
0.8572708045
 40
0.8727103923
 40
0.8882529529
 40
0.903972144
 40
0.9200584444
 40
0.9284464692
 40
0.9328749289
 40
0.9375660497
 40
0.9424563448
 40
0.947300018
 40
0.9526461318
 40
0.9555108611
 40
0.9580403243
 40
0.9618775873
 40
0.9651427784
 40
0.968481682
 40
0.9718032043
 40
0.9751959933
 40
0.9786685875
 40
0.9856579029
 40
1.0
 40
1.0
 40
1.0
 40
1.0
 10
38.546690351
 20
41.4812267068
 30
0.0
 10
38.5784292797
 20
41.514149823
 30
0.0
 10
38.6410257942
 20
41.5804731347
 30
0.0
 10
38.717434761
 20
41.6648210743
 30
0.0
 10
38.7774316541
 20
41.7327242427
 30
0.0
 10
38.8217743295
 20
41.783782376
 30
0.0
 10
38.8654805862
 20
41.8351414606
 30
0.0
 10
38.90843265
 20
41.8869280654
 30
0.0
 10
38.9505980104
 20
41.9391222711
 30
0.0
 10
38.99223635
 20
41.9914077699
 30
0.0
 10
39.0266636013
 20
42.0349337968
 30
0.0
 10
39.0540508628
 20
42.0696449687
 30
0.0
 10
39.0744433914
 20
42.0956475125
 30
0.0
 10
39.0946498911
 20
42.121757609
 30
0.0
 10
39.1146229791
 20
42.1480734872
 30
0.0
 10
39.1309969152
 20
42.1702596432
 30
0.0
 10
39.143863684
 20
42.1882619819
 30
0.0
 10
39.153389278
 20
42.2019706027
 30
0.0
 10
39.1627391071
 20
42.2159508689
 30
0.0
 10
39.1718350483
 20
42.2303729771
 30
0.0
 10
39.1790257437
 20
42.2429490325
 30
0.0
 10
39.1834487828
 20
42.2523835024
 30
0.0
 10
39.1855723015
 20
42.2583325924
 30
0.0
 10
39.1866010977
 20
42.263286087
 30
0.0
 10
39.1871473735
 20
42.268457856
 30
0.0
 10
39.1884722056
 20
42.2737379273
 30
0.0
 10
39.1883372135
 20
42.2785422668
 30
0.0
 10
39.1871378614
 20
42.2822416712
 30
0.0
 10
39.1855077404
 20
42.2851738946
 30
0.0
 10
39.1820095495
 20
42.2870222448
 30
0.0
 10
39.1783075038
 20
42.2855287937
 30
0.0
 10
39.1754265617
 20
42.2834758468
 30
0.0
 10
39.1721692713
 20
42.2818441721
 30
0.0
 10
39.1692142798
 20
42.279654036
 30
0.0
 10
39.1654354722
 20
42.2763978996
 30
0.0
 10
39.1586583228
 20
42.2705746559
 30
0.0
 10
39.1533407574
 20
42.2650078702
 30
0.0
 10
39.1498609005
 20
42.2611917444
 30
0.0
  0
SPLINE
  5
444
100
AcDbEntity
  8
0
100
AcDbSpline
 62
7
  6
BYLAYER
 70
0
 71
3
 72
17
 73
13
 74
0
 42
0.0000001
 43
0.0000001
 44
0.0000000001
 40
0.0
 40
0.0
 40
0.0
 40
0.0
 40
0.0428624497
 40
0.0874875794
 40
0.1353279606
 40
0.1872857916
 40
0.3045569409
 40
0.4382267623
 40
0.5825771095
 40
0.7297038837
 40
0.8713514772
 40
1.0
 40
1.0
 40
1.0
 40
1.0
 10
24.5241662917
 20
63.4488134321
 30
0.0
 10
24.5241767853
 20
63.4345789888
 30
0.0
 10
24.5279792347
 20
63.405404738
 30
0.0
 10
24.5446826798
 20
63.3632568159
 30
0.0
 10
24.5718670894
 20
63.3233358988
 30
0.0
 10
24.6229569614
 20
63.2720076289
 30
0.0
 10
24.7100826953
 20
63.219012639
 30
0.0
 10
24.835317714
 20
63.1771707221
 30
0.0
 10
24.9758572511
 20
63.1574488798
 30
0.0
 10
25.1203258335
 20
63.1614089054
 30
0.0
 10
25.2568920177
 20
63.188772592
 30
0.0
 10
25.3407033579
 20
63.2233313179
 30
0.0
 10
25.3777031854
 20
63.2446930509
 30
0.0
  0
SPLINE
  5
445
100
AcDbEntity
  8
0
100
AcDbSpline
 62
7
  6
BYLAYER
 70
0
 71
3
 72
25
 73
21
 74
0
 42
0.0000001
 43
0.0000001
 44
0.0000000001
 40
0.0
 40
0.0
 40
0.0
 40
0.0
 40
0.0616102538
 40
0.1267709291
 40
0.1948930803
 40
0.2652644396
 40
0.3370655715
 40
0.4094200643
 40
0.4814217833
 40
0.5521767215
 40
0.6208342654
 40
0.686624433
 40
0.7488981463
 40
0.8071735939
 40
0.8611918575
 40
0.9109830334
 40
0.9344251167
 40
0.9569934028
 40
0.9788037216
 40
1.0
 40
1.0
 40
1.0
 40
1.0
 10
37.0679399064
 20
23.032074331
 30
0.0
 10
36.5654616848
 20
22.7354199506
 30
0.0
 10
35.4938862817
 20
22.1873705754
 30
0.0
 10
33.7698344185
 20
21.5203618389
 30
0.0
 10
31.9112839821
 20
20.9946884148
 30
0.0
 10
29.9528772391
 20
20.6194877001
 30
0.0
 10
27.9306398162
 20
20.4011996868
 30
0.0
 10
25.882100315
 20
20.3433057512
 30
0.0
 10
23.8452397469
 20
20.446412818
 30
0.0
 10
21.8578394531
 20
20.7080894773
 30
0.0
 10
19.956673944
 20
21.1230046473
 30
0.0
 10
18.1767988889
 20
21.6830514536
 30
0.0
 10
16.5509015567
 20
22.3775626209
 30
0.0
 10
15.1085656106
 20
23.1938537169
 30
0.0
 10
13.8763472909
 20
24.1171094541
 30
0.0
 10
13.0265301287
 20
24.9802419953
 30
0.0
 10
12.4824650117
 20
25.7078363087
 30
0.0
 10
12.1483111856
 20
26.2577012849
 30
0.0
 10
11.881824379
 20
26.8199123838
 30
0.0
 10
11.7484880067
 20
27.2058801387
 30
0.0
 10
11.6941688772
 20
27.3991426075
 30
0.0
  0
SPLINE
  5
446
100
AcDbEntity
  8
0
100
AcDbSpline
 62
7
  6
BYLAYER
 70
0
 71
3
 72
9
 73
5
 74
0
 42
0.0000001
 43
0.0000001
 44
0.0000000001
 40
0.0
 40
0.0
 40
0.0
 40
0.0
 40
0.5031503431
 40
1.0
 40
1.0
 40
1.0
 40
1.0
 10
11.6941688772
 20
27.3991426075
 30
0.0
 10
11.6399934587
 20
27.5918937658
 30
0.0
 10
11.5546624651
 20
27.9816665215
 30
0.0
 10
11.5175052024
 20
28.379007724
 30
0.0
 10
11.5113672492
 20
28.5766250194
 30
0.0
  0
SPLINE
  5
447
100
AcDbEntity
  8
0
100
AcDbSpline
 62
7
  6
BYLAYER
 70
0
 71
3
 72
15
 73
11
 74
0
 42
0.0000001
 43
0.0000001
 44
0.0000000001
 40
0.0
 40
0.0
 40
0.0
 40
0.0
 40
0.1090175894
 40
0.2202552112
 40
0.335263138
 40
0.455272184
 40
0.5812500452
 40
0.7139219765
 40
0.8536139118
 40
1.0
 40
1.0
 40
1.0
 40
1.0
 10
31.0220997099
 20
59.5488673529
 30
0.0
 10
31.0171164101
 20
59.4347605418
 30
0.0
 10
30.9885722302
 20
59.2046402745
 30
0.0
 10
30.8916309028
 20
58.8657071013
 30
0.0
 10
30.7414216438
 20
58.5341604341
 30
0.0
 10
30.5398039603
 20
58.2129362369
 30
0.0
 10
30.2885605242
 20
57.9047548647
 30
0.0
 10
29.9902817842
 20
57.6117791406
 30
0.0
 10
29.6479012546
 20
57.3364657907
 30
0.0
 10
29.3979342913
 20
57.1702846324
 30
0.0
 10
29.2668066729
 20
57.0907445773
 30
0.0
  0
SPLINE
  5
448
100
AcDbEntity
  8
0
100
AcDbSpline
 62
7
  6
BYLAYER
 70
0
 71
3
 72
15
 73
11
 74
0
 42
0.0000001
 43
0.0000001
 44
0.0000000001
 40
0.0
 40
0.0
 40
0.0
 40
0.0
 40
0.1078505411
 40
0.2180257324
 40
0.3322298786
 40
0.4518419804
 40
0.5779188452
 40
0.7111798596
 40
0.8519450907
 40
1.0
 40
1.0
 40
1.0
 40
1.0
 10
20.7487916752
 20
65.4583299879
 30
0.0
 10
20.7515636
 20
65.5373245649
 30
0.0
 10
20.7705266194
 20
65.6968480172
 30
0.0
 10
20.8383580668
 20
65.9317051346
 30
0.0
 10
20.9447221477
 20
66.1612883205
 30
0.0
 10
21.0883714485
 20
66.3834324634
 30
0.0
 10
21.2678894036
 20
66.5962172499
 30
0.0
 10
21.4815393937
 20
66.7978918045
 30
0.0
 10
21.7272581107
 20
66.9865648017
 30
0.0
 10
21.9063975543
 20
67.0999053384
 30
0.0
 10
22.0003690748
 20
67.1541594972
 30
0.0
  0
SPLINE
  5
449
100
AcDbEntity
  8
0
100
AcDbSpline
 62
7
  6
BYLAYER
 70
0
 71
3
 72
9
 73
5
 74
0
 42
0.0000001
 43
0.0000001
 44
0.0000000001
 40
0.0
 40
0.0
 40
0.0
 40
0.0
 40
0.5031502747
 40
1.0
 40
1.0
 40
1.0
 40
1.0
 10
11.6941661705
 20
26.1743986075
 30
0.0
 10
11.6399915225
 20
26.3671484506
 30
0.0
 10
11.5546617561
 20
26.7569185081
 30
0.0
 10
11.5175050591
 20
27.1542568502
 30
0.0
 10
11.5113672068
 20
27.3518727461
 30
0.0
  0
SPLINE
  5
44A
100
AcDbEntity
  8
0
100
AcDbSpline
 62
7
  6
BYLAYER
 70
0
 71
3
 72
11
 73
7
 74
0
 42
0.0000001
 43
0.0000001
 44
0.0000000001
 40
0.0
 40
0.0
 40
0.0
 40
0.0
 40
0.2177580735
 40
0.4507936826
 40
0.7103340245
 40
1.0
 40
1.0
 40
1.0
 40
1.0
 10
26.9688337438
 20
63.7765843118
 30
0.0
 10
26.9687045298
 20
63.7563102944
 30
0.0
 10
26.9759105785
 20
63.7139985172
 30
0.0
 10
27.0077797113
 20
63.6549892333
 30
0.0
 10
27.0583812233
 20
63.6017043598
 30
0.0
 10
27.1007470037
 20
63.572471401
 30
0.0
 10
27.124103352
 20
63.5589869121
 30
0.0
  0
SPLINE
  5
44B
100
AcDbEntity
  8
0
100
AcDbSpline
 62
7
  6
BYLAYER
 70
0
 71
3
 72
15
 73
11
 74
0
 42
0.0000001
 43
0.0000001
 44
0.0000000001
 40
0.0
 40
0.0
 40
0.0
 40
0.0
 40
0.1090205673
 40
0.2202554259
 40
0.3352580227
 40
0.4552627321
 40
0.5812387673
 40
0.713909935
 40
0.8536033499
 40
1.0
 40
1.0
 40
1.0
 40
1.0
 10
31.0221702063
 20
60.3669979759
 30
0.0
 10
31.0172705808
 20
60.2528257211
 30
0.0
 10
30.9888738428
 20
60.0225654248
 30
0.0
 10
30.8920826518
 20
59.6834044746
 30
0.0
 10
30.7419524137
 20
59.3516288958
 30
0.0
 10
30.5403482024
 20
59.0301787466
 30
0.0
 10
30.2890572506
 20
58.7217801922
 30
0.0
 10
29.9906676876
 20
58.4286101177
 30
0.0
 10
29.6481101054
 20
58.1531363741
 30
0.0
 10
29.3980070111
 20
57.9868594968
 30
0.0
 10
29.2668066729
 20
57.9072661506
 30
0.0
  0
SPLINE
  5
44C
100
AcDbEntity
  8
0
100
AcDbSpline
 62
7
  6
BYLAYER
 70
0
 71
3
 72
15
 73
11
 74
0
 42
0.0000001
 43
0.0000001
 44
0.0000000001
 40
0.0
 40
0.0
 40
0.0
 40
0.0
 40
0.1080117916
 40
0.218060513
 40
0.3320045623
 40
0.4513554057
 40
0.5772590376
 40
0.710499377
 40
0.8514738629
 40
1.0
 40
1.0
 40
1.0
 40
1.0
 10
30.199148322
 20
63.6121139111
 30
0.0
 10
30.1991483198
 20
63.5141456656
 30
0.0
 10
30.1820976879
 20
63.3159694019
 30
0.0
 10
30.1062141784
 20
63.0232271036
 30
0.0
 10
29.9808021459
 20
62.7368390662
 30
0.0
 10
29.8076947116
 20
62.4596137451
 30
0.0
 10
29.5886403874
 20
62.1941363179
 30
0.0
 10
29.3259455821
 20
61.9426581895
 30
0.0
 10
29.022208541
 20
61.707653515
 30
0.0
 10
28.8001081553
 20
61.5668255018
 30
0.0
 10
28.6834411496
 20
61.4994680064
 30
0.0
  0
SPLINE
  5
44D
100
AcDbEntity
  8
0
100
AcDbSpline
 62
7
  6
BYLAYER
 70
0
 71
3
 72
15
 73
11
 74
0
 42
0.0000001
 43
0.0000001
 44
0.0000000001
 40
0.0
 40
0.0
 40
0.0
 40
0.0
 40
0.1485263676
 40
0.2895010977
 40
0.4227415774
 40
0.548645238
 40
0.6679960263
 40
0.7819399402
 40
0.8919884552
 40
1.0
 40
1.0
 40
1.0
 40
1.0
 10
21.3648859644
 20
61.4994504148
 30
0.0
 10
21.2482167115
 20
61.5668079156
 30
0.0
 10
21.0261120568
 20
61.7076363724
 30
0.0
 10
20.7223691604
 20
61.9426424998
 30
0.0
 10
20.4596690575
 20
62.1941224282
 30
0.0
 10
20.2406102039
 20
62.4596020282
 30
0.0
 10
20.0674991533
 20
62.7368299121
 30
0.0
 10
19.9420844661
 20
63.023220823
 30
0.0
 10
19.866199328
 20
63.3159662049
 30
0.0
 10
19.8491483198
 20
63.5141446242
 30
0.0
 10
19.849148322
 20
63.6121139111
 30
0.0
  0
SPLINE
  5
44E
100
AcDbEntity
  8
0
100
AcDbSpline
 62
7
  6
BYLAYER
 70
0
 71
3
 72
17
 73
13
 74
0
 42
0.0000001
 43
0.0000001
 44
0.0000000001
 40
0.0
 40
0.0
 40
0.0
 40
0.0
 40
0.0558316957
 40
0.1142198429
 40
0.237370026
 40
0.3669976894
 40
0.49999948
 40
0.633001343
 40
0.7626292182
 40
0.885779735
 40
0.9441680939
 40
1.0
 40
1.0
 40
1.0
 40
1.0
 10
28.6834411496
 20
61.4994680064
 30
0.0
 10
28.5609005392
 20
61.4287193954
 30
0.0
 10
28.3038044775
 20
61.294851375
 30
0.0
 10
27.7500329383
 20
61.0586589921
 30
0.0
 10
26.9929965973
 20
60.828603364
 30
0.0
 10
26.0274223725
 20
60.6617581979
 30
0.0
 10
25.0241697294
 20
60.6054354076
 30
0.0
 10
24.0209162777
 20
60.6617534252
 30
0.0
 10
23.0553397031
 20
60.82859406
 30
0.0
 10
22.2983002074
 20
61.058645882
 30
0.0
 10
21.7445255537
 20
61.2948358441
 30
0.0
 10
21.4874276243
 20
61.428702555
 30
0.0
 10
21.3648859644
 20
61.4994504148
 30
0.0
  0
SPLINE
  5
44F
100
AcDbEntity
  8
0
100
AcDbSpline
 62
7
  6
BYLAYER
 70
0
 71
3
 72
14
 73
10
 74
0
 42
0.0000001
 43
0.0000001
 44
0.0000000001
 40
0.0
 40
0.0
 40
0.0
 40
0.0
 40
0.1485760417
 40
0.2896218816
 40
0.548446042
 40
0.6678445809
 40
0.781839302
 40
0.8919389457
 40
1.0
 40
1.0
 40
1.0
 40
1.0
 10
28.6834411496
 20
63.1324728407
 30
0.0
 10
28.8000948877
 20
63.1998225057
 30
0.0
 10
29.0222477655
 20
63.3407098078
 30
0.0
 10
29.4157764218
 20
63.6451433108
 30
0.0
 10
29.7437448283
 20
63.9902247997
 30
0.0
 10
29.980793121
 20
64.3698273413
 30
0.0
 10
30.1061948214
 20
64.6562374469
 30
0.0
 10
30.1821163701
 20
64.9489676466
 30
0.0
 10
30.1991283014
 20
65.1471499445
 30
0.0
 10
30.1991390964
 20
65.2451187457
 30
0.0
  0
SPLINE
  5
450
100
AcDbEntity
  8
0
100
AcDbSpline
 62
7
  6
BYLAYER
 70
0
 71
3
 72
9
 73
5
 74
0
 42
0.0000001
 43
0.0000001
 44
0.0000000001
 40
0.0
 40
0.0
 40
0.0
 40
0.0
 40
0.2585830473
 40
1.0
 40
1.0
 40
1.0
 40
1.0
 10
21.4379467472
 20
67.3991800902
 30
0.0
 10
21.3894603328
 20
67.3700599157
 30
0.0
 10
21.2040936172
 20
67.2539571151
 30
0.0
 10
21.027492628
 20
67.1235601998
 30
0.0
 10
20.9040991477
 20
67.0183349079
 30
0.0
  0
SPLINE
  5
451
100
AcDbEntity
  8
0
100
AcDbSpline
 62
7
  6
BYLAYER
 70
0
 71
3
 72
15
 73
11
 74
0
 42
0.0000001
 43
0.0000001
 44
0.0000000001
 40
0.0
 40
0.0
 40
0.0
 40
0.0
 40
0.1142695082
 40
0.2371752803
 40
0.3663196732
 40
0.4987904048
 40
0.63142974
 40
0.7610596298
 40
0.8847477143
 40
1.0
 40
1.0
 40
1.0
 40
1.0
 10
21.5542880421
 20
63.35010117
 30
0.0
 10
21.7906145948
 20
63.2172937788
 30
0.0
 10
22.3048046796
 20
62.982745993
 30
0.0
 10
23.1390560091
 20
62.7318352789
 30
0.0
 10
24.0398787696
 20
62.5754463219
 30
0.0
 10
24.9753628695
 20
62.519145221
 30
0.0
 10
25.9125677231
 20
62.5649070572
 30
0.0
 10
26.8185287587
 20
62.7111023575
 30
0.0
 10
27.6610776047
 20
62.952590713
 30
0.0
 10
28.1825011761
 20
63.1810488484
 30
0.0
 10
28.4230675466
 20
63.310992571
 30
0.0
  0
SPLINE
  5
452
100
AcDbEntity
  8
0
100
AcDbSpline
 62
7
  6
BYLAYER
 70
0
 71
3
 72
23
 73
19
 74
0
 42
0.0000001
 43
0.0000001
 44
0.0000000001
 40
0.0
 40
0.0
 40
0.0
 40
0.0
 40
0.0733205192
 40
0.1427257313
 40
0.2081275968
 40
0.2697664371
 40
0.3281065907
 40
0.3838217595
 40
0.4377877898
 40
0.4910593021
 40
0.5447591317
 40
0.5999624817
 40
0.657605097
 40
0.7184075655
 40
0.7828716766
 40
0.8512659223
 40
0.9236745297
 40
1.0
 40
1.0
 40
1.0
 40
1.0
 10
28.5420192046
 20
63.377421475
 30
0.0
 10
28.6596021773
 20
63.4453076307
 30
0.0
 10
28.8829016981
 20
63.5875300571
 30
0.0
 10
29.1865720447
 20
63.8259528885
 30
0.0
 10
29.4465102173
 20
64.0816526926
 30
0.0
 10
29.659871389
 20
64.3518682765
 30
0.0
 10
29.8241125232
 20
64.6341018207
 30
0.0
 10
29.9373596278
 20
64.9253933332
 30
0.0
 10
29.9976423783
 20
65.222638217
 30
0.0
 10
30.0042059405
 20
65.522197485
 30
0.0
 10
29.9566849704
 20
65.8203143077
 30
0.0
 10
29.8561576882
 20
66.1133911736
 30
0.0
 10
29.7039063331
 20
66.3980394846
 30
0.0
 10
29.5021908196
 20
66.6714399731
 30
0.0
 10
29.2532114608
 20
66.9307609426
 30
0.0
 10
28.959870199
 20
67.1736497493
 30
0.0
 10
28.6251802611
 20
67.3975377181
 30
0.0
 10
28.3829475412
 20
67.5294523881
 30
0.0
 10
28.2561986073
 20
67.5919901352
 30
0.0
  0
SPLINE
  5
453
100
AcDbEntity
  8
0
100
AcDbSpline
 62
7
  6
BYLAYER
 70
0
 71
3
 72
9
 73
5
 74
0
 42
0.0000001
 43
0.0000001
 44
0.0000000001
 40
0.0
 40
0.0
 40
0.0
 40
0.0
 40
0.4841922528
 40
1.0
 40
1.0
 40
1.0
 40
1.0
 10
28.1863091857
 20
67.6258363167
 30
0.0
 10
27.9301367622
 20
67.7475966696
 30
0.0
 10
27.3809797697
 20
67.9578288609
 30
0.0
 10
26.8099265605
 20
68.0952905986
 30
0.0
 10
26.5126034514
 20
68.1491224168
 30
0.0
  0
SPLINE
  5
454
100
AcDbEntity
  8
0
100
AcDbSpline
 62
7
  6
BYLAYER
 70
0
 71
3
 72
9
 73
5
 74
0
 42
0.0000001
 43
0.0000001
 44
0.0000000001
 40
0.0
 40
0.0
 40
0.0
 40
0.0
 40
0.4977346334
 40
1.0
 40
1.0
 40
1.0
 40
1.0
 10
26.2795874609
 20
68.1877278047
 30
0.0
 10
25.9889082664
 20
68.2314815334
 30
0.0
 10
25.3997769251
 20
68.2877437888
 30
0.0
 10
24.8080416068
 20
68.2831146084
 30
0.0
 10
24.5119399071
 20
68.2654274929
 30
0.0
  0
SPLINE
  5
455
100
AcDbEntity
  8
0
100
AcDbSpline
 62
7
  6
BYLAYER
 70
0
 71
3
 72
9
 73
5
 74
0
 42
0.0000001
 43
0.0000001
 44
0.0000000001
 40
0.0
 40
0.0
 40
0.0
 40
0.0
 40
0.5102146359
 40
1.0
 40
1.0
 40
1.0
 40
1.0
 10
24.2256961671
 20
68.2434522041
 30
0.0
 10
23.9352634351
 20
68.2161711725
 30
0.0
 10
23.3683555615
 20
68.1331989837
 30
0.0
 10
22.8138618658
 20
67.9877428346
 30
0.0
 10
22.5480404687
 20
67.8996729431
 30
0.0
  0
SPLINE
  5
456
100
AcDbEntity
  8
0
100
AcDbSpline
 62
7
  6
BYLAYER
 70
0
 71
3
 72
9
 73
5
 74
0
 42
0.0000001
 43
0.0000001
 44
0.0000000001
 40
0.0
 40
0.0
 40
0.0
 40
0.0
 40
0.2564464402
 40
1.0
 40
1.0
 40
1.0
 40
1.0
 10
22.2151785301
 20
67.7790323163
 30
0.0
 10
22.163474594
 20
67.7586055933
 30
0.0
 10
21.9629765448
 20
67.6761707344
 30
0.0
 10
21.7670501541
 20
67.58245159
 30
0.0
 10
21.6252290974
 20
67.5058458865
 30
0.0
  0
SPLINE
  5
457
100
AcDbEntity
  8
0
100
AcDbSpline
 62
7
  6
BYLAYER
 70
0
 71
3
 72
25
 73
21
 74
0
 42
0.0000001
 43
0.0000001
 44
0.0000000001
 40
0.0
 40
0.0
 40
0.0
 40
0.0
 40
0.0624207568
 40
0.12884458
 40
0.1984984497
 40
0.2705460392
 40
0.3439874163
 40
0.4177701926
 40
0.4908315631
 40
0.5621327175
 40
0.6307190512
 40
0.695769987
 40
0.7566546508
 40
0.813009035
 40
0.8648191051
 40
0.9125110075
 40
0.9351237596
 40
0.9571078751
 40
0.9786606386
 40
1.0
 40
1.0
 40
1.0
 40
1.0
 10
22.0003690748
 20
67.1541594972
 30
0.0
 10
22.1543449289
 20
67.2430569674
 30
0.0
 10
22.4844784349
 20
67.4057189315
 30
0.0
 10
23.016991664
 20
67.5985070336
 30
0.0
 10
23.5925550424
 20
67.7442445775
 30
0.0
 10
24.1986536511
 20
67.8398979505
 30
0.0
 10
24.8224632316
 20
67.8834227403
 30
0.0
 10
25.4505910248
 20
67.8738982652
 30
0.0
 10
26.0695852472
 20
67.8115354827
 30
0.0
 10
26.6661909912
 20
67.6976192082
 30
0.0
 10
27.2276754167
 20
67.5346177302
 30
0.0
 10
27.7421222749
 20
67.3259441142
 30
0.0
 10
28.1986488176
 20
67.0758406506
 30
0.0
 10
28.5876744454
 20
66.7892161357
 30
0.0
 10
28.9008481236
 20
66.4716593662
 30
0.0
 10
29.0960114284
 20
66.1804711169
 30
0.0
 10
29.2039882219
 20
65.9402322341
 30
0.0
 10
29.260708385
 20
65.760062901
 30
0.0
 10
29.2942395108
 20
65.577873419
 30
0.0
 10
29.3009062138
 20
65.4554871884
 30
0.0
 10
29.3003158879
 20
65.394708231
 30
0.0
  0
SPLINE
  5
458
100
AcDbEntity
  8
0
100
AcDbSpline
 62
7
  6
BYLAYER
 70
0
 71
3
 72
10
 73
6
 74
0
 42
0.0000001
 43
0.0000001
 44
0.0000000001
 40
0.0
 40
0.0
 40
0.0
 40
0.0
 40
0.251912473
 40
0.6254957485
 40
1.0
 40
1.0
 40
1.0
 40
1.0
 10
29.0837057453
 20
52.3420107795
 30
0.0
 10
29.0917017859
 20
52.3464236514
 30
0.0
 10
29.1117105893
 20
52.3571026404
 30
0.0
 10
29.142927735
 20
52.375552293
 30
0.0
 10
29.1666595719
 20
52.3886847068
 30
0.0
 10
29.1784179572
 20
52.3954733733
 30
0.0
  0
SPLINE
  5
459
100
AcDbEntity
  8
0
100
AcDbSpline
 62
7
  6
BYLAYER
 70
0
 71
3
 72
16
 73
12
 74
0
 42
0.0000001
 43
0.0000001
 44
0.0000000001
 40
0.0
 40
0.0
 40
0.0
 40
0.0
 40
0.0570219387
 40
0.1167026482
 40
0.2425228859
 40
0.3745368984
 40
0.5091170871
 40
0.6424175292
 40
0.7707015549
 40
0.8906981193
 40
1.0
 40
1.0
 40
1.0
 40
1.0
 10
28.7382114965
 20
52.9589323733
 30
0.0
 10
28.6003058769
 20
52.8828247261
 30
0.0
 10
28.3109186387
 20
52.7397353218
 30
0.0
 10
27.6882162258
 20
52.4912028431
 30
0.0
 10
26.8395159727
 20
52.2579231128
 30
0.0
 10
25.7635810582
 20
52.1061996491
 30
0.0
 10
24.6565110104
 20
52.0841352345
 30
0.0
 10
23.564914554
 20
52.1926018799
 30
0.0
 10
22.5341323573
 20
52.4272179535
 30
0.0
 10
21.6073083801
 20
52.7780839026
 30
0.0
 10
21.055287326
 20
53.0971831631
 30
0.0
 10
20.8112682817
 20
53.2749881764
 30
0.0
  0
SPLINE
  5
45A
100
AcDbEntity
  8
0
100
AcDbSpline
 62
7
  6
BYLAYER
 70
0
 71
3
 72
13
 73
9
 74
0
 42
0.0000001
 43
0.0000001
 44
0.0000000001
 40
0.0
 40
0.0
 40
0.0
 40
0.0
 40
0.2824723079
 40
0.5391022858
 40
0.6593698993
 40
0.775411212
 40
0.8884749579
 40
1.0
 40
1.0
 40
1.0
 40
1.0
 10
20.8112682817
 20
53.2749881764
 30
0.0
 10
20.6336606344
 20
53.4044023792
 30
0.0
 10
20.3128401364
 20
53.678285583
 30
0.0
 10
19.9927942366
 20
54.0848919515
 30
0.0
 10
19.8138614685
 20
54.4251295214
 30
0.0
 10
19.7191159747
 20
54.6807758908
 30
0.0
 10
19.6619678311
 20
54.9403969411
 30
0.0
 10
19.6491519955
 20
55.1153756438
 30
0.0
 10
19.6491487435
 20
55.2021390147
 30
0.0
  0
SPLINE
  5
45B
100
AcDbEntity
  8
0
100
AcDbSpline
 62
7
  6
BYLAYER
 70
0
 71
3
 72
15
 73
11
 74
0
 42
0.0000001
 43
0.0000001
 44
0.0000000001
 40
0.0
 40
0.0
 40
0.0
 40
0.0
 40
0.1090205301
 40
0.2202552064
 40
0.3352575564
 40
0.4552621868
 40
0.5812382718
 40
0.7139090474
 40
0.8536018818
 40
1.0
 40
1.0
 40
1.0
 40
1.0
 10
31.0221713604
 20
61.1835272621
 30
0.0
 10
31.017273118
 20
61.0693539087
 30
0.0
 10
30.9888788303
 20
60.8390913133
 30
0.0
 10
30.8920901191
 20
60.499926664
 30
0.0
 10
30.7419610273
 20
60.1681473456
 30
0.0
 10
30.5403570225
 20
59.846693193
 30
0.0
 10
30.2890659396
 20
59.5382904495
 30
0.0
 10
29.9906744294
 20
59.2451178914
 30
0.0
 10
29.6481108392
 20
58.969644174
 30
0.0
 10
29.3980067722
 20
58.8033626601
 30
0.0
 10
29.2668066729
 20
58.723763164
 30
0.0
  0
SPLINE
  5
45C
100
AcDbEntity
  8
0
100
AcDbSpline
 62
7
  6
BYLAYER
 70
0
 71
3
 72
26
 73
22
 74
0
 42
0.0000001
 43
0.0000001
 44
0.0000000001
 40
0.0
 40
0.0
 40
0.0
 40
0.0
 40
0.0673728711
 40
0.1303511334
 40
0.18919496
 40
0.2444676901
 40
0.2970475607
 40
0.3227218331
 40
0.3481874395
 40
0.3736200861
 40
0.399197269
 40
0.4250912389
 40
0.451463713
 40
0.506160951
 40
0.5642949826
 40
0.626480237
 40
0.6930164671
 40
0.7639280928
 40
0.8390105753
 40
0.91787786
 40
1.0
 40
1.0
 40
1.0
 40
1.0
 10
35.1438769878
 20
51.2660924938
 30
0.0
 10
35.4341043494
 20
51.4566087913
 30
0.0
 10
35.9769084028
 20
51.8552487235
 30
0.0
 10
36.6870660588
 20
52.5272224359
 30
0.0
 10
37.256278101
 20
53.2450956035
 30
0.0
 10
37.6756766888
 20
53.9995201286
 30
0.0
 10
37.8956081589
 20
54.6564424682
 30
0.0
 10
37.9872660726
 20
55.1837940641
 30
0.0
 10
38.0150890266
 20
55.57810161
 30
0.0
 10
38.002344094
 20
55.9726640011
 30
0.0
 10
37.9489763712
 20
56.3660250721
 30
0.0
 10
37.8553261537
 20
56.7567577498
 30
0.0
 10
37.6751533342
 20
57.278450524
 30
0.0
 10
37.3454867448
 20
57.9202399415
 30
0.0
 10
36.8033691058
 20
58.645393804
 30
0.0
 10
36.1185631608
 20
59.3265425433
 30
0.0
 10
35.3010442654
 20
59.9549320047
 30
0.0
 10
34.3621646725
 20
60.5226248105
 30
0.0
 10
33.3148229392
 20
61.0222383969
 30
0.0
 10
32.1734620395
 20
61.447107988
 30
0.0
 10
31.374121419
 20
61.67272715
 30
0.0
 10
30.9628705839
 20
61.7724754186
 30
0.0
  0
SPLINE
  5
45D
100
AcDbEntity
  8
0
100
AcDbSpline
 62
7
  6
BYLAYER
 70
0
 71
3
 72
38
 73
34
 74
0
 42
0.0000001
 43
0.0000001
 44
0.0000000001
 40
0.0
 40
0.0
 40
0.0
 40
0.0
 40
0.0308477961
 40
0.0601088082
 40
0.0877667267
 40
0.1010267749
 40
0.1139268022
 40
0.1387271869
 40
0.1624199466
 40
0.1853293949
 40
0.2078439717
 40
0.230386801
 40
0.2533787954
 40
0.2772010864
 40
0.3021661707
 40
0.3151600901
 40
0.3285194939
 40
0.3563847138
 40
0.3858472781
 40
0.4169128958
 40
0.4495283649
 40
0.4835942542
 40
0.5189693646
 40
0.5554813244
 40
0.5929314322
 40
0.63110053
 40
0.7086218697
 40
0.7861217094
 40
0.8616471063
 40
0.8981136543
 40
0.9334369157
 40
0.9674557977
 40
1.0
 40
1.0
 40
1.0
 40
1.0
 10
18.3074066581
 20
60.3052626537
 30
0.0
 10
18.0510747085
 20
60.1546930997
 30
0.0
 10
17.5634711987
 20
59.8402647819
 30
0.0
 10
16.8978896729
 20
59.316248004
 30
0.0
 10
16.4124504063
 20
58.8430721908
 30
0.0
 10
16.0748464166
 20
58.4489409624
 30
0.0
 10
15.7791957235
 20
58.0564710289
 30
0.0
 10
15.4699048896
 20
57.5497080499
 30
0.0
 10
15.2000626742
 20
56.9138298072
 30
0.0
 10
15.0395189592
 20
56.2642911017
 30
0.0
 10
14.9907076018
 20
55.6079312086
 30
0.0
 10
15.0543283424
 20
54.9520613045
 30
0.0
 10
15.2293749101
 20
54.3039109841
 30
0.0
 10
15.5134828249
 20
53.6703489732
 30
0.0
 10
15.8338409051
 20
53.1661223582
 30
0.0
 10
16.1382402401
 20
52.7760194892
 30
0.0
 10
16.4846121902
 20
52.3844111849
 30
0.0
 10
16.9804531339
 20
51.9150633447
 30
0.0
 10
17.6575387838
 20
51.3959733961
 30
0.0
 10
18.4186394241
 20
50.9178551549
 30
0.0
 10
19.2564306579
 20
50.4850099205
 30
0.0
 10
20.1630823286
 20
50.1015315365
 30
0.0
 10
21.1299895041
 20
49.7709123528
 30
0.0
 10
22.148002296
 20
49.4962798779
 30
0.0
 10
23.2075177031
 20
49.2802558858
 30
0.0
 10
24.6692934697
 20
49.0720091982
 30
0.0
 10
26.5327154241
 20
48.9699662474
 30
0.0
 10
28.7552699167
 20
49.0970088033
 30
0.0
 10
30.5593108932
 20
49.4100730361
 30
0.0
 10
31.9298338717
 20
49.7836645801
 30
0.0
 10
32.8945210718
 20
50.1166111212
 30
0.0
 10
33.7983879438
 20
50.5022828766
 30
0.0
 10
34.3680786034
 20
50.7989608197
 30
0.0
 10
34.6396919042
 20
50.9557758959
 30
0.0
  0
SPLINE
  5
45E
100
AcDbEntity
  8
0
100
AcDbSpline
 62
7
  6
BYLAYER
 70
0
 71
3
 72
17
 73
13
 74
0
 42
0.0000001
 43
0.0000001
 44
0.0000000001
 40
0.0
 40
0.0
 40
0.0
 40
0.0
 40
0.0558319061
 40
0.1142202651
 40
0.2373707818
 40
0.366998657
 40
0.5000005201
 40
0.6330023107
 40
0.7626299741
 40
0.8857801573
 40
0.9441683055
 40
1.0
 40
1.0
 40
1.0
 40
1.0
 10
21.223465197
 20
54.8449571261
 30
0.0
 10
21.3507427664
 20
54.7714750496
 30
0.0
 10
21.6177768477
 20
54.6324347459
 30
0.0
 10
22.1929534203
 20
54.3871166693
 30
0.0
 10
22.9792504811
 20
54.1481739557
 30
0.0
 10
23.9821440249
 20
53.9748853735
 30
0.0
 10
25.0241705566
 20
53.9163908147
 30
0.0
 10
26.0661962494
 20
53.9748903294
 30
0.0
 10
27.0690873498
 20
54.1481836244
 30
0.0
 10
27.8553811444
 20
54.3871302728
 30
0.0
 10
28.4305544665
 20
54.6324509008
 30
0.0
 10
28.6975866084
 20
54.771492559
 30
0.0
 10
28.8248630947
 20
54.8449753977
 30
0.0
  0
SPLINE
  5
45F
100
AcDbEntity
  8
0
100
AcDbSpline
 62
7
  6
BYLAYER
 70
0
 71
3
 72
14
 73
10
 74
0
 42
0.0000001
 43
0.0000001
 44
0.0000000001
 40
0.0
 40
0.0
 40
0.0
 40
0.0
 40
0.1090666297
 40
0.2203460336
 40
0.3353939814
 40
0.455461549
 40
0.7138134336
 40
0.8534996079
 40
1.0
 40
1.0
 40
1.0
 40
1.0
 10
31.022140051
 20
58.7332904952
 30
0.0
 10
31.0172044824
 20
58.6191450981
 30
0.0
 10
30.9887452044
 20
58.3889461823
 30
0.0
 10
30.8918931912
 20
58.0498973018
 30
0.0
 10
30.7417018082
 20
57.7182022315
 30
0.0
 10
30.4663039115
 20
57.2792235885
 30
0.0
 10
30.0930782983
 20
56.8777270897
 30
0.0
 10
29.6479225454
 20
56.5204735448
 30
0.0
 10
29.3978834337
 20
56.3541587591
 30
0.0
 10
29.2668066729
 20
56.2743429817
 30
0.0
  0
SPLINE
  5
460
100
AcDbEntity
  8
0
100
AcDbSpline
 62
7
  6
BYLAYER
 70
0
 71
3
 72
11
 73
7
 74
0
 42
0.0000001
 43
0.0000001
 44
0.0000000001
 40
0.0
 40
0.0
 40
0.0
 40
0.0
 40
0.289392165
 40
0.549110876
 40
0.7822982282
 40
1.0
 40
1.0
 40
1.0
 40
1.0
 10
25.3777031854
 20
63.2446930509
 30
0.0
 10
25.3996184286
 20
63.2573457474
 30
0.0
 10
25.4393922149
 20
63.2847977162
 30
0.0
 10
25.4870237442
 20
63.3347415518
 30
0.0
 10
25.5171182125
 20
63.3900826165
 30
0.0
 10
25.524144386
 20
63.4297767921
 30
0.0
 10
25.5241303523
 20
63.4488134232
 30
0.0
  0
SPLINE
  5
461
100
AcDbEntity
  8
0
100
AcDbSpline
 62
7
  6
BYLAYER
 70
0
 71
3
 72
11
 73
7
 74
0
 42
0.0000001
 43
0.0000001
 44
0.0000000001
 40
0.0
 40
0.0
 40
0.0
 40
0.0
 40
0.289392165
 40
0.549110876
 40
0.7822982282
 40
1.0
 40
1.0
 40
1.0
 40
1.0
 10
25.3776911116
 20
64.9189848957
 30
0.0
 10
25.3996063548
 20
64.9316375922
 30
0.0
 10
25.439380141
 20
64.9590895611
 30
0.0
 10
25.4870116703
 20
65.0090333966
 30
0.0
 10
25.5171061386
 20
65.0643744613
 30
0.0
 10
25.5241323122
 20
65.1040686369
 30
0.0
 10
25.5241182784
 20
65.1231052681
 30
0.0
  0
SPLINE
  5
462
100
AcDbEntity
  8
0
100
AcDbSpline
 62
7
  6
BYLAYER
 70
0
 71
3
 72
11
 73
7
 74
0
 42
0.0000001
 43
0.0000001
 44
0.0000000001
 40
0.0
 40
0.0
 40
0.0
 40
0.0
 40
0.2384848095
 40
0.4819187489
 40
0.7345647834
 40
1.0
 40
1.0
 40
1.0
 40
1.0
 10
19.0247007093
 20
57.5550307648
 30
0.0
 10
19.0272592695
 20
57.4502687455
 30
0.0
 10
19.0505723397
 20
57.2386036682
 30
0.0
 10
19.1389306345
 20
56.9267441724
 30
0.0
 10
19.2798634461
 20
56.6218944758
 30
0.0
 10
19.4041952782
 20
56.4302394397
 30
0.0
 10
19.4736177225
 20
56.3365143648
 30
0.0
  0
SPLINE
  5
463
100
AcDbEntity
  8
0
100
AcDbSpline
 62
7
  6
BYLAYER
 70
0
 71
3
 72
9
 73
5
 74
0
 42
0.0000001
 43
0.0000001
 44
0.0000000001
 40
0.0
 40
0.0
 40
0.0
 40
0.0
 40
0.4935801945
 40
1.0
 40
1.0
 40
1.0
 40
1.0
 10
30.4741860258
 20
63.0448128473
 30
0.0
 10
30.4669095205
 20
62.9281565467
 30
0.0
 10
30.4311546082
 20
62.6926985089
 30
0.0
 10
30.3560515241
 20
62.4668579517
 30
0.0
 10
30.3094270459
 20
62.3563689964
 30
0.0
  0
SPLINE
  5
464
100
AcDbEntity
  8
0
100
AcDbSpline
 62
7
  6
BYLAYER
 70
0
 71
3
 72
11
 73
7
 74
0
 42
0.0000001
 43
0.0000001
 44
0.0000000001
 40
0.0
 40
0.0
 40
0.0
 40
0.0
 40
0.2269171947
 40
0.4680606784
 40
0.7254645164
 40
1.0
 40
1.0
 40
1.0
 40
1.0
 10
30.3094270459
 20
62.3563689964
 30
0.0
 10
30.2530157837
 20
62.2226876841
 30
0.0
 10
30.1100412166
 20
61.957642056
 30
0.0
 10
29.8242694454
 20
61.5900657571
 30
0.0
 10
29.4674962907
 20
61.2458356072
 30
0.0
 10
29.1943892303
 20
61.0415564235
 30
0.0
 10
29.0483284115
 20
60.9441802596
 30
0.0
  0
SPLINE
  5
465
100
AcDbEntity
  8
0
100
AcDbSpline
 62
7
  6
BYLAYER
 70
0
 71
3
 72
12
 73
8
 74
0
 42
0.0000001
 43
0.0000001
 44
0.0000000001
 40
0.0
 40
0.0
 40
0.0
 40
0.0
 40
0.2288505824
 40
0.3498840603
 40
0.474673326
 40
0.7333191854
 40
1.0
 40
1.0
 40
1.0
 40
1.0
 10
29.0050811997
 20
60.9156802171
 30
0.0
 10
28.7705537449
 20
60.7629052731
 30
0.0
 10
28.3917423762
 20
60.559433396
 30
0.0
 10
27.8554474942
 20
60.3366177533
 30
0.0
 10
27.271437251
 20
60.1362852801
 30
0.0
 10
26.4970741585
 20
59.9477583899
 30
0.0
 10
25.8585959118
 20
59.8645931992
 30
0.0
 10
25.5334255537
 20
59.8391081247
 30
0.0
  0
SPLINE
  5
466
100
AcDbEntity
  8
0
100
AcDbSpline
 62
7
  6
BYLAYER
 70
0
 71
3
 72
24
 73
20
 74
0
 42
0.0000001
 43
0.0000001
 44
0.0000000001
 40
0.0
 40
0.0
 40
0.0
 40
0.0
 40
0.0634347157
 40
0.1306160089
 40
0.2008247396
 40
0.2732500962
 40
0.3469300513
 40
0.4208527034
 40
0.493985754
 40
0.5653182294
 40
0.6339108904
 40
0.6989451351
 40
0.7597771132
 40
0.816001756
 40
0.8675354383
 40
0.914714489
 40
0.9583824997
 40
0.9793523413
 40
1.0
 40
1.0
 40
1.0
 40
1.0
 10
29.236389801
 20
60.3388349112
 30
0.0
 10
29.0230538997
 20
60.2109287384
 30
0.0
 10
28.5666064811
 20
59.9755556107
 30
0.0
 10
27.8305210368
 20
59.6921570428
 30
0.0
 10
27.0363362452
 20
59.4726418028
 30
0.0
 10
26.200687214
 20
59.3210297592
 30
0.0
 10
25.3406825489
 20
59.2401150425
 30
0.0
 10
24.474177202
 20
59.2311330185
 30
0.0
 10
23.6191043641
 20
59.2938409698
 30
0.0
 10
22.7931668994
 20
59.4265804103
 30
0.0
 10
22.0134242514
 20
59.6262386837
 30
0.0
 10
21.295875212
 20
59.8883232135
 30
0.0
 10
20.6551389427
 20
60.2072279626
 30
0.0
 10
20.1042130905
 20
60.5764319636
 30
0.0
 10
19.6543697487
 20
60.9889326847
 30
0.0
 10
19.315386821
 20
61.43693268
 30
0.0
 10
19.1301976543
 20
61.8392317455
 30
0.0
 10
19.0493986718
 20
62.1645276815
 30
0.0
 10
19.0305041978
 20
62.3271771656
 30
0.0
 10
19.0264601878
 20
62.4080400367
 30
0.0
  0
SPLINE
  5
467
100
AcDbEntity
  8
0
100
AcDbSpline
 62
7
  6
BYLAYER
 70
0
 71
3
 72
9
 73
5
 74
0
 42
0.0000001
 43
0.0000001
 44
0.0000000001
 40
0.0
 40
0.0
 40
0.0
 40
0.0
 40
0.5158549262
 40
1.0
 40
1.0
 40
1.0
 40
1.0
 10
30.2203404561
 20
64.6337616367
 30
0.0
 10
30.3546566362
 20
64.4961222717
 30
0.0
 10
30.5968532841
 20
64.2106246783
 30
0.0
 10
30.7895290943
 20
63.8888885002
 30
0.0
 10
30.8670856915
 20
63.7259064938
 30
0.0
  0
SPLINE
  5
468
100
AcDbEntity
  8
0
100
AcDbSpline
 62
7
  6
BYLAYER
 70
0
 71
3
 72
24
 73
20
 74
0
 42
0.0000001
 43
0.0000001
 44
0.0000000001
 40
0.0
 40
0.0
 40
0.0
 40
0.0
 40
0.0634213139
 40
0.1306022753
 40
0.2008121023
 40
0.2732383589
 40
0.3469193419
 40
0.4208431034
 40
0.4939773173
 40
0.5653109731
 40
0.6339048018
 40
0.6989401724
 40
0.7597732069
 40
0.8159988163
 40
0.8675333635
 40
0.9147131639
 40
0.958381871
 40
0.9793520605
 40
1.0
 40
1.0
 40
1.0
 40
1.0
 10
29.2364633584
 20
59.521976265
 30
0.0
 10
29.0230650328
 20
59.3942805628
 30
0.0
 10
28.5666123478
 20
59.159082149
 30
0.0
 10
27.8305854391
 20
58.875689287
 30
0.0
 10
27.0364077251
 20
58.6561475814
 30
0.0
 10
26.2007528519
 20
58.5045377739
 30
0.0
 10
25.3407443529
 20
58.4236160612
 30
0.0
 10
24.4742330914
 20
58.4146283386
 30
0.0
 10
23.6191534863
 20
58.4773328085
 30
0.0
 10
22.7932085357
 20
58.6100691913
 30
0.0
 10
22.0134581583
 20
58.8097256271
 30
0.0
 10
21.2959015023
 20
59.0718093585
 30
0.0
 10
20.6551580676
 20
59.3907142797
 30
0.0
 10
20.1042257958
 20
59.7599193346
 30
0.0
 10
19.6543771843
 20
60.1724219288
 30
0.0
 10
19.3153899508
 20
60.6204243377
 30
0.0
 10
19.1301985804
 20
61.0227262874
 30
0.0
 10
19.0493988998
 20
61.3480245786
 30
0.0
 10
19.0305042038
 20
61.5106751721
 30
0.0
 10
19.0264601721
 20
61.5915384779
 30
0.0
  0
SPLINE
  5
469
100
AcDbEntity
  8
0
100
AcDbSpline
 62
7
  6
BYLAYER
 70
0
 71
3
 72
25
 73
21
 74
0
 42
0.0000001
 43
0.0000001
 44
0.0000000001
 40
0.0
 40
0.0
 40
0.0
 40
0.0
 40
0.0616103251
 40
0.126770619
 40
0.1948929682
 40
0.2652643175
 40
0.3370654874
 40
0.4094200094
 40
0.4814217545
 40
0.5521767146
 40
0.6208342752
 40
0.6866244535
 40
0.7488981714
 40
0.8071736178
 40
0.8611918755
 40
0.910983043
 40
0.9344251223
 40
0.9569934052
 40
0.9788037221
 40
1.0
 40
1.0
 40
1.0
 40
1.0
 10
37.0679400325
 20
14.4587815449
 30
0.0
 10
36.5655358118
 20
14.162000408
 30
0.0
 10
35.493858079
 20
13.614124805
 30
0.0
 10
33.7698311799
 20
12.9470975946
 30
0.0
 10
31.9112835262
 20
12.4214003537
 30
0.0
 10
29.9528719608
 20
12.0462176791
 30
0.0
 10
27.9306347674
 20
11.8279215886
 30
0.0
 10
25.8820938559
 20
11.7700311672
 30
0.0
 10
23.8452324414
 20
11.873137866
 30
0.0
 10
21.8578313937
 20
12.1348155205
 30
0.0
 10
19.9566653886
 20
12.5497314944
 30
0.0
 10
18.1767901071
 20
13.1097792779
 30
0.0
 10
16.5508928668
 20
13.8042914839
 30
0.0
 10
15.1085573516
 20
14.620583667
 30
0.0
 10
13.8763398239
 20
15.5438405073
 30
0.0
 10
13.0265236489
 20
16.4069739812
 30
0.0
 10
12.4824595426
 20
17.1345689886
 30
0.0
 10
12.1483065556
 20
17.6844344564
 30
0.0
 10
11.8818206841
 20
18.2466460154
 30
0.0
 10
11.7484850063
 20
18.6326140338
 30
0.0
 10
11.694166236
 20
18.8258766202
 30
0.0
  0
SPLINE
  5
46A
100
AcDbEntity
  8
0
100
AcDbSpline
 62
7
  6
BYLAYER
 70
0
 71
3
 72
9
 73
5
 74
0
 42
0.0000001
 43
0.0000001
 44
0.0000000001
 40
0.0
 40
0.0
 40
0.0
 40
0.0
 40
0.5031502735
 40
1.0
 40
1.0
 40
1.0
 40
1.0
 10
11.694166236
 20
18.8258766202
 30
0.0
 10
11.6399917192
 20
19.0186259618
 30
0.0
 10
11.5546620966
 20
19.4083949885
 30
0.0
 10
11.5175052847
 20
19.805732277
 30
0.0
 10
11.5113673104
 20
20.003347658
 30
0.0
  0
SPLINE
  5
46B
100
AcDbEntity
  8
0
100
AcDbSpline
 62
7
  6
BYLAYER
 70
0
 71
3
 72
11
 73
7
 74
0
 42
0.0000001
 43
0.0000001
 44
0.0000000001
 40
0.0
 40
0.0
 40
0.0
 40
0.0
 40
0.2644355806
 40
0.5171963535
 40
0.7612006691
 40
1.0
 40
1.0
 40
1.0
 40
1.0
 10
19.4540636901
 20
58.8128052043
 30
0.0
 10
19.3900892758
 20
58.9013307702
 30
0.0
 10
19.2751297671
 20
59.0821886128
 30
0.0
 10
19.1431353476
 20
59.3686654959
 30
0.0
 10
19.057367459
 20
59.6612824109
 30
0.0
 10
19.0313910115
 20
59.8599820604
 30
0.0
 10
19.0264622402
 20
59.9584923182
 30
0.0
  0
SPLINE
  5
46C
100
AcDbEntity
  8
0
100
AcDbSpline
 62
7
  6
BYLAYER
 70
0
 71
3
 72
40
 73
36
 74
0
 42
0.0000001
 43
0.0000001
 44
0.0000000001
 40
0.0
 40
0.0
 40
0.0
 40
0.0
 40
0.1299556513
 40
0.1954152768
 40
0.2612967692
 40
0.3276675998
 40
0.3610696932
 40
0.3946497365
 40
0.4284307365
 40
0.4624708652
 40
0.496844827
 40
0.5316785522
 40
0.5493490957
 40
0.5672548127
 40
0.5855131256
 40
0.5947823878
 40
0.6042378347
 40
0.6139861427
 40
0.6232768868
 40
0.6308215514
 40
0.6337226007
 40
0.6365504405
 40
0.6422692029
 40
0.6480823562
 40
0.6603675028
 40
0.6731420857
 40
0.686274875
 40
0.713201797
 40
0.7407416914
 40
0.7686955497
 40
0.7969558717
 40
0.8254702463
 40
0.883068526
 40
0.9412851826
 40
1.0
 40
1.0
 40
1.0
 40
1.0
 10
17.9247166883
 20
27.8744564804
 30
0.0
 10
17.9008410556
 20
27.8900102604
 30
0.0
 10
17.864974474
 20
27.9134561658
 30
0.0
 10
17.8175209739
 20
27.9455636691
 30
0.0
 10
17.7818862929
 20
27.9702542499
 30
0.0
 10
17.7523012031
 20
27.9913291689
 30
0.0
 10
17.7286857506
 20
28.0085716922
 30
0.0
 10
17.7109705408
 20
28.0217752921
 30
0.0
 10
17.6932805167
 20
28.0352450034
 30
0.0
 10
17.675643583
 20
28.0490690844
 30
0.0
 10
17.6580783931
 20
28.0633531256
 30
0.0
 10
17.6435862362
 20
28.0757225716
 30
0.0
 10
17.6321492672
 20
28.0860948156
 30
0.0
 10
17.6236228434
 20
28.0942614778
 30
0.0
 10
17.6167179156
 20
28.1014468032
 30
0.0
 10
17.6113781445
 20
28.1075571364
 30
0.0
 10
17.607550009
 20
28.1124819471
 30
0.0
 10
17.6040623768
 20
28.1177206412
 30
0.0
 10
17.6019960657
 20
28.1231615945
 30
0.0
 10
17.6018811421
 20
28.1278346025
 30
0.0
 10
17.6037082032
 20
28.1302360491
 30
0.0
 10
17.6059428528
 20
28.1314529587
 30
0.0
 10
17.6089904221
 20
28.1323165217
 30
0.0
 10
17.6141877371
 20
28.1329605704
 30
0.0
 10
17.6209812853
 20
28.1326106235
 30
0.0
 10
17.6292837795
 20
28.1315237178
 30
0.0
 10
17.6406598887
 20
28.1292970511
 30
0.0
 10
17.6550436223
 20
28.125689778
 30
0.0
 10
17.6723716323
 20
28.120545543
 30
0.0
 10
17.6898283756
 20
28.1148383067
 30
0.0
 10
17.7073706178
 20
28.1087180186
 30
0.0
 10
17.7309057258
 20
28.1000544152
 30
0.0
 10
17.7604007419
 20
28.0885769317
 30
0.0
 10
17.7957924747
 20
28.074015368
 30
0.0
 10
17.8193564356
 20
28.063907995
 30
0.0
 10
17.8311548314
 20
28.0587559283
 30
0.0
  0
SPLINE
  5
46D
100
AcDbEntity
  8
0
100
AcDbSpline
 62
7
  6
BYLAYER
 70
0
 71
3
 72
25
 73
21
 74
0
 42
0.0000001
 43
0.0000001
 44
0.0000000001
 40
0.0
 40
0.0
 40
0.0
 40
0.0
 40
0.0616123886
 40
0.1267733165
 40
0.194895245
 40
0.2652665113
 40
0.3370674847
 40
0.4094218006
 40
0.4814233253
 40
0.5521780579
 40
0.6208353923
 40
0.6866253533
 40
0.748898869
 40
0.8071741337
 40
0.861192233
 40
0.9109832654
 40
0.9344252846
 40
0.9569935111
 40
0.9788037742
 40
1.0
 40
1.0
 40
1.0
 40
1.0
 10
37.0678879231
 20
15.6836760878
 30
0.0
 10
36.5653906454
 20
15.3870138519
 30
0.0
 10
35.4938740352
 20
14.8388029942
 30
0.0
 10
33.7697819218
 20
14.1718150985
 30
0.0
 10
31.9112290749
 20
13.6461630605
 30
0.0
 10
29.9528272452
 20
13.2709539529
 30
0.0
 10
27.9305920028
 20
13.0526765992
 30
0.0
 10
25.8820570175
 20
12.9947840193
 30
0.0
 10
23.8452013819
 20
13.0978948205
 30
0.0
 10
21.8578065928
 20
13.3595735256
 30
0.0
 10
19.9566468096
 20
13.774490215
 30
0.0
 10
18.1767774699
 20
14.334537726
 30
0.0
 10
16.5508855869
 20
15.0290488823
 30
0.0
 10
15.1085546034
 20
15.8453392966
 30
0.0
 10
13.8763405558
 20
16.7685937594
 30
0.0
 10
13.0265263359
 20
17.6317247427
 30
0.0
 10
12.4824630141
 20
18.3593175869
 30
0.0
 10
12.1483102147
 20
18.9091814278
 30
0.0
 10
11.881824146
 20
19.4713913268
 30
0.0
 10
11.7484880743
 20
19.8573582301
 30
0.0
 10
11.69416904
 20
20.0506202743
 30
0.0
  0
SPLINE
  5
46E
100
AcDbEntity
  8
0
100
AcDbSpline
 62
7
  6
BYLAYER
 70
0
 71
3
 72
9
 73
5
 74
0
 42
0.0000001
 43
0.0000001
 44
0.0000000001
 40
0.0
 40
0.0
 40
0.0
 40
0.0
 40
0.5031503479
 40
1.0
 40
1.0
 40
1.0
 40
1.0
 10
11.69416904
 20
20.0506202743
 30
0.0
 10
11.6399935701
 20
20.24337153
 30
0.0
 10
11.554662497
 20
20.633144485
 30
0.0
 10
11.5175052036
 20
21.0304858976
 30
0.0
 10
11.5113672483
 20
21.2281032955
 30
0.0
  0
SPLINE
  5
46F
100
AcDbEntity
  8
0
100
AcDbSpline
 62
7
  6
BYLAYER
 70
0
 71
3
 72
15
 73
11
 74
0
 42
0.0000001
 43
0.0000001
 44
0.0000000001
 40
0.0
 40
0.0
 40
0.0
 40
0.0
 40
0.1084872019
 40
0.2201008765
 40
0.3359547413
 40
0.4568738391
 40
0.5834568074
 40
0.7160894926
 40
0.8549629826
 40
1.0
 40
1.0
 40
1.0
 40
1.0
 10
41.4175277647
 20
21.0116739849
 30
0.0
 10
41.3705892713
 20
20.7618735354
 30
0.0
 10
41.2391416418
 20
20.2612416478
 30
0.0
 10
40.9385967033
 20
19.5315388884
 30
0.0
 10
40.5353522814
 20
18.819588891
 30
0.0
 10
40.0324294751
 20
18.1306093221
 30
0.0
 10
39.4338176882
 20
17.4691729955
 30
0.0
 10
38.7438293622
 20
16.8396978723
 30
0.0
 10
37.9673203809
 20
16.2467738196
 30
0.0
 10
37.4076526463
 20
15.8859252619
 30
0.0
 10
37.1157122573
 20
15.7120359726
 30
0.0
  0
SPLINE
  5
470
100
AcDbEntity
  8
0
100
AcDbSpline
 62
7
  6
BYLAYER
 70
0
 71
3
 72
15
 73
11
 74
0
 42
0.0000001
 43
0.0000001
 44
0.0000000001
 40
0.0
 40
0.0
 40
0.0
 40
0.0
 40
0.1118166145
 40
0.2304559867
 40
0.3546737416
 40
0.4829197069
 40
0.6134435374
 40
0.7443824315
 40
0.8738458865
 40
1.0
 40
1.0
 40
1.0
 40
1.0
 10
37.0669432221
 20
27.9304851372
 30
0.0
 10
36.5254977586
 20
27.6110028939
 30
0.0
 10
35.3659844869
 20
27.0246642734
 30
0.0
 10
33.4949669226
 20
26.3253186413
 30
0.0
 10
31.4748276748
 20
25.790712347
 30
0.0
 10
29.3488029956
 20
25.4317617173
 30
0.0
 10
27.162155761
 20
25.2553744312
 30
0.0
 10
24.961565103
 20
25.2646901801
 30
0.0
 10
22.7943685859
 20
25.4589674337
 30
0.0
 10
21.3773652133
 20
25.7127604488
 30
0.0
 10
20.6860241009
 20
25.8712962879
 30
0.0
  0
SPLINE
  5
471
100
AcDbEntity
  8
0
100
AcDbSpline
 62
7
  6
BYLAYER
 70
0
 71
3
 72
17
 73
13
 74
0
 42
0.0000001
 43
0.0000001
 44
0.0000000001
 40
0.0
 40
0.0
 40
0.0
 40
0.0
 40
0.0428624497
 40
0.0874875794
 40
0.1353279606
 40
0.1872857916
 40
0.3045569409
 40
0.4382267623
 40
0.5825771095
 40
0.7297038837
 40
0.8713514772
 40
1.0
 40
1.0
 40
1.0
 40
1.0
 10
24.5241542179
 20
65.1231052769
 30
0.0
 10
24.5241647115
 20
65.1088708336
 30
0.0
 10
24.5279671608
 20
65.0796965828
 30
0.0
 10
24.544670606
 20
65.0375486607
 30
0.0
 10
24.5718550155
 20
64.9976277436
 30
0.0
 10
24.6229448876
 20
64.9462994737
 30
0.0
 10
24.7100706214
 20
64.8933044839
 30
0.0
 10
24.8353056401
 20
64.8514625669
 30
0.0
 10
24.9758451772
 20
64.8317407246
 30
0.0
 10
25.1203137596
 20
64.8357007502
 30
0.0
 10
25.2568799438
 20
64.8630644368
 30
0.0
 10
25.340691284
 20
64.8976231627
 30
0.0
 10
25.3776911116
 20
64.9189848957
 30
0.0
  0
SPLINE
  5
472
100
AcDbEntity
  8
0
100
AcDbSpline
 62
7
  6
BYLAYER
 70
0
 71
3
 72
25
 73
21
 74
0
 42
0.0000001
 43
0.0000001
 44
0.0000000001
 40
0.0
 40
0.0
 40
0.0
 40
0.0
 40
0.0616354599
 40
0.1268258228
 40
0.1949805095
 40
0.2653852081
 40
0.3372178796
 40
0.4095997909
 40
0.4816235405
 40
0.552390899
 40
0.6210494031
 40
0.686829156
 40
0.749081938
 40
0.8073260478
 40
0.8613034751
 40
0.9110497139
 40
0.934470878
 40
0.957020305
 40
0.9788148964
 40
1.0
 40
1.0
 40
1.0
 40
1.0
 10
37.0679632372
 20
16.9083052242
 30
0.0
 10
36.5649607648
 20
16.6111890797
 30
0.0
 10
35.491963656
 20
16.0627050209
 30
0.0
 10
33.7657175974
 20
15.3951651088
 30
0.0
 10
31.9047313515
 20
14.869295457
 30
0.0
 10
29.9437824684
 20
14.4943106649
 30
0.0
 10
27.919031639
 20
14.2765810298
 30
0.0
 10
25.8681202519
 20
14.2196393807
 30
0.0
 10
23.8291672517
 20
14.324044048
 30
0.0
 10
21.8400866527
 20
14.5873539337
 30
0.0
 10
19.9377754317
 20
15.0041845488
 30
0.0
 10
18.1573677418
 20
15.5663792246
 30
0.0
 10
16.5316229802
 20
16.2632212965
 30
0.0
 10
15.0902041369
 20
17.0819596073
 30
0.0
 10
13.8597195449
 20
18.0076890355
 30
0.0
 10
13.012103374
 20
18.8729231438
 30
0.0
 10
12.4702932144
 20
19.602075051
 30
0.0
 10
12.1380050551
 20
20.1530393694
 30
0.0
 10
11.8735982569
 20
20.7162871046
 30
0.0
 10
11.7418207468
 20
21.1028569178
 30
0.0
 10
11.688308987
 20
21.2963942648
 30
0.0
  0
SPLINE
  5
473
100
AcDbEntity
  8
0
100
AcDbSpline
 62
7
  6
BYLAYER
 70
0
 71
3
 72
9
 73
5
 74
0
 42
0.0000001
 43
0.0000001
 44
0.0000000001
 40
0.0
 40
0.0
 40
0.0
 40
0.0
 40
0.5030515066
 40
1.0
 40
1.0
 40
1.0
 40
1.0
 10
11.688308987
 20
21.2963942648
 30
0.0
 10
11.6359391983
 20
21.485801416
 30
0.0
 10
11.5534384441
 20
21.8686734371
 30
0.0
 10
11.5174020255
 20
22.2587368477
 30
0.0
 10
11.5113709691
 20
22.4527728139
 30
0.0
  0
SPLINE
  5
474
100
AcDbEntity
  8
0
100
AcDbSpline
 62
7
  6
BYLAYER
 70
0
 71
3
 72
9
 73
5
 74
0
 42
0.0000001
 43
0.0000001
 44
0.0000000001
 40
0.0
 40
0.0
 40
0.0
 40
0.0
 40
0.4833509215
 40
1.0
 40
1.0
 40
1.0
 40
1.0
 10
26.4169379942
 20
56.8330077981
 30
0.0
 10
26.4166124615
 20
56.8093768651
 30
0.0
 10
26.4207092676
 20
56.7604799766
 30
0.0
 10
26.4293308839
 20
56.7122488594
 30
0.0
 10
26.4356113067
 20
56.6877807567
 30
0.0
  0
SPLINE
  5
475
100
AcDbEntity
  8
0
100
AcDbSpline
 62
7
  6
BYLAYER
 70
0
 71
3
 72
13
 73
9
 74
0
 42
0.0000001
 43
0.0000001
 44
0.0000000001
 40
0.0
 40
0.0
 40
0.0
 40
0.0
 40
0.111548535
 40
0.2246324562
 40
0.3406879453
 40
0.4609587125
 40
0.7175177946
 40
1.0
 40
1.0
 40
1.0
 40
1.0
 10
30.3991479005
 20
55.2021390147
 30
0.0
 10
30.3991511471
 20
55.1155195695
 30
0.0
 10
30.3863784673
 20
54.9408336667
 30
0.0
 10
30.3294103577
 20
54.6816390117
 30
0.0
 10
30.2349794783
 20
54.42639013
 30
0.0
 10
30.0566243532
 20
54.0867117748
 30
0.0
 10
29.7376439525
 20
53.6805678903
 30
0.0
 10
29.4177017077
 20
53.4069360026
 30
0.0
 10
29.2405503288
 20
53.2775802308
 30
0.0
  0
SPLINE
  5
476
100
AcDbEntity
  8
0
100
AcDbSpline
 62
7
  6
BYLAYER
 70
0
 71
3
 72
9
 73
5
 74
0
 42
0.0000001
 43
0.0000001
 44
0.0000000001
 40
0.0
 40
0.0
 40
0.0
 40
0.0
 40
0.2444553278
 40
1.0
 40
1.0
 40
1.0
 40
1.0
 10
29.2405503288
 20
53.2775802308
 30
0.0
 10
29.2079313043
 20
53.2537618494
 30
0.0
 10
29.0731038179
 20
53.1582417583
 30
0.0
 10
28.9329718768
 20
53.070261221
 30
0.0
 10
28.8248630947
 20
53.0078449591
 30
0.0
  0
SPLINE
  5
477
100
AcDbEntity
  8
0
100
AcDbSpline
 62
7
  6
BYLAYER
 70
0
 71
3
 72
28
 73
24
 74
0
 42
0.0000001
 43
0.0000001
 44
0.0000000001
 40
0.0
 40
0.0
 40
0.0
 40
0.0
 40
0.0660425862
 40
0.136629406
 40
0.210659744
 40
0.2868387854
 40
0.3637215145
 40
0.4398299633
 40
0.5137260465
 40
0.5841095868
 40
0.6499156819
 40
0.7104322269
 40
0.7386449763
 40
0.7655064152
 40
0.7910965596
 40
0.8155447919
 40
0.8390383569
 40
0.8618135087
 40
0.8841537501
 40
0.906369893
 40
0.9287832721
 40
0.9517009363
 40
1.0
 40
1.0
 40
1.0
 40
1.0
 10
29.0837057453
 20
52.3420107795
 30
0.0
 10
28.8329952655
 20
52.2036481457
 30
0.0
 10
28.2925897764
 20
51.9558257712
 30
0.0
 10
27.420151505
 20
51.6791078708
 30
0.0
 10
26.4796073655
 20
51.4909959842
 30
0.0
 10
25.4978527451
 20
51.3967527974
 30
0.0
 10
24.502603416
 20
51.3991005121
 30
0.0
 10
23.5221725618
 20
51.4979298894
 30
0.0
 10
22.5843802351
 20
51.6904621899
 30
0.0
 10
21.7156516037
 20
51.9713469201
 30
0.0
 10
20.9405208964
 20
52.3327653352
 30
0.0
 10
20.3774315174
 20
52.7017632475
 30
0.0
 10
19.9977760503
 20
53.0299442369
 30
0.0
 10
19.7559243171
 20
53.2834318009
 30
0.0
 10
19.5520551449
 20
53.5481422791
 30
0.0
 10
19.3878829342
 20
53.8223747644
 30
0.0
 10
19.2645932987
 20
54.1040967651
 30
0.0
 10
19.1834847048
 20
54.3913355812
 30
0.0
 10
19.1451804623
 20
54.6818150982
 30
0.0
 10
19.1501827409
 20
54.9732076397
 30
0.0
 10
19.1984437825
 20
55.2631796198
 30
0.0
 10
19.3216519529
 20
55.6511254048
 30
0.0
 10
19.4755496011
 20
55.9237940657
 30
0.0
 10
19.5977610383
 20
56.0938580833
 30
0.0
  0
SPLINE
  5
478
100
AcDbEntity
  8
0
100
AcDbSpline
 62
7
  6
BYLAYER
 70
0
 71
3
 72
15
 73
11
 74
0
 42
0.0000001
 43
0.0000001
 44
0.0000000001
 40
0.0
 40
0.0
 40
0.0
 40
0.0
 40
0.1040219628
 40
0.2207896824
 40
0.3481148619
 40
0.4824065815
 40
0.6192605349
 40
0.7539514544
 40
0.8821835275
 40
1.0
 40
1.0
 40
1.0
 40
1.0
 10
30.7408332112
 20
57.0951441048
 30
0.0
 10
30.782110051
 20
57.0551123999
 30
0.0
 10
30.8813527158
 20
56.9819221628
 30
0.0
 10
31.0564621002
 20
56.9000314641
 30
0.0
 10
31.2584110881
 20
56.8425807678
 30
0.0
 10
31.4772702016
 20
56.8124506745
 30
0.0
 10
31.7022257148
 20
56.8111109336
 30
0.0
 10
31.9221861746
 20
56.8385625791
 30
0.0
 10
32.1260439574
 20
56.8935572464
 30
0.0
 10
32.2509348254
 20
56.9495313917
 30
0.0
 10
32.307335508
 20
56.9820941463
 30
0.0
  0
SPLINE
  5
479
100
AcDbEntity
  8
0
100
AcDbSpline
 62
7
  6
BYLAYER
 70
0
 71
3
 72
25
 73
21
 74
0
 42
0.0000001
 43
0.0000001
 44
0.0000000001
 40
0.0
 40
0.0
 40
0.0
 40
0.0
 40
0.0616102525
 40
0.1267709358
 40
0.194893083
 40
0.2652644425
 40
0.3370655738
 40
0.4094200661
 40
0.4814217846
 40
0.5521767223
 40
0.6208342659
 40
0.6866244332
 40
0.7488981464
 40
0.8071735939
 40
0.8611918575
 40
0.9109830334
 40
0.9344251168
 40
0.9569934028
 40
0.9788037216
 40
1.0
 40
1.0
 40
1.0
 40
1.0
 10
37.0679399035
 20
19.3578138238
 30
0.0
 10
36.5654601477
 20
19.0611620656
 30
0.0
 10
35.4938868623
 20
18.5131090812
 30
0.0
 10
33.7698344736
 20
17.8461007267
 30
0.0
 10
31.9112839721
 20
17.320427796
 30
0.0
 10
29.9528773213
 20
16.9452267076
 30
0.0
 10
27.9306398858
 20
16.7269388635
 30
0.0
 10
25.8821004065
 20
16.6690448579
 30
0.0
 10
23.8452398495
 20
16.7721519363
 30
0.0
 10
21.8578395663
 20
17.0338285799
 30
0.0
 10
19.9566740638
 20
17.4487437391
 30
0.0
 10
18.1767990118
 20
18.0087905317
 30
0.0
 10
16.5509016782
 20
18.7033016845
 30
0.0
 10
15.1085657259
 20
19.5195927654
 30
0.0
 10
13.876347395
 20
20.4428484873
 30
0.0
 10
13.026530219
 20
21.3059810155
 30
0.0
 10
12.4824650879
 20
22.0335753193
 30
0.0
 10
12.1483112501
 20
22.5834402886
 30
0.0
 10
11.8818244304
 20
23.1456513811
 30
0.0
 10
11.7484880484
 20
23.5316191324
 30
0.0
 10
11.6941689139
 20
23.7248815998
 30
0.0
  0
SPLINE
  5
47A
100
AcDbEntity
  8
0
100
AcDbSpline
 62
7
  6
BYLAYER
 70
0
 71
3
 72
9
 73
5
 74
0
 42
0.0000001
 43
0.0000001
 44
0.0000000001
 40
0.0
 40
0.0
 40
0.0
 40
0.0
 40
0.5031503447
 40
1.0
 40
1.0
 40
1.0
 40
1.0
 10
11.6941689139
 20
23.7248815998
 30
0.0
 10
11.639993484
 20
23.9176327797
 30
0.0
 10
11.5546624728
 20
24.3074055791
 30
0.0
 10
11.5175052029
 20
24.7047468278
 30
0.0
 10
11.5113672491
 20
24.9023641455
 30
0.0
  0
SPLINE
  5
47B
100
AcDbEntity
  8
0
100
AcDbSpline
 62
7
  6
BYLAYER
 70
0
 71
3
 72
14
 73
10
 74
0
 42
0.0000001
 43
0.0000001
 44
0.0000000001
 40
0.0
 40
0.0
 40
0.0
 40
0.0
 40
0.1399926012
 40
0.2776417163
 40
0.5414809701
 40
0.6658417037
 40
0.784012302
 40
0.8954582014
 40
1.0
 40
1.0
 40
1.0
 40
1.0
 10
24.516576434
 20
56.5484605752
 30
0.0
 10
24.3149597151
 20
56.5544603143
 30
0.0
 10
23.9153170767
 20
56.5792309289
 30
0.0
 10
23.1411741153
 20
56.6787728041
 30
0.0
 10
22.4002553289
 20
56.8521721133
 30
0.0
 10
21.7136403148
 20
57.10081269
 30
0.0
 10
21.2498059418
 20
57.3146196301
 30
0.0
 10
20.8329342954
 20
57.5569819108
 30
0.0
 10
20.5814096674
 20
57.7416172413
 30
0.0
 10
20.4658364449
 20
57.8382164544
 30
0.0
  0
SPLINE
  5
47C
100
AcDbEntity
  8
0
100
AcDbSpline
 62
7
  6
BYLAYER
 70
0
 71
3
 72
26
 73
22
 74
0
 42
0.0000001
 43
0.0000001
 44
0.0000000001
 40
0.0
 40
0.0
 40
0.0
 40
0.0
 40
0.0213305195
 40
0.0428893607
 40
0.0648932423
 40
0.0875363133
 40
0.1109842998
 40
0.1353695371
 40
0.1872671101
 40
0.2437012329
 40
0.3046453964
 40
0.3697292746
 40
0.4383225757
 40
0.5096049779
 40
0.582625078
 40
0.6563524193
 40
0.7297251643
 40
0.8016978279
 40
0.8712853791
 40
0.9376215726
 40
1.0
 40
1.0
 40
1.0
 40
1.0
 10
13.0090670068
 20
54.018195695
 30
0.0
 10
13.009062758
 20
53.8266831369
 30
0.0
 10
13.0338232036
 20
53.4411686415
 30
0.0
 10
13.1445326077
 20
52.867681954
 30
0.0
 10
13.3283046883
 20
52.3008649992
 30
0.0
 10
13.5837315218
 20
51.7439802741
 30
0.0
 10
13.9093426463
 20
51.2000383916
 30
0.0
 10
14.4453260015
 20
50.4811395548
 30
0.0
 10
15.2906789564
 20
49.6320376139
 30
0.0
 10
16.5218418557
 20
48.7325405156
 30
0.0
 10
17.9646528823
 20
47.9477665324
 30
0.0
 10
19.5885888314
 20
47.2935609957
 30
0.0
 10
21.3596234159
 20
46.7831491012
 30
0.0
 10
23.2402896027
 20
46.4272134143
 30
0.0
 10
25.1906417247
 20
46.2332616602
 30
0.0
 10
27.1691156793
 20
46.2054255737
 30
0.0
 10
29.1335198783
 20
46.3442905271
 30
0.0
 10
31.0419274846
 20
46.6469077113
 30
0.0
 10
32.8538841289
 20
47.1068855725
 30
0.0
 10
34.5305996803
 20
47.7144308932
 30
0.0
 10
35.5700255709
 20
48.2269195412
 30
0.0
 10
36.0550476696
 20
48.5069455089
 30
0.0
  0
SPLINE
  5
47D
100
AcDbEntity
  8
0
100
AcDbSpline
 62
7
  6
BYLAYER
 70
0
 71
3
 72
9
 73
5
 74
0
 42
0.0000001
 43
0.0000001
 44
0.0000000001
 40
0.0
 40
0.0
 40
0.0
 40
0.0
 40
0.4922715243
 40
1.0
 40
1.0
 40
1.0
 40
1.0
 10
17.9247166883
 20
27.8744564804
 30
0.0
 10
18.3935814267
 20
27.5736359222
 30
0.0
 10
19.3258377558
 20
26.9307341779
 30
0.0
 10
20.2209743211
 20
26.2375851721
 30
0.0
 10
20.667188194
 20
25.8756261147
 30
0.0
  0
SPLINE
  5
47E
100
AcDbEntity
  8
0
100
AcDbSpline
 62
7
  6
BYLAYER
 70
0
 71
3
 72
15
 73
11
 74
0
 42
0.0000001
 43
0.0000001
 44
0.0000000001
 40
0.0
 40
0.0
 40
0.0
 40
0.0
 40
0.1080126305
 40
0.2180605388
 40
0.3319979409
 40
0.4513596517
 40
0.5772735068
 40
0.7104899954
 40
0.8514265853
 40
1.0
 40
1.0
 40
1.0
 40
1.0
 10
40.0090663801
 20
46.3430729739
 30
0.0
 10
40.0090659334
 20
46.0875011135
 30
0.0
 10
39.9646480032
 20
45.5705072656
 30
0.0
 10
39.7665738534
 20
44.8068828064
 30
0.0
 10
39.4395939032
 20
44.059691545
 30
0.0
 10
38.9877999401
 20
43.3365752738
 30
0.0
 10
38.4164463117
 20
42.6439662239
 30
0.0
 10
37.7311995254
 20
41.9880606479
 30
0.0
 10
36.938958721
 20
41.374909028
 30
0.0
 10
36.3594940882
 20
41.0075939713
 30
0.0
 10
36.0550476696
 20
40.8318227879
 30
0.0
  0
SPLINE
  5
47F
100
AcDbEntity
  8
0
100
AcDbSpline
 62
7
  6
BYLAYER
 70
0
 71
3
 72
22
 73
18
 74
0
 42
0.0000001
 43
0.0000001
 44
0.0000000001
 40
0.0
 40
0.0
 40
0.0
 40
0.0
 40
0.0733489935
 40
0.1472931018
 40
0.2947057618
 40
0.3672258283
 40
0.4382647726
 40
0.5073622302
 40
0.5740988304
 40
0.6381137865
 40
0.6991185521
 40
0.7569163754
 40
0.8114224446
 40
0.8626847075
 40
0.9109109207
 40
0.9564899144
 40
1.0
 40
1.0
 40
1.0
 40
1.0
 10
29.8833943131
 20
18.1874521076
 30
0.0
 10
29.3788836968
 20
18.113355895
 30
0.0
 10
28.3608042036
 20
17.9962571066
 30
0.0
 10
26.3142654346
 20
17.8842794317
 30
0.0
 10
24.2665212057
 20
17.9531749238
 30
0.0
 10
22.2583838658
 20
18.2045536641
 30
0.0
 10
20.8047278266
 20
18.4796171014
 30
0.0
 10
19.411089855
 20
18.8390941189
 30
0.0
 10
18.0919594198
 20
19.2790181941
 30
0.0
 10
16.861137777
 20
19.7945884314
 30
0.0
 10
15.7314737512
 20
20.380360444
 30
0.0
 10
14.7147181771
 20
21.0301633175
 30
0.0
 10
13.8214427972
 20
21.7372923686
 30
0.0
 10
13.0611208018
 20
22.4946521982
 30
0.0
 10
12.4420413585
 20
23.2948418462
 30
0.0
 10
11.9714907623
 20
24.1294799827
 30
0.0
 10
11.7570936296
 20
24.7142626796
 30
0.0
 10
11.6785766352
 20
25.0063768834
 30
0.0
  0
SPLINE
  5
480
100
AcDbEntity
  8
0
100
AcDbSpline
 62
7
  6
BYLAYER
 70
0
 71
3
 72
9
 73
5
 74
0
 42
0.0000001
 43
0.0000001
 44
0.0000000001
 40
0.0
 40
0.0
 40
0.0
 40
0.0
 40
0.5028872672
 40
1.0
 40
1.0
 40
1.0
 40
1.0
 10
11.6785766352
 20
25.0063768834
 30
0.0
 10
11.6292294308
 20
25.1899679573
 30
0.0
 10
11.5514468274
 20
25.560857853
 30
0.0
 10
11.5172799223
 20
25.9383269251
 30
0.0
 10
11.5114072745
 20
26.1261595988
 30
0.0
  0
SPLINE
  5
481
100
AcDbEntity
  8
0
100
AcDbSpline
 62
7
  6
BYLAYER
 70
0
 71
3
 72
11
 73
7
 74
0
 42
0.0000001
 43
0.0000001
 44
0.0000000001
 40
0.0
 40
0.0
 40
0.0
 40
0.0
 40
0.2321548428
 40
0.4777994334
 40
0.7346776558
 40
1.0
 40
1.0
 40
1.0
 40
1.0
 10
37.0660232546
 20
20.5813806679
 30
0.0
 10
36.5586270457
 20
20.2817988066
 30
0.0
 10
35.4755100559
 20
19.7296458764
 30
0.0
 10
33.7329438283
 20
19.0580911759
 30
0.0
 10
31.8540005433
 20
18.5308780315
 30
0.0
 10
30.5497124598
 20
18.2849956176
 30
0.0
 10
29.8833943131
 20
18.1874521076
 30
0.0
  0
SPLINE
  5
482
100
AcDbEntity
  8
0
100
AcDbSpline
 62
7
  6
BYLAYER
 70
0
 71
3
 72
11
 73
7
 74
0
 42
0.0000001
 43
0.0000001
 44
0.0000000001
 40
0.0
 40
0.0
 40
0.0
 40
0.0
 40
0.2653556615
 40
0.5182416973
 40
0.7617668168
 40
1.0
 40
1.0
 40
1.0
 40
1.0
 10
12.6934532502
 20
31.5536235743
 30
0.0
 10
12.512366838
 20
31.7949060833
 30
0.0
 10
12.1876017553
 20
32.288991378
 30
0.0
 10
11.8181747956
 20
33.0757768782
 30
0.0
 10
11.584027379
 20
33.8811199091
 30
0.0
 10
11.5199297761
 20
34.4281420713
 30
0.0
 10
11.5114374654
 20
34.6988517343
 30
0.0
  0
SPLINE
  5
483
100
AcDbEntity
  8
0
100
AcDbSpline
 62
7
  6
BYLAYER
 70
0
 71
3
 72
10
 73
6
 74
0
 42
0.0000001
 43
0.0000001
 44
0.0000000001
 40
0.0
 40
0.0
 40
0.0
 40
0.0
 40
0.5178483337
 40
0.7639309382
 40
1.0
 40
1.0
 40
1.0
 40
1.0
 10
32.1949591722
 20
38.2498888505
 30
0.0
 10
32.9520901082
 20
38.4554996014
 30
0.0
 10
34.0539066
 20
38.8228922646
 30
0.0
 10
35.4362463532
 20
39.4449916993
 30
0.0
 10
36.0800544813
 20
39.7919022391
 30
0.0
 10
36.3878863354
 20
39.9739827642
 30
0.0
  0
SPLINE
  5
484
100
AcDbEntity
  8
0
100
AcDbSpline
 62
7
  6
BYLAYER
 70
0
 71
3
 72
14
 73
10
 74
0
 42
0.0000001
 43
0.0000001
 44
0.0000000001
 40
0.0
 40
0.0
 40
0.0
 40
0.0
 40
0.1089295983
 40
0.2212306572
 40
0.3377548113
 40
0.4591457147
 40
0.7180134135
 40
0.856194668
 40
1.0
 40
1.0
 40
1.0
 40
1.0
 10
41.3232925645
 20
40.1952493389
 30
0.0
 10
41.2609923784
 20
39.9636689955
 30
0.0
 10
41.1039481683
 20
39.5010590509
 30
0.0
 10
40.7812562895
 20
38.8293865498
 30
0.0
 10
40.3704928615
 20
38.1750410131
 30
0.0
 10
39.695231592
 20
37.3126964663
 30
0.0
 10
38.8634756166
 20
36.5208244307
 30
0.0
 10
37.9107450229
 20
35.805686788
 30
0.0
 10
37.3877110094
 20
35.4699605523
 30
0.0
 10
37.1157122573
 20
35.3079454354
 30
0.0
  0
SPLINE
  5
485
100
AcDbEntity
  8
0
100
AcDbSpline
 62
7
  6
BYLAYER
 70
0
 71
3
 72
25
 73
21
 74
0
 42
0.0000001
 43
0.0000001
 44
0.0000000001
 40
0.0
 40
0.0
 40
0.0
 40
0.0
 40
0.0616103304
 40
0.1267706226
 40
0.1948929726
 40
0.2652643218
 40
0.3370654916
 40
0.4094200134
 40
0.4814217583
 40
0.5521767181
 40
0.6208342783
 40
0.6866244562
 40
0.7488981736
 40
0.8071736195
 40
0.8611918767
 40
0.9109830438
 40
0.9344251229
 40
0.9569934055
 40
0.9788037223
 40
1.0
 40
1.0
 40
1.0
 40
1.0
 10
37.0679399147
 20
18.1330425961
 30
0.0
 10
36.5655360999
 20
17.8362606692
 30
0.0
 10
35.4938578746
 20
17.2883857559
 30
0.0
 10
33.7698310311
 20
16.6213584792
 30
0.0
 10
31.9112833831
 20
16.0956611416
 30
0.0
 10
29.9528717934
 20
15.7204785582
 30
0.0
 10
27.9306346001
 20
15.502182444
 30
0.0
 10
25.8820936846
 20
15.4442920494
 30
0.0
 10
23.845232271
 20
15.5473987576
 30
0.0
 10
21.8578312272
 20
15.8090764267
 30
0.0
 10
19.9566652294
 20
16.2239924136
 30
0.0
 10
18.1767899583
 20
16.7840402098
 30
0.0
 10
16.5508927313
 20
17.4785524276
 30
0.0
 10
15.1085572322
 20
18.2948446217
 30
0.0
 10
13.8763397232
 20
19.2181014717
 30
0.0
 10
13.0265235661
 20
20.0812349529
 30
0.0
 10
12.4824594755
 20
20.8088299649
 30
0.0
 10
12.1483065004
 20
21.3586954356
 30
0.0
 10
11.8818206412
 20
21.9209069972
 30
0.0
 10
11.7484849721
 20
22.3068750168
 30
0.0
 10
11.6941662061
 20
22.5001376036
 30
0.0
  0
SPLINE
  5
486
100
AcDbEntity
  8
0
100
AcDbSpline
 62
7
  6
BYLAYER
 70
0
 71
3
 72
9
 73
5
 74
0
 42
0.0000001
 43
0.0000001
 44
0.0000000001
 40
0.0
 40
0.0
 40
0.0
 40
0.0
 40
0.5031502731
 40
1.0
 40
1.0
 40
1.0
 40
1.0
 10
11.6941662061
 20
22.5001376036
 30
0.0
 10
11.6399917014
 20
22.6928869181
 30
0.0
 10
11.5546620967
 20
23.0826558886
 30
0.0
 10
11.5175052885
 20
23.4799931185
 30
0.0
 10
11.5113673124
 20
23.6776084706
 30
0.0
  0
SPLINE
  5
487
100
AcDbEntity
  8
0
100
AcDbSpline
 62
7
  6
BYLAYER
 70
0
 71
3
 72
14
 73
10
 74
0
 42
0.0000001
 43
0.0000001
 44
0.0000000001
 40
0.0
 40
0.0
 40
0.0
 40
0.0
 40
0.1089290371
 40
0.221229941
 40
0.3377543858
 40
0.4591441446
 40
0.7180110923
 40
0.8561993301
 40
1.0
 40
1.0
 40
1.0
 40
1.0
 10
41.3232923181
 20
32.8467267411
 30
0.0
 10
41.2609920992
 20
32.6151468621
 30
0.0
 10
41.1039473162
 20
32.152537065
 30
0.0
 10
40.7812547798
 20
31.4808632753
 30
0.0
 10
40.3704953869
 20
30.8265151644
 30
0.0
 10
39.6952309291
 20
29.9641702832
 30
0.0
 10
38.863434886
 20
29.1723274646
 30
0.0
 10
37.9107794115
 20
28.4570806318
 30
0.0
 10
37.3877324916
 20
28.1213525983
 30
0.0
 10
37.1157122573
 20
27.9593915611
 30
0.0
  0
SPLINE
  5
488
100
AcDbEntity
  8
0
100
AcDbSpline
 62
7
  6
BYLAYER
 70
0
 71
3
 72
25
 73
21
 74
0
 42
0.0000001
 43
0.0000001
 44
0.0000000001
 40
0.0
 40
0.0
 40
0.0
 40
0.0
 40
0.061610339
 40
0.1267706851
 40
0.1948930232
 40
0.265264385
 40
0.3370655613
 40
0.4094200889
 40
0.4814218374
 40
0.552176798
 40
0.6208343561
 40
0.6866245285
 40
0.748898237
 40
0.8071736711
 40
0.8611919143
 40
0.9109830665
 40
0.9344251385
 40
0.9569934146
 40
0.9788037258
 40
1.0
 40
1.0
 40
1.0
 40
1.0
 10
37.067939629
 20
13.2340305456
 30
0.0
 10
36.5655271414
 20
12.9372628543
 30
0.0
 10
35.4938603275
 20
12.389367372
 30
0.0
 10
33.76982974
 20
11.7223421013
 30
0.0
 10
31.9112809317
 20
11.1966475036
 30
0.0
 10
29.9528690305
 20
10.8214629069
 30
0.0
 10
27.9306309494
 20
10.603167949
 30
0.0
 10
25.8820893972
 20
10.5452774902
 30
0.0
 10
23.8452273866
 20
10.6483847043
 30
0.0
 10
21.8578258803
 20
10.9100628308
 30
0.0
 10
19.9566595713
 20
11.3249793914
 30
0.0
 10
18.1767841712
 20
11.8850278179
 30
0.0
 10
16.5508870186
 20
12.5795407148
 30
0.0
 10
15.1085518148
 20
13.395833616
 30
0.0
 10
13.8763348328
 20
14.3190911819
 30
0.0
 10
13.0265193288
 20
15.1822252693
 30
0.0
 10
12.4824559045
 20
15.909820729
 30
0.0
 10
12.1483034778
 20
16.45968651
 30
0.0
 10
11.8818182234
 20
17.0218983682
 30
0.0
 10
11.748483012
 20
17.4078665648
 30
0.0
 10
11.6941644834
 20
17.6011292361
 30
0.0
  0
SPLINE
  5
489
100
AcDbEntity
  8
0
100
AcDbSpline
 62
7
  6
BYLAYER
 70
0
 71
3
 72
9
 73
5
 74
0
 42
0.0000001
 43
0.0000001
 44
0.0000000001
 40
0.0
 40
0.0
 40
0.0
 40
0.0
 40
0.503150273
 40
1.0
 40
1.0
 40
1.0
 40
1.0
 10
11.6941644834
 20
17.6011292361
 30
0.0
 10
11.6399905025
 20
17.7938776138
 30
0.0
 10
11.5546617303
 20
18.1836446268
 30
0.0
 10
11.5175052502
 20
18.580979786
 30
0.0
 10
11.5113673093
 20
18.7785941083
 30
0.0
  0
SPLINE
  5
48A
100
AcDbEntity
  8
0
100
AcDbSpline
 62
7
  6
BYLAYER
 70
0
 71
3
 72
9
 73
5
 74
0
 42
0.0000001
 43
0.0000001
 44
0.0000000001
 40
0.0
 40
0.0
 40
0.0
 40
0.0
 40
0.2526955746
 40
1.0
 40
1.0
 40
1.0
 40
1.0
 10
17.8309193096
 20
26.8344738538
 30
0.0
 10
17.8226747457
 20
26.8380847128
 30
0.0
 10
17.7899708188
 20
26.8521976934
 30
0.0
 10
17.7568720635
 20
26.8653865393
 30
0.0
 10
17.7319963353
 20
26.8748578559
 30
0.0
  0
SPLINE
  5
48B
100
AcDbEntity
  8
0
100
AcDbSpline
 62
7
  6
BYLAYER
 70
0
 71
3
 72
25
 73
21
 74
0
 42
0.0000001
 43
0.0000001
 44
0.0000000001
 40
0.0
 40
0.0
 40
0.0
 40
0.0
 40
0.061637527
 40
0.1268303052
 40
0.1949880709
 40
0.2653959012
 40
0.3372310404
 40
0.4096153194
 40
0.4816417805
 40
0.5524115379
 40
0.6210706137
 40
0.6868493586
 40
0.7490992872
 40
0.8073397585
 40
0.8613137901
 40
0.9110563314
 40
0.9344753373
 40
0.9570228045
 40
0.9788158823
 40
1.0
 40
1.0
 40
1.0
 40
1.0
 10
37.0678751733
 20
12.0092516006
 30
0.0
 10
36.5647699823
 20
11.7121992824
 30
0.0
 10
35.4917353614
 20
11.1635519757
 30
0.0
 10
33.7652841505
 20
10.4959919645
 30
0.0
 10
31.9040882064
 20
9.9701330347
 30
0.0
 10
29.9429257371
 20
9.5951588138
 30
0.0
 10
27.9179641514
 20
9.3774911772
 30
0.0
 10
25.8668506723
 20
9.3206343213
 30
0.0
 10
23.8277047707
 20
9.4251579388
 30
0.0
 10
21.8384628381
 20
9.6886170872
 30
0.0
 10
19.9360459118
 20
10.1056233665
 30
0.0
 10
18.1556089136
 20
10.6680110792
 30
0.0
 10
16.5299044933
 20
11.3650493007
 30
0.0
 10
15.088588443
 20
12.183991925
 30
0.0
 10
13.8582681915
 20
13.1099337029
 30
0.0
 10
13.0108449835
 20
13.9753445839
 30
0.0
 10
12.4692377626
 20
14.7046264067
 30
0.0
 10
12.1371184032
 20
15.2556775715
 30
0.0
 10
11.8728941747
 20
15.8190076907
 30
0.0
 10
11.7412519762
 20
16.2056259564
 30
0.0
 10
11.6878100452
 20
16.3991858802
 30
0.0
  0
SPLINE
  5
48C
100
AcDbEntity
  8
0
100
AcDbSpline
 62
7
  6
BYLAYER
 70
0
 71
3
 72
9
 73
5
 74
0
 42
0.0000001
 43
0.0000001
 44
0.0000000001
 40
0.0
 40
0.0
 40
0.0
 40
0.0
 40
0.5030427707
 40
1.0
 40
1.0
 40
1.0
 40
1.0
 10
11.6878100452
 20
16.3991858802
 30
0.0
 10
11.6355942251
 20
16.588304985
 30
0.0
 10
11.553334929
 20
16.9705832061
 30
0.0
 10
11.517393836
 20
17.3600208694
 30
0.0
 10
11.5113716361
 20
17.5537489527
 30
0.0
  0
SPLINE
  5
48D
100
AcDbEntity
  8
0
100
AcDbSpline
 62
7
  6
BYLAYER
 70
0
 71
3
 72
15
 73
11
 74
0
 42
0.0000001
 43
0.0000001
 44
0.0000000001
 40
0.0
 40
0.0
 40
0.0
 40
0.0
 40
0.1086238467
 40
0.2193959269
 40
0.3339828557
 40
0.4537611801
 40
0.5797390176
 40
0.7125973597
 40
0.8527152591
 40
1.0
 40
1.0
 40
1.0
 40
1.0
 10
41.5072632761
 20
43.8971904952
 30
0.0
 10
41.499778231
 20
43.6122426746
 30
0.0
 10
41.4372201348
 20
43.0369084018
 30
0.0
 10
41.2036005121
 20
42.1886769821
 30
0.0
 10
40.8329369681
 20
41.3587414249
 30
0.0
 10
40.3294245596
 20
40.5550762136
 30
0.0
 10
39.698645838
 20
39.7843879127
 30
0.0
 10
38.9465439987
 20
39.0531953508
 30
0.0
 10
38.0803879355
 20
38.3678902424
 30
0.0
 10
37.4477428936
 20
37.955284991
 30
0.0
 10
37.1157122573
 20
37.7574550913
 30
0.0
  0
SPLINE
  5
48E
100
AcDbEntity
  8
0
100
AcDbSpline
 62
7
  6
BYLAYER
 70
0
 71
3
 72
12
 73
8
 74
0
 42
0.0000001
 43
0.0000001
 44
0.0000000001
 40
0.0
 40
0.0
 40
0.0
 40
0.0
 40
0.1093135144
 40
0.2218411215
 40
0.4595461939
 40
0.7183395874
 40
1.0
 40
1.0
 40
1.0
 40
1.0
 10
30.9619868992
 20
62.392675826
 30
0.0
 10
30.9387080729
 20
62.2965488801
 30
0.0
 10
30.8786537662
 20
62.1043485275
 30
0.0
 10
30.7065648434
 20
61.7249072286
 30
0.0
 10
30.3921175858
 20
61.2666646915
 30
0.0
 10
29.8864717932
 20
60.771885708
 30
0.0
 10
29.484559037
 20
60.4895957487
 30
0.0
 10
29.2668066729
 20
60.3571996012
 30
0.0
  0
SPLINE
  5
48F
100
AcDbEntity
  8
0
100
AcDbSpline
 62
7
  6
BYLAYER
 70
0
 71
3
 72
14
 73
10
 74
0
 42
0.0000001
 43
0.0000001
 44
0.0000000001
 40
0.0
 40
0.0
 40
0.0
 40
0.0
 40
0.1089295137
 40
0.2212304741
 40
0.3377545321
 40
0.4591453465
 40
0.7180129493
 40
0.856194297
 40
1.0
 40
1.0
 40
1.0
 40
1.0
 10
41.323301039
 20
31.6220054445
 30
0.0
 10
41.2610019155
 20
31.3904236785
 30
0.0
 10
41.10395945
 20
30.9278107815
 30
0.0
 10
40.7812690078
 20
30.2561338186
 30
0.0
 10
40.3705059354
 20
29.6017838847
 30
0.0
 10
39.6952435991
 20
28.7394334701
 30
0.0
 10
38.8634842076
 20
27.9475562725
 30
0.0
 10
37.9107486652
 20
27.2324133026
 30
0.0
 10
37.3877122117
 20
26.8966829354
 30
0.0
 10
37.1157122573
 20
26.734664929
 30
0.0
  0
SPLINE
  5
490
100
AcDbEntity
  8
0
100
AcDbSpline
 62
7
  6
BYLAYER
 70
0
 71
3
 72
14
 73
10
 74
0
 42
0.0000001
 43
0.0000001
 44
0.0000000001
 40
0.0
 40
0.0
 40
0.0
 40
0.0
 40
0.1463947492
 40
0.2859622894
 40
0.5443145705
 40
0.6645526687
 40
0.7797701086
 40
0.8910600997
 40
1.0
 40
1.0
 40
1.0
 40
1.0
 10
29.2668066729
 20
55.4581658701
 30
0.0
 10
29.3978992011
 20
55.5377764221
 30
0.0
 10
29.648015613
 20
55.7036073004
 30
0.0
 10
30.0935157997
 20
56.0601716822
 30
0.0
 10
30.4668505686
 20
56.4618420068
 30
0.0
 10
30.7419579693
 20
56.9015003116
 30
0.0
 10
30.892010639
 20
57.2336957227
 30
0.0
 10
30.9888473319
 20
57.5728391829
 30
0.0
 10
31.0172786574
 20
57.8029487107
 30
0.0
 10
31.0221747093
 20
57.9169759726
 30
0.0
  0
SPLINE
  5
491
100
AcDbEntity
  8
0
100
AcDbSpline
 62
7
  6
BYLAYER
 70
0
 71
3
 72
14
 73
10
 74
0
 42
0.0000001
 43
0.0000001
 44
0.0000000001
 40
0.0
 40
0.0
 40
0.0
 40
0.0
 40
0.1089295087
 40
0.2212304773
 40
0.3377545562
 40
0.4591453489
 40
0.7180129414
 40
0.8561944774
 40
1.0
 40
1.0
 40
1.0
 40
1.0
 10
41.3232996246
 20
27.9477393264
 30
0.0
 10
41.2610003251
 20
27.716157811
 30
0.0
 10
41.1039575565
 20
27.2535454115
 30
0.0
 10
40.7812668578
 20
26.5818691587
 30
0.0
 10
40.3705038502
 20
25.9275198843
 30
0.0
 10
39.6952416053
 20
25.0651704319
 30
0.0
 10
38.8634816183
 20
24.2732949227
 30
0.0
 10
37.9107490162
 20
23.5581496623
 30
0.0
 10
37.3877126121
 20
23.222419815
 30
0.0
 10
37.1157122573
 20
23.0604037343
 30
0.0
  0
SPLINE
  5
492
100
AcDbEntity
  8
0
100
AcDbSpline
 62
7
  6
BYLAYER
 70
0
 71
3
 72
9
 73
5
 74
0
 42
0.0000001
 43
0.0000001
 44
0.0000000001
 40
0.0
 40
0.0
 40
0.0
 40
0.0
 40
0.5031503531
 40
1.0
 40
1.0
 40
1.0
 40
1.0
 10
11.6941472866
 20
15.1516832473
 30
0.0
 10
11.6399784205
 20
15.3444227131
 30
0.0
 10
11.5546578493
 20
15.7341710255
 30
0.0
 10
11.5175047033
 20
16.1314863682
 30
0.0
 10
11.5113672019
 20
16.3290907974
 30
0.0
  0
SPLINE
  5
493
100
AcDbEntity
  8
0
100
AcDbSpline
 62
7
  6
BYLAYER
 70
0
 71
3
 72
35
 73
31
 74
0
 42
0.0000001
 43
0.0000001
 44
0.0000000001
 40
0.0
 40
0.0
 40
0.0
 40
0.0
 40
0.1218730051
 40
0.2421470904
 40
0.3016011444
 40
0.360481537
 40
0.4186192056
 40
0.4473224109
 40
0.4756874305
 40
0.5036081753
 40
0.5308617514
 40
0.5441251057
 40
0.5570066474
 40
0.5693212414
 40
0.5752321868
 40
0.580976999
 40
0.5871299837
 40
0.5951751941
 40
0.6048504503
 40
0.6147934632
 40
0.6339199672
 40
0.6526150575
 40
0.6709758265
 40
0.6890851455
 40
0.7248012128
 40
0.7600299628
 40
0.7949198282
 40
0.8639470977
 40
0.9322503914
 40
1.0
 40
1.0
 40
1.0
 40
1.0
 10
15.4359246745
 20
29.2623707805
 30
0.0
 10
15.4576056258
 20
29.2520884336
 30
0.0
 10
15.5008506921
 20
29.2320070089
 30
0.0
 10
15.5553073788
 20
29.2083089713
 30
0.0
 10
15.5987602062
 20
29.1904456132
 30
0.0
 10
15.6311223591
 20
29.1777928457
 30
0.0
 10
15.6580763707
 20
29.1679496918
 30
0.0
 10
15.6795671352
 20
29.1606885526
 30
0.0
 10
15.6955388955
 20
29.1556916362
 30
0.0
 10
15.7113747664
 20
29.1512331175
 30
0.0
 10
15.7245085552
 20
29.1481886583
 30
0.0
 10
15.7348809979
 20
29.1464187635
 30
0.0
 10
15.7424106388
 20
29.1456555275
 30
0.0
 10
15.7485880384
 20
29.1456582377
 30
0.0
 10
15.7532110397
 20
29.1464732409
 30
0.0
 10
15.7566558295
 20
29.1476718027
 30
0.0
 10
15.7588263843
 20
29.1513157646
 30
0.0
 10
15.7585286396
 20
29.1562008456
 30
0.0
 10
15.7562605034
 20
29.1612041002
 30
0.0
 10
15.7521144074
 20
29.1676200999
 30
0.0
 10
15.7460293368
 20
29.1748227588
 30
0.0
 10
15.7384292342
 20
29.1828581514
 30
0.0
 10
15.730649032
 20
29.190442264
 30
0.0
 10
15.7201837966
 20
29.200060092
 30
0.0
 10
15.706940465
 20
29.2115568662
 30
0.0
 10
15.6908506734
 20
29.2248002599
 30
0.0
 10
15.6694009095
 20
29.2418453054
 30
0.0
 10
15.6424120776
 20
29.2623787793
 30
0.0
 10
15.6098397014
 20
29.2862441433
 30
0.0
 10
15.5880053467
 20
29.3017645317
 30
0.0
 10
15.5770871492
 20
29.3094279893
 30
0.0
  0
SPLINE
  5
494
100
AcDbEntity
  8
0
100
AcDbSpline
 62
7
  6
BYLAYER
 70
0
 71
3
 72
28
 73
24
 74
0
 42
0.0000001
 43
0.0000001
 44
0.0000000001
 40
0.0
 40
0.0
 40
0.0
 40
0.0
 40
0.0629991276
 40
0.1298214208
 40
0.199769638
 40
0.2719950777
 40
0.3455356693
 40
0.4193645407
 40
0.4924363225
 40
0.5637350765
 40
0.632318028
 40
0.6973659537
 40
0.7582396936
 40
0.786993782
 40
0.8145834251
 40
0.8410119083
 40
0.8663099473
 40
0.8905365429
 40
0.9137849366
 40
0.9361804367
 40
0.9578837955
 40
0.9790850313
 40
1.0
 40
1.0
 40
1.0
 40
1.0
 10
37.0681222235
 20
9.5593753755
 30
0.0
 10
36.5324849597
 20
9.2436610588
 30
0.0
 10
35.3863890191
 20
8.6631525565
 30
0.0
 10
33.5378065539
 20
7.9683606918
 30
0.0
 10
31.5421626025
 20
7.4347296637
 30
0.0
 10
29.4414329682
 20
7.0727863127
 30
0.0
 10
27.2793434423
 20
6.8894519222
 30
0.0
 10
25.101197496
 20
6.8879210635
 30
0.0
 10
22.9526114763
 20
7.0676422016
 30
0.0
 10
20.8785683516
 20
7.4242252029
 30
0.0
 10
18.9222408319
 20
7.9496964677
 30
0.0
 10
17.1245152376
 20
8.6325469455
 30
0.0
 10
15.7638674691
 20
9.3339277269
 30
0.0
 10
14.7928551521
 20
9.96426452
 30
0.0
 10
14.1403342793
 20
10.4570064223
 30
0.0
 10
13.5532810146
 20
10.9760964292
 30
0.0
 10
13.0347306823
 20
11.5187410616
 30
0.0
 10
12.5876277718
 20
12.0822254002
 30
0.0
 10
12.2143080705
 20
12.6634882045
 30
0.0
 10
11.917136911
 20
13.2595797054
 30
0.0
 10
11.6977265219
 20
13.867206015
 30
0.0
 10
11.557753441
 20
14.4829237776
 30
0.0
 10
11.5177754361
 20
14.8980187849
 30
0.0
 10
11.5113672555
 20
15.1043355726
 30
0.0
  0
SPLINE
  5
495
100
AcDbEntity
  8
0
100
AcDbSpline
 62
7
  6
BYLAYER
 70
0
 71
3
 72
14
 73
10
 74
0
 42
0.0000001
 43
0.0000001
 44
0.0000000001
 40
0.0
 40
0.0
 40
0.0
 40
0.0
 40
0.108929316
 40
0.2212304339
 40
0.3377550291
 40
0.459145188
 40
0.7180127353
 40
0.8561998452
 40
1.0
 40
1.0
 40
1.0
 40
1.0
 10
41.3232949283
 20
29.1724755578
 30
0.0
 10
41.2609950412
 20
28.9408951811
 30
0.0
 10
41.1039508936
 20
28.4782844851
 30
0.0
 10
40.7812589201
 20
27.8066095824
 30
0.0
 10
40.370498988
 20
27.1522605887
 30
0.0
 10
39.695234774
 20
26.2899139971
 30
0.0
 10
38.8634448945
 20
25.4980651977
 30
0.0
 10
37.9107789338
 20
24.7828372263
 30
0.0
 10
37.3877313076
 20
24.44711868
 30
0.0
 10
37.1157122573
 20
24.285158438
 30
0.0
  0
SPLINE
  5
496
100
AcDbEntity
  8
0
100
AcDbSpline
 62
7
  6
BYLAYER
 70
0
 71
3
 72
10
 73
6
 74
0
 42
0.0000001
 43
0.0000001
 44
0.0000000001
 40
0.0
 40
0.0
 40
0.0
 40
0.0
 40
0.2492807256
 40
0.62474902
 40
1.0
 40
1.0
 40
1.0
 40
1.0
 10
18.3074066581
 20
60.3052626537
 30
0.0
 10
18.3132960378
 20
60.3087220792
 30
0.0
 10
18.3280137112
 20
60.3174643964
 30
0.0
 10
18.351785987
 20
60.3310904324
 30
0.0
 10
18.3695365211
 20
60.341484273
 30
0.0
 10
18.3784408561
 20
60.3466251625
 30
0.0
  0
SPLINE
  5
497
100
AcDbEntity
  8
0
100
AcDbSpline
 62
7
  6
BYLAYER
 70
0
 71
3
 72
14
 73
10
 74
0
 42
0.0000001
 43
0.0000001
 44
0.0000000001
 40
0.0
 40
0.0
 40
0.0
 40
0.0
 40
0.1088876326
 40
0.2211269479
 40
0.3375891756
 40
0.4589389584
 40
0.7178206196
 40
0.8560664797
 40
1.0
 40
1.0
 40
1.0
 40
1.0
 10
41.333324855
 20
30.4350402452
 30
0.0
 10
41.2723156565
 20
30.2017476381
 30
0.0
 10
41.1173870348
 20
29.735594119
 30
0.0
 10
40.7964569146
 20
29.0585740857
 30
0.0
 10
40.3861249368
 20
28.3989694685
 30
0.0
 10
39.709628952
 20
27.5295926205
 30
0.0
 10
38.8741942031
 20
26.7314342311
 30
0.0
 10
37.9159150991
 20
26.0111862248
 30
0.0
 10
37.389515791
 20
25.6731060085
 30
0.0
 10
37.1157122573
 20
25.509910729
 30
0.0
  0
SPLINE
  5
498
100
AcDbEntity
  8
0
100
AcDbSpline
 62
7
  6
BYLAYER
 70
0
 71
3
 72
11
 73
7
 74
0
 42
0.0000001
 43
0.0000001
 44
0.0000000001
 40
0.0
 40
0.0
 40
0.0
 40
0.0
 40
0.2653545336
 40
0.5182311082
 40
0.7617622132
 40
1.0
 40
1.0
 40
1.0
 40
1.0
 10
12.6934531684
 20
30.3289256332
 30
0.0
 10
12.5123808775
 20
30.5702121493
 30
0.0
 10
12.1876056472
 20
31.06426409
 30
0.0
 10
11.818163691
 20
31.8510268535
 30
0.0
 10
11.5840294385
 20
32.6563639433
 30
0.0
 10
11.5199297484
 20
33.2033902282
 30
0.0
 10
11.5114374202
 20
33.4741015438
 30
0.0
  0
SPLINE
  5
499
100
AcDbEntity
  8
0
100
AcDbSpline
 62
7
  6
BYLAYER
 70
0
 71
3
 72
14
 73
10
 74
0
 42
0.0000001
 43
0.0000001
 44
0.0000000001
 40
0.0
 40
0.0
 40
0.0
 40
0.0
 40
0.1089298638
 40
0.2212306688
 40
0.3377540086
 40
0.4591458451
 40
0.718013529
 40
0.8561862877
 40
1.0
 40
1.0
 40
1.0
 40
1.0
 10
41.3232984176
 20
26.7229811179
 30
0.0
 10
41.2609989627
 20
26.4913992563
 30
0.0
 10
41.103956583
 20
26.028787165
 30
0.0
 10
40.7812664198
 20
25.3571132832
 30
0.0
 10
40.3704982468
 20
24.702767985
 30
0.0
 10
39.6952401325
 20
23.8404199781
 30
0.0
 10
38.8635300691
 20
23.0485079716
 30
0.0
 10
37.9106981186
 20
22.3334966356
 30
0.0
 10
37.3876819623
 20
21.9977517821
 30
0.0
 10
37.1157122573
 20
21.8356500873
 30
0.0
  0
SPLINE
  5
49A
100
AcDbEntity
  8
0
100
AcDbSpline
 62
7
  6
BYLAYER
 70
0
 71
3
 72
14
 73
10
 74
0
 42
0.0000001
 43
0.0000001
 44
0.0000000001
 40
0.0
 40
0.0
 40
0.0
 40
0.0
 40
0.1089296252
 40
0.2212306112
 40
0.3377546
 40
0.4591456464
 40
0.7180133875
 40
0.8561932631
 40
1.0
 40
1.0
 40
1.0
 40
1.0
 10
41.3233005225
 20
41.4200325283
 30
0.0
 10
41.2610013357
 20
41.1884507602
 30
0.0
 10
41.103958876
 20
40.7258380324
 30
0.0
 10
40.7812684769
 20
40.0541616467
 30
0.0
 10
40.3705045408
 20
39.3998125541
 30
0.0
 10
39.6952429505
 20
38.5374626018
 30
0.0
 10
38.8634921841
 20
37.7455795686
 30
0.0
 10
37.9107409677
 20
37.0304597912
 30
0.0
 10
37.3877075019
 20
36.6947294937
 30
0.0
 10
37.1157122573
 20
36.5326997185
 30
0.0
  0
SPLINE
  5
49B
100
AcDbEntity
  8
0
100
AcDbSpline
 62
7
  6
BYLAYER
 70
0
 71
3
 72
14
 73
10
 74
0
 42
0.0000001
 43
0.0000001
 44
0.0000000001
 40
0.0
 40
0.0
 40
0.0
 40
0.0
 40
0.1089298396
 40
0.2212306911
 40
0.337754148
 40
0.4591458739
 40
0.7180135485
 40
0.8561873679
 40
1.0
 40
1.0
 40
1.0
 40
1.0
 10
41.3232950356
 20
21.8239540568
 30
0.0
 10
41.2609951562
 20
21.59237283
 30
0.0
 10
41.1039519975
 20
21.1297619269
 30
0.0
 10
40.7812611652
 20
20.458089601
 30
0.0
 10
40.3704934854
 20
19.803745632
 30
0.0
 10
39.6952352906
 20
18.9413998901
 30
0.0
 10
38.8635203467
 20
18.1494945919
 30
0.0
 10
37.9107026816
 20
17.4344684942
 30
0.0
 10
37.3876851599
 20
17.0987264873
 30
0.0
 10
37.1157122573
 20
16.9366359611
 30
0.0
  0
SPLINE
  5
49C
100
AcDbEntity
  8
0
100
AcDbSpline
 62
7
  6
BYLAYER
 70
0
 71
3
 72
14
 73
10
 74
0
 42
0.0000001
 43
0.0000001
 44
0.0000000001
 40
0.0
 40
0.0
 40
0.0
 40
0.0
 40
0.1089296158
 40
0.2212306066
 40
0.3377545986
 40
0.4591456263
 40
0.7180132515
 40
0.8561930965
 40
1.0
 40
1.0
 40
1.0
 40
1.0
 10
41.3232929752
 20
16.9249319621
 30
0.0
 10
41.2609928395
 20
16.6933514589
 30
0.0
 10
41.1039488148
 20
16.2307413487
 30
0.0
 10
40.7812571209
 20
15.5590689052
 30
0.0
 10
40.3704928803
 20
14.9047236898
 30
0.0
 10
39.6952321945
 20
14.0423789538
 30
0.0
 10
38.8634839353
 20
13.2505006006
 30
0.0
 10
37.9107364169
 20
12.5353837874
 30
0.0
 10
37.3877058323
 20
12.1996531677
 30
0.0
 10
37.1157122573
 20
12.0376223349
 30
0.0
  0
SPLINE
  5
49D
100
AcDbEntity
  8
0
100
AcDbSpline
 62
7
  6
BYLAYER
 70
0
 71
3
 72
9
 73
5
 74
0
 42
0.0000001
 43
0.0000001
 44
0.0000000001
 40
0.0
 40
0.0
 40
0.0
 40
0.0
 40
0.4922533208
 40
1.0
 40
1.0
 40
1.0
 40
1.0
 10
17.9243768113
 20
29.099466713
 30
0.0
 10
18.3933502309
 20
28.7987159676
 30
0.0
 10
19.3257379221
 20
28.1557219526
 30
0.0
 10
20.2208823126
 20
27.4623413361
 30
0.0
 10
20.6671782968
 20
27.1003290109
 30
0.0
  0
SPLINE
  5
49E
100
AcDbEntity
  8
0
100
AcDbSpline
 62
7
  6
BYLAYER
 70
0
 71
3
 72
9
 73
5
 74
0
 42
0.0000001
 43
0.0000001
 44
0.0000000001
 40
0.0
 40
0.0
 40
0.0
 40
0.0
 40
0.4973206461
 40
1.0
 40
1.0
 40
1.0
 40
1.0
 10
41.5069641839
 20
40.2117499543
 30
0.0
 10
41.5012400069
 20
40.0100685134
 30
0.0
 10
41.4661464222
 20
39.6048713303
 30
0.0
 10
41.3850884083
 20
39.2063734743
 30
0.0
 10
41.3335198662
 20
39.0090644388
 30
0.0
  0
SPLINE
  5
49F
100
AcDbEntity
  8
0
100
AcDbSpline
 62
7
  6
BYLAYER
 70
0
 71
3
 72
14
 73
10
 74
0
 42
0.0000001
 43
0.0000001
 44
0.0000000001
 40
0.0
 40
0.0
 40
0.0
 40
0.0
 40
0.1088875829
 40
0.2211271788
 40
0.3375892283
 40
0.4589378188
 40
0.717816009
 40
0.8560674239
 40
1.0
 40
1.0
 40
1.0
 40
1.0
 10
41.3335198662
 20
39.0090644388
 30
0.0
 10
41.2725372939
 20
38.7757359006
 30
0.0
 10
41.1176468026
 20
38.3095079608
 30
0.0
 10
40.7967485622
 20
37.6323755368
 30
0.0
 10
40.3864261618
 20
36.9726603755
 30
0.0
 10
39.7099022288
 20
36.1031532468
 30
0.0
 10
38.874374649
 20
35.3048976692
 30
0.0
 10
37.916049808
 20
34.5844751494
 30
0.0
 10
37.3895716638
 20
34.2463564154
 30
0.0
 10
37.1157122573
 20
34.0831863221
 30
0.0
  0
SPLINE
  5
4A0
100
AcDbEntity
  8
0
100
AcDbSpline
 62
7
  6
BYLAYER
 70
0
 71
3
 72
15
 73
11
 74
0
 42
0.0000001
 43
0.0000001
 44
0.0000000001
 40
0.0
 40
0.0
 40
0.0
 40
0.0
 40
0.1118164708
 40
0.2304558976
 40
0.3546737496
 40
0.4829198368
 40
0.6134438085
 40
0.7443828476
 40
0.8738464325
 40
1.0
 40
1.0
 40
1.0
 40
1.0
 10
37.066972005
 20
29.1552506476
 30
0.0
 10
36.5255544512
 20
28.8357198053
 30
0.0
 10
35.3659952555
 20
28.2494545132
 30
0.0
 10
33.4949932292
 20
27.5500720766
 30
0.0
 10
31.4748429474
 20
27.0154710323
 30
0.0
 10
29.348812837
 20
26.656515748
 30
0.0
 10
27.1621580732
 20
26.4801288407
 30
0.0
 10
24.961559192
 20
26.489440026
 30
0.0
 10
22.7943621535
 20
26.6837378979
 30
0.0
 10
21.377350492
 20
26.9374827433
 30
0.0
 10
20.6860061457
 20
27.0959981651
 30
0.0
  0
SPLINE
  5
4A1
100
AcDbEntity
  8
0
100
AcDbSpline
 62
7
  6
BYLAYER
 70
0
 71
3
 72
14
 73
10
 74
0
 42
0.0000001
 43
0.0000001
 44
0.0000000001
 40
0.0
 40
0.0
 40
0.0
 40
0.0
 40
0.1089298451
 40
0.2212306974
 40
0.3377541499
 40
0.459145888
 40
0.7180135695
 40
0.8561873081
 40
1.0
 40
1.0
 40
1.0
 40
1.0
 10
41.3232950634
 20
18.1496932822
 30
0.0
 10
41.2609951875
 20
17.9181120458
 30
0.0
 10
41.1039520406
 20
17.4555011323
 30
0.0
 10
40.7812612202
 20
16.7838288083
 30
0.0
 10
40.3704934946
 20
16.1294848563
 30
0.0
 10
39.6952353336
 20
15.2671391011
 30
0.0
 10
38.8635208433
 20
14.4752334463
 30
0.0
 10
37.9107022793
 20
13.7602085942
 30
0.0
 10
37.3876849071
 20
13.4244665614
 30
0.0
 10
37.1157122573
 20
13.2623753638
 30
0.0
  0
SPLINE
  5
4A2
100
AcDbEntity
  8
0
100
AcDbSpline
 62
7
  6
BYLAYER
 70
0
 71
3
 72
10
 73
6
 74
0
 42
0.0000001
 43
0.0000001
 44
0.0000000001
 40
0.0
 40
0.0
 40
0.0
 40
0.0
 40
0.2492807256
 40
0.62474902
 40
1.0
 40
1.0
 40
1.0
 40
1.0
 10
34.7107261022
 20
50.9971384047
 30
0.0
 10
34.7048367225
 20
50.9936789793
 30
0.0
 10
34.6901190491
 20
50.984936662
 30
0.0
 10
34.6663467733
 20
50.971310626
 30
0.0
 10
34.6485962392
 20
50.9609167855
 30
0.0
 10
34.6396919042
 20
50.9557758959
 30
0.0
  0
SPLINE
  5
4A3
100
AcDbEntity
  8
0
100
AcDbSpline
 62
7
  6
BYLAYER
 70
0
 71
3
 72
15
 73
11
 74
0
 42
0.0000001
 43
0.0000001
 44
0.0000000001
 40
0.0
 40
0.0
 40
0.0
 40
0.0
 40
0.1482989001
 40
0.289020421
 40
0.422101286
 40
0.5479716689
 40
0.667387816
 40
0.7814699627
 40
0.8917331968
 40
1.0
 40
1.0
 40
1.0
 40
1.0
 10
36.1370869818
 20
48.5547212544
 30
0.0
 10
36.4356045522
 20
48.7300706695
 30
0.0
 10
37.0036601123
 20
49.0960881893
 30
0.0
 10
37.7798121152
 20
49.7057233634
 30
0.0
 10
38.4508227105
 20
50.3567949608
 30
0.0
 10
39.0100693156
 20
51.0434145764
 30
0.0
 10
39.4521284999
 20
51.7595582151
 30
0.0
 10
39.7719467198
 20
52.4989856039
 30
0.0
 10
39.9656469649
 20
53.2542766076
 30
0.0
 10
40.009060146
 20
53.765443576
 30
0.0
 10
40.0090657535
 20
54.018195695
 30
0.0
  0
SPLINE
  5
4A4
100
AcDbEntity
  8
0
100
AcDbSpline
 62
7
  6
BYLAYER
 70
0
 71
3
 72
14
 73
10
 74
0
 42
0.0000001
 43
0.0000001
 44
0.0000000001
 40
0.0
 40
0.0
 40
0.0
 40
0.0
 40
0.1089298554
 40
0.2212306587
 40
0.3377540042
 40
0.4591458228
 40
0.7180134982
 40
0.8561863742
 40
1.0
 40
1.0
 40
1.0
 40
1.0
 10
41.3232985513
 20
19.3744598623
 30
0.0
 10
41.2609991133
 20
19.1428779853
 30
0.0
 10
41.1039567526
 20
18.6802658487
 30
0.0
 10
40.7812666021
 20
18.0085918733
 30
0.0
 10
40.3704985021
 20
17.3542464611
 30
0.0
 10
39.6952403181
 20
16.4918983532
 30
0.0
 10
38.8635295406
 20
15.6999867525
 30
0.0
 10
37.9106987936
 20
14.9849735439
 30
0.0
 10
37.3876823605
 20
14.6492287083
 30
0.0
 10
37.1157122573
 20
14.4871279793
 30
0.0
  0
SPLINE
  5
4A5
100
AcDbEntity
  8
0
100
AcDbSpline
 62
7
  6
BYLAYER
 70
0
 71
3
 72
14
 73
10
 74
0
 42
0.0000001
 43
0.0000001
 44
0.0000000001
 40
0.0
 40
0.0
 40
0.0
 40
0.0
 40
0.1089294474
 40
0.2212305257
 40
0.3377548878
 40
0.459145409
 40
0.7180129929
 40
0.8561971399
 40
1.0
 40
1.0
 40
1.0
 40
1.0
 10
41.3232927352
 20
37.7457427541
 30
0.0
 10
41.2609925712
 20
37.5141625606
 30
0.0
 10
41.1039481841
 20
37.0515525888
 30
0.0
 10
40.7812560856
 20
36.3798794186
 30
0.0
 10
40.3704943448
 20
35.7255326826
 30
0.0
 10
39.6952317358
 20
34.8631878135
 30
0.0
 10
38.8634592904
 20
34.0713278765
 30
0.0
 10
37.9107610004
 20
33.3561458152
 30
0.0
 10
37.3877207357
 20
33.0204228405
 30
0.0
 10
37.1157122573
 20
32.8584342203
 30
0.0
  0
SPLINE
  5
4A6
100
AcDbEntity
  8
0
100
AcDbSpline
 62
7
  6
BYLAYER
 70
0
 71
3
 72
17
 73
13
 74
0
 42
0.0000001
 43
0.0000001
 44
0.0000000001
 40
0.0
 40
0.0
 40
0.0
 40
0.0
 40
0.0556058189
 40
0.1134142358
 40
0.1731982317
 40
0.2347440277
 40
0.3620263774
 40
0.4929315748
 40
0.62483201
 40
0.7550136944
 40
0.8808534378
 40
1.0
 40
1.0
 40
1.0
 40
1.0
 10
37.0590794455
 20
30.3753684686
 30
0.0
 10
36.7397623283
 20
30.1871539958
 30
0.0
 10
36.0734374041
 20
29.8283382585
 30
0.0
 10
35.0206712248
 20
29.3524944805
 30
0.0
 10
33.9022395877
 20
28.9318330444
 30
0.0
 10
32.3178145723
 20
28.4432830095
 30
0.0
 10
30.2297879527
 20
27.9929560008
 30
0.0
 10
27.640065192
 20
27.7143027118
 30
0.0
 10
25.0160605422
 20
27.6985716451
 30
0.0
 10
22.4373411337
 20
27.9452982278
 30
0.0
 10
19.9823763651
 20
28.4457182833
 30
0.0
 10
18.4255534769
 20
28.9548837927
 30
0.0
 10
17.6890666726
 20
29.2521347905
 30
0.0
  0
SPLINE
  5
4A7
100
AcDbEntity
  8
0
100
AcDbSpline
 62
7
  6
BYLAYER
 70
0
 71
3
 72
9
 73
5
 74
0
 42
0.0000001
 43
0.0000001
 44
0.0000000001
 40
0.0
 40
0.0
 40
0.0
 40
0.0
 40
0.2566018052
 40
1.0
 40
1.0
 40
1.0
 40
1.0
 10
16.9477230085
 20
29.5720339794
 30
0.0
 10
16.8140458678
 20
29.6336300227
 30
0.0
 10
16.2964302929
 20
29.88080092
 30
0.0
 10
15.7925041273
 20
30.1570174558
 30
0.0
 10
15.4290319316
 20
30.3799830295
 30
0.0
  0
SPLINE
  5
4A8
100
AcDbEntity
  8
0
100
AcDbSpline
 62
7
  6
BYLAYER
 70
0
 71
3
 72
9
 73
5
 74
0
 42
0.0000001
 43
0.0000001
 44
0.0000000001
 40
0.0
 40
0.0
 40
0.0
 40
0.0
 40
0.5028718599
 40
1.0
 40
1.0
 40
1.0
 40
1.0
 10
11.6776015132
 20
34.8080406621
 30
0.0
 10
11.6285536
 20
34.9910508898
 30
0.0
 10
11.5512445631
 20
35.3607457909
 30
0.0
 10
11.5172704598
 20
35.7369588379
 30
0.0
 10
11.5114159099
 20
35.924172076
 30
0.0
  0
SPLINE
  5
4A9
100
AcDbEntity
  8
0
100
AcDbSpline
 62
7
  6
BYLAYER
 70
0
 71
3
 72
25
 73
21
 74
0
 42
0.0000001
 43
0.0000001
 44
0.0000000001
 40
0.0
 40
0.0
 40
0.0
 40
0.0
 40
0.0616102246
 40
0.1267711624
 40
0.1948932006
 40
0.2652645833
 40
0.3370657068
 40
0.4094201946
 40
0.4814219071
 40
0.5521768369
 40
0.6208343706
 40
0.6866245259
 40
0.7488982249
 40
0.8071736564
 40
0.8611919028
 40
0.9109830615
 40
0.9344251366
 40
0.9569934146
 40
0.9788037261
 40
1.0
 40
1.0
 40
1.0
 40
1.0
 10
37.0679399591
 20
31.6053615573
 30
0.0
 10
36.5654132977
 20
31.3087894008
 30
0.0
 10
35.4939039308
 20
30.7606262315
 30
0.0
 10
33.7698346233
 20
30.0936292898
 30
0.0
 10
31.9112811285
 20
29.5679712864
 30
0.0
 10
29.9528762201
 20
29.1927588885
 30
0.0
 10
27.9306373418
 20
28.9744764157
 30
0.0
 10
25.8820975323
 20
28.9165806592
 30
0.0
 10
23.8452364348
 20
29.0196886193
 30
0.0
 10
21.8578357606
 20
29.2813654535
 30
0.0
 10
19.9566699686
 20
29.6962810708
 30
0.0
 10
18.1767947713
 20
30.2563283327
 30
0.0
 10
16.5508974478
 20
30.9508400056
 30
0.0
 10
15.1085616796
 20
31.7671316326
 30
0.0
 10
13.8763437141
 20
32.690387912
 30
0.0
 10
13.0265270131
 20
33.553520919
 30
0.0
 10
12.482462378
 20
34.2811155767
 30
0.0
 10
12.1483089486
 20
34.8309807852
 30
0.0
 10
11.8818225772
 20
35.3931921146
 30
0.0
 10
11.7484865465
 20
35.7791600162
 30
0.0
 10
11.6941675957
 20
35.9724225609
 30
0.0
  0
SPLINE
  5
4AA
100
AcDbEntity
  8
0
100
AcDbSpline
 62
7
  6
BYLAYER
 70
0
 71
3
 72
9
 73
5
 74
0
 42
0.0000001
 43
0.0000001
 44
0.0000000001
 40
0.0
 40
0.0
 40
0.0
 40
0.0
 40
0.5031503917
 40
1.0
 40
1.0
 40
1.0
 40
1.0
 10
11.6941675957
 20
35.9724225609
 30
0.0
 10
11.639992473
 20
36.1651733768
 30
0.0
 10
11.5546620036
 20
36.5549453671
 30
0.0
 10
11.5175050382
 20
36.9522857328
 30
0.0
 10
11.5113671838
 20
37.1499025881
 30
0.0
  0
SPLINE
  5
4AB
100
AcDbEntity
  8
0
100
AcDbSpline
 62
7
  6
BYLAYER
 70
0
 71
3
 72
15
 73
11
 74
0
 42
0.0000001
 43
0.0000001
 44
0.0000000001
 40
0.0
 40
0.0
 40
0.0
 40
0.0
 40
0.1086161527
 40
0.2193950356
 40
0.3339953634
 40
0.4537886473
 40
0.5797785385
 40
0.7126377361
 40
0.8527373481
 40
1.0
 40
1.0
 40
1.0
 40
1.0
 10
41.5069566436
 20
24.2897912423
 30
0.0
 10
41.4988677291
 20
24.0052898727
 30
0.0
 10
41.4352160616
 20
23.4309267018
 30
0.0
 10
41.2005227458
 20
22.5842868077
 30
0.0
 10
40.8292526393
 20
21.7559681216
 30
0.0
 10
40.3256267427
 20
20.9538740877
 30
0.0
 10
39.6951915632
 20
20.1846744065
 30
0.0
 10
38.9438825798
 20
19.4548595538
 30
0.0
 10
38.0788578589
 20
18.7708557766
 30
0.0
 10
37.4471856983
 20
18.3589561055
 30
0.0
 10
37.1157122573
 20
18.1613892033
 30
0.0
  0
SPLINE
  5
4AC
100
AcDbEntity
  8
0
100
AcDbSpline
 62
7
  6
BYLAYER
 70
0
 71
3
 72
9
 73
5
 74
0
 42
0.0000001
 43
0.0000001
 44
0.0000000001
 40
0.0
 40
0.0
 40
0.0
 40
0.0
 40
0.4949324877
 40
1.0
 40
1.0
 40
1.0
 40
1.0
 10
31.0124532515
 20
61.8679807145
 30
0.0
 10
31.0022236731
 20
61.770026618
 30
0.0
 10
30.9680331232
 20
61.5733130354
 30
0.0
 10
30.9083692016
 20
61.3828413831
 30
0.0
 10
30.8724748947
 20
61.2889661133
 30
0.0
  0
SPLINE
  5
4AD
100
AcDbEntity
  8
0
100
AcDbSpline
 62
7
  6
BYLAYER
 70
0
 71
3
 72
9
 73
5
 74
0
 42
0.0000001
 43
0.0000001
 44
0.0000000001
 40
0.0
 40
0.0
 40
0.0
 40
0.0
 40
0.4805533914
 40
1.0
 40
1.0
 40
1.0
 40
1.0
 10
30.79375933
 20
61.105402838
 30
0.0
 10
30.7088077083
 20
60.9268702669
 30
0.0
 10
30.489396142
 20
60.5748476611
 30
0.0
 10
30.2081413595
 20
60.2715339059
 30
0.0
 10
30.0513711724
 20
60.1262845788
 30
0.0
  0
SPLINE
  5
4AE
100
AcDbEntity
  8
0
100
AcDbSpline
 62
7
  6
BYLAYER
 70
0
 71
3
 72
9
 73
5
 74
0
 42
0.0000001
 43
0.0000001
 44
0.0000000001
 40
0.0
 40
0.0
 40
0.0
 40
0.0
 40
0.2428223501
 40
1.0
 40
1.0
 40
1.0
 40
1.0
 10
29.8820788599
 20
59.9775074652
 30
0.0
 10
29.835144994
 20
59.9383432844
 30
0.0
 10
29.6385991133
 20
59.7809851058
 30
0.0
 10
29.429767384
 20
59.639135502
 30
0.0
 10
29.2668066729
 20
59.5402594469
 30
0.0
  0
SPLINE
  5
4AF
100
AcDbEntity
  8
0
100
AcDbSpline
 62
7
  6
BYLAYER
 70
0
 71
3
 72
14
 73
10
 74
0
 42
0.0000001
 43
0.0000001
 44
0.0000000001
 40
0.0
 40
0.0
 40
0.0
 40
0.0
 40
0.1089295021
 40
0.2212304749
 40
0.3377545697
 40
0.4591453417
 40
0.7180129326
 40
0.8561946466
 40
1.0
 40
1.0
 40
1.0
 40
1.0
 10
41.3232995393
 20
24.2734781345
 30
0.0
 10
41.2610002292
 20
24.0418966446
 30
0.0
 10
41.10395743
 20
23.579284277
 30
0.0
 10
40.7812667017
 20
22.9076080335
 30
0.0
 10
40.3705037948
 20
22.2532587348
 30
0.0
 10
39.6952414793
 20
21.390909329
 30
0.0
 10
38.8634805159
 20
20.5990346309
 30
0.0
 10
37.9107499997
 20
19.8838867003
 30
0.0
 10
37.3877132181
 20
19.5481571911
 30
0.0
 10
37.1157122573
 20
19.3861428746
 30
0.0
  0
SPLINE
  5
4B0
100
AcDbEntity
  8
0
100
AcDbSpline
 62
7
  6
BYLAYER
 70
0
 71
3
 72
25
 73
21
 74
0
 42
0.0000001
 43
0.0000001
 44
0.0000000001
 40
0.0
 40
0.0
 40
0.0
 40
0.0
 40
0.0616102704
 40
0.126771092
 40
0.1948932075
 40
0.2652645984
 40
0.3370657453
 40
0.4094202517
 40
0.4814219791
 40
0.5521769192
 40
0.6208344576
 40
0.6866246115
 40
0.7488983029
 40
0.8071737213
 40
0.8611919502
 40
0.9109830896
 40
0.9344251555
 40
0.9569934253
 40
0.9788037302
 40
1.0
 40
1.0
 40
1.0
 40
1.0
 10
37.0679394413
 20
32.8301099469
 30
0.0
 10
36.5654373051
 20
32.5334950452
 30
0.0
 10
35.4938934716
 20
31.9853890986
 30
0.0
 10
33.7698315299
 20
31.3183859137
 30
0.0
 10
31.9112781059
 20
30.7927200107
 30
0.0
 10
29.9528707207
 20
30.4175137102
 30
0.0
 10
27.9306310604
 20
30.1992288072
 30
0.0
 10
25.8820899924
 20
30.1413345889
 30
0.0
 10
23.8452279344
 20
30.2444429175
 30
0.0
 10
21.8578264811
 20
30.5061206799
 30
0.0
 10
19.9566601819
 20
30.9210372535
 30
0.0
 10
18.1767847848
 20
31.4810856029
 30
0.0
 10
16.5508876108
 20
32.1755984363
 30
0.0
 10
15.1085523673
 20
32.9918912703
 30
0.0
 10
13.8763353219
 20
33.9151487693
 30
0.0
 10
13.026519749
 20
34.778282805
 30
0.0
 10
12.4824562591
 20
35.5058782237
 30
0.0
 10
12.1483037737
 20
36.0557439655
 30
0.0
 10
11.8818184468
 20
36.6179557978
 30
0.0
 10
11.7484831966
 20
37.0039239914
 30
0.0
 10
11.6941646496
 20
37.1971866701
 30
0.0
  0
SPLINE
  5
4B1
100
AcDbEntity
  8
0
100
AcDbSpline
 62
7
  6
BYLAYER
 70
0
 71
3
 72
9
 73
5
 74
0
 42
0.0000001
 43
0.0000001
 44
0.0000000001
 40
0.0
 40
0.0
 40
0.0
 40
0.0
 40
0.5031503475
 40
1.0
 40
1.0
 40
1.0
 40
1.0
 10
11.6941646496
 20
37.1971866701
 30
0.0
 10
11.6399904681
 20
37.3899357034
 30
0.0
 10
11.5546614626
 20
37.7797040098
 30
0.0
 10
11.5175050367
 20
38.1770404936
 30
0.0
 10
11.5113672086
 20
38.3746554377
 30
0.0
  0
SPLINE
  5
4B2
100
AcDbEntity
  8
0
100
AcDbSpline
 62
7
  6
BYLAYER
 70
0
 71
3
 72
25
 73
21
 74
0
 42
0.0000001
 43
0.0000001
 44
0.0000000001
 40
0.0
 40
0.0
 40
0.0
 40
0.0
 40
0.0616102311
 40
0.1267711713
 40
0.1948932096
 40
0.2652645929
 40
0.3370657166
 40
0.4094202043
 40
0.4814219166
 40
0.5521768459
 40
0.6208343787
 40
0.686624533
 40
0.7488982308
 40
0.807173661
 40
0.861191906
 40
0.9109830634
 40
0.9344251379
 40
0.9569934154
 40
0.9788037264
 40
1.0
 40
1.0
 40
1.0
 40
1.0
 10
37.0679395455
 20
24.2568399929
 30
0.0
 10
36.5654126726
 20
23.9602680702
 30
0.0
 10
35.4939036264
 20
23.4121041535
 30
0.0
 10
33.7698341204
 20
22.7451073242
 30
0.0
 10
31.9112805728
 20
22.2194494494
 30
0.0
 10
29.9528756511
 20
21.8442370253
 30
0.0
 10
27.9306367496
 20
21.6259546305
 30
0.0
 10
25.8820969347
 20
21.5680589086
 30
0.0
 10
23.8452358413
 20
21.6711669197
 30
0.0
 10
21.8578351828
 20
21.9328437996
 30
0.0
 10
19.9566694175
 20
22.3477594625
 30
0.0
 10
18.1767942576
 20
22.9078067676
 30
0.0
 10
16.5508969815
 20
23.6023184809
 30
0.0
 10
15.1085612701
 20
24.4186101446
 30
0.0
 10
13.8763433697
 20
25.3418664565
 30
0.0
 10
13.0265267308
 20
26.2049994873
 30
0.0
 10
12.4824621496
 20
26.9325941601
 30
0.0
 10
12.148308761
 20
27.4824593782
 30
0.0
 10
11.8818224314
 20
28.0446707158
 30
0.0
 10
11.7484864303
 20
28.4306386211
 30
0.0
 10
11.6941674944
 20
28.6239011674
 30
0.0
  0
SPLINE
  5
4B3
100
AcDbEntity
  8
0
100
AcDbSpline
 62
7
  6
BYLAYER
 70
0
 71
3
 72
9
 73
5
 74
0
 42
0.0000001
 43
0.0000001
 44
0.0000000001
 40
0.0
 40
0.0
 40
0.0
 40
0.0
 40
0.5031503914
 40
1.0
 40
1.0
 40
1.0
 40
1.0
 10
11.6941674944
 20
28.6239011674
 30
0.0
 10
11.6399923907
 20
28.8166519699
 30
0.0
 10
11.5546619565
 20
29.2064239315
 30
0.0
 10
11.5175050184
 20
29.6037642638
 30
0.0
 10
11.5113671755
 20
29.8013811019
 30
0.0
  0
SPLINE
  5
4B4
100
AcDbEntity
  8
0
100
AcDbSpline
 62
7
  6
BYLAYER
 70
0
 71
3
 72
26
 73
22
 74
0
 42
0.0000001
 43
0.0000001
 44
0.0000000001
 40
0.0
 40
0.0
 40
0.0
 40
0.0
 40
0.0623783649
 40
0.1287146582
 40
0.1983021572
 40
0.270274836
 40
0.3436475674
 40
0.417374903
 40
0.4903949964
 40
0.5616773966
 40
0.6302707009
 40
0.6953545879
 40
0.7562987648
 40
0.8127329029
 40
0.8646304895
 40
0.8890156675
 40
0.9124637084
 40
0.9351067359
 40
0.9571106503
 40
0.9786694697
 40
1.0
 40
1.0
 40
1.0
 40
1.0
 10
36.0550476696
 20
40.8318227879
 30
0.0
 10
35.5700260575
 20
40.5517970837
 30
0.0
 10
34.530599652
 20
40.0393087403
 30
0.0
 10
32.8538845048
 20
39.4317625786
 30
0.0
 10
31.0419269908
 20
38.9717856787
 30
0.0
 10
29.1335199113
 20
38.6691680698
 30
0.0
 10
27.1691156762
 20
38.5303034908
 30
0.0
 10
25.1906419404
 20
38.5581394044
 30
0.0
 10
23.240289906
 20
38.7520910755
 30
0.0
 10
21.3596237143
 20
39.1080265266
 30
0.0
 10
19.5885888904
 20
39.6184381257
 30
0.0
 10
17.9646527136
 20
40.2726434973
 30
0.0
 10
16.5218406544
 20
41.0574169256
 30
0.0
 10
15.2906788875
 20
41.9569150925
 30
0.0
 10
14.4453211461
 20
42.8060133985
 30
0.0
 10
13.9093466007
 20
43.5249183753
 30
0.0
 10
13.5837270029
 20
44.0688548922
 30
0.0
 10
13.3283088137
 20
44.6257440529
 30
0.0
 10
13.1445290639
 20
45.1925579379
 30
0.0
 10
13.0338243701
 20
45.7660463876
 30
0.0
 10
13.0090660454
 20
46.1515603161
 30
0.0
 10
13.0090663802
 20
46.3430729739
 30
0.0
  0
SPLINE
  5
4B5
100
AcDbEntity
  8
0
100
AcDbSpline
 62
7
  6
BYLAYER
 70
0
 71
3
 72
14
 73
10
 74
0
 42
0.0000001
 43
0.0000001
 44
0.0000000001
 40
0.0
 40
0.0
 40
0.0
 40
0.0
 40
0.1088865811
 40
0.2211253694
 40
0.3375892013
 40
0.4589405102
 40
0.7178204173
 40
0.8560670521
 40
1.0
 40
1.0
 40
1.0
 40
1.0
 10
41.3333608091
 20
25.536164642
 30
0.0
 10
41.2723580789
 20
25.3028673614
 30
0.0
 10
41.1174403124
 20
24.836702511
 30
0.0
 10
40.7965142778
 20
24.1596622035
 30
0.0
 10
40.3861777092
 20
23.5000339699
 30
0.0
 10
39.7096776297
 20
22.6306257181
 30
0.0
 10
38.8742217018
 20
21.8324520966
 30
0.0
 10
37.9159407435
 20
21.1121697835
 30
0.0
 10
37.3895272248
 20
20.7740839834
 30
0.0
 10
37.1157122573
 20
20.6108969029
 30
0.0
  0
SPLINE
  5
4B6
100
AcDbEntity
  8
0
100
AcDbSpline
 62
7
  6
BYLAYER
 70
0
 71
3
 72
25
 73
21
 74
0
 42
0.0000001
 43
0.0000001
 44
0.0000000001
 40
0.0
 40
0.0
 40
0.0
 40
0.0
 40
0.0616103027
 40
0.1267708238
 40
0.1948930855
 40
0.265264462
 40
0.337065632
 40
0.4094201559
 40
0.4814219002
 40
0.5521768559
 40
0.6208344083
 40
0.6866245742
 40
0.7488982755
 40
0.8071737017
 40
0.8611919365
 40
0.9109830804
 40
0.9344251484
 40
0.9569934205
 40
0.9788037281
 40
1.0
 40
1.0
 40
1.0
 40
1.0
 10
37.0679399017
 20
34.0548492167
 30
0.0
 10
36.565494709
 20
33.758137374
 30
0.0
 10
35.4938723363
 20
33.2101659555
 30
0.0
 10
33.7698303198
 20
32.5431485623
 30
0.0
 10
31.911279588
 20
32.0174642989
 30
0.0
 10
29.9528690399
 20
31.6422718414
 30
0.0
 10
27.9306301042
 20
31.4239805474
 30
0.0
 10
25.8820884528
 20
31.3660888033
 30
0.0
 10
23.8452261762
 20
31.4691965346
 30
0.0
 10
21.8578244798
 20
31.7308746832
 30
0.0
 10
19.9566580173
 20
32.1457914366
 30
0.0
 10
18.1767825255
 20
32.7058400524
 30
0.0
 10
16.5508853465
 20
33.4003531662
 30
0.0
 10
15.1085501917
 20
34.2166462986
 30
0.0
 10
13.8763333379
 20
35.1399041037
 30
0.0
 10
13.0265180153
 20
36.0030383992
 30
0.0
 10
12.4824547877
 20
36.7306340144
 30
0.0
 10
12.1483025251
 20
37.2804999008
 30
0.0
 10
11.8818174526
 20
37.8427118643
 30
0.0
 10
11.7484823861
 20
38.2286801287
 30
0.0
 10
11.6941639337
 20
38.4219428352
 30
0.0
  0
SPLINE
  5
4B7
100
AcDbEntity
  8
0
100
AcDbSpline
 62
7
  6
BYLAYER
 70
0
 71
3
 72
9
 73
5
 74
0
 42
0.0000001
 43
0.0000001
 44
0.0000000001
 40
0.0
 40
0.0
 40
0.0
 40
0.0
 40
0.5031502959
 40
1.0
 40
1.0
 40
1.0
 40
1.0
 10
11.6941639337
 20
38.4219428352
 30
0.0
 10
11.6399900709
 20
38.6146910981
 30
0.0
 10
11.5546615139
 20
39.0044578475
 30
0.0
 10
11.5175051668
 20
39.4017927137
 30
0.0
 10
11.5113672752
 20
39.5994068788
 30
0.0
  0
SPLINE
  5
4B8
100
AcDbEntity
  8
0
100
AcDbSpline
 62
7
  6
BYLAYER
 70
0
 71
3
 72
14
 73
10
 74
0
 42
0.0000001
 43
0.0000001
 44
0.0000000001
 40
0.0
 40
0.0
 40
0.0
 40
0.0
 40
0.1089293116
 40
0.2212304246
 40
0.3377550147
 40
0.4591451689
 40
0.7180127081
 40
0.8561998184
 40
1.0
 40
1.0
 40
1.0
 40
1.0
 10
41.3232951325
 20
36.5209980709
 30
0.0
 10
41.260995271
 20
36.2894176597
 30
0.0
 10
41.1039511655
 20
35.8268068922
 30
0.0
 10
40.7812592265
 20
35.1551318821
 30
0.0
 10
40.3704993016
 20
34.500782783
 30
0.0
 10
39.6952350626
 20
33.6384360499
 30
0.0
 10
38.8634451052
 20
32.846587113
 30
0.0
 10
37.9107789634
 20
32.1313590152
 30
0.0
 10
37.3877313068
 20
31.795640246
 30
0.0
 10
37.1157122573
 20
31.6336797933
 30
0.0
  0
SPLINE
  5
4B9
100
AcDbEntity
  8
0
100
AcDbSpline
 62
7
  6
BYLAYER
 70
0
 71
3
 72
25
 73
21
 74
0
 42
0.0000001
 43
0.0000001
 44
0.0000000001
 40
0.0
 40
0.0
 40
0.0
 40
0.0
 40
0.0616068818
 40
0.1267636871
 40
0.1948811268
 40
0.265247653
 40
0.3370436637
 40
0.4093931478
 40
0.4813914834
 40
0.5521446098
 40
0.6208023315
 40
0.6865933782
 40
0.7488708045
 40
0.8071522711
 40
0.8611765893
 40
0.9109733492
 40
0.9344182985
 40
0.9569892596
 40
0.9788019053
 40
1.0
 40
1.0
 40
1.0
 40
1.0
 10
37.0679331179
 20
35.279612038
 30
0.0
 10
36.5655330312
 20
34.983003922
 30
0.0
 10
35.4941355211
 20
34.4350262368
 30
0.0
 10
33.7703778841
 20
33.7680893255
 30
0.0
 10
31.9121567024
 20
33.2424378469
 30
0.0
 10
29.9541008142
 20
32.8672170024
 30
0.0
 10
27.9322216517
 20
32.6488500434
 30
0.0
 10
25.8840212754
 20
32.5908309436
 30
0.0
 10
23.8474553682
 20
32.6937577079
 30
0.0
 10
21.8602783187
 20
32.9552095986
 30
0.0
 10
19.9592653408
 20
33.3698636351
 30
0.0
 10
18.1794498914
 20
33.9296180491
 30
0.0
 10
16.5535094571
 20
34.6238255129
 30
0.0
 10
15.1110217139
 20
35.4398063622
 30
0.0
 10
13.8785529793
 20
36.3627422561
 30
0.0
 10
13.0284463021
 20
37.2256034198
 30
0.0
 10
12.4840817704
 20
37.9529895143
 30
0.0
 10
12.1496796174
 20
38.5027137226
 30
0.0
 10
11.8829149982
 20
39.0647939902
 30
0.0
 10
11.7493715745
 20
39.4506874453
 30
0.0
 10
11.6949461012
 20
39.6439168213
 30
0.0
  0
SPLINE
  5
4BA
100
AcDbEntity
  8
0
100
AcDbSpline
 62
7
  6
BYLAYER
 70
0
 71
3
 72
9
 73
5
 74
0
 42
0.0000001
 43
0.0000001
 44
0.0000000001
 40
0.0
 40
0.0
 40
0.0
 40
0.0
 40
0.5031640985
 40
1.0
 40
1.0
 40
1.0
 40
1.0
 10
11.6949461012
 20
39.6439168213
 30
0.0
 10
11.6405316699
 20
39.8371069944
 30
0.0
 10
11.5548273981
 20
40.2277859428
 30
0.0
 10
11.5175213602
 20
40.6260831336
 30
0.0
 10
11.5113680127
 20
40.8241705113
 30
0.0
  0
SPLINE
  5
4BB
100
AcDbEntity
  8
0
100
AcDbSpline
 62
7
  6
BYLAYER
 70
0
 71
3
 72
14
 73
10
 74
0
 42
0.0000001
 43
0.0000001
 44
0.0000000001
 40
0.0
 40
0.0
 40
0.0
 40
0.0
 40
0.276326063
 40
0.4064825369
 40
0.5317785666
 40
0.6529073619
 40
0.7706853323
 40
0.8860367442
 40
1.0
 40
1.0
 40
1.0
 40
1.0
 10
13.8348387257
 20
26.6523310902
 30
0.0
 10
13.4837701504
 20
26.9638518864
 30
0.0
 10
12.9990707978
 20
27.4614499153
 30
0.0
 10
12.4615011891
 20
28.1886015357
 30
0.0
 10
12.1318270101
 20
28.7380414966
 30
0.0
 10
11.8696090645
 20
29.2996205969
 30
0.0
 10
11.6761077019
 20
29.8707641937
 30
0.0
 10
11.5524582158
 20
30.4485413312
 30
0.0
 10
11.5170363726
 20
30.8375582142
 30
0.0
 10
11.5112279334
 20
31.0310440037
 30
0.0
  0
SPLINE
  5
4BC
100
AcDbEntity
  8
0
100
AcDbSpline
 62
7
  6
BYLAYER
 70
0
 71
3
 72
23
 73
19
 74
0
 42
0.0000001
 43
0.0000001
 44
0.0000000001
 40
0.0
 40
0.0
 40
0.0
 40
0.0
 40
0.0578326814
 40
0.1184714805
 40
0.1815627494
 40
0.2467064309
 40
0.3134226842
 40
0.3811900966
 40
0.4494598215
 40
0.5176673858
 40
0.5852460314
 40
0.6516439577
 40
0.716337515
 40
0.7788478849
 40
0.8387570622
 40
0.8957216908
 40
0.9495131508
 40
1.0
 40
1.0
 40
1.0
 40
1.0
 10
37.0670212095
 20
25.4810212709
 30
0.0
 10
36.660050689
 20
25.2406537029
 30
0.0
 10
35.8015721139
 20
24.7893901456
 30
0.0
 10
34.4320519393
 20
24.2141392436
 30
0.0
 10
32.9646842715
 20
23.7300854882
 30
0.0
 10
31.4177331052
 20
23.3430552381
 30
0.0
 10
29.8101431231
 20
23.0574562267
 30
0.0
 10
28.161797803
 20
22.8765316613
 30
0.0
 10
26.4930488462
 20
22.8022316518
 30
0.0
 10
24.8245174055
 20
22.8352004682
 30
0.0
 10
23.176834091
 20
22.9747901626
 30
0.0
 10
21.5703643398
 20
23.2189826843
 30
0.0
 10
20.0249198287
 20
23.5644778775
 30
0.0
 10
18.5595163175
 20
24.0067915694
 30
0.0
 10
17.1921850143
 20
24.5402473004
 30
0.0
 10
15.9395821177
 20
25.1582830396
 30
0.0
 10
14.8172570938
 20
25.8528915203
 30
0.0
 10
14.1433361013
 20
26.3783185157
 30
0.0
 10
13.8348387257
 20
26.6523310902
 30
0.0
  0
SPLINE
  5
4BD
100
AcDbEntity
  8
0
100
AcDbSpline
 62
7
  6
BYLAYER
 70
0
 71
3
 72
25
 73
21
 74
0
 42
0.0000001
 43
0.0000001
 44
0.0000000001
 40
0.0
 40
0.0
 40
0.0
 40
0.0
 40
0.0616104177
 40
0.1267709527
 40
0.1948932045
 40
0.265264575
 40
0.3370657343
 40
0.4094202455
 40
0.4814219758
 40
0.5521769171
 40
0.6208344554
 40
0.6866246086
 40
0.748898299
 40
0.8071737167
 40
0.8611919454
 40
0.9109830855
 40
0.9344251521
 40
0.9569934229
 40
0.978803729
 40
1.0
 40
1.0
 40
1.0
 40
1.0
 10
37.0679338755
 20
37.7291143565
 30
0.0
 10
36.5654880699
 20
37.4324016532
 30
0.0
 10
35.4938682492
 20
36.8844231728
 30
0.0
 10
33.769824494
 20
36.2174071931
 30
0.0
 10
31.9112739857
 20
35.6917242867
 30
0.0
 10
29.9528641059
 20
35.3165317969
 30
0.0
 10
27.930625803
 20
35.0982412338
 30
0.0
 10
25.8820849441
 20
35.0403497147
 30
0.0
 10
23.8452235009
 20
35.1434576827
 30
0.0
 10
21.8578226523
 20
35.4051358985
 30
0.0
 10
19.9566570043
 20
35.8200526052
 30
0.0
 10
18.1767822528
 20
36.3801010546
 30
0.0
 10
16.5508857008
 20
37.0746138964
 30
0.0
 10
15.1085510262
 20
37.8909066648
 30
0.0
 10
13.8763344755
 20
38.8141640306
 30
0.0
 10
13.0265192478
 20
39.6772978989
 30
0.0
 10
12.4824559729
 20
40.4048931579
 30
0.0
 10
12.1483036134
 20
40.9547587765
 30
0.0
 10
11.8818183812
 20
41.5169704772
 30
0.0
 10
11.7484831724
 20
41.9029385761
 30
0.0
 10
11.6941646398
 20
42.096201207
 30
0.0
  0
SPLINE
  5
4BE
100
AcDbEntity
  8
0
100
AcDbSpline
 62
7
  6
BYLAYER
 70
0
 71
3
 72
9
 73
5
 74
0
 42
0.0000001
 43
0.0000001
 44
0.0000000001
 40
0.0
 40
0.0
 40
0.0
 40
0.0
 40
0.5031503419
 40
1.0
 40
1.0
 40
1.0
 40
1.0
 10
11.6941646398
 20
42.096201207
 30
0.0
 10
11.6399905711
 20
42.2889498425
 30
0.0
 10
11.5546616964
 20
42.6787173338
 30
0.0
 10
11.517505199
 20
43.0760529828
 30
0.0
 10
11.5113672836
 20
43.2736675201
 30
0.0
  0
SPLINE
  5
4BF
100
AcDbEntity
  8
0
100
AcDbSpline
 62
7
  6
BYLAYER
 70
0
 71
3
 72
17
 73
13
 74
0
 42
0.0000001
 43
0.0000001
 44
0.0000000001
 40
0.0
 40
0.0
 40
0.0
 40
0.0
 40
0.1158028627
 40
0.2401332088
 40
0.3704550929
 40
0.503699181
 40
0.6364968542
 40
0.7654614253
 40
0.8275321915
 40
0.8875093794
 40
0.9450902884
 40
1.0
 40
1.0
 40
1.0
 40
1.0
 10
29.014859048
 20
54.9546727487
 30
0.0
 10
28.741561009
 20
54.7968845536
 30
0.0
 10
28.146419271
 20
54.5176924871
 30
0.0
 10
27.1797250892
 20
54.2179308029
 30
0.0
 10
26.1369132887
 20
54.0302072012
 30
0.0
 10
25.056676472
 20
53.9612947744
 30
0.0
 10
23.9792839758
 20
54.0134498844
 30
0.0
 10
23.1062729945
 20
54.1578184749
 30
0.0
 10
22.4447514335
 20
54.3335310037
 30
0.0
 10
21.9807682782
 20
54.4908540617
 30
0.0
 10
21.5474245188
 20
54.6738801962
 30
0.0
 10
21.2749347972
 20
54.8152441898
 30
0.0
 10
21.1453456613
 20
54.8900607506
 30
0.0
  0
SPLINE
  5
4C0
100
AcDbEntity
  8
0
100
AcDbSpline
 62
7
  6
BYLAYER
 70
0
 71
3
 72
14
 73
10
 74
0
 42
0.0000001
 43
0.0000001
 44
0.0000000001
 40
0.0
 40
0.0
 40
0.0
 40
0.0
 40
0.1089227589
 40
0.2212197198
 40
0.3377427314
 40
0.4591224615
 40
0.7179775068
 40
0.8562064242
 40
1.0
 40
1.0
 40
1.0
 40
1.0
 10
41.3232699432
 20
14.4753396466
 30
0.0
 10
41.2609668617
 20
14.2437658189
 30
0.0
 10
41.103914253
 20
13.7811637788
 30
0.0
 10
40.7812139105
 20
13.1094928421
 30
0.0
 10
40.370476702
 20
12.4551398956
 30
0.0
 10
39.6951956672
 20
11.5928072157
 30
0.0
 10
38.86316454
 20
10.8011420987
 30
0.0
 10
37.9109096219
 20
10.0852327709
 30
0.0
 10
37.3878249859
 20
9.7493461727
 30
0.0
 10
37.1157122573
 20
9.5875486145
 30
0.0
  0
SPLINE
  5
4C1
100
AcDbEntity
  8
0
100
AcDbSpline
 62
7
  6
BYLAYER
 70
0
 71
3
 72
25
 73
21
 74
0
 42
0.0000001
 43
0.0000001
 44
0.0000000001
 40
0.0
 40
0.0
 40
0.0
 40
0.0
 40
0.061610372
 40
0.1267710165
 40
0.1948932131
 40
0.2652645873
 40
0.3370657371
 40
0.4094202418
 40
0.4814219669
 40
0.5521769044
 40
0.6208344405
 40
0.6866245931
 40
0.7488982845
 40
0.8071737046
 40
0.8611919369
 40
0.9109830809
 40
0.9344251494
 40
0.9569934223
 40
0.9788037301
 40
1.0
 40
1.0
 40
1.0
 40
1.0
 10
37.0679346454
 20
36.5043644084
 30
0.0
 10
36.5654674486
 20
36.207688812
 30
0.0
 10
35.4938767763
 20
35.6596615114
 30
0.0
 10
33.7698261864
 20
34.9926506607
 30
0.0
 10
31.9112748754
 20
34.4669744289
 30
0.0
 10
29.9528663357
 20
34.0917767612
 30
0.0
 10
27.9306279289
 20
33.8734884246
 30
0.0
 10
25.8820874132
 20
33.8155958534
 30
0.0
 10
23.8452261381
 20
33.9187038826
 30
0.0
 10
21.8578254218
 20
34.180381783
 30
0.0
 10
19.9566598295
 20
34.5952982408
 30
0.0
 10
18.1767850582
 20
35.1553464028
 30
0.0
 10
16.5508884006
 20
35.8498589493
 30
0.0
 10
15.1085535318
 20
36.6661514182
 30
0.0
 10
13.8763366973
 20
37.5894084892
 30
0.0
 10
13.0265211448
 20
38.45254211
 30
0.0
 10
12.4824575523
 20
39.1801371945
 30
0.0
 10
12.1483049434
 20
39.7300027054
 30
0.0
 10
11.8818194508
 20
40.2922142927
 30
0.0
 10
11.7484840316
 20
40.6781823126
 30
0.0
 10
11.6941653891
 20
40.8714448965
 30
0.0
  0
SPLINE
  5
4C2
100
AcDbEntity
  8
0
100
AcDbSpline
 62
7
  6
BYLAYER
 70
0
 71
3
 72
9
 73
5
 74
0
 42
0.0000001
 43
0.0000001
 44
0.0000000001
 40
0.0
 40
0.0
 40
0.0
 40
0.0
 40
0.5031502639
 40
1.0
 40
1.0
 40
1.0
 40
1.0
 10
11.6941653891
 20
40.8714448965
 30
0.0
 10
11.6399910944
 20
41.0641938994
 30
0.0
 10
11.554661837
 20
41.4539622222
 30
0.0
 10
11.5175052125
 20
41.8512987584
 30
0.0
 10
11.5113672844
 20
42.0489137669
 30
0.0
  0
SPLINE
  5
4C3
100
AcDbEntity
  8
0
100
AcDbSpline
 62
7
  6
BYLAYER
 70
0
 71
3
 72
15
 73
11
 74
0
 42
0.0000001
 43
0.0000001
 44
0.0000000001
 40
0.0
 40
0.0
 40
0.0
 40
0.0
 40
0.1105883375
 40
0.2228422047
 40
0.3383100383
 40
0.4583155947
 40
0.5838733572
 40
0.7157499005
 40
0.8544550302
 40
1.0
 40
1.0
 40
1.0
 40
1.0
 10
41.5090482605
 20
14.6400867635
 30
0.0
 10
41.5090342667
 20
14.3736414611
 30
0.0
 10
41.4677040938
 20
13.8358579004
 30
0.0
 10
41.2826848195
 20
13.0391095467
 30
0.0
 10
40.9767683006
 20
12.2561908519
 30
0.0
 10
40.5529795878
 20
11.4938028595
 30
0.0
 10
40.0154476515
 20
10.7576972439
 30
0.0
 10
39.3686743415
 20
10.0533582947
 30
0.0
 10
38.6185143416
 20
9.3859693886
 30
0.0
 10
38.0666408471
 20
8.9787044298
 30
0.0
 10
37.7761782828
 20
8.7822370443
 30
0.0
  0
SPLINE
  5
4C4
100
AcDbEntity
  8
0
100
AcDbSpline
 62
7
  6
BYLAYER
 70
0
 71
3
 72
14
 73
10
 74
0
 42
0.0000001
 43
0.0000001
 44
0.0000000001
 40
0.0
 40
0.0
 40
0.0
 40
0.0
 40
0.1089271747
 40
0.221225029
 40
0.3377455045
 40
0.4591337873
 40
0.7180015782
 40
0.8561864648
 40
1.0
 40
1.0
 40
1.0
 40
1.0
 10
41.3240030838
 20
35.298878469
 30
0.0
 10
41.2617907266
 20
35.0671772824
 30
0.0
 10
41.1048900836
 20
34.6043163216
 30
0.0
 10
40.7823192545
 20
33.9322639255
 30
0.0
 10
40.3715805364
 20
33.2775474279
 30
0.0
 10
39.6962282525
 20
32.4147131841
 30
0.0
 10
38.864213322
 20
31.6224079877
 30
0.0
 10
37.9111039217
 20
30.9069092039
 30
0.0
 10
37.3878371696
 20
30.5710201259
 30
0.0
 10
37.1157122573
 20
30.4089254841
 30
0.0
  0
SPLINE
  5
4C5
100
AcDbEntity
  8
0
100
AcDbSpline
 62
7
  6
BYLAYER
 70
0
 71
3
 72
14
 73
10
 74
0
 42
0.0000001
 43
0.0000001
 44
0.0000000001
 40
0.0
 40
0.0
 40
0.0
 40
0.0
 40
0.1089291733
 40
0.2212300363
 40
0.3377542433
 40
0.4591443826
 40
0.7180113778
 40
0.8561965492
 40
1.0
 40
1.0
 40
1.0
 40
1.0
 10
41.3232904922
 20
34.0714735639
 30
0.0
 10
41.2609900461
 20
33.8398938041
 30
0.0
 10
41.1039451156
 20
33.3772846085
 30
0.0
 10
40.7812525236
 20
32.7056123861
 30
0.0
 10
40.3704912726
 20
32.051266381
 30
0.0
 10
39.6952284316
 20
31.1889229628
 30
0.0
 10
38.8634502954
 20
30.3970683385
 30
0.0
 10
37.9107611434
 20
29.6818689068
 30
0.0
 10
37.3877216582
 20
29.3461363933
 30
0.0
 10
37.1157122573
 20
29.1841461154
 30
0.0
  0
SPLINE
  5
4C6
100
AcDbEntity
  8
0
100
AcDbSpline
 62
7
  6
BYLAYER
 70
0
 71
3
 72
14
 73
10
 74
0
 42
0.0000001
 43
0.0000001
 44
0.0000000001
 40
0.0
 40
0.0
 40
0.0
 40
0.0
 40
0.1108600789
 40
0.2271184471
 40
0.3483032509
 40
0.4737603492
 40
0.6026746883
 40
0.7340708229
 40
1.0
 40
1.0
 40
1.0
 40
1.0
 10
29.0550751794
 20
56.8662470937
 30
0.0
 10
28.9170072119
 20
56.7738499658
 30
0.0
 10
28.624374534
 20
56.5988703779
 30
0.0
 10
28.1537862149
 20
56.3717083772
 30
0.0
 10
27.645818333
 20
56.175889206
 30
0.0
 10
27.1065471273
 20
56.0132104358
 30
0.0
 10
26.5423419265
 20
55.8850440701
 30
0.0
 10
25.7630513683
 20
55.7616561466
 30
0.0
 10
25.1665207192
 20
55.7260438403
 30
0.0
 10
24.7680078802
 20
55.7275185732
 30
0.0
  0
SPLINE
  5
4C7
100
AcDbEntity
  8
0
100
AcDbSpline
 62
7
  6
BYLAYER
 70
0
 71
3
 72
14
 73
10
 74
0
 42
0.0000001
 43
0.0000001
 44
0.0000000001
 40
0.0
 40
0.0
 40
0.0
 40
0.0
 40
0.2718912952
 40
0.4044496818
 40
0.5334777277
 40
0.658170565
 40
0.7778646216
 40
0.8919793335
 40
1.0
 40
1.0
 40
1.0
 40
1.0
 10
24.7680078802
 20
55.7275185732
 30
0.0
 10
24.3925398437
 20
55.7289080266
 30
0.0
 10
23.8332951982
 20
55.7643742445
 30
0.0
 10
23.105235739
 20
55.8791470686
 30
0.0
 10
22.584380539
 20
55.9962922246
 30
0.0
 10
22.0899413149
 20
56.1442496406
 30
0.0
 10
21.6270100419
 20
56.321165562
 30
0.0
 10
21.2006954566
 20
56.5250849888
 30
0.0
 10
20.9363317581
 20
56.6817664336
 30
0.0
 10
20.8120925267
 20
56.7643310604
 30
0.0
  0
SPLINE
  5
4C8
100
AcDbEntity
  8
0
100
AcDbSpline
 62
7
  6
BYLAYER
 70
0
 71
3
 72
14
 73
10
 74
0
 42
0.0000001
 43
0.0000001
 44
0.0000000001
 40
0.0
 40
0.0
 40
0.0
 40
0.0
 40
0.1104048411
 40
0.2280011111
 40
0.3515398186
 40
0.4795302263
 40
0.6103059929
 40
0.7419696424
 40
1.0
 40
1.0
 40
1.0
 40
1.0
 10
29.061093941
 20
56.0539464676
 30
0.0
 10
28.8727512172
 20
55.9276066272
 30
0.0
 10
28.4654296035
 20
55.6934674721
 30
0.0
 10
27.8006823486
 20
55.4079935396
 30
0.0
 10
27.0754700672
 20
55.1822450551
 30
0.0
 10
26.3057994755
 20
55.0209406404
 30
0.0
 10
25.508236338
 20
54.9265643174
 30
0.0
 10
24.4389273011
 20
54.8915740666
 30
0.0
 10
23.6364038941
 20
54.9670550877
 30
0.0
 10
23.115744211
 20
55.066346959
 30
0.0
  0
SPLINE
  5
4C9
100
AcDbEntity
  8
0
100
AcDbSpline
 62
7
  6
BYLAYER
 70
0
 71
3
 72
11
 73
7
 74
0
 42
0.0000001
 43
0.0000001
 44
0.0000000001
 40
0.0
 40
0.0
 40
0.0
 40
0.0
 40
0.2681999423
 40
0.5255250734
 40
0.7698986676
 40
1.0
 40
1.0
 40
1.0
 40
1.0
 10
23.115744211
 20
55.066346959
 30
0.0
 10
22.9117015983
 20
55.1052586963
 30
0.0
 10
22.5145627286
 20
55.1965730946
 30
0.0
 10
21.9454255665
 20
55.3767245647
 30
0.0
 10
21.4214653773
 20
55.5948122949
 30
0.0
 10
21.0970523113
 20
55.769167296
 30
0.0
 10
20.9452247169
 20
55.8624845019
 30
0.0
  0
SPLINE
  5
4CA
100
AcDbEntity
  8
0
100
AcDbSpline
 62
7
  6
BYLAYER
 70
0
 71
3
 72
9
 73
5
 74
0
 42
0.0000001
 43
0.0000001
 44
0.0000000001
 40
0.0
 40
0.0
 40
0.0
 40
0.0
 40
0.2449736501
 40
1.0
 40
1.0
 40
1.0
 40
1.0
 10
28.3336241007
 20
54.828129452
 30
0.0
 10
28.2803403385
 20
54.8030728116
 30
0.0
 10
28.0613939412
 20
54.7038644897
 30
0.0
 10
27.8370271009
 20
54.6167198396
 30
0.0
 10
27.6655670988
 20
54.5572637727
 30
0.0
  0
SPLINE
  5
4CB
100
AcDbEntity
  8
0
100
AcDbSpline
 62
7
  6
BYLAYER
 70
0
 71
3
 72
15
 73
11
 74
0
 42
0.0000001
 43
0.0000001
 44
0.0000000001
 40
0.0
 40
0.0
 40
0.0
 40
0.0
 40
0.1232179298
 40
0.2505419581
 40
0.3802207108
 40
0.510429754
 40
0.6392881276
 40
0.7649097763
 40
0.8856266322
 40
1.0
 40
1.0
 40
1.0
 40
1.0
 10
27.6655670988
 20
54.5572637727
 30
0.0
 10
27.4256606271
 20
54.4740729699
 30
0.0
 10
26.9289338009
 20
54.329799424
 30
0.0
 10
26.1585657339
 20
54.1814106371
 30
0.0
 10
25.3637688207
 20
54.0999141845
 30
0.0
 10
24.5618162435
 20
54.0865207325
 30
0.0
 10
23.7699427147
 20
54.140335649
 30
0.0
 10
23.0049406572
 20
54.2595973433
 30
0.0
 10
22.2832584234
 20
54.4422162606
 30
0.0
 10
21.8271079414
 20
54.6087278503
 30
0.0
 10
21.6108228644
 20
54.7023903537
 30
0.0
  0
SPLINE
  5
4CC
100
AcDbEntity
  8
0
100
AcDbSpline
 62
7
  6
BYLAYER
 70
0
 71
3
 72
26
 73
22
 74
0
 42
0.0000001
 43
0.0000001
 44
0.0000000001
 40
0.0
 40
0.0
 40
0.0
 40
0.0
 40
0.0070228268
 40
0.0141513045
 40
0.0284387723
 40
0.0426937207
 40
0.0569313078
 40
0.0855174424
 40
0.1142807333
 40
0.1432277443
 40
0.1723628513
 40
0.2312399309
 40
0.2610424127
 40
0.291036283
 40
0.3516105966
 40
0.4129690922
 40
0.475112608
 40
0.6017284773
 40
0.7314387965
 40
0.8642103128
 40
1.0
 40
1.0
 40
1.0
 40
1.0
 10
39.1498609005
 20
42.2611917444
 30
0.0
 10
39.1441770196
 20
42.2549586133
 30
0.0
 10
39.1333835558
 20
42.2418092449
 30
0.0
 10
39.1122262159
 20
42.2149980896
 30
0.0
 10
39.0854391596
 20
42.1815509796
 30
0.0
 10
39.0524133163
 20
42.1421786946
 30
0.0
 10
39.0073387464
 20
42.0905153473
 30
0.0
 10
38.9501584157
 20
42.026291927
 30
0.0
 10
38.8801573681
 20
41.9498385879
 30
0.0
 10
38.8087154943
 20
41.8738237971
 30
0.0
 10
38.7112501919
 20
41.7726387459
 30
0.0
 10
38.6110271465
 20
41.6727185924
 30
0.0
 10
38.5096031672
 20
41.5725547789
 30
0.0
 10
38.4052871146
 20
41.4724345135
 30
0.0
 10
38.2715894182
 20
41.3482071184
 30
0.0
 10
38.1062627497
 20
41.2013642665
 30
0.0
 10
37.8773977722
 20
41.0067062096
 30
0.0
 10
37.5779984261
 20
40.768403828
 30
0.0
 10
37.2004488394
 20
40.4927064066
 30
0.0
 10
36.8030057814
 20
40.2262335143
 30
0.0
 10
36.5283015061
 20
40.0569518654
 30
0.0
 10
36.3879069965
 20
39.9739295135
 30
0.0
  0
SPLINE
  5
4CD
100
AcDbEntity
  8
0
100
AcDbSpline
 62
7
  6
BYLAYER
 70
0
 71
3
 72
15
 73
11
 74
0
 42
0.0000001
 43
0.0000001
 44
0.0000000001
 40
0.0
 40
0.0
 40
0.0
 40
0.0
 40
0.1203612177
 40
0.2443564057
 40
0.3708894558
 40
0.4987998029
 40
0.6268654851
 40
0.7538495886
 40
0.87858881
 40
1.0
 40
1.0
 40
1.0
 40
1.0
 10
20.0162404075
 20
7.5374705042
 30
0.0
 10
20.5210987275
 20
7.3926682862
 30
0.0
 10
21.558443521
 20
7.1404387053
 30
0.0
 10
23.1567728698
 20
6.8775367209
 30
0.0
 10
24.8027071895
 20
6.7273254855
 30
0.0
 10
26.4727617863
 20
6.6915249694
 30
0.0
 10
28.14334309
 20
6.7694173925
 30
0.0
 10
29.7909023929
 20
6.9610015794
 30
0.0
 10
31.3918882228
 20
7.2651165469
 30
0.0
 10
32.4302115021
 20
7.5451426035
 30
0.0
 10
32.9356401053
 20
7.7039672817
 30
0.0
  0
SPLINE
  5
4CE
100
AcDbEntity
  8
0
100
AcDbSpline
 62
7
  6
BYLAYER
 70
0
 71
3
 72
15
 73
11
 74
0
 42
0.0000001
 43
0.0000001
 44
0.0000000001
 40
0.0
 40
0.0
 40
0.0
 40
0.0
 40
0.1202838426
 40
0.2442778322
 40
0.370815679
 40
0.498715245
 40
0.626782037
 40
0.7538098269
 40
0.8785837103
 40
1.0
 40
1.0
 40
1.0
 40
1.0
 10
20.0132979584
 20
8.7634123246
 30
0.0
 10
20.5168572909
 20
8.6194431069
 30
0.0
 10
21.5517238677
 20
8.368450046
 30
0.0
 10
23.145962218
 20
8.1046502084
 30
0.0
 10
24.7880402924
 20
7.95213039
 30
0.0
 10
26.4544343396
 20
7.9142837944
 30
0.0
 10
28.1215775855
 20
7.9919544441
 30
0.0
 10
29.7658308603
 20
8.1835137713
 30
0.0
 10
31.3640007984
 20
8.4850905568
 30
0.0
 10
32.4008776538
 20
8.7620723209
 30
0.0
 10
32.905630384
 20
8.9192762305
 30
0.0
  0
SPLINE
  5
4CF
100
AcDbEntity
  8
0
100
AcDbSpline
 62
7
  6
BYLAYER
 70
0
 71
3
 72
15
 73
11
 74
0
 42
0.0000001
 43
0.0000001
 44
0.0000000001
 40
0.0
 40
0.0
 40
0.0
 40
0.0
 40
0.1203440193
 40
0.2443198417
 40
0.3708567657
 40
0.4987644708
 40
0.6268086898
 40
0.7537937545
 40
0.8785633465
 40
1.0
 40
1.0
 40
1.0
 40
1.0
 10
20.0397615051
 20
9.9793878919
 30
0.0
 10
20.5433181693
 20
9.8359457144
 30
0.0
 10
21.5779432798
 20
9.5865559008
 30
0.0
 10
23.1717572371
 20
9.3267914362
 30
0.0
 10
24.8127250716
 20
9.1773454321
 30
0.0
 10
26.477722559
 20
9.1401409189
 30
0.0
 10
28.1433245478
 20
9.2175445475
 30
0.0
 10
29.7859621052
 20
9.4095492447
 30
0.0
 10
31.382287794
 20
9.7136553743
 30
0.0
 10
32.4178423611
 20
9.9925238392
 30
0.0
 10
32.9220691419
 20
10.1503243122
 30
0.0
  0
SPLINE
  5
4D0
100
AcDbEntity
  8
0
100
AcDbSpline
 62
7
  6
BYLAYER
 70
0
 71
3
 72
13
 73
9
 74
0
 42
0.0000001
 43
0.0000001
 44
0.0000000001
 40
0.0
 40
0.0
 40
0.0
 40
0.0
 40
0.1189176814
 40
0.2406987924
 40
0.3648016025
 40
0.4906656853
 40
0.7453174358
 40
1.0
 40
1.0
 40
1.0
 40
1.0
 10
19.8821042591
 20
36.9707913553
 30
0.0
 10
20.2329284679
 20
36.8676062939
 30
0.0
 10
20.9492457131
 20
36.679398356
 30
0.0
 10
22.0484808601
 20
36.4531160549
 30
0.0
 10
23.1790559079
 20
36.2805116896
 30
0.0
 10
24.7233768236
 20
36.1232115325
 30
0.0
 10
26.6791914779
 20
36.0704904201
 30
0.0
 10
28.2445331196
 20
36.1787489292
 30
0.0
 10
29.022208746
 20
36.2713958964
 30
0.0
  0
SPLINE
  5
4D1
100
AcDbEntity
  8
0
100
AcDbSpline
 62
7
  6
BYLAYER
 70
0
 71
3
 72
12
 73
8
 74
0
 42
0.0000001
 43
0.0000001
 44
0.0000000001
 40
0.0
 40
0.0
 40
0.0
 40
0.0
 40
0.2745028808
 40
0.4063875667
 40
0.5342067485
 40
0.7764082867
 40
1.0
 40
1.0
 40
1.0
 40
1.0
 10
32.2580526905
 20
38.1243716796
 30
0.0
 10
32.8938548085
 20
38.2990624731
 30
0.0
 10
33.823617099
 20
38.6041466402
 30
0.0
 10
35.0058850076
 20
39.1043765132
 30
0.0
 10
36.0875647373
 20
39.6380678785
 30
0.0
 10
37.3070132622
 20
40.3850476158
 30
0.0
 10
38.1700680734
 20
41.105809535
 30
0.0
 10
38.5502411012
 20
41.4851735187
 30
0.0
  0
SPLINE
  5
4D2
100
AcDbEntity
  8
0
100
AcDbSpline
 62
7
  6
BYLAYER
 70
0
 71
3
 72
14
 73
10
 74
0
 42
0.0000001
 43
0.0000001
 44
0.0000000001
 40
0.0
 40
0.0
 40
0.0
 40
0.0
 40
0.1060937081
 40
0.2206030509
 40
0.342333744
 40
0.4698237937
 40
0.6013661052
 40
0.7349902868
 40
1.0
 40
1.0
 40
1.0
 40
1.0
 10
20.7850148027
 20
58.4155898399
 30
0.0
 10
20.9659001839
 20
58.2934498653
 30
0.0
 10
21.3615342232
 20
58.0677651493
 30
0.0
 10
22.0129342215
 20
57.7963090471
 30
0.0
 10
22.7322305899
 20
57.5850875704
 30
0.0
 10
23.5030360007
 20
57.4394033336
 30
0.0
 10
24.3082656159
 20
57.3619562161
 30
0.0
 10
25.3997255435
 20
57.3516961063
 30
0.0
 10
26.2197231988
 20
57.4508695253
 30
0.0
 10
26.7523371677
 20
57.5672912436
 30
0.0
  0
SPLINE
  5
4D3
100
AcDbEntity
  8
0
100
AcDbSpline
 62
7
  6
BYLAYER
 70
0
 71
3
 72
9
 73
5
 74
0
 42
0.0000001
 43
0.0000001
 44
0.0000000001
 40
0.0
 40
0.0
 40
0.0
 40
0.0
 40
0.5142399218
 40
1.0
 40
1.0
 40
1.0
 40
1.0
 10
26.7523371677
 20
57.5672912436
 30
0.0
 10
27.0554346358
 20
57.6335439709
 30
0.0
 10
27.6383297912
 20
57.794669502
 30
0.0
 10
28.1981767562
 20
58.0248036347
 30
0.0
 10
28.4604621033
 20
58.1555598741
 30
0.0
  0
SPLINE
  5
4D4
100
AcDbEntity
  8
0
100
AcDbSpline
 62
7
  6
BYLAYER
 70
0
 71
3
 72
9
 73
5
 74
0
 42
0.0000001
 43
0.0000001
 44
0.0000000001
 40
0.0
 40
0.0
 40
0.0
 40
0.0
 40
0.257847827
 40
1.0
 40
1.0
 40
1.0
 40
1.0
 10
28.4604621033
 20
58.1555598741
 30
0.0
 10
28.5236092845
 20
58.1870404278
 30
0.0
 10
28.7663310617
 20
58.3134065234
 30
0.0
 10
29.0000286359
 20
58.4574626833
 30
0.0
 10
29.1655721851
 20
58.5751052814
 30
0.0
  0
SPLINE
  5
4D5
100
AcDbEntity
  8
0
100
AcDbSpline
 62
7
  6
BYLAYER
 70
0
 71
3
 72
10
 73
6
 74
0
 42
0.0000001
 43
0.0000001
 44
0.0000000001
 40
0.0
 40
0.0
 40
0.0
 40
0.0
 40
0.230630159
 40
0.4751198215
 40
1.0
 40
1.0
 40
1.0
 40
1.0
 10
20.7970805927
 20
59.2239744028
 30
0.0
 10
20.9281222936
 20
59.1361431162
 30
0.0
 10
21.2080966327
 20
58.9698019784
 30
0.0
 10
21.8269215887
 20
58.6768270258
 30
0.0
 10
22.330518263
 20
58.5141611763
 30
0.0
 10
22.6789701202
 20
58.4276753922
 30
0.0
  0
SPLINE
  5
4D6
100
AcDbEntity
  8
0
100
AcDbSpline
 62
7
  6
BYLAYER
 70
0
 71
3
 72
9
 73
5
 74
0
 42
0.0000001
 43
0.0000001
 44
0.0000000001
 40
0.0
 40
0.0
 40
0.0
 40
0.0
 40
0.4913618535
 40
1.0
 40
1.0
 40
1.0
 40
1.0
 10
22.6789701202
 20
58.4276753922
 30
0.0
 10
22.9750996572
 20
58.3541760129
 30
0.0
 10
23.5869740166
 20
58.2402121155
 30
0.0
 10
24.2071497467
 20
58.1908332652
 30
0.0
 10
24.5228510961
 20
58.1813971428
 30
0.0
  0
SPLINE
  5
4D7
100
AcDbEntity
  8
0
100
AcDbSpline
 62
7
  6
BYLAYER
 70
0
 71
3
 72
9
 73
5
 74
0
 42
0.0000001
 43
0.0000001
 44
0.0000000001
 40
0.0
 40
0.0
 40
0.0
 40
0.0
 40
0.2535642299
 40
1.0
 40
1.0
 40
1.0
 40
1.0
 10
25.526083913
 20
58.2047809577
 30
0.0
 10
25.6574230355
 20
58.2148784148
 30
0.0
 10
26.1744616025
 20
58.2657226334
 30
0.0
 10
26.68737898
 20
58.3606280849
 30
0.0
 10
27.0627589291
 20
58.4578817779
 30
0.0
  0
SPLINE
  5
4D8
100
AcDbEntity
  8
0
100
AcDbSpline
 62
7
  6
BYLAYER
 70
0
 71
3
 72
10
 73
6
 74
0
 42
0.0000001
 43
0.0000001
 44
0.0000000001
 40
0.0
 40
0.0
 40
0.0
 40
0.0
 40
0.2667247478
 40
0.523434702
 40
1.0
 40
1.0
 40
1.0
 40
1.0
 10
27.0627589291
 20
58.4578817779
 30
0.0
 10
27.2617978709
 20
58.5094489226
 30
0.0
 10
27.6489061866
 20
58.625375274
 30
0.0
 10
28.3673198411
 20
58.9056312135
 30
0.0
 10
28.8674002146
 20
59.1796121492
 30
0.0
 10
29.1668110127
 20
59.39248372
 30
0.0
  0
SPLINE
  5
4D9
100
AcDbEntity
  8
0
100
AcDbSpline
 62
7
  6
BYLAYER
 70
0
 71
3
 72
15
 73
11
 74
0
 42
0.0000001
 43
0.0000001
 44
0.0000000001
 40
0.0
 40
0.0
 40
0.0
 40
0.0
 40
0.1065651487
 40
0.2224763569
 40
0.3461146448
 40
0.4754739494
 40
0.6081693998
 40
0.7415290096
 40
0.8729594736
 40
1.0
 40
1.0
 40
1.0
 40
1.0
 10
20.7969313489
 20
60.0405786922
 30
0.0
 10
21.0049670046
 20
59.9011149105
 30
0.0
 10
21.4647204389
 20
59.6470746708
 30
0.0
 10
22.2257963022
 20
59.3542054773
 30
0.0
 10
23.0683386029
 20
59.1415541545
 30
0.0
 10
23.9676304706
 20
59.0155661207
 30
0.0
 10
24.8977280603
 20
58.9786538448
 30
0.0
 10
25.8318793
 20
59.0340034597
 30
0.0
 10
26.7424551598
 20
59.1815784483
 30
0.0
 10
27.3298140309
 20
59.3423861076
 30
0.0
 10
27.6126212091
 20
59.4381478831
 30
0.0
  0
SPLINE
  5
4DA
100
AcDbEntity
  8
0
100
AcDbSpline
 62
7
  6
BYLAYER
 70
0
 71
3
 72
9
 73
5
 74
0
 42
0.0000001
 43
0.0000001
 44
0.0000000001
 40
0.0
 40
0.0
 40
0.0
 40
0.0
 40
0.51917171
 40
1.0
 40
1.0
 40
1.0
 40
1.0
 10
27.6126212091
 20
59.4381478831
 30
0.0
 10
27.8974079846
 20
59.5345799731
 30
0.0
 10
28.4356395914
 20
59.7530982598
 30
0.0
 10
28.9381808106
 20
60.0465349112
 30
0.0
 10
29.1651834452
 20
60.2078178677
 30
0.0
  0
ENDSEC
  0
SECTION
  2
OBJECTS
  0
DICTIONARY
  5
C
100
AcDbDictionary
280
0
281
1
  3
ACAD_GROUP
350
D
  3
ACAD_MLINESTYLE
350
17
  3
ACAD_LAYOUT
350
1A
  3
ACAD_PLOTSETTINGS
350
19
  3
ACAD_PLOTSTYLENAME
350
E
  0
DICTIONARY
  5
D
102
{ACAD_REACTORS
330
C
102
}
100
AcDbDictionary
280
0
281
1
  0
ACDBDICTIONARYWDFLT
  5
E
102
{ACAD_REACTORS
330
C
102
}
100
AcDbDictionary
281
1
  3
Normal
350
F
100
AcDbDictionaryWithDefault
340
F
  0
DICTIONARY
  5
17
102
{ACAD_REACTORS
330
C
102
}
100
AcDbDictionary
280
0
281
1
  3
Standard
350
18
  0
DICTIONARY
  5
19
102
{ACAD_REACTORS
330
C
102
}
100
AcDbDictionary
281
1
  0
DICTIONARY
  5
1A
102
{ACAD_REACTORS
330
C
102
}
100
AcDbDictionary
281
1
  3
Model
350
4DB
  3
Layout1
350
4DC
  0
ACDBPLACEHOLDER
  5
F
102
{ACAD_REACTORS
330
E
102
}
  0
MLINESTYLE
  5
18
102
{ACAD_REACTORS
330
17
102
}
100
AcDbMlineStyle
  2
STANDARD
 70
0
  3

 62
256
 51
90.0
 52
90.0
 71
2
 49
0.5
 62
256
  6
BYLAYER
 49
-0.5
 62
256
  6
BYLAYER
  0
LAYOUT
  5
4DB
102
{ACAD_REACTORS
330
1A
102
}
100
AcDbPlotSettings
  1

  2
none_device
  4

  6

 40
0.0
 41
0.0
 42
0.0
 43
0.0
 44
210.0
 45
297.0
 46
0.0
 47
0.0
 48
0.0
 49
0.0
140
0.0
141
0.0
142
1.0
143
1.0
 70
1024
 72
1
 73
0
 74
0
  7

 75
0
147
1.0
148
0.0
149
0.0
100
AcDbLayout
  1
Model
 70
0
 71
0
 10
0.0
 20
0.0
 11
210.0
 21
297.0
 12
0.0
 22
0.0
 32
0.0
 14
0.0
 24
0.0
 34
0.0
 15
0.0
 25
0.0
 35
0.0
146
0.0
 13
0.0
 23
0.0
 33
0.0
 16
1.0
 26
0.0
 36
0.0
 17
0.0
 27
1.0
 37
0.0
 76
0
330
210
345
0
346
0
  0
LAYOUT
  5
4DC
102
{ACAD_REACTORS
330
1A
102
}
100
AcDbPlotSettings
  1

  2
none_device
  4

  6

 40
0.0
 41
0.0
 42
0.0
 43
0.0
 44
210.0
 45
297.0
 46
0.0
 47
0.0
 48
0.0
 49
0.0
140
0.0
141
0.0
142
1.0
143
1.0
 70
0
 72
1
 73
0
 74
0
  7

 75
0
147
1.0
148
0.0
149
0.0
100
AcDbLayout
  1
Layout1
 70
0
 71
1
 10
0.0
 20
0.0
 11
210.0
 21
297.0
 12
0.0
 22
0.0
 32
0.0
 14
0.0
 24
0.0
 34
0.0
 15
0.0
 25
0.0
 35
0.0
146
0.0
 13
0.0
 23
0.0
 33
0.0
 16
1.0
 26
0.0
 36
0.0
 17
0.0
 27
1.0
 37
0.0
 76
0
330
211
345
0
346
0
  0
ENDSEC
  0
EOF
