999
DXF file: C:\Users\sesa63760\Dev\_Creo\CAD\MCADID0004823_3D-CAD\drw0001_3.dxf
999
Pro/ENGINEER 2019471 by Parametric Technology Corporation
  0
SECTION
  2
HEADER
  9
$ACADVER
  1
AC1024
  9
$DWGCODEPAGE
  3
ANSI_1252
  9
$EXTMAX
 10
26.0457839178
 20
36.8361801124
 30
0.0
  9
$EXTMIN
 10
0.0
 20
0.0
 30
0.0
  9
$LIMMIN
 10
0.0
 20
0.0
  9
$LIMMAX
 10
26.0457839178
 20
36.8361801124
  9
$VIEWCTR
 10
13.0228919589
 20
18.4180900562
  9
$VIEWSIZE
 40
36.8361801124
  9
$CLAYER
  8
0
  9
$LTSCALE
 40
2.4011732221
  9
$CELTYPE
  6
BYLAYER
  9
$DIMSCALE
 40
1.0
  9
$DIMASZ
 40
0.3100688562
  9
$DIMEXO
 40
1.0
  9
$DIMDLI
 40
1.658992408
  9
$DIMEXE
 40
1.0
  9
$DIMCEN
 40
0.3929192545
  9
$DIMLFAC
 40
1.0
  9
$DIMBLK
  1
_FILLED
  9
$DIMALT
 70
0
  9
$DIMALTF
 40
0.0393700787
  9
$DIMTXT
 40
0.4340963986
  9
$DIMTOL
 70
1
  9
$DIMLIM
 70
0
  9
$DIMTFAC
 40
1.0
  9
$DIMTP
 40
0.01
  9
$DIMTM
 40
0.01
  9
$DIMGAP
 40
0.625
  9
$DIMDSEP
 70
46
  9
$AUNITS
 70
0
  9
$PDMODE
 70
3
  9
$PDSIZE
 40
0.3125
  9
$HANDSEED
  5
2AD
  9
$TILEMODE
 70
1
  9
$MEASUREMENT
 70
1
  9
$INSUNITS
 70
4
  0
ENDSEC
  0
SECTION
  2
CLASSES
  0
CLASS
  1
ACDBDICTIONARYWDFLT
  2
AcDbDictionaryWithDefault
  3
AutoCAD 2000
 90
0
 91
1
280
0
281
0
  0
CLASS
  1
ACDBPLACEHOLDER
  2
AcDbPlaceHolder
  3
AutoCAD 2000
 90
0
 91
1
280
0
281
0
  0
CLASS
  1
LAYOUT
  2
AcDbLayout
  3
AutoCAD 2000
 90
0
 91
0
280
0
281
0
  0
ENDSEC
  0
SECTION
  2
TABLES
  0
TABLE
  2
VPORT
  5
8
100
AcDbSymbolTable
 70
2
  0
VPORT
  5
1F4
100
AcDbSymbolTableRecord
100
AcDbViewportTableRecord
  2
*ACTIVE
 70
0
 10
0.0
 20
0.0
 11
1.0
 21
1.0
 12
13.0228919589
 22
18.4180900562
 13
0.0
 23
0.0
 14
1.0
 24
1.0
 15
0.0
 25
0.0
 16
0.0
 26
0.0
 36
1.0
 17
0.0
 27
0.0
 37
0.0
 40
36.8361801124
 41
0.7070707071
 42
50.0
 43
0.0
 44
0.0
 50
0.0
 51
0.0
 71
0
 72
100
 73
1
 74
1
 75
0
 76
0
 77
0
 78
0
  0
ENDTAB
  0
TABLE
  2
LTYPE
  5
5
100
AcDbSymbolTable
 70
6
  0
LTYPE
  5
14
100
AcDbSymbolTableRecord
100
AcDbLinetypeTableRecord
  2
BYBLOCK
 70
0
  3

 72
65
 73
0
 40
0.0
  0
LTYPE
  5
15
100
AcDbSymbolTableRecord
100
AcDbLinetypeTableRecord
  2
BYLAYER
 70
0
  3

 72
65
 73
0
 40
0.0
  0
LTYPE
  5
16
100
AcDbSymbolTableRecord
100
AcDbLinetypeTableRecord
  2
CONTINUOUS
 70
64
  3
Solid line
 72
65
 73
0
 40
0.0
  0
LTYPE
  5
1F5
100
AcDbSymbolTableRecord
100
AcDbLinetypeTableRecord
  2
CENTER
 70
64
  3
____ _ ____ _ ____ _ ____ _ ____ _ ____ _ ____
 72
65
 73
4
 40
0.6
 49
0.375
 74
0
 49
-0.075
 74
0
 49
0.075
 74
0
 49
-0.075
 74
0
  0
LTYPE
  5
1F6
100
AcDbSymbolTableRecord
100
AcDbLinetypeTableRecord
  2
HIDDEN
 70
64
  3
- - - - - - - - - - - - - - - - - - - -
 72
65
 73
2
 40
0.2
 49
0.1
 74
0
 49
-0.1
 74
0
  0
LTYPE
  5
1F7
100
AcDbSymbolTableRecord
100
AcDbLinetypeTableRecord
  2
PHANTOM
 70
64
  3
_____ _ _ _____ _ _ _____ _ _ _____
 72
65
 73
6
 40
0.8
 49
0.45
 74
0
 49
-0.05
 74
0
 49
0.1
 74
0
 49
-0.05
 74
0
 49
0.1
 74
0
 49
-0.05
 74
0
  0
LTYPE
  5
1F8
100
AcDbSymbolTableRecord
100
AcDbLinetypeTableRecord
  2
DOT
 70
64
  3
. . . . . . . . . . . . . . . . . . . .
 72
65
 73
2
 40
0.2
 49
0.1
 74
0
 49
-0.1
 74
0
  0
LTYPE
  5
1F9
100
AcDbSymbolTableRecord
100
AcDbLinetypeTableRecord
  2
DASHED
 70
64
  3
- - - - - - - - - - - - - - - - - - - -
 72
65
 73
2
 40
0.2
 49
0.1
 74
0
 49
-0.1
 74
0
  0
ENDTAB
  0
TABLE
  2
LAYER
  5
2
100
AcDbSymbolTable
 70
36
  0
LAYER
  5
10
100
AcDbSymbolTableRecord
100
AcDbLayerTableRecord
  2
0
 70
0
 62
7
  6
CONTINUOUS
370
-3
390
F
  0
LAYER
  5
1FA
100
AcDbSymbolTableRecord
100
AcDbLayerTableRecord
  2
DEFAULT_1
 70
0
 62
7
  6
CENTER
370
-3
390
F
  0
LAYER
  5
1FB
100
AcDbSymbolTableRecord
100
AcDbLayerTableRecord
  2
DEFAULT_2
 70
0
 62
7
  6
HIDDEN
370
-3
390
F
  0
LAYER
  5
1FC
100
AcDbSymbolTableRecord
100
AcDbLayerTableRecord
  2
DEFAULT_3
 70
0
 62
7
  6
PHANTOM
370
-3
390
F
  0
LAYER
  5
1FD
100
AcDbSymbolTableRecord
100
AcDbLayerTableRecord
  2
00_COMPONENTS
 70
0
 62
7
  6
CONTINUOUS
370
-3
390
F
  0
LAYER
  5
1FE
100
AcDbSymbolTableRecord
100
AcDbLayerTableRecord
  2
01_1_DEFAULT_DATUMS
 70
0
 62
7
  6
CONTINUOUS
370
-3
390
F
  0
LAYER
  5
1FF
100
AcDbSymbolTableRecord
100
AcDbLayerTableRecord
  2
01_PLANES
 70
0
 62
7
  6
CONTINUOUS
370
-3
390
F
  0
LAYER
  5
200
100
AcDbSymbolTableRecord
100
AcDbLayerTableRecord
  2
02_COORD_SYS
 70
0
 62
7
  6
CONTINUOUS
370
-3
390
F
  0
LAYER
  5
201
100
AcDbSymbolTableRecord
100
AcDbLayerTableRecord
  2
03_AXES
 70
0
 62
7
  6
CONTINUOUS
370
-3
390
F
  0
LAYER
  5
202
100
AcDbSymbolTableRecord
100
AcDbLayerTableRecord
  2
04_POINTS
 70
0
 62
7
  6
CONTINUOUS
370
-3
390
F
  0
LAYER
  5
203
100
AcDbSymbolTableRecord
100
AcDbLayerTableRecord
  2
05_CURVES
 70
0
 62
7
  6
CONTINUOUS
370
-3
390
F
  0
LAYER
  5
204
100
AcDbSymbolTableRecord
100
AcDbLayerTableRecord
  2
06_SURFS
 70
0
 62
7
  6
CONTINUOUS
370
-3
390
F
  0
LAYER
  5
205
100
AcDbSymbolTableRecord
100
AcDbLayerTableRecord
  2
07_COSMETICS
 70
0
 62
7
  6
CONTINUOUS
370
-3
390
F
  0
LAYER
  5
206
100
AcDbSymbolTableRecord
100
AcDbLayerTableRecord
  2
10_NOTES
 70
0
 62
7
  6
CONTINUOUS
370
-3
390
F
  0
LAYER
  5
207
100
AcDbSymbolTableRecord
100
AcDbLayerTableRecord
  2
11_NOTES_PUB
 70
0
 62
7
  6
CONTINUOUS
370
-3
390
F
  0
LAYER
  5
208
100
AcDbSymbolTableRecord
100
AcDbLayerTableRecord
  2
13_REF_GTOL
 70
0
 62
7
  6
CONTINUOUS
370
-3
390
F
  0
LAYER
  5
209
100
AcDbSymbolTableRecord
100
AcDbLayerTableRecord
  2
16_MISC
 70
0
 62
7
  6
CONTINUOUS
370
-3
390
F
  0
LAYER
  5
20A
100
AcDbSymbolTableRecord
100
AcDbLayerTableRecord
  2
17_NO_PRINT
 70
0
 62
7
  6
CONTINUOUS
370
-3
390
F
  0
LAYER
  5
20B
100
AcDbSymbolTableRecord
100
AcDbLayerTableRecord
  2
18_DATUM_CAMS_JOINTS
 70
0
 62
7
  6
CONTINUOUS
370
-3
390
F
  0
LAYER
  5
20C
100
AcDbSymbolTableRecord
100
AcDbLayerTableRecord
  2
19_DATUM_FUNCTIONAL
 70
0
 62
7
  6
CONTINUOUS
370
-3
390
F
  0
LAYER
  5
20D
100
AcDbSymbolTableRecord
100
AcDbLayerTableRecord
  2
20_DATUM_KINEMATIC_SCHEME
 70
0
 62
7
  6
CONTINUOUS
370
-3
390
F
  0
ENDTAB
  0
TABLE
  2
STYLE
  5
3
100
AcDbSymbolTable
 70
1
  0
STYLE
  5
11
100
AcDbSymbolTableRecord
100
AcDbTextStyleTableRecord
  2
STANDARD
 70
0
 40
0.0
 41
1.0
 50
0.0
 71
0
 42
0.2
  3
ARIAL.TTF
  4

  0
STYLE
  5
20E
100
AcDbSymbolTableRecord
100
AcDbTextStyleTableRecord
  2
TEXTSTYLE_1
 70
0
 40
0.0
 41
0.8
 50
0.0
 71
0
 42
0.2
  3
gdt
  4

  0
ENDTAB
  0
TABLE
  2
VIEW
  5
6
100
AcDbSymbolTable
 70
0
  0
ENDTAB
  0
TABLE
  2
UCS
  5
7
100
AcDbSymbolTable
 70
0
  0
ENDTAB
  0
TABLE
  2
APPID
  5
9
100
AcDbSymbolTable
 70
1
  0
APPID
  5
20F
100
AcDbSymbolTableRecord
100
AcDbRegAppTableRecord
  2
ACAD
 70
0
  0
ENDTAB
  0
TABLE
  2
BLOCK_RECORD
  5
1
100
AcDbSymbolTable
 70
0
  0
BLOCK_RECORD
  5
210
100
AcDbSymbolTableRecord
100
AcDbBlockTableRecord
  2
*Model_Space
  0
BLOCK_RECORD
  5
211
100
AcDbSymbolTableRecord
100
AcDbBlockTableRecord
  2
*Paper_Space
  0
BLOCK_RECORD
  5
212
100
AcDbSymbolTableRecord
100
AcDbBlockTableRecord
  2
_FILLED
  0
ENDTAB
  0
TABLE
  2
DIMSTYLE
  5
A
100
AcDbSymbolTable
 70
1
100
AcDbDimStyleTable
 71
0
  0
DIMSTYLE
105
213
100
AcDbSymbolTableRecord
100
AcDbDimStyleTableRecord
  2
STANDARD
 70
0
  3

  4

 40
1.0
 41
0.3100688562
 42
1.0
 43
0.38
 44
1.0
 45
0.0
 46
0.0
 47
0.01
 48
0.01
140
0.4340963986
141
0.09
142
0.0
143
25.4
144
1.0
145
0.0
146
1.0
147
0.625
 71
1
 72
0
 73
0
 74
0
 75
0
 76
0
 77
1
 78
8
 79
2
170
0
171
1
172
0
173
0
174
0
175
0
176
0
177
0
178
0
270
2
179
2
271
2
272
2
273
2
274
2
275
0
280
0
281
0
282
0
283
1
284
8
285
0
286
0
287
3
288
0
340
11
278
46
341
212
342
212
343
212
344
212
  0
ENDTAB
  0
ENDSEC
  0
SECTION
  2
BLOCKS
  0
BLOCK
  5
20
100
AcDbEntity
  8
0
100
AcDbBlockBegin
  2
*Model_Space
 70
0
 10
0.0
 20
0.0
 30
0.0
  3
*Model_Space
  1

  0
ENDBLK
  5
21
100
AcDbEntity
  8
0
100
AcDbBlockEnd
  0
BLOCK
  5
1C
100
AcDbEntity
  8
0
100
AcDbBlockBegin
  2
*Paper_Space
 70
0
 10
0.0
 20
0.0
 30
0.0
  3
*Paper_Space
  1

  0
ENDBLK
  5
1D
100
AcDbEntity
  8
0
100
AcDbBlockEnd
  0
BLOCK
  5
214
100
AcDbEntity
  8
0
100
AcDbBlockBegin
  2
_FILLED
 70
64
 10
0.0
 20
0.0
  3
_FILLED
  1

  0
SOLID
  5
215
100
AcDbEntity
  8
0
  6
BYBLOCK
 62
0
100
AcDbTrace
 10
0.0
 20
0.0
 11
-1.0
 21
0.25
 12
-1.0
 22
-0.25
 13
-1.0
 23
-0.25
  0
ENDBLK
  5
216
100
AcDbEntity
  8
0
  6
BYBLOCK
 62
0
100
AcDbBlockEnd
  0
ENDSEC
  0
SECTION
  2
ENTITIES
  0
LINE
  5
217
100
AcDbEntity
  8
0
100
AcDbLine
 62
7
  6
BYLAYER
 10
3.0811811695
 20
32.9082643035
 11
3.5811811696
 21
33.4082643036
  0
LINE
  5
218
100
AcDbEntity
  8
0
100
AcDbLine
 62
7
  6
BYLAYER
 10
3.5811811695
 20
3.6082643039
 11
3.0811811696
 21
4.1082643038
  0
LINE
  5
219
100
AcDbEntity
  8
0
100
AcDbLine
 62
7
  6
BYLAYER
 10
23.5311811697
 20
3.5082643037
 11
3.0811811697
 21
3.5082643037
  0
LINE
  5
21A
100
AcDbEntity
  8
0
100
AcDbLine
 62
7
  6
BYLAYER
 10
3.5811811695
 20
3.6082643037
 11
23.0811811698
 21
3.6082643037
  0
LINE
  5
21B
100
AcDbEntity
  8
0
100
AcDbLine
 62
7
  6
BYLAYER
 10
3.0811811697
 20
3.5082643037
 11
3.0811811697
 21
33.5082643037
  0
LINE
  5
21C
100
AcDbEntity
  8
0
100
AcDbLine
 62
7
  6
BYLAYER
 10
3.5811811697
 20
3.6082643037
 11
3.5811811697
 21
12.3532118064
  0
LINE
  5
21D
100
AcDbEntity
  8
0
100
AcDbLine
 62
7
  6
BYLAYER
 10
3.5811811709
 20
24.6707444805
 11
3.5811811697
 21
33.4082643037
  0
LINE
  5
21E
100
AcDbEntity
  8
0
100
AcDbLine
 62
7
  6
BYLAYER
 10
3.0811811695
 20
8.6082643204
 11
23.5811811698
 21
8.608264318
  0
LINE
  5
21F
100
AcDbEntity
  8
0
100
AcDbLine
 62
7
  6
BYLAYER
 10
3.9856999221
 20
21.252817755
 11
3.9856999221
 21
15.7637108891
  0
LINE
  5
220
100
AcDbEntity
  8
0
100
AcDbLine
 62
7
  6
BYLAYER
 10
4.1570358106
 20
21.2528177378
 11
4.1570358106
 21
15.7637108961
  0
LINE
  5
221
100
AcDbEntity
  8
0
100
AcDbLine
 62
7
  6
BYLAYER
 10
4.1871811697
 20
15.7637109142
 11
4.1871811697
 21
21.2528176932
  0
LINE
  5
222
100
AcDbEntity
  8
0
100
AcDbLine
 62
7
  6
BYLAYER
 10
23.6859967283
 20
9.2582643037
 11
23.5811811697
 21
9.2582643037
  0
LINE
  5
223
100
AcDbEntity
  8
0
100
AcDbLine
 62
7
  6
BYLAYER
 10
8.6691812158
 20
9.6082643041
 11
17.9931811244
 21
9.608264304
  0
LINE
  5
224
100
AcDbEntity
  8
0
100
AcDbLine
 62
7
  6
BYLAYER
 10
17.9931811697
 20
10.1082643037
 11
8.6691811697
 21
10.1082643037
  0
LINE
  5
225
100
AcDbEntity
  8
0
100
AcDbLine
 62
7
  6
BYLAYER
 10
8.4911277185
 20
11.258283056
 11
18.1712345843
 21
11.2582830561
  0
LINE
  5
226
100
AcDbEntity
  8
0
100
AcDbLine
 62
7
  6
BYLAYER
 10
8.4911277356
 20
11.4296189446
 11
18.1712345773
 21
11.4296189446
  0
LINE
  5
227
100
AcDbEntity
  8
0
100
AcDbLine
 62
7
  6
BYLAYER
 10
18.1712345593
 20
11.4597643037
 11
8.4911277802
 21
11.4597643037
  0
LINE
  5
228
100
AcDbEntity
  8
0
100
AcDbLine
 62
7
  6
BYLAYER
 10
8.3811811697
 20
26.9082643037
 11
8.3811811697
 21
28.2867448418
  0
LINE
  5
229
100
AcDbEntity
  8
0
100
AcDbLine
 62
7
  6
BYLAYER
 10
8.4911277802
 20
25.5567643037
 11
8.4911277551
 21
25.7582455513
  0
LINE
  5
22A
100
AcDbEntity
  8
0
100
AcDbLine
 62
7
  6
BYLAYER
 10
8.4911277802
 20
11.4597643037
 11
8.4911277185
 21
11.258283056
  0
LINE
  5
22B
100
AcDbEntity
  8
0
100
AcDbLine
 62
7
  6
BYLAYER
 10
8.6691812158
 20
9.6082643041
 11
8.6691812014
 21
10.1082643039
  0
LINE
  5
22C
100
AcDbEntity
  8
0
100
AcDbLine
 62
7
  6
BYLAYER
 10
8.7591811697
 20
25.5869096628
 11
8.7591811697
 21
25.5674057759
  0
LINE
  5
22D
100
AcDbEntity
  8
0
100
AcDbLine
 62
7
  6
BYLAYER
 10
8.8891811697
 20
26.9082643037
 11
8.8891811697
 21
28.2605701124
  0
LINE
  5
22E
100
AcDbEntity
  8
0
100
AcDbLine
 62
7
  6
BYLAYER
 10
9.2671811697
 20
29.6571664092
 11
9.2671811697
 21
29.6473925555
  0
LINE
  5
22F
100
AcDbEntity
  8
0
100
AcDbLine
 62
7
  6
BYLAYER
 10
9.2671811697
 20
26.0960187201
 11
9.2671811697
 21
28.2963521772
  0
LINE
  5
230
100
AcDbEntity
  8
0
100
AcDbLine
 62
7
  6
BYLAYER
 10
9.9051811697
 20
29.7971391661
 11
9.9051811697
 21
29.8110976731
  0
LINE
  5
231
100
AcDbEntity
  8
0
100
AcDbLine
 62
7
  6
BYLAYER
 10
9.9051811553
 20
29.2765716599
 11
9.9051811553
 21
29.7845708862
  0
LINE
  5
232
100
AcDbEntity
  8
0
100
AcDbLine
 62
7
  6
BYLAYER
 10
10.6641811697
 20
29.0597643037
 11
10.6641811697
 21
27.7097643037
  0
LINE
  5
233
100
AcDbEntity
  8
0
100
AcDbLine
 62
7
  6
BYLAYER
 10
10.6641811697
 20
29.7873653123
 11
10.6641811697
 21
29.7971391661
  0
LINE
  5
234
100
AcDbEntity
  8
0
100
AcDbLine
 62
7
  6
BYLAYER
 10
4.1871811697
 20
15.7637109142
 11
3.9856999221
 21
15.7637108891
  0
LINE
  5
235
100
AcDbEntity
  8
0
100
AcDbLine
 62
7
  6
BYLAYER
 10
22.4751811697
 20
15.7637109142
 11
22.6766624174
 21
15.7637108524
  0
LINE
  5
236
100
AcDbEntity
  8
0
100
AcDbLine
 62
7
  6
BYLAYER
 10
23.5811811697
 20
18.0082643037
 11
23.6859967283
 21
18.0082643037
  0
LINE
  5
237
100
AcDbEntity
  8
0
100
AcDbLine
 62
7
  6
BYLAYER
 10
23.6859967283
 20
19.0082643037
 11
23.5811811697
 21
19.0082643037
  0
LINE
  5
238
100
AcDbEntity
  8
0
100
AcDbLine
 62
7
  6
BYLAYER
 10
15.9981811697
 20
29.797139166
 11
15.9981811697
 21
29.7873653123
  0
LINE
  5
239
100
AcDbEntity
  8
0
100
AcDbLine
 62
7
  6
BYLAYER
 10
15.9981811697
 20
27.7097643037
 11
15.9981811697
 21
29.0597643037
  0
LINE
  5
23A
100
AcDbEntity
  8
0
100
AcDbLine
 62
7
  6
BYLAYER
 10
16.7571811697
 20
29.8110976731
 11
16.7571811697
 21
29.7971391661
  0
LINE
  5
23B
100
AcDbEntity
  8
0
100
AcDbLine
 62
7
  6
BYLAYER
 10
16.7571811697
 20
29.7845708862
 11
16.7571811697
 21
29.2765716599
  0
LINE
  5
23C
100
AcDbEntity
  8
0
100
AcDbLine
 62
7
  6
BYLAYER
 10
4.1871811697
 20
21.2528176932
 11
3.9856999221
 21
21.252817755
  0
LINE
  5
23D
100
AcDbEntity
  8
0
100
AcDbLine
 62
7
  6
BYLAYER
 10
22.4751811697
 20
21.2528176932
 11
22.6766624174
 21
21.2528177183
  0
LINE
  5
23E
100
AcDbEntity
  8
0
100
AcDbLine
 62
7
  6
BYLAYER
 10
17.3951811697
 20
26.0960187201
 11
17.3951811697
 21
28.2963521772
  0
LINE
  5
23F
100
AcDbEntity
  8
0
100
AcDbLine
 62
7
  6
BYLAYER
 10
17.3951811697
 20
29.6473925555
 11
17.3951811697
 21
29.6571664092
  0
LINE
  5
240
100
AcDbEntity
  8
0
100
AcDbLine
 62
7
  6
BYLAYER
 10
17.7731811697
 20
28.2605701124
 11
17.7731811697
 21
26.9082643037
  0
LINE
  5
241
100
AcDbEntity
  8
0
100
AcDbLine
 62
7
  6
BYLAYER
 10
17.9031811697
 20
25.5674057759
 11
17.9031811697
 21
25.5869096628
  0
LINE
  5
242
100
AcDbEntity
  8
0
100
AcDbLine
 62
7
  6
BYLAYER
 10
17.9931811244
 20
9.608264304
 11
17.9931811385
 21
10.1082643039
  0
LINE
  5
243
100
AcDbEntity
  8
0
100
AcDbLine
 62
7
  6
BYLAYER
 10
18.1712345593
 20
11.4597643037
 11
18.1712345843
 21
11.2582830561
  0
LINE
  5
244
100
AcDbEntity
  8
0
100
AcDbLine
 62
7
  6
BYLAYER
 10
18.1712345593
 20
25.5567643037
 11
18.171234621
 21
25.7582455514
  0
LINE
  5
245
100
AcDbEntity
  8
0
100
AcDbLine
 62
7
  6
BYLAYER
 10
18.2811811697
 20
26.9082643037
 11
18.2811811697
 21
28.2867448418
  0
LINE
  5
246
100
AcDbEntity
  8
0
100
AcDbLine
 62
7
  6
BYLAYER
 10
8.4911277802
 20
25.5567643037
 11
18.1712345593
 21
25.5567643037
  0
LINE
  5
247
100
AcDbEntity
  8
0
100
AcDbLine
 62
7
  6
BYLAYER
 10
8.7591811697
 20
25.5674057759
 11
17.9031811697
 21
25.5674057759
  0
LINE
  5
248
100
AcDbEntity
  8
0
100
AcDbLine
 62
7
  6
BYLAYER
 10
18.1712345387
 20
25.5869096628
 11
17.9031811697
 21
25.5869096628
  0
LINE
  5
249
100
AcDbEntity
  8
0
100
AcDbLine
 62
7
  6
BYLAYER
 10
8.7591811697
 20
25.5869096628
 11
8.4911277621
 21
25.5869096628
  0
LINE
  5
24A
100
AcDbEntity
  8
0
100
AcDbLine
 62
7
  6
BYLAYER
 10
18.171234621
 20
25.7582455514
 11
17.5237425923
 21
25.7582455513
  0
LINE
  5
24B
100
AcDbEntity
  8
0
100
AcDbLine
 62
7
  6
BYLAYER
 10
9.1386197471
 20
25.7582455513
 11
8.4911277551
 21
25.7582455513
  0
LINE
  5
24C
100
AcDbEntity
  8
0
100
AcDbLine
 62
7
  6
BYLAYER
 10
17.3951811697
 20
26.2024048088
 11
9.2671811697
 21
26.2024048088
  0
LINE
  5
24D
100
AcDbEntity
  8
0
100
AcDbLine
 62
7
  6
BYLAYER
 10
8.8891811697
 20
26.9082643037
 11
9.2671811697
 21
26.9082643037
  0
LINE
  5
24E
100
AcDbEntity
  8
0
100
AcDbLine
 62
7
  6
BYLAYER
 10
17.3951811697
 20
26.9082643037
 11
17.7731811697
 21
26.9082643037
  0
LINE
  5
24F
100
AcDbEntity
  8
0
100
AcDbLine
 62
7
  6
BYLAYER
 10
22.4751811697
 20
21.2528176932
 11
22.4751811697
 21
15.7637109142
  0
LINE
  5
250
100
AcDbEntity
  8
0
100
AcDbLine
 62
7
  6
BYLAYER
 10
22.5053265289
 20
15.7637108696
 11
22.5053265289
 21
21.2528177113
  0
LINE
  5
251
100
AcDbEntity
  8
0
100
AcDbLine
 62
7
  6
BYLAYER
 10
22.6766624174
 20
15.7637108524
 11
22.6766624174
 21
21.2528177183
  0
LINE
  5
252
100
AcDbEntity
  8
0
100
AcDbLine
 62
7
  6
BYLAYER
 10
23.0811811697
 20
33.4082643037
 11
23.081178934
 21
24.670750791
  0
LINE
  5
253
100
AcDbEntity
  8
0
100
AcDbLine
 62
7
  6
BYLAYER
 10
23.0811811695
 20
12.3532106828
 11
23.0811811697
 21
3.6082643037
  0
LINE
  5
254
100
AcDbEntity
  8
0
100
AcDbLine
 62
7
  6
BYLAYER
 10
18.2811811697
 20
27.5432643037
 11
17.3951811697
 21
27.5432643037
  0
LINE
  5
255
100
AcDbEntity
  8
0
100
AcDbLine
 62
7
  6
BYLAYER
 10
9.2671811697
 20
27.5432643037
 11
8.3811811697
 21
27.5432643037
  0
LINE
  5
256
100
AcDbEntity
  8
0
100
AcDbLine
 62
7
  6
BYLAYER
 10
17.3951811697
 20
27.7097643037
 11
15.9981811697
 21
27.7097643037
  0
LINE
  5
257
100
AcDbEntity
  8
0
100
AcDbLine
 62
7
  6
BYLAYER
 10
10.6641811697
 20
27.7097643037
 11
9.2671811697
 21
27.7097643037
  0
LINE
  5
258
100
AcDbEntity
  8
0
100
AcDbLine
 62
7
  6
BYLAYER
 10
23.5811811698
 20
27.7582643037
 11
23.6859967283
 21
27.7582643037
  0
LINE
  5
259
100
AcDbEntity
  8
0
100
AcDbLine
 62
7
  6
BYLAYER
 10
8.3811811697
 20
28.2605701124
 11
8.8891811697
 21
28.2605701124
  0
LINE
  5
25A
100
AcDbEntity
  8
0
100
AcDbLine
 62
7
  6
BYLAYER
 10
17.7731811697
 20
28.2605701269
 11
18.2811811697
 21
28.2605701269
  0
LINE
  5
25B
100
AcDbEntity
  8
0
100
AcDbLine
 62
7
  6
BYLAYER
 10
17.3951811697
 20
28.2963521772
 11
15.9981811697
 21
28.2963521772
  0
LINE
  5
25C
100
AcDbEntity
  8
0
100
AcDbLine
 62
7
  6
BYLAYER
 10
10.6641811697
 20
28.2963521772
 11
9.2671811697
 21
28.2963521772
  0
LINE
  5
25D
100
AcDbEntity
  8
0
100
AcDbLine
 62
7
  6
BYLAYER
 10
23.5311811697
 20
33.5082643037
 11
23.5311811697
 21
32.9582643037
  0
LINE
  5
25E
100
AcDbEntity
  8
0
100
AcDbLine
 62
7
  6
BYLAYER
 10
23.5311811697
 20
4.0582643037
 11
23.5311811697
 21
3.5082643037
  0
LINE
  5
25F
100
AcDbEntity
  8
0
100
AcDbLine
 62
7
  6
BYLAYER
 10
23.5811811697
 20
4.108264304
 11
23.5811811697
 21
32.9082643035
  0
LINE
  5
260
100
AcDbEntity
  8
0
100
AcDbLine
 62
7
  6
BYLAYER
 10
23.6407791314
 20
19.0082643037
 11
23.6407791314
 21
18.0082643037
  0
LINE
  5
261
100
AcDbEntity
  8
0
100
AcDbLine
 62
7
  6
BYLAYER
 10
23.6859967283
 20
9.2582643037
 11
23.6859967283
 21
18.0082643037
  0
LINE
  5
262
100
AcDbEntity
  8
0
100
AcDbLine
 62
7
  6
BYLAYER
 10
23.6859967283
 20
19.0082643037
 11
23.6859967283
 21
27.7582643037
  0
LINE
  5
263
100
AcDbEntity
  8
0
100
AcDbLine
 62
7
  6
BYLAYER
 10
3.0811811696
 20
28.4082642888
 11
8.3860336899
 21
28.4082643037
  0
LINE
  5
264
100
AcDbEntity
  8
0
100
AcDbLine
 62
7
  6
BYLAYER
 10
18.2763286495
 20
28.4082643037
 11
23.5811811698
 21
28.4082642887
  0
LINE
  5
265
100
AcDbEntity
  8
0
100
AcDbLine
 62
7
  6
BYLAYER
 10
10.6641811697
 20
29.0597643037
 11
15.9981811697
 21
29.0597643037
  0
LINE
  5
266
100
AcDbEntity
  8
0
100
AcDbLine
 62
7
  6
BYLAYER
 10
9.9051811697
 20
29.2765716599
 11
16.7571811697
 21
29.2765716599
  0
LINE
  5
267
100
AcDbEntity
  8
0
100
AcDbLine
 62
7
  6
BYLAYER
 10
16.7571811689
 20
29.7845708862
 11
9.9051811702
 21
29.7845708862
  0
LINE
  5
268
100
AcDbEntity
  8
0
100
AcDbLine
 62
7
  6
BYLAYER
 10
16.7571811697
 20
29.7971391661
 11
15.9981811697
 21
29.7971391661
  0
LINE
  5
269
100
AcDbEntity
  8
0
100
AcDbLine
 62
7
  6
BYLAYER
 10
10.6641811697
 20
29.7971391661
 11
9.9051811697
 21
29.7971391661
  0
LINE
  5
26A
100
AcDbEntity
  8
0
100
AcDbLine
 62
7
  6
BYLAYER
 10
9.9051811697
 20
29.8110976731
 11
16.7571811697
 21
29.8110976731
  0
LINE
  5
26B
100
AcDbEntity
  8
0
100
AcDbLine
 62
7
  6
BYLAYER
 10
23.0811811701
 20
33.4082643037
 11
3.5811811696
 21
33.4082643037
  0
LINE
  5
26C
100
AcDbEntity
  8
0
100
AcDbLine
 62
7
  6
BYLAYER
 10
3.0811811697
 20
33.5082643037
 11
23.5311811697
 21
33.5082643037
  0
LINE
  5
26D
100
AcDbEntity
  8
0
100
AcDbLine
 62
7
  6
BYLAYER
 10
23.58118117
 20
4.108264304
 11
23.0811811698
 21
3.6082643038
  0
LINE
  5
26E
100
AcDbEntity
  8
0
100
AcDbLine
 62
7
  6
BYLAYER
 10
23.0811811701
 20
33.4082643033
 11
23.5811811699
 21
32.9082643035
  0
ARC
  5
26F
100
AcDbEntity
  8
0
100
AcDbCircle
 62
7
  6
BYLAYER
 10
-7.9454896066
 20
-13.8754407724
 40
40.2327296708
100
AcDbArc
 50
72.6067964046
 51
73.3514776495
  0
ARC
  5
270
100
AcDbEntity
  8
0
100
AcDbCircle
 62
7
  6
BYLAYER
 10
8.6691811697
 20
15.6962643037
 40
6.088
100
AcDbArc
 50
213.3067741225
 51
269.9999999592
  0
ARC
  5
271
100
AcDbEntity
  8
0
100
AcDbCircle
 62
7
  6
BYLAYER
 10
8.6691811697
 20
15.6962643037
 40
5.588
100
AcDbArc
 50
180.0
 51
270.0
  0
ARC
  5
272
100
AcDbEntity
  8
0
100
AcDbCircle
 62
7
  6
BYLAYER
 10
8.4911558088
 20
15.7637389427
 40
4.3341199983
100
AcDbArc
 50
180.0003706494
 51
269.9996294704
  0
ARC
  5
273
100
AcDbEntity
  8
0
100
AcDbCircle
 62
7
  6
BYLAYER
 10
8.4911277802
 20
15.7637109142
 40
4.3039466105
100
AcDbArc
 50
180.0
 51
270.0
  0
CIRCLE
  5
274
100
AcDbEntity
  8
0
100
AcDbCircle
 62
7
  6
BYLAYER
 10
8.7718811697
 20
16.2857643037
 40
0.8
  0
CIRCLE
  5
275
100
AcDbEntity
  8
0
100
AcDbCircle
 62
7
  6
BYLAYER
 10
8.7718811697
 20
16.2857643037
 40
0.7825
  0
ARC
  5
276
100
AcDbEntity
  8
0
100
AcDbCircle
 62
7
  6
BYLAYER
 10
-7.7290690555
 20
50.19238814
 40
39.4933496181
100
AcDbArc
 50
286.641574683
 51
287.4001931255
  0
ARC
  5
277
100
AcDbEntity
  8
0
100
AcDbCircle
 62
7
  6
BYLAYER
 10
8.6691798016
 20
21.3276917736
 40
6.0879984352
100
AcDbArc
 50
92.7114485938
 51
146.6932251438
  0
ARC
  5
278
100
AcDbEntity
  8
0
100
AcDbCircle
 62
7
  6
BYLAYER
 10
8.6691811697
 20
21.3276908565
 40
5.588
100
AcDbArc
 50
92.9542767559
 51
180.0
  0
ARC
  5
279
100
AcDbEntity
  8
0
100
AcDbCircle
 62
7
  6
BYLAYER
 10
8.4911558088
 20
21.2527896647
 40
4.3341199983
100
AcDbArc
 50
90.0003706494
 51
179.9996291752
  0
ARC
  5
27A
100
AcDbEntity
  8
0
100
AcDbCircle
 62
7
  6
BYLAYER
 10
8.4911277802
 20
21.2528176932
 40
4.3039466105
100
AcDbArc
 50
90.0
 51
180.0
  0
ARC
  5
27B
100
AcDbEntity
  8
0
100
AcDbCircle
 62
7
  6
BYLAYER
 10
9.9124375076
 20
28.2853493193
 40
1.5313678362
100
AcDbArc
 50
167.7390336448
 51
169.4386029533
  0
ARC
  5
27C
100
AcDbEntity
  8
0
100
AcDbCircle
 62
7
  6
BYLAYER
 10
9.9075682466
 20
28.2854210706
 40
1.5267623164
100
AcDbArc
 50
142.0179600477
 51
143.1044359115
  0
ARC
  5
27D
100
AcDbEntity
  8
0
100
AcDbCircle
 62
7
  6
BYLAYER
 10
9.907043461
 20
28.2862907738
 40
1.5258926128
100
AcDbArc
 50
169.4362311961
 51
175.4151213386
  0
ARC
  5
27E
100
AcDbEntity
  8
0
100
AcDbCircle
 62
7
  6
BYLAYER
 10
9.9054024364
 20
28.2863626065
 40
1.5247350827
100
AcDbArc
 50
90.0083146573
 51
107.0947781843
  0
ARC
  5
27F
100
AcDbEntity
  8
0
100
AcDbCircle
 62
7
  6
BYLAYER
 10
9.9055226583
 20
28.2869686378
 40
1.5241975814
100
AcDbArc
 50
115.016854134
 51
142.0164907607
  0
ARC
  5
280
100
AcDbEntity
  8
0
100
AcDbCircle
 62
7
  6
BYLAYER
 10
9.905305106
 20
28.2868756667
 40
1.5240784874
100
AcDbArc
 50
143.0970897463
 51
167.7381637911
  0
ARC
  5
281
100
AcDbEntity
  8
0
100
AcDbCircle
 62
7
  6
BYLAYER
 10
9.905199731
 20
28.2605523249
 40
1.5240175756
100
AcDbArc
 50
90.0006978155
 51
179.9993312881
  0
ARC
  5
282
100
AcDbEntity
  8
0
100
AcDbCircle
 62
7
  6
BYLAYER
 10
9.9051829164
 20
28.2605701029
 40
1.0159952095
100
AcDbArc
 50
90.0000985019
 51
179.9999994639
  0
CIRCLE
  5
283
100
AcDbEntity
  8
0
100
AcDbCircle
 62
7
  6
BYLAYER
 10
8.7718811697
 20
20.7307643037
 40
0.8
  0
CIRCLE
  5
284
100
AcDbEntity
  8
0
100
AcDbCircle
 62
7
  6
BYLAYER
 10
8.7718811697
 20
20.7307643037
 40
0.7825
  0
ARC
  5
285
100
AcDbEntity
  8
0
100
AcDbCircle
 62
7
  6
BYLAYER
 10
8.7579735863
 20
26.0765981575
 40
0.5092070154
100
AcDbArc
 50
270.1358804802
 51
359.9879307488
  0
ARC
  5
286
100
AcDbEntity
  8
0
100
AcDbCircle
 62
7
  6
BYLAYER
 10
8.8891811697
 20
27.4162643037
 40
0.508
100
AcDbArc
 50
180.0
 51
270.0000000001
  0
ARC
  5
287
100
AcDbEntity
  8
0
100
AcDbCircle
 62
7
  6
BYLAYER
 10
34.2829103812
 20
-12.8141004721
 40
39.122776227
100
AcDbArc
 50
106.6379200288
 51
107.40371575
  0
ARC
  5
288
100
AcDbEntity
  8
0
100
AcDbCircle
 62
7
  6
BYLAYER
 10
17.9931811697
 20
15.6962643037
 40
6.088
100
AcDbArc
 50
269.99999961
 51
326.6932258745
  0
ARC
  5
289
100
AcDbEntity
  8
0
100
AcDbCircle
 62
7
  6
BYLAYER
 10
17.9931811697
 20
15.6962643037
 40
5.588
100
AcDbArc
 50
270.0
 51
360.0
  0
ARC
  5
28A
100
AcDbEntity
  8
0
100
AcDbCircle
 62
7
  6
BYLAYER
 10
18.1712065307
 20
15.7637389427
 40
4.3341199983
100
AcDbArc
 50
270.0003705296
 51
359.9996291751
  0
ARC
  5
28B
100
AcDbEntity
  8
0
100
AcDbCircle
 62
7
  6
BYLAYER
 10
18.1712345593
 20
15.7637109142
 40
4.3039466105
100
AcDbArc
 50
270.0
 51
360.0
  0
CIRCLE
  5
28C
100
AcDbEntity
  8
0
100
AcDbCircle
 62
7
  6
BYLAYER
 10
17.8904811697
 20
16.2857643037
 40
0.8
  0
CIRCLE
  5
28D
100
AcDbEntity
  8
0
100
AcDbCircle
 62
7
  6
BYLAYER
 10
17.8904811697
 20
16.2857643037
 40
0.7825
  0
ARC
  5
28E
100
AcDbEntity
  8
0
100
AcDbCircle
 62
7
  6
BYLAYER
 10
34.6089747587
 20
50.9030314844
 40
40.2365345037
100
AcDbArc
 50
252.6068182404
 51
253.351429007
  0
ARC
  5
28F
100
AcDbEntity
  8
0
100
AcDbCircle
 62
7
  6
BYLAYER
 10
17.9931813334
 20
21.3276818682
 40
6.0880078187
100
AcDbArc
 50
33.3069157147
 51
87.2885489184
  0
ARC
  5
290
100
AcDbEntity
  8
0
100
AcDbCircle
 62
7
  6
BYLAYER
 10
17.9931811697
 20
21.3276908565
 40
5.588
100
AcDbArc
 50
0.0
 51
87.0457232441
  0
ARC
  5
291
100
AcDbEntity
  8
0
100
AcDbCircle
 62
7
  6
BYLAYER
 10
18.1712065307
 20
21.2527896647
 40
4.3341199983
100
AcDbArc
 50
0.0003706494
 51
89.999629607
  0
ARC
  5
292
100
AcDbEntity
  8
0
100
AcDbCircle
 62
7
  6
BYLAYER
 10
18.1712345593
 20
21.2528176932
 40
4.3039466105
100
AcDbArc
 50
0.0
 51
90.0
  0
ARC
  5
293
100
AcDbEntity
  8
0
100
AcDbCircle
 62
7
  6
BYLAYER
 10
16.7502390734
 20
28.2854250293
 40
1.531046542
100
AcDbArc
 50
10.7127126223
 51
12.2082283599
  0
ARC
  5
294
100
AcDbEntity
  8
0
100
AcDbCircle
 62
7
  6
BYLAYER
 10
16.7569440123
 20
28.2862731216
 40
1.5248245699
100
AcDbArc
 50
72.6502045257
 51
89.9910887341
  0
ARC
  5
295
100
AcDbEntity
  8
0
100
AcDbCircle
 62
7
  6
BYLAYER
 10
16.7571626739
 20
28.2605523903
 40
1.5240175759
100
AcDbArc
 50
0.0006662661
 51
89.999304661
  0
ARC
  5
296
100
AcDbEntity
  8
0
100
AcDbCircle
 62
7
  6
BYLAYER
 10
16.757228712
 20
28.2878448782
 40
1.5232394392
100
AcDbArc
 50
12.2123547965
 51
72.642796043
  0
ARC
  5
297
100
AcDbEntity
  8
0
100
AcDbCircle
 62
7
  6
BYLAYER
 10
16.7583919865
 20
28.2867198738
 40
1.522795049
100
AcDbArc
 50
4.5780280031
 51
10.7218640173
  0
ARC
  5
298
100
AcDbEntity
  8
0
100
AcDbCircle
 62
7
  6
BYLAYER
 10
16.7571799201
 20
28.2605701914
 40
1.0159948229
100
AcDbArc
 50
359.9999955486
 51
89.9999295317
  0
CIRCLE
  5
299
100
AcDbEntity
  8
0
100
AcDbCircle
 62
7
  6
BYLAYER
 10
17.8904811697
 20
20.7307643037
 40
0.8
  0
CIRCLE
  5
29A
100
AcDbEntity
  8
0
100
AcDbCircle
 62
7
  6
BYLAYER
 10
17.8904811697
 20
20.7307643037
 40
0.7825
  0
ARC
  5
29B
100
AcDbEntity
  8
0
100
AcDbCircle
 62
7
  6
BYLAYER
 10
17.9043903717
 20
26.0765978868
 40
0.5092076136
100
AcDbArc
 50
180.0120387587
 51
269.863937332
  0
ARC
  5
29C
100
AcDbEntity
  8
0
100
AcDbCircle
 62
7
  6
BYLAYER
 10
17.7731811697
 20
27.4162643037
 40
0.508
100
AcDbArc
 50
270.0
 51
360.0
  0
SPLINE
  5
29D
100
AcDbEntity
  8
0
100
AcDbSpline
 62
7
  6
BYLAYER
 70
0
 71
3
 72
23
 73
19
 74
0
 42
0.0000001
 43
0.0000001
 44
0.0000000001
 40
0.0
 40
0.0
 40
0.0
 40
0.0
 40
0.0624767511
 40
0.125005094
 40
0.1875048819
 40
0.2499963614
 40
0.3124980805
 40
0.3749996515
 40
0.4374993155
 40
0.4999996376
 40
0.5624996624
 40
0.624999079
 40
0.6875012979
 40
0.750004356
 40
0.8124970949
 40
0.8749969078
 40
0.9375238154
 40
1.0
 40
1.0
 40
1.0
 40
1.0
 10
18.171234621
 20
25.7582455515
 30
0.0
 10
18.3185602673
 20
25.7585946449
 30
0.0
 10
18.6135724355
 20
25.7440681264
 30
0.0
 10
19.0515328523
 20
25.6786644702
 30
0.0
 10
19.4811763967
 20
25.5711193609
 30
0.0
 10
19.8981515143
 20
25.4219967394
 30
0.0
 10
20.2984748997
 20
25.2326517083
 30
0.0
 10
20.6783136508
 20
25.0049528016
 30
0.0
 10
21.0340308779
 20
24.7411573884
 30
0.0
 10
21.3621474325
 20
24.4437381777
 30
0.0
 10
21.659578867
 20
24.115632581
 30
0.0
 10
21.9233661078
 20
23.7599081986
 30
0.0
 10
22.1510559437
 20
23.3800596428
 30
0.0
 10
22.3404053083
 20
22.9797302374
 30
0.0
 10
22.4895351262
 20
22.5627510305
 30
0.0
 10
22.5970766363
 20
22.1331063519
 30
0.0
 10
22.6624594755
 20
21.6951474416
 30
0.0
 10
22.6769932203
 20
21.400142071
 30
0.0
 10
22.6766624174
 20
21.2528177183
 30
0.0
  0
SPLINE
  5
29E
100
AcDbEntity
  8
0
100
AcDbSpline
 62
7
  6
BYLAYER
 70
0
 71
3
 72
23
 73
19
 74
0
 42
0.0000001
 43
0.0000001
 44
0.0000000001
 40
0.0
 40
0.0
 40
0.0
 40
0.0
 40
0.0624767511
 40
0.1250050939
 40
0.1875048818
 40
0.2499963614
 40
0.3124980805
 40
0.3749996515
 40
0.4374993155
 40
0.4999996376
 40
0.5624996624
 40
0.624999079
 40
0.6875012979
 40
0.750004356
 40
0.8124970949
 40
0.8749969078
 40
0.9375238154
 40
1.0
 40
1.0
 40
1.0
 40
1.0
 10
22.6766624175
 20
15.7637108524
 30
0.0
 10
22.6770115097
 20
15.6163852061
 30
0.0
 10
22.6624849913
 20
15.3213730381
 30
0.0
 10
22.5970813367
 20
14.883412621
 30
0.0
 10
22.4895362271
 20
14.4537690767
 30
0.0
 10
22.3404136053
 20
14.0367939592
 30
0.0
 10
22.1510685743
 20
13.6364705738
 30
0.0
 10
21.9233696676
 20
13.2566318226
 30
0.0
 10
21.6595742544
 20
12.9009145955
 30
0.0
 10
21.3621550438
 20
12.5727980409
 30
0.0
 10
21.034049447
 20
12.2753666065
 30
0.0
 10
20.6783250646
 20
12.0115793657
 30
0.0
 10
20.2984765088
 20
11.7838895297
 30
0.0
 10
19.8981471034
 20
11.5945401651
 30
0.0
 10
19.4811678965
 20
11.4454103473
 30
0.0
 10
19.051523218
 20
11.3378688372
 30
0.0
 10
18.6135643076
 20
11.2724859979
 30
0.0
 10
18.318558937
 20
11.2579522532
 30
0.0
 10
18.1712345843
 20
11.258283056
 30
0.0
  0
SPLINE
  5
29F
100
AcDbEntity
  8
0
100
AcDbSpline
 62
7
  6
BYLAYER
 70
0
 71
3
 72
23
 73
19
 74
0
 42
0.0000001
 43
0.0000001
 44
0.0000000001
 40
0.0
 40
0.0
 40
0.0
 40
0.0
 40
0.0624767511
 40
0.1250050939
 40
0.1875048818
 40
0.2499963614
 40
0.3124980805
 40
0.3749996515
 40
0.4374993155
 40
0.4999996376
 40
0.5624996624
 40
0.624999079
 40
0.6875012979
 40
0.750004356
 40
0.8124970949
 40
0.8749969078
 40
0.9375238154
 40
1.0
 40
1.0
 40
1.0
 40
1.0
 10
8.4911277185
 20
11.2582830559
 30
0.0
 10
8.3438020721
 20
11.2579339637
 30
0.0
 10
8.0487899041
 20
11.2724604821
 30
0.0
 10
7.610829487
 20
11.3378641367
 30
0.0
 10
7.1811859427
 20
11.4454092463
 30
0.0
 10
6.7642108252
 20
11.5945318682
 30
0.0
 10
6.3638874398
 20
11.7838768991
 30
0.0
 10
5.9840486886
 20
12.0115758058
 30
0.0
 10
5.6283314615
 20
12.275371219
 30
0.0
 10
5.3002149069
 20
12.5727904297
 30
0.0
 10
5.0027834725
 20
12.9008960264
 30
0.0
 10
4.7389962317
 20
13.2566204088
 30
0.0
 10
4.5113063958
 20
13.6364689646
 30
0.0
 10
4.3219570312
 20
14.03679837
 30
0.0
 10
4.1728272133
 20
14.4537775769
 30
0.0
 10
4.0652857032
 20
14.8834222555
 30
0.0
 10
3.9999028638
 20
15.3213811658
 30
0.0
 10
3.9853691191
 20
15.6163865364
 30
0.0
 10
3.985699922
 20
15.7637108891
 30
0.0
  0
SPLINE
  5
2A0
100
AcDbEntity
  8
0
100
AcDbSpline
 62
7
  6
BYLAYER
 70
0
 71
3
 72
23
 73
19
 74
0
 42
0.0000001
 43
0.0000001
 44
0.0000000001
 40
0.0
 40
0.0
 40
0.0
 40
0.0
 40
0.0624767511
 40
0.1250050939
 40
0.1875048818
 40
0.2499963614
 40
0.3124980805
 40
0.3749996515
 40
0.4374993155
 40
0.4999996376
 40
0.5624996624
 40
0.624999079
 40
0.6875012979
 40
0.750004356
 40
0.8124970949
 40
0.8749969078
 40
0.9375238154
 40
1.0
 40
1.0
 40
1.0
 40
1.0
 10
3.9856999219
 20
21.252817755
 30
0.0
 10
3.9853508297
 20
21.4001434013
 30
0.0
 10
3.9998773481
 20
21.6951555693
 30
0.0
 10
4.0652810027
 20
22.1331159864
 30
0.0
 10
4.1728261123
 20
22.5627595307
 30
0.0
 10
4.3219487342
 20
22.9797346482
 30
0.0
 10
4.5112937651
 20
23.3800580336
 30
0.0
 10
4.7389926718
 20
23.7598967848
 30
0.0
 10
5.002788085
 20
24.1156140119
 30
0.0
 10
5.3002072957
 20
24.4437305665
 30
0.0
 10
5.6283128925
 20
24.7411620009
 30
0.0
 10
5.9840372748
 20
25.0049492417
 30
0.0
 10
6.3638858306
 20
25.2326390777
 30
0.0
 10
6.764215236
 20
25.4219884423
 30
0.0
 10
7.1811944429
 20
25.5711182601
 30
0.0
 10
7.6108391215
 20
25.6786597703
 30
0.0
 10
8.0487980319
 20
25.7440426095
 30
0.0
 10
8.3438034025
 20
25.7585763543
 30
0.0
 10
8.4911277551
 20
25.7582455514
 30
0.0
  0
ELLIPSE
  5
2A1
100
AcDbEntity
  8
0
100
AcDbEllipse
 62
7
  6
BYLAYER
 10
16.7571811697
 20
28.2633629911
 30
0.0
 11
0.0
 21
1.5240023212
 31
0.0
 40
0.9999984769
 41
-0.4319419382
 42
0.0
  0
ELLIPSE
  5
2A2
100
AcDbEntity
  8
0
100
AcDbEllipse
 62
7
  6
BYLAYER
 10
9.9051811697
 20
28.2633629911
 30
0.0
 11
-0.0
 21
1.5240023212
 31
0.0
 40
0.9999984769
 41
0.0
 42
0.4319419382
  0
ELLIPSE
  5
2A3
100
AcDbEntity
  8
0
100
AcDbEllipse
 62
7
  6
BYLAYER
 10
17.9031811697
 20
26.0982178254
 30
0.0
 11
-0.0
 21
0.5113081626
 31
0.0
 40
0.9935300024
 41
-3.9850199477
 42
-3.1415926536
  0
ELLIPSE
  5
2A4
100
AcDbEntity
  8
0
100
AcDbEllipse
 62
7
  6
BYLAYER
 10
9.9051811697
 20
28.2867448418
 30
0.0
 11
-0.0
 21
1.5240023212
 31
0.0
 40
0.9999984769
 41
1.4909745312
 42
1.5707963268
  0
ELLIPSE
  5
2A5
100
AcDbEntity
  8
0
100
AcDbEllipse
 62
7
  6
BYLAYER
 10
16.7571811697
 20
28.2867448418
 30
0.0
 11
-0.0
 21
1.5240023212
 31
0.0
 40
0.9999984769
 41
-1.5707963268
 42
-1.4909745312
  0
ELLIPSE
  5
2A6
100
AcDbEntity
  8
0
100
AcDbEllipse
 62
7
  6
BYLAYER
 10
16.7571811697
 20
28.2731368449
 30
0.0
 11
0.0
 21
-1.5240023212
 31
0.0
 40
0.9999984769
 41
2.7096507154
 42
3.1415926536
  0
ELLIPSE
  5
2A7
100
AcDbEntity
  8
0
100
AcDbEllipse
 62
7
  6
BYLAYER
 10
9.9051811697
 20
28.2731368449
 30
0.0
 11
0.0
 21
-1.5240023212
 31
0.0
 40
0.9999984769
 41
3.1415926536
 42
3.5735345918
  0
ELLIPSE
  5
2A8
100
AcDbEntity
  8
0
100
AcDbEllipse
 62
7
  6
BYLAYER
 10
8.7591811697
 20
26.0982178254
 30
0.0
 11
-0.0
 21
0.5113081626
 31
0.0
 40
0.9935300024
 41
-3.1415926536
 42
-2.2981653595
  0
ELLIPSE
  5
2A9
100
AcDbEntity
  8
0
100
AcDbEllipse
 62
7
  6
BYLAYER
 10
8.7591811697
 20
26.0960187201
 30
0.0
 11
-0.0
 21
0.5080007737
 31
0.0
 40
0.9999984769
 41
-2.2981653595
 42
-1.5707963268
  0
ELLIPSE
  5
2AA
100
AcDbEntity
  8
0
100
AcDbEllipse
 62
7
  6
BYLAYER
 10
17.9031811697
 20
26.0960187201
 30
0.0
 11
0.0
 21
0.5080007737
 31
0.0
 40
0.9999984769
 41
-4.7123889804
 42
-3.9850199477
  0
ENDSEC
  0
SECTION
  2
OBJECTS
  0
DICTIONARY
  5
C
100
AcDbDictionary
280
0
281
1
  3
ACAD_GROUP
350
D
  3
ACAD_MLINESTYLE
350
17
  3
ACAD_LAYOUT
350
1A
  3
ACAD_PLOTSETTINGS
350
19
  3
ACAD_PLOTSTYLENAME
350
E
  0
DICTIONARY
  5
D
102
{ACAD_REACTORS
330
C
102
}
100
AcDbDictionary
280
0
281
1
  0
ACDBDICTIONARYWDFLT
  5
E
102
{ACAD_REACTORS
330
C
102
}
100
AcDbDictionary
281
1
  3
Normal
350
F
100
AcDbDictionaryWithDefault
340
F
  0
DICTIONARY
  5
17
102
{ACAD_REACTORS
330
C
102
}
100
AcDbDictionary
280
0
281
1
  3
Standard
350
18
  0
DICTIONARY
  5
19
102
{ACAD_REACTORS
330
C
102
}
100
AcDbDictionary
281
1
  0
DICTIONARY
  5
1A
102
{ACAD_REACTORS
330
C
102
}
100
AcDbDictionary
281
1
  3
Model
350
2AB
  3
Layout1
350
2AC
  0
ACDBPLACEHOLDER
  5
F
102
{ACAD_REACTORS
330
E
102
}
  0
MLINESTYLE
  5
18
102
{ACAD_REACTORS
330
17
102
}
100
AcDbMlineStyle
  2
STANDARD
 70
0
  3

 62
256
 51
90.0
 52
90.0
 71
2
 49
0.5
 62
256
  6
BYLAYER
 49
-0.5
 62
256
  6
BYLAYER
  0
LAYOUT
  5
2AB
102
{ACAD_REACTORS
330
1A
102
}
100
AcDbPlotSettings
  1

  2
none_device
  4

  6

 40
0.0
 41
0.0
 42
0.0
 43
0.0
 44
210.0
 45
297.0
 46
0.0
 47
0.0
 48
0.0
 49
0.0
140
0.0
141
0.0
142
1.0
143
1.0
 70
1024
 72
1
 73
0
 74
0
  7

 75
0
147
1.0
148
0.0
149
0.0
100
AcDbLayout
  1
Model
 70
0
 71
0
 10
0.0
 20
0.0
 11
210.0
 21
297.0
 12
0.0
 22
0.0
 32
0.0
 14
0.0
 24
0.0
 34
0.0
 15
0.0
 25
0.0
 35
0.0
146
0.0
 13
0.0
 23
0.0
 33
0.0
 16
1.0
 26
0.0
 36
0.0
 17
0.0
 27
1.0
 37
0.0
 76
0
330
210
345
0
346
0
  0
LAYOUT
  5
2AC
102
{ACAD_REACTORS
330
1A
102
}
100
AcDbPlotSettings
  1

  2
none_device
  4

  6

 40
0.0
 41
0.0
 42
0.0
 43
0.0
 44
210.0
 45
297.0
 46
0.0
 47
0.0
 48
0.0
 49
0.0
140
0.0
141
0.0
142
1.0
143
1.0
 70
0
 72
1
 73
0
 74
0
  7

 75
0
147
1.0
148
0.0
149
0.0
100
AcDbLayout
  1
Layout1
 70
0
 71
1
 10
0.0
 20
0.0
 11
210.0
 21
297.0
 12
0.0
 22
0.0
 32
0.0
 14
0.0
 24
0.0
 34
0.0
 15
0.0
 25
0.0
 35
0.0
146
0.0
 13
0.0
 23
0.0
 33
0.0
 16
1.0
 26
0.0
 36
0.0
 17
0.0
 27
1.0
 37
0.0
 76
0
330
211
345
0
346
0
  0
ENDSEC
  0
EOF
