999
DXF file: C:\Users\sesa63760\Dev\_Creo\CAD\MCADUE0002396_3D-CAD\drw0001_7.dxf
999
Pro/ENGINEER 2019471 by Parametric Technology Corporation
  0
SECTION
  2
HEADER
  9
$ACADVER
  1
AC1024
  9
$DWGCODEPAGE
  3
ANSI_1252
  9
$EXTMAX
 10
758.4377693787
 20
1072.647702407
 30
0.0
  9
$EXTMIN
 10
0.0
 20
0.0
 30
0.0
  9
$LIMMIN
 10
0.0
 20
0.0
  9
$LIMMAX
 10
758.4377693787
 20
1072.647702407
  9
$VIEWCTR
 10
379.2188846893
 20
536.3238512035
  9
$VIEWSIZE
 40
1072.647702407
  9
$CLAYER
  8
0
  9
$LTSCALE
 40
69.9207391199
  9
$CELTYPE
  6
BYLAYER
  9
$DIMSCALE
 40
1.0
  9
$DIMASZ
 40
9.029021064
  9
$DIMEXO
 40
1.0
  9
$DIMDLI
 40
48.308874301
  9
$DIMEXE
 40
1.0
  9
$DIMCEN
 40
11.4415754923
  9
$DIMLFAC
 40
1.0
  9
$DIMBLK
  1
_FILLED
  9
$DIMALT
 70
0
  9
$DIMALTF
 40
0.0393700787
  9
$DIMTXT
 40
12.6406294896
  9
$DIMTOL
 70
1
  9
$DIMLIM
 70
0
  9
$DIMTFAC
 40
1.0
  9
$DIMTP
 40
0.01
  9
$DIMTM
 40
0.01
  9
$DIMGAP
 40
0.625
  9
$DIMDSEP
 70
46
  9
$AUNITS
 70
0
  9
$PDMODE
 70
3
  9
$PDSIZE
 40
0.3125
  9
$HANDSEED
  5
2E5
  9
$TILEMODE
 70
1
  9
$MEASUREMENT
 70
1
  9
$INSUNITS
 70
4
  0
ENDSEC
  0
SECTION
  2
CLASSES
  0
CLASS
  1
ACDBDICTIONARYWDFLT
  2
AcDbDictionaryWithDefault
  3
AutoCAD 2000
 90
0
 91
1
280
0
281
0
  0
CLASS
  1
ACDBPLACEHOLDER
  2
AcDbPlaceHolder
  3
AutoCAD 2000
 90
0
 91
1
280
0
281
0
  0
CLASS
  1
LAYOUT
  2
AcDbLayout
  3
AutoCAD 2000
 90
0
 91
0
280
0
281
0
  0
ENDSEC
  0
SECTION
  2
TABLES
  0
TABLE
  2
VPORT
  5
8
100
AcDbSymbolTable
 70
2
  0
VPORT
  5
1F4
100
AcDbSymbolTableRecord
100
AcDbViewportTableRecord
  2
*ACTIVE
 70
0
 10
0.0
 20
0.0
 11
1.0
 21
1.0
 12
379.2188846893
 22
536.3238512035
 13
0.0
 23
0.0
 14
1.0
 24
1.0
 15
0.0
 25
0.0
 16
0.0
 26
0.0
 36
1.0
 17
0.0
 27
0.0
 37
0.0
 40
1072.647702407
 41
0.7070707071
 42
50.0
 43
0.0
 44
0.0
 50
0.0
 51
0.0
 71
0
 72
100
 73
1
 74
1
 75
0
 76
0
 77
0
 78
0
  0
ENDTAB
  0
TABLE
  2
LTYPE
  5
5
100
AcDbSymbolTable
 70
6
  0
LTYPE
  5
14
100
AcDbSymbolTableRecord
100
AcDbLinetypeTableRecord
  2
BYBLOCK
 70
0
  3

 72
65
 73
0
 40
0.0
  0
LTYPE
  5
15
100
AcDbSymbolTableRecord
100
AcDbLinetypeTableRecord
  2
BYLAYER
 70
0
  3

 72
65
 73
0
 40
0.0
  0
LTYPE
  5
16
100
AcDbSymbolTableRecord
100
AcDbLinetypeTableRecord
  2
CONTINUOUS
 70
64
  3
Solid line
 72
65
 73
0
 40
0.0
  0
LTYPE
  5
1F5
100
AcDbSymbolTableRecord
100
AcDbLinetypeTableRecord
  2
CENTER
 70
64
  3
____ _ ____ _ ____ _ ____ _ ____ _ ____ _ ____
 72
65
 73
4
 40
0.6
 49
0.375
 74
0
 49
-0.075
 74
0
 49
0.075
 74
0
 49
-0.075
 74
0
  0
LTYPE
  5
1F6
100
AcDbSymbolTableRecord
100
AcDbLinetypeTableRecord
  2
HIDDEN
 70
64
  3
- - - - - - - - - - - - - - - - - - - -
 72
65
 73
2
 40
0.2
 49
0.1
 74
0
 49
-0.1
 74
0
  0
LTYPE
  5
1F7
100
AcDbSymbolTableRecord
100
AcDbLinetypeTableRecord
  2
PHANTOM
 70
64
  3
_____ _ _ _____ _ _ _____ _ _ _____
 72
65
 73
6
 40
0.8
 49
0.45
 74
0
 49
-0.05
 74
0
 49
0.1
 74
0
 49
-0.05
 74
0
 49
0.1
 74
0
 49
-0.05
 74
0
  0
LTYPE
  5
1F8
100
AcDbSymbolTableRecord
100
AcDbLinetypeTableRecord
  2
DOT
 70
64
  3
. . . . . . . . . . . . . . . . . . . .
 72
65
 73
2
 40
0.2
 49
0.1
 74
0
 49
-0.1
 74
0
  0
LTYPE
  5
1F9
100
AcDbSymbolTableRecord
100
AcDbLinetypeTableRecord
  2
DASHED
 70
64
  3
- - - - - - - - - - - - - - - - - - - -
 72
65
 73
2
 40
0.2
 49
0.1
 74
0
 49
-0.1
 74
0
  0
ENDTAB
  0
TABLE
  2
LAYER
  5
2
100
AcDbSymbolTable
 70
36
  0
LAYER
  5
10
100
AcDbSymbolTableRecord
100
AcDbLayerTableRecord
  2
0
 70
0
 62
7
  6
CONTINUOUS
370
-3
390
F
  0
LAYER
  5
1FA
100
AcDbSymbolTableRecord
100
AcDbLayerTableRecord
  2
DEFAULT_1
 70
0
 62
7
  6
CENTER
370
-3
390
F
  0
LAYER
  5
1FB
100
AcDbSymbolTableRecord
100
AcDbLayerTableRecord
  2
DEFAULT_2
 70
0
 62
8
  6
HIDDEN
370
-3
390
F
  0
LAYER
  5
1FC
100
AcDbSymbolTableRecord
100
AcDbLayerTableRecord
  2
DEFAULT_3
 70
0
 62
7
  6
PHANTOM
370
-3
390
F
  0
LAYER
  5
1FD
100
AcDbSymbolTableRecord
100
AcDbLayerTableRecord
  2
00_COMPONENTS
 70
0
 62
7
  6
CONTINUOUS
370
-3
390
F
  0
LAYER
  5
1FE
100
AcDbSymbolTableRecord
100
AcDbLayerTableRecord
  2
01_1_DEFAULT_DATUMS
 70
0
 62
7
  6
CONTINUOUS
370
-3
390
F
  0
LAYER
  5
1FF
100
AcDbSymbolTableRecord
100
AcDbLayerTableRecord
  2
01_PLANES
 70
0
 62
7
  6
CONTINUOUS
370
-3
390
F
  0
LAYER
  5
200
100
AcDbSymbolTableRecord
100
AcDbLayerTableRecord
  2
02_COORD_SYS
 70
0
 62
7
  6
CONTINUOUS
370
-3
390
F
  0
LAYER
  5
201
100
AcDbSymbolTableRecord
100
AcDbLayerTableRecord
  2
03_AXES
 70
0
 62
7
  6
CONTINUOUS
370
-3
390
F
  0
LAYER
  5
202
100
AcDbSymbolTableRecord
100
AcDbLayerTableRecord
  2
04_POINTS
 70
0
 62
7
  6
CONTINUOUS
370
-3
390
F
  0
LAYER
  5
203
100
AcDbSymbolTableRecord
100
AcDbLayerTableRecord
  2
05_CURVES
 70
0
 62
7
  6
CONTINUOUS
370
-3
390
F
  0
LAYER
  5
204
100
AcDbSymbolTableRecord
100
AcDbLayerTableRecord
  2
06_SURFS
 70
0
 62
7
  6
CONTINUOUS
370
-3
390
F
  0
LAYER
  5
205
100
AcDbSymbolTableRecord
100
AcDbLayerTableRecord
  2
07_COSMETICS
 70
0
 62
7
  6
CONTINUOUS
370
-3
390
F
  0
LAYER
  5
206
100
AcDbSymbolTableRecord
100
AcDbLayerTableRecord
  2
10_NOTES
 70
0
 62
7
  6
CONTINUOUS
370
-3
390
F
  0
LAYER
  5
207
100
AcDbSymbolTableRecord
100
AcDbLayerTableRecord
  2
11_NOTES_PUB
 70
0
 62
7
  6
CONTINUOUS
370
-3
390
F
  0
LAYER
  5
208
100
AcDbSymbolTableRecord
100
AcDbLayerTableRecord
  2
13_REF_GTOL
 70
0
 62
7
  6
CONTINUOUS
370
-3
390
F
  0
LAYER
  5
209
100
AcDbSymbolTableRecord
100
AcDbLayerTableRecord
  2
16_MISC
 70
0
 62
7
  6
CONTINUOUS
370
-3
390
F
  0
LAYER
  5
20A
100
AcDbSymbolTableRecord
100
AcDbLayerTableRecord
  2
17_NO_PRINT
 70
0
 62
7
  6
CONTINUOUS
370
-3
390
F
  0
LAYER
  5
20B
100
AcDbSymbolTableRecord
100
AcDbLayerTableRecord
  2
18_DATUM_CAMS_JOINTS
 70
0
 62
7
  6
CONTINUOUS
370
-3
390
F
  0
LAYER
  5
20C
100
AcDbSymbolTableRecord
100
AcDbLayerTableRecord
  2
19_DATUM_FUNCTIONAL
 70
0
 62
7
  6
CONTINUOUS
370
-3
390
F
  0
LAYER
  5
20D
100
AcDbSymbolTableRecord
100
AcDbLayerTableRecord
  2
20_DATUM_KINEMATIC_SCHEME
 70
0
 62
7
  6
CONTINUOUS
370
-3
390
F
  0
ENDTAB
  0
TABLE
  2
STYLE
  5
3
100
AcDbSymbolTable
 70
1
  0
STYLE
  5
11
100
AcDbSymbolTableRecord
100
AcDbTextStyleTableRecord
  2
STANDARD
 70
0
 40
0.0
 41
0.8
 50
0.0
 71
0
 42
0.2
  3
txt
  4

  0
STYLE
  5
20E
100
AcDbSymbolTableRecord
100
AcDbTextStyleTableRecord
  2
TEXTSTYLE_1
 70
0
 40
0.0
 41
0.8
 50
0.0
 71
0
 42
0.2
  3
gdt
  4

  0
ENDTAB
  0
TABLE
  2
VIEW
  5
6
100
AcDbSymbolTable
 70
0
  0
ENDTAB
  0
TABLE
  2
UCS
  5
7
100
AcDbSymbolTable
 70
0
  0
ENDTAB
  0
TABLE
  2
APPID
  5
9
100
AcDbSymbolTable
 70
1
  0
APPID
  5
20F
100
AcDbSymbolTableRecord
100
AcDbRegAppTableRecord
  2
ACAD
 70
0
  0
ENDTAB
  0
TABLE
  2
BLOCK_RECORD
  5
1
100
AcDbSymbolTable
 70
0
  0
BLOCK_RECORD
  5
210
100
AcDbSymbolTableRecord
100
AcDbBlockTableRecord
  2
*Model_Space
  0
BLOCK_RECORD
  5
211
100
AcDbSymbolTableRecord
100
AcDbBlockTableRecord
  2
*Paper_Space
  0
BLOCK_RECORD
  5
212
100
AcDbSymbolTableRecord
100
AcDbBlockTableRecord
  2
_FILLED
  0
ENDTAB
  0
TABLE
  2
DIMSTYLE
  5
A
100
AcDbSymbolTable
 70
1
100
AcDbDimStyleTable
 71
0
  0
DIMSTYLE
105
213
100
AcDbSymbolTableRecord
100
AcDbDimStyleTableRecord
  2
STANDARD
 70
0
  3

  4

 40
1.0
 41
9.029021064
 42
1.0
 43
0.38
 44
1.0
 45
0.0
 46
0.0
 47
0.01
 48
0.01
140
12.6406294896
141
0.09
142
0.0
143
25.4
144
1.0
145
0.0
146
1.0
147
0.625
 71
1
 72
0
 73
0
 74
0
 75
0
 76
0
 77
1
 78
8
 79
2
170
0
171
1
172
0
173
0
174
0
175
0
176
0
177
0
178
0
270
2
179
2
271
2
272
2
273
2
274
2
275
0
280
0
281
0
282
0
283
1
284
8
285
0
286
0
287
3
288
0
340
11
278
46
341
212
342
212
343
212
344
212
  0
ENDTAB
  0
ENDSEC
  0
SECTION
  2
BLOCKS
  0
BLOCK
  5
20
100
AcDbEntity
  8
0
100
AcDbBlockBegin
  2
*Model_Space
 70
0
 10
0.0
 20
0.0
 30
0.0
  3
*Model_Space
  1

  0
ENDBLK
  5
21
100
AcDbEntity
  8
0
100
AcDbBlockEnd
  0
BLOCK
  5
1C
100
AcDbEntity
  8
0
100
AcDbBlockBegin
  2
*Paper_Space
 70
0
 10
0.0
 20
0.0
 30
0.0
  3
*Paper_Space
  1

  0
ENDBLK
  5
1D
100
AcDbEntity
  8
0
100
AcDbBlockEnd
  0
BLOCK
  5
214
100
AcDbEntity
  8
0
100
AcDbBlockBegin
  2
_FILLED
 70
64
 10
0.0
 20
0.0
  3
_FILLED
  1

  0
SOLID
  5
215
100
AcDbEntity
  8
0
  6
BYBLOCK
 62
0
100
AcDbTrace
 10
0.0
 20
0.0
 11
-1.0
 21
0.25
 12
-1.0
 22
-0.25
 13
-1.0
 23
-0.25
  0
ENDBLK
  5
216
100
AcDbEntity
  8
0
  6
BYBLOCK
 62
0
100
AcDbBlockEnd
  0
ENDSEC
  0
SECTION
  2
ENTITIES
  0
LINE
  5
217
100
AcDbEntity
  8
0
100
AcDbLine
 62
7
  6
CONTINUOUS
 10
83.3323983179
 20
348.1531659384
 11
83.9720336633
 21
346.924437872
  0
LINE
  5
218
100
AcDbEntity
  8
0
100
AcDbLine
 62
7
  6
CONTINUOUS
 10
83.1116690088
 20
345.6957098055
 11
91.0575653754
 21
340.1319332718
  0
LINE
  5
219
100
AcDbEntity
  8
0
100
AcDbLine
 62
7
  6
CONTINUOUS
 10
83.9720336633
 20
346.924437872
 11
90.1631244911
 21
342.5893894046
  0
LINE
  5
21A
100
AcDbEntity
  8
0
100
AcDbLine
 62
7
  6
CONTINUOUS
 10
80.5317949738
 20
369.299686016
 11
80.5317949738
 21
739.899686016
  0
LINE
  5
21B
100
AcDbEntity
  8
0
100
AcDbLine
 62
7
  6
CONTINUOUS
 10
81.8323983179
 20
357.9893894046
 11
81.8323983179
 21
348.1531659384
  0
LINE
  5
21C
100
AcDbEntity
  8
0
100
AcDbLine
 62
7
  6
CONTINUOUS
 10
82.0317949738
 20
369.299686016
 11
82.0317949738
 21
739.899686016
  0
LINE
  5
21D
100
AcDbEntity
  8
0
100
AcDbLine
 62
7
  6
CONTINUOUS
 10
83.3323983179
 20
357.9893894046
 11
83.3323983179
 21
348.1531659384
  0
LINE
  5
21E
100
AcDbEntity
  8
0
100
AcDbLine
 62
7
  6
CONTINUOUS
 10
115.9071147259
 20
337.4497914178
 11
115.8323983178
 21
339.5893894046
  0
LINE
  5
21F
100
AcDbEntity
  8
0
100
AcDbLine
 62
7
  6
CONTINUOUS
 10
96.0317949738
 20
743.099686016
 11
96.0317949738
 21
743.299686016
  0
LINE
  5
220
100
AcDbEntity
  8
0
100
AcDbLine
 62
7
  6
CONTINUOUS
 10
109.0317949738
 20
743.099686016
 11
109.0317949738
 21
743.299686016
  0
LINE
  5
221
100
AcDbEntity
  8
0
100
AcDbLine
 62
7
  6
CONTINUOUS
 10
139.0749253101
 20
333.6692093765
 11
139.2844173467
 21
333.6072506167
  0
LINE
  5
222
100
AcDbEntity
  8
0
100
AcDbLine
 62
7
  6
CONTINUOUS
 10
139.0751513864
 20
333.6691072203
 11
139.2737103276
 21
333.6084129695
  0
LINE
  5
223
100
AcDbEntity
  8
0
100
AcDbLine
 62
7
  6
CONTINUOUS
 10
124.3280400764
 20
333.5999102859
 11
124.2738044489
 21
333.616565521
  0
LINE
  5
224
100
AcDbEntity
  8
0
100
AcDbLine
 62
7
  6
CONTINUOUS
 10
129.3309566566
 20
333.5999047886
 11
129.3284738025
 21
333.6006848977
  0
LINE
  5
225
100
AcDbEntity
  8
0
100
AcDbLine
 62
7
  6
CONTINUOUS
 10
139.2730095085
 20
333.6086437264
 11
139.2715155172
 21
333.6091147379
  0
LINE
  5
226
100
AcDbEntity
  8
0
100
AcDbLine
 62
7
  6
CONTINUOUS
 10
129.3309566566
 20
333.5999047886
 11
129.32944636
 21
333.6003897503
  0
LINE
  5
227
100
AcDbEntity
  8
0
100
AcDbLine
 62
7
  6
CONTINUOUS
 10
144.2869101327
 20
333.6242298009
 11
144.1729180414
 21
333.6638250338
  0
LINE
  5
228
100
AcDbEntity
  8
0
100
AcDbLine
 62
7
  6
CONTINUOUS
 10
99.2663215059
 20
359.5893894046
 11
100.0688553325
 21
363.7180680252
  0
LINE
  5
229
100
AcDbEntity
  8
0
100
AcDbLine
 62
7
  6
CONTINUOUS
 10
100.738762281
 20
359.5893894046
 11
101.5412961076
 21
363.7180680253
  0
LINE
  5
22A
100
AcDbEntity
  8
0
100
AcDbLine
 62
7
  6
CONTINUOUS
 10
139.2852234397
 20
333.6052659921
 11
139.2838256679
 21
333.6056105955
  0
LINE
  5
22B
100
AcDbEntity
  8
0
100
AcDbLine
 62
7
  6
CONTINUOUS
 10
139.2838256679
 20
333.6056105955
 11
139.2730095085
 21
333.6086437264
  0
LINE
  5
22C
100
AcDbEntity
  8
0
100
AcDbLine
 62
7
  6
CONTINUOUS
 10
147.7576819097
 20
337.4497914178
 11
147.8323983178
 21
339.5893894046
  0
LINE
  5
22D
100
AcDbEntity
  8
0
100
AcDbLine
 62
7
  6
CONTINUOUS
 10
659.5222938399
 20
363.4318545322
 11
660.9947346151
 21
363.7180680253
  0
LWPOLYLINE
  5
22E
100
AcDbEntity
  8
0
100
AcDbPolyline
 62
7
  6
CONTINUOUS
 90
3
 70
0
 10
119.3778477326
 20
333.6239379776
 10
119.3956383668
 20
333.6223787439
 10
119.4633229075
 20
333.6311381962
  0
LWPOLYLINE
  5
22F
100
AcDbEntity
  8
0
100
AcDbPolyline
 62
7
  6
CONTINUOUS
 90
3
 70
0
 10
144.2014737281
 20
333.6311381962
 10
144.2692752421
 20
333.6223837828
 10
144.286948903
 20
333.6239379776
  0
LINE
  5
230
100
AcDbEntity
  8
0
100
AcDbLine
 62
7
  6
CONTINUOUS
 10
100.0688553325
 20
363.7180680253
 11
101.5412961077
 21
363.4318545322
  0
LINE
  5
231
100
AcDbEntity
  8
0
100
AcDbLine
 62
7
  6
CONTINUOUS
 10
147.7576819035
 20
337.4497912398
 11
146.4003096767
 21
337.4497912398
  0
LINE
  5
232
100
AcDbEntity
  8
0
100
AcDbLine
 62
7
  6
CONTINUOUS
 10
117.2644869589
 20
337.4497912398
 11
115.9071147321
 21
337.4497912398
  0
LINE
  5
233
100
AcDbEntity
  8
0
100
AcDbLine
 62
7
  6
CONTINUOUS
 10
120.2911025354
 20
338.0083222127
 11
143.3736857726
 21
338.0083222127
  0
LINE
  5
234
100
AcDbEntity
  8
0
100
AcDbLine
 62
7
  6
CONTINUOUS
 10
143.4532366056
 20
338.7507741208
 11
120.2115597288
 21
338.7507741208
  0
LINE
  5
235
100
AcDbEntity
  8
0
100
AcDbLine
 62
7
  6
CONTINUOUS
 10
92.7782946845
 20
339.5893894046
 11
667.8865019513
 21
339.5893894046
  0
LINE
  5
236
100
AcDbEntity
  8
0
100
AcDbLine
 62
7
  6
CONTINUOUS
 10
670.5016721446
 20
342.5893894046
 11
90.1631244911
 21
342.5893894046
  0
LINE
  5
237
100
AcDbEntity
  8
0
100
AcDbLine
 62
7
  6
CONTINUOUS
 10
81.8323983179
 20
357.9893894046
 11
678.8323983179
 21
357.9893894046
  0
LINE
  5
238
100
AcDbEntity
  8
0
100
AcDbLine
 62
7
  6
CONTINUOUS
 10
84.3248591845
 20
359.5893894046
 11
676.3399374512
 21
359.5893894046
  0
LINE
  5
239
100
AcDbEntity
  8
0
100
AcDbLine
 62
7
  6
CONTINUOUS
 10
101.5412961077
 20
363.7180680253
 11
659.5222938399
 21
363.7180680253
  0
LINE
  5
23A
100
AcDbEntity
  8
0
100
AcDbLine
 62
7
  6
CONTINUOUS
 10
668.7512031372
 20
363.899686016
 11
674.6439274146
 21
363.899686016
  0
LINE
  5
23B
100
AcDbEntity
  8
0
100
AcDbLine
 62
7
  6
CONTINUOUS
 10
674.6441494853
 20
364.2431174736
 11
668.9020634198
 21
364.2431174736
  0
LINE
  5
23C
100
AcDbEntity
  8
0
100
AcDbLine
 62
7
  6
CONTINUOUS
 10
663.7448919779
 20
364.599686016
 11
676.2317949738
 21
364.599686016
  0
LINE
  5
23D
100
AcDbEntity
  8
0
100
AcDbLine
 62
7
  6
CONTINUOUS
 10
83.7317949738
 20
366.0996860161
 11
677.3317949738
 21
366.0996860161
  0
LINE
  5
23E
100
AcDbEntity
  8
0
100
AcDbLine
 62
7
  6
CONTINUOUS
 10
680.5317949738
 20
369.299686016
 11
80.5317949738
 21
369.299686016
  0
LINE
  5
23F
100
AcDbEntity
  8
0
100
AcDbLine
 62
7
  6
CONTINUOUS
 10
87.5479542976
 20
342.5893894046
 11
88.4083189522
 21
343.8181174711
  0
LINE
  5
240
100
AcDbEntity
  8
0
100
AcDbLine
 62
7
  6
CONTINUOUS
 10
91.4618076805
 20
340.7092511139
 11
91.0575653755
 21
340.1319332718
  0
LINE
  5
241
100
AcDbEntity
  8
0
100
AcDbLine
 62
7
  6
CONTINUOUS
 10
119.4918667885
 20
333.6638203003
 11
119.377886503
 21
333.6242298009
  0
LINE
  5
242
100
AcDbEntity
  8
0
100
AcDbLine
 62
7
  6
CONTINUOUS
 10
669.2029889552
 20
340.7092511139
 11
669.6072312603
 21
340.1319332718
  0
LINE
  5
243
100
AcDbEntity
  8
0
100
AcDbLine
 62
7
  6
CONTINUOUS
 10
672.2564776835
 20
343.8181174711
 11
673.1168423381
 21
342.5893894046
  0
LINE
  5
244
100
AcDbEntity
  8
0
100
AcDbLine
 62
7
  6
CONTINUOUS
 10
80.5317949738
 20
739.899686016
 11
680.5317949738
 21
739.899686016
  0
LINE
  5
245
100
AcDbEntity
  8
0
100
AcDbLine
 62
7
  6
CONTINUOUS
 10
677.3317949738
 20
743.099686016
 11
83.7317949738
 21
743.099686016
  0
LINE
  5
246
100
AcDbEntity
  8
0
100
AcDbLine
 62
7
  6
CONTINUOUS
 10
96.0317949738
 20
743.299686016
 11
109.0317949738
 21
743.299686016
  0
LINE
  5
247
100
AcDbEntity
  8
0
100
AcDbLine
 62
7
  6
CONTINUOUS
 10
652.0317949738
 20
743.299686016
 11
665.0317949738
 21
743.299686016
  0
LINE
  5
248
100
AcDbEntity
  8
0
100
AcDbLine
 62
7
  6
CONTINUOUS
 10
668.5588983477
 20
364.0447417905
 11
668.4003428547
 21
364.599686016
  0
LINE
  5
249
100
AcDbEntity
  8
0
100
AcDbLine
 62
7
  6
CONTINUOUS
 10
668.8001866934
 20
364.599686016
 11
668.9020634198
 21
364.2431174736
  0
LINE
  5
24A
100
AcDbEntity
  8
0
100
AcDbLine
 62
7
  6
CONTINUOUS
 10
660.3248276666
 20
359.5893894046
 11
659.5222938399
 21
363.7180680253
  0
LINE
  5
24B
100
AcDbEntity
  8
0
100
AcDbLine
 62
7
  6
CONTINUOUS
 10
660.9947346151
 20
363.7180680253
 11
661.7972684418
 21
359.5893894046
  0
LINE
  5
24C
100
AcDbEntity
  8
0
100
AcDbLine
 62
7
  6
CONTINUOUS
 10
661.2908240193
 20
363.1226635276
 11
661.9776229356
 21
359.5893894046
  0
LINE
  5
24D
100
AcDbEntity
  8
0
100
AcDbLine
 62
7
  6
CONTINUOUS
 10
663.505697978
 20
359.5893894046
 11
662.7632647945
 21
363.4088770207
  0
LINE
  5
24E
100
AcDbEntity
  8
0
100
AcDbLine
 62
7
  6
CONTINUOUS
 10
652.0317949738
 20
743.099686016
 11
652.0317949738
 21
743.299686016
  0
LINE
  5
24F
100
AcDbEntity
  8
0
100
AcDbLine
 62
7
  6
CONTINUOUS
 10
665.0317949738
 20
743.099686016
 11
665.0317949738
 21
743.299686016
  0
LINE
  5
250
100
AcDbEntity
  8
0
100
AcDbLine
 62
7
  6
CONTINUOUS
 10
668.7512031372
 20
363.899686016
 11
668.7512031372
 21
363.9502031309
  0
LINE
  5
251
100
AcDbEntity
  8
0
100
AcDbLine
 62
7
  6
CONTINUOUS
 10
668.9020634198
 20
363.899686016
 11
668.9020634198
 21
364.2431174736
  0
LINE
  5
252
100
AcDbEntity
  8
0
100
AcDbLine
 62
7
  6
CONTINUOUS
 10
674.6439274081
 20
364.2431174736
 11
674.6439274081
 21
363.899686016
  0
LINE
  5
253
100
AcDbEntity
  8
0
100
AcDbLine
 62
7
  6
CONTINUOUS
 10
676.0317949738
 20
366.099686016
 11
676.0317949738
 21
364.599686016
  0
LINE
  5
254
100
AcDbEntity
  8
0
100
AcDbLine
 62
7
  6
CONTINUOUS
 10
677.3323983179
 20
357.9893894046
 11
677.3323983179
 21
348.1531659384
  0
LINE
  5
255
100
AcDbEntity
  8
0
100
AcDbLine
 62
7
  6
CONTINUOUS
 10
678.0317949738
 20
365.599686016
 11
678.0317949738
 21
366.099686016
  0
LINE
  5
256
100
AcDbEntity
  8
0
100
AcDbLine
 62
7
  6
CONTINUOUS
 10
678.8323983179
 20
357.9893894046
 11
678.8323983179
 21
348.1531659384
  0
LINE
  5
257
100
AcDbEntity
  8
0
100
AcDbLine
 62
7
  6
CONTINUOUS
 10
679.0317949738
 20
369.299686016
 11
679.0317949738
 21
739.899686016
  0
LINE
  5
258
100
AcDbEntity
  8
0
100
AcDbLine
 62
7
  6
CONTINUOUS
 10
680.5317949738
 20
369.299686016
 11
680.5317949738
 21
739.899686016
  0
LINE
  5
259
100
AcDbEntity
  8
0
100
AcDbLine
 62
7
  6
CONTINUOUS
 10
676.6927629724
 20
346.924437872
 11
677.3323983179
 21
348.1531659384
  0
LINE
  5
25A
100
AcDbEntity
  8
0
100
AcDbLine
 62
7
  6
CONTINUOUS
 10
676.195397648
 20
364.599686016
 11
675.9609363507
 21
364.3945323809
  0
LINE
  5
25B
100
AcDbEntity
  8
0
100
AcDbLine
 62
7
  6
CONTINUOUS
 10
670.5016721446
 20
342.5893894046
 11
676.6927629724
 21
346.924437872
  0
LINE
  5
25C
100
AcDbEntity
  8
0
100
AcDbLine
 62
7
  6
CONTINUOUS
 10
669.6072312603
 20
340.1319332718
 11
677.553127627
 21
345.6957098055
  0
ARC
  5
25D
100
AcDbEntity
  8
0
100
AcDbCircle
 62
7
  6
CONTINUOUS
 10
120.2188919146
 20
320.4761592386
 40
13.7519307884
100
AcDbArc
 50
72.796939901
 51
73.170267525
  0
ARC
  5
25E
100
AcDbEntity
  8
0
100
AcDbCircle
 62
7
  6
CONTINUOUS
 10
97.2004731771
 20
345.3936054827
 40
7.4154902266
100
AcDbArc
 50
218.2972820112
 51
220.5354516623
  0
ARC
  5
25F
100
AcDbEntity
  8
0
100
AcDbCircle
 62
7
  6
CONTINUOUS
 10
119.904678034
 20
337.5893894046
 40
4.0
100
AcDbArc
 50
182.0000025522
 51
262.4322825038
  0
ARC
  5
260
100
AcDbEntity
  8
0
100
AcDbCircle
 62
7
  6
CONTINUOUS
 10
94.5972113433
 20
343.011772984
 40
3.885006993
100
AcDbArc
 50
225.4659830172
 51
227.8397254521
  0
ARC
  5
261
100
AcDbEntity
  8
0
100
AcDbCircle
 62
7
  6
CONTINUOUS
 10
92.7782946845
 20
342.5893894046
 40
3.0
100
AcDbArc
 50
235.0000000008
 51
270.0
  0
ARC
  5
262
100
AcDbEntity
  8
0
100
AcDbCircle
 62
7
  6
CONTINUOUS
 10
84.8323983179
 20
348.1531659384
 40
3.0
100
AcDbArc
 50
180.0
 51
234.9999999993
  0
ARC
  5
263
100
AcDbEntity
  8
0
100
AcDbCircle
 62
7
  6
CONTINUOUS
 10
98.1056009656
 20
364.099686016
 40
2.0
100
AcDbArc
 50
349.0
 51
90.0
  0
ARC
  5
264
100
AcDbEntity
  8
0
100
AcDbCircle
 62
7
  6
CONTINUOUS
 10
83.4323983179
 20
357.9893894046
 40
1.6
100
AcDbArc
 50
69.1189603402
 51
180.0
  0
ARC
  5
265
100
AcDbEntity
  8
0
100
AcDbCircle
 62
7
  6
CONTINUOUS
 10
84.8323983179
 20
348.1531659384
 40
1.5
100
AcDbArc
 50
180.0
 51
234.9999999985
  0
ARC
  5
266
100
AcDbEntity
  8
0
100
AcDbCircle
 62
7
  6
CONTINUOUS
 10
83.7317949738
 20
369.299686016
 40
3.2
100
AcDbArc
 50
180.0
 51
270.0
  0
ARC
  5
267
100
AcDbEntity
  8
0
100
AcDbCircle
 62
7
  6
CONTINUOUS
 10
125.1708264942
 20
320.6542753495
 40
13.5976467547
100
AcDbArc
 50
72.1916661608
 51
72.3773735274
  0
ARC
  5
268
100
AcDbEntity
  8
0
100
AcDbCircle
 62
7
  6
CONTINUOUS
 10
126.4563391383
 20
324.6990684595
 40
9.35348683
100
AcDbArc
 50
72.3812875377
 51
72.9878227044
  0
ARC
  5
269
100
AcDbEntity
  8
0
100
AcDbCircle
 62
7
  6
CONTINUOUS
 10
121.8323983178
 20
325.9768894046
 40
8.0125
100
AcDbArc
 50
72.2770816541
 51
107.2026248039
  0
ARC
  5
26A
100
AcDbEntity
  8
0
100
AcDbCircle
 62
7
  6
CONTINUOUS
 10
131.8323983178
 20
325.9768894046
 40
8.0125
100
AcDbArc
 50
72.2770979228
 51
107.7229020583
  0
ARC
  5
26B
100
AcDbEntity
  8
0
100
AcDbCircle
 62
7
  6
CONTINUOUS
 10
126.8323983178
 20
325.9768894046
 40
8.0125
100
AcDbArc
 50
72.2770887877
 51
107.7230532959
  0
ARC
  5
26C
100
AcDbEntity
  8
0
100
AcDbCircle
 62
7
  6
CONTINUOUS
 10
121.7908777649
 20
326.0914758984
 40
7.9085556283
100
AcDbArc
 50
96.7664558829
 51
97.1395236772
  0
ARC
  5
26D
100
AcDbEntity
  8
0
100
AcDbCircle
 62
7
  6
CONTINUOUS
 10
126.2974067192
 20
327.8409763445
 40
6.0865311869
100
AcDbArc
 50
107.1561356662
 51
108.435842635
  0
ARC
  5
26E
100
AcDbEntity
  8
0
100
AcDbCircle
 62
7
  6
CONTINUOUS
 10
131.0693448699
 20
328.4186111608
 40
5.4651438442
100
AcDbArc
 50
108.2124156882
 51
108.5472409957
  0
ARC
  5
26F
100
AcDbEntity
  8
0
100
AcDbCircle
 62
7
  6
CONTINUOUS
 10
132.6187407389
 20
328.4884506281
 40
5.3915250848
100
AcDbArc
 50
71.4512292888
 51
71.7895050527
  0
ARC
  5
270
100
AcDbEntity
  8
0
100
AcDbCircle
 62
7
  6
CONTINUOUS
 10
120.9753374164
 20
329.4333483711
 40
4.4810172261
100
AcDbArc
 50
102.3837841197
 51
103.2154282171
  0
ARC
  5
271
100
AcDbEntity
  8
0
100
AcDbCircle
 62
7
  6
CONTINUOUS
 10
129.3323983178
 20
333.7996227025
 40
0.2
100
AcDbArc
 50
252.2770396642
 51
287.7229124086
  0
ARC
  5
272
100
AcDbEntity
  8
0
100
AcDbCircle
 62
7
  6
CONTINUOUS
 10
124.3323983178
 20
333.7996227025
 40
0.2
100
AcDbArc
 50
252.2773254554
 51
287.7229124086
  0
ARC
  5
273
100
AcDbEntity
  8
0
100
AcDbCircle
 62
7
  6
CONTINUOUS
 10
124.3334790857
 20
333.7970828459
 40
0.1972518111
100
AcDbArc
 50
268.4163716438
 51
287.6496947619
  0
ARC
  5
274
100
AcDbEntity
  8
0
100
AcDbCircle
 62
7
  6
CONTINUOUS
 10
129.3338569741
 20
333.7958663285
 40
0.1959751168
100
AcDbArc
 50
269.1388283039
 51
287.6517397133
  0
ARC
  5
275
100
AcDbEntity
  8
0
100
AcDbCircle
 62
7
  6
CONTINUOUS
 10
124.3308965393
 20
333.7954790819
 40
0.1955954374
100
AcDbArc
 50
252.3172336699
 51
269.1671452364
  0
ARC
  5
276
100
AcDbEntity
  8
0
100
AcDbCircle
 62
7
  6
CONTINUOUS
 10
129.3307860628
 20
333.7952587594
 40
0.1953522259
100
AcDbArc
 50
252.3149668681
 51
270.0360720481
  0
ARC
  5
277
100
AcDbEntity
  8
0
100
AcDbCircle
 62
7
  6
CONTINUOUS
 10
144.8176419568
 20
315.983327859
 40
18.4494865752
100
AcDbArc
 50
106.8509656968
 51
107.1452015434
  0
ARC
  5
278
100
AcDbEntity
  8
0
100
AcDbCircle
 62
7
  6
CONTINUOUS
 10
142.7887074725
 20
322.5185271943
 40
11.6065948103
100
AcDbArc
 50
107.0848243551
 51
107.2898450707
  0
ARC
  5
279
100
AcDbEntity
  8
0
100
AcDbCircle
 62
7
  6
CONTINUOUS
 10
141.8323983178
 20
325.9768894046
 40
8.0125
100
AcDbArc
 50
72.7973751976
 51
107.7229278793
  0
ARC
  5
27A
100
AcDbEntity
  8
0
100
AcDbCircle
 62
7
  6
CONTINUOUS
 10
136.8323983178
 20
325.9768894046
 40
8.0125
100
AcDbArc
 50
73.7453589175
 51
107.7229013378
  0
ARC
  5
27B
100
AcDbEntity
  8
0
100
AcDbCircle
 62
7
  6
CONTINUOUS
 10
141.8742983646
 20
326.0941986437
 40
7.9058116451
100
AcDbArc
 50
82.8614301666
 51
83.2343272509
  0
ARC
  5
27C
100
AcDbEntity
  8
0
100
AcDbCircle
 62
7
  6
CONTINUOUS
 10
142.7075899337
 20
329.5136699298
 40
4.3986780612
100
AcDbArc
 50
76.7752939848
 51
77.6247725482
  0
ARC
  5
27D
100
AcDbEntity
  8
0
100
AcDbCircle
 62
7
  6
CONTINUOUS
 10
143.7601186016
 20
337.5893894046
 40
4.0
100
AcDbArc
 50
277.5677174962
 51
357.9999974478
  0
ARC
  5
27E
100
AcDbEntity
  8
0
100
AcDbCircle
 62
7
  6
CONTINUOUS
 10
139.7848984958
 20
335.1501721902
 40
1.6124751782
100
AcDbArc
 50
252.6820698268
 51
252.9171723222
  0
ARC
  5
27F
100
AcDbEntity
  8
0
100
AcDbCircle
 62
7
  6
CONTINUOUS
 10
139.3323983178
 20
333.7996227025
 40
0.2
100
AcDbArc
 50
256.3568293037
 51
287.7222926073
  0
ARC
  5
280
100
AcDbEntity
  8
0
100
AcDbCircle
 62
7
  6
CONTINUOUS
 10
134.3323983178
 20
333.7996227025
 40
0.2
100
AcDbArc
 50
252.2770875914
 51
287.7233559365
  0
ARC
  5
281
100
AcDbEntity
  8
0
100
AcDbCircle
 62
7
  6
CONTINUOUS
 10
134.3309379505
 20
333.7958574603
 40
0.195966049
100
AcDbArc
 50
252.3252870462
 51
270.9208214138
  0
ARC
  5
282
100
AcDbEntity
  8
0
100
AcDbCircle
 62
7
  6
CONTINUOUS
 10
134.3340163085
 20
333.7952820223
 40
0.1953593347
100
AcDbArc
 50
270.0246520456
 51
287.6628986143
  0
ARC
  5
283
100
AcDbEntity
  8
0
100
AcDbCircle
 62
7
  6
CONTINUOUS
 10
139.3301861008
 20
333.790825875
 40
0.190929586
100
AcDbArc
 50
256.3707953215
 51
266.8755922039
  0
ARC
  5
284
100
AcDbEntity
  8
0
100
AcDbCircle
 62
7
  6
CONTINUOUS
 10
157.7602631227
 20
419.1546535918
 40
78.9546145812
100
AcDbArc
 50
224.2106977813
 51
224.4974590989
  0
ARC
  5
285
100
AcDbEntity
  8
0
100
AcDbCircle
 62
7
  6
CONTINUOUS
 10
124.6423434498
 20
386.6463347772
 40
32.5478694318
100
AcDbArc
 50
224.5397528681
 51
224.7849294022
  0
ARC
  5
286
100
AcDbEntity
  8
0
100
AcDbCircle
 62
7
  6
CONTINUOUS
 10
102.5317949738
 20
722.674686016
 40
21.625
100
AcDbArc
 50
72.5076754749
 51
107.4923245251
  0
ARC
  5
287
100
AcDbEntity
  8
0
100
AcDbCircle
 62
7
  6
CONTINUOUS
 10
83.7317949738
 20
739.899686016
 40
3.2
100
AcDbArc
 50
90.0
 51
180.0
  0
ARC
  5
288
100
AcDbEntity
  8
0
100
AcDbCircle
 62
7
  6
CONTINUOUS
 10
603.2589193834
 20
419.1980007434
 40
79.0166708929
100
AcDbArc
 50
315.502905947
 51
315.7892259893
  0
ARC
  5
289
100
AcDbEntity
  8
0
100
AcDbCircle
 62
7
  6
CONTINUOUS
 10
636.4133302715
 20
386.654169542
 40
32.5590072022
100
AcDbArc
 50
315.2150983922
 51
315.4607154197
  0
ARC
  5
28A
100
AcDbEntity
  8
0
100
AcDbCircle
 62
7
  6
CONTINUOUS
 10
662.2927718581
 20
346.3259472656
 40
8.9127436503
100
AcDbArc
 50
321.6664115496
 51
322.5374435275
  0
ARC
  5
28B
100
AcDbEntity
  8
0
100
AcDbCircle
 62
7
  6
CONTINUOUS
 10
666.0675852927
 20
343.0117729837
 40
3.8850069927
100
AcDbArc
 50
312.1602745475
 51
314.5340169826
  0
ARC
  5
28C
100
AcDbEntity
  8
0
100
AcDbCircle
 62
7
  6
CONTINUOUS
 10
667.8865019513
 20
342.5893894046
 40
3.0
100
AcDbArc
 50
270.0
 51
304.9999999992
  0
ARC
  5
28D
100
AcDbEntity
  8
0
100
AcDbCircle
 62
7
  6
CONTINUOUS
 10
663.7448919779
 20
363.599686016
 40
2.5
100
AcDbArc
 50
115.2849718839
 51
191.0
  0
ARC
  5
28E
100
AcDbEntity
  8
0
100
AcDbCircle
 62
7
  6
CONTINUOUS
 10
662.957988982
 20
364.099686016
 40
2.0
100
AcDbArc
 50
90.0
 51
191.0000000013
  0
ARC
  5
28F
100
AcDbEntity
  8
0
100
AcDbCircle
 62
7
  6
CONTINUOUS
 10
663.7448919779
 20
363.599686016
 40
1.0
100
AcDbArc
 50
90.0
 51
191.0
  0
ARC
  5
290
100
AcDbEntity
  8
0
100
AcDbCircle
 62
7
  6
CONTINUOUS
 10
668.9020634198
 20
364.299686016
 40
0.4
100
AcDbArc
 50
195.9453959009
 51
270.0
  0
ARC
  5
291
100
AcDbEntity
  8
0
100
AcDbCircle
 62
7
  6
CONTINUOUS
 10
668.7512031372
 20
364.099686016
 40
0.2
100
AcDbArc
 50
195.9453959009
 51
270.0
  0
ARC
  5
292
100
AcDbEntity
  8
0
100
AcDbCircle
 62
7
  6
CONTINUOUS
 10
675.8323983179
 20
348.1531659384
 40
3.0
100
AcDbArc
 50
305.0000000007
 51
360.0
  0
ARC
  5
293
100
AcDbEntity
  8
0
100
AcDbCircle
 62
7
  6
CONTINUOUS
 10
675.8323983179
 20
348.1531659384
 40
1.5
100
AcDbArc
 50
305.0000000015
 51
360.0
  0
ARC
  5
294
100
AcDbEntity
  8
0
100
AcDbCircle
 62
7
  6
CONTINUOUS
 10
677.3317949738
 20
369.299686016
 40
3.2
100
AcDbArc
 50
270.0
 51
360.0
  0
ARC
  5
295
100
AcDbEntity
  8
0
100
AcDbCircle
 62
7
  6
CONTINUOUS
 10
676.2317949738
 20
366.719686016
 40
2.12
100
AcDbArc
 50
270.0
 51
328.1092081982
  0
ARC
  5
296
100
AcDbEntity
  8
0
100
AcDbCircle
 62
7
  6
CONTINUOUS
 10
674.6439274158
 20
365.899686016
 40
2.0
100
AcDbArc
 50
269.9999999755
 51
311.1859251657
  0
ARC
  5
297
100
AcDbEntity
  8
0
100
AcDbCircle
 62
7
  6
CONTINUOUS
 10
677.2323983179
 20
357.9893894046
 40
1.6
100
AcDbArc
 50
0.0
 51
111.0424335639
  0
ARC
  5
298
100
AcDbEntity
  8
0
100
AcDbCircle
 62
7
  6
CONTINUOUS
 10
674.6440890066
 20
365.8423539654
 40
1.599236493
100
AcDbArc
 50
270.0021667666
 51
309.0098137287
  0
ARC
  5
299
100
AcDbEntity
  8
0
100
AcDbCircle
 62
7
  6
CONTINUOUS
 10
658.5317949738
 20
722.674686016
 40
21.625
100
AcDbArc
 50
72.5076754749
 51
107.4923245251
  0
ARC
  5
29A
100
AcDbEntity
  8
0
100
AcDbCircle
 62
7
  6
CONTINUOUS
 10
677.3317949738
 20
739.899686016
 40
3.2
100
AcDbArc
 50
0.0
 51
90.0
  0
SPLINE
  5
29B
100
AcDbEntity
  8
0
100
AcDbSpline
 62
7
  6
CONTINUOUS
 70
0
 71
3
 72
12
 73
8
 74
0
 42
0.0000001
 43
0.0000001
 44
0.0000000001
 40
0.0
 40
0.0
 40
0.0
 40
0.0
 40
0.3760267962
 40
0.693036019
 40
0.9073839876
 40
0.9678597761
 40
1.0
 40
1.0
 40
1.0
 40
1.0
 10
668.9020634198
 20
364.2431174735
 30
0.0
 10
668.8544515505
 20
364.2297861501
 30
0.0
 10
668.7658723741
 20
364.20739294
 30
0.0
 10
668.649385382
 20
364.1845333532
 30
0.0
 10
668.570410573
 20
364.176704532
 30
0.0
 10
668.5313436294
 20
364.1791253736
 30
0.0
 10
668.5186148277
 20
364.1857341106
 30
0.0
 10
668.5174538407
 20
364.1897975649
 30
0.0
  0
SPLINE
  5
29C
100
AcDbEntity
  8
0
100
AcDbSpline
 62
7
  6
CONTINUOUS
 70
0
 71
3
 72
9
 73
5
 74
0
 42
0.0000001
 43
0.0000001
 44
0.0000000001
 40
0.0
 40
0.0
 40
0.0
 40
0.0
 40
0.7050841657
 40
1.0
 40
1.0
 40
1.0
 40
1.0
 10
668.6184968218
 20
364.0420440352
 30
0.0
 10
668.6043731077
 20
364.0400656353
 30
0.0
 10
668.588130228
 20
364.0386103344
 30
0.0
 10
668.5605371161
 20
364.0390061011
 30
0.0
 10
668.5588983477
 20
364.0447417905
 30
0.0
  0
SPLINE
  5
29D
100
AcDbEntity
  8
0
100
AcDbSpline
 62
7
  6
CONTINUOUS
 70
0
 71
3
 72
13
 73
9
 74
0
 42
0.0000001
 43
0.0000001
 44
0.0000000001
 40
0.0
 40
0.0
 40
0.0
 40
0.0
 40
0.0267397979
 40
0.0830869159
 40
0.1716173804
 40
0.2904867681
 40
0.6072769157
 40
1.0
 40
1.0
 40
1.0
 40
1.0
 10
675.9609369183
 20
364.3945328776
 30
0.0
 10
675.9588598653
 20
364.392714669
 30
0.0
 10
675.948658667
 20
364.3954156858
 30
0.0
 10
675.9348134682
 20
364.4044010981
 30
0.0
 10
675.9124918835
 20
364.4211015244
 30
0.0
 10
675.8721364739
 20
364.4566890782
 30
0.0
 10
675.811054851
 20
364.5168683263
 30
0.0
 10
675.7594408929
 20
364.5688756877
 30
0.0
 10
675.7330891637
 20
364.5996856174
 30
0.0
  0
SPLINE
  5
29E
100
AcDbEntity
  8
0
100
AcDbSpline
 62
7
  6
CONTINUOUS
 70
0
 71
3
 72
12
 73
8
 74
0
 42
0.0000001
 43
0.0000001
 44
0.0000000001
 40
0.0
 40
0.0
 40
0.0
 40
0.0
 40
0.2582554146
 40
0.5092138237
 40
0.7549547082
 40
0.8772681382
 40
1.0
 40
1.0
 40
1.0
 40
1.0
 10
118.5851145775
 20
339.5893872278
 30
0.0
 10
118.6516244681
 20
339.3880139081
 30
0.0
 10
118.8122288726
 20
338.9981736553
 30
0.0
 10
119.1904494827
 20
338.4972316794
 30
0.0
 10
119.6118030952
 20
338.1948554687
 30
0.0
 10
119.9918713885
 20
338.0549358699
 30
0.0
 10
120.1909226027
 20
338.0191901212
 30
0.0
 10
120.2911094404
 20
338.0082333699
 30
0.0
  0
SPLINE
  5
29F
100
AcDbEntity
  8
0
100
AcDbSpline
 62
7
  6
CONTINUOUS
 70
0
 71
3
 72
9
 73
5
 74
0
 42
0.0000001
 43
0.0000001
 44
0.0000000001
 40
0.0
 40
0.0
 40
0.0
 40
0.0
 40
0.2436102824
 40
1.0
 40
1.0
 40
1.0
 40
1.0
 10
120.2910896455
 20
338.0083290868
 30
0.0
 10
120.2788006742
 20
338.0677561325
 30
0.0
 10
120.2349689041
 20
338.313033539
 30
0.0
 10
120.2145265828
 20
338.5623789251
 30
0.0
 10
120.2114742394
 20
338.7507741298
 30
0.0
  0
SPLINE
  5
2A0
100
AcDbEntity
  8
0
100
AcDbSpline
 62
7
  6
CONTINUOUS
 70
0
 71
3
 72
11
 73
7
 74
0
 42
0.0000001
 43
0.0000001
 44
0.0000000001
 40
0.0
 40
0.0
 40
0.0
 40
0.0
 40
0.2785916389
 40
0.5333631025
 40
0.7694297089
 40
1.0
 40
1.0
 40
1.0
 40
1.0
 10
119.3483399492
 20
339.589389752
 30
0.0
 10
119.3806866649
 20
339.473572645
 30
0.0
 10
119.4590902061
 20
339.2554516217
 30
0.0
 10
119.6470796397
 20
338.9754808158
 30
0.0
 10
119.9076234133
 20
338.7901424673
 30
0.0
 10
120.1120377974
 20
338.750808489
 30
0.0
 10
120.211559568
 20
338.7507926961
 30
0.0
  0
SPLINE
  5
2A1
100
AcDbEntity
  8
0
100
AcDbSpline
 62
7
  6
CONTINUOUS
 70
0
 71
3
 72
11
 73
7
 74
0
 42
0.0000001
 43
0.0000001
 44
0.0000000001
 40
0.0
 40
0.0
 40
0.0
 40
0.0
 40
0.2305702862
 40
0.4666368815
 40
0.7214083288
 40
1.0
 40
1.0
 40
1.0
 40
1.0
 10
143.4532367653
 20
338.7507927331
 30
0.0
 10
143.5527585592
 20
338.7508085094
 30
0.0
 10
143.757172994
 20
338.7901423955
 30
0.0
 10
144.017716945
 20
338.975480627
 30
0.0
 10
144.2057064792
 20
339.255451497
 30
0.0
 10
144.2841099813
 20
339.4735726025
 30
0.0
 10
144.3164567179
 20
339.5893897502
 30
0.0
  0
SPLINE
  5
2A2
100
AcDbEntity
  8
0
100
AcDbSpline
 62
7
  6
CONTINUOUS
 70
0
 71
3
 72
9
 73
5
 74
0
 42
0.0000001
 43
0.0000001
 44
0.0000000001
 40
0.0
 40
0.0
 40
0.0
 40
0.0
 40
0.2537229053
 40
1.0
 40
1.0
 40
1.0
 40
1.0
 10
143.4533167449
 20
338.7507741302
 30
0.0
 10
143.4522925387
 20
338.6875810267
 30
0.0
 10
143.4425055342
 20
338.4386738097
 30
0.0
 10
143.4113429359
 20
338.1903721103
 30
0.0
 10
143.3736970494
 20
338.0083291205
 30
0.0
  0
SPLINE
  5
2A3
100
AcDbEntity
  8
0
100
AcDbSpline
 62
7
  6
CONTINUOUS
 70
0
 71
3
 72
9
 73
5
 74
0
 42
0.0000001
 43
0.0000001
 44
0.0000000001
 40
0.0
 40
0.0
 40
0.0
 40
0.0
 40
0.1584817233
 40
1.0
 40
1.0
 40
1.0
 40
1.0
 10
144.1729180414
 20
333.6638250338
 30
0.0
 10
144.1489859446
 20
333.6718266876
 30
0.0
 10
143.9975519204
 20
333.7210339992
 30
0.0
 10
143.8439381737
 20
333.7635395754
 30
0.0
 10
143.7138694495
 20
333.7957229042
 30
0.0
  0
SPLINE
  5
2A4
100
AcDbEntity
  8
0
100
AcDbSpline
 62
7
  6
CONTINUOUS
 70
0
 71
3
 72
11
 73
7
 74
0
 42
0.0000001
 43
0.0000001
 44
0.0000000001
 40
0.0
 40
0.0
 40
0.0
 40
0.0
 40
0.2458414611
 40
0.5023773201
 40
0.7577177808
 40
1.0
 40
1.0
 40
1.0
 40
1.0
 10
143.7138771409
 20
333.7956985525
 30
0.0
 10
144.0867207213
 20
333.9223266161
 30
0.0
 10
144.8135836911
 20
334.3000339594
 30
0.0
 10
145.6832477705
 20
335.173994708
 30
0.0
 10
146.2439674135
 20
336.2647772524
 30
0.0
 10
146.3869770383
 20
337.06196102
 30
0.0
 10
146.4003066847
 20
337.4497913235
 30
0.0
  0
SPLINE
  5
2A5
100
AcDbEntity
  8
0
100
AcDbSpline
 62
7
  6
CONTINUOUS
 70
0
 71
3
 72
12
 73
8
 74
0
 42
0.0000001
 43
0.0000001
 44
0.0000000001
 40
0.0
 40
0.0
 40
0.0
 40
0.0
 40
0.3399875369
 40
0.6246125039
 40
0.8453345168
 40
0.9308140958
 40
1.0
 40
1.0
 40
1.0
 40
1.0
 10
143.3736711621
 20
338.0083222127
 30
0.0
 10
143.353036622
 20
337.542090616
 30
0.0
 10
143.3087154528
 20
336.6856642394
 30
0.0
 10
143.2110516275
 20
335.5294753568
 30
0.0
 10
143.0956213861
 20
334.7250788678
 30
0.0
 10
142.9698449727
 20
334.2249892854
 30
0.0
 10
142.8971681978
 20
334.0246667888
 30
0.0
 10
142.8567492877
 20
333.9387284545
 30
0.0
  0
SPLINE
  5
2A6
100
AcDbEntity
  8
0
100
AcDbSpline
 62
7
  6
CONTINUOUS
 70
0
 71
3
 72
11
 73
7
 74
0
 42
0.0000001
 43
0.0000001
 44
0.0000000001
 40
0.0
 40
0.0
 40
0.0
 40
0.0
 40
0.2584723748
 40
0.5096509432
 40
0.7554986652
 40
1.0
 40
1.0
 40
1.0
 40
1.0
 10
145.0796770936
 20
339.5893902138
 30
0.0
 10
145.0148484768
 20
339.3874901557
 30
0.0
 10
144.8515882243
 20
338.9987872743
 30
0.0
 10
144.4746370911
 20
338.4966083804
 30
0.0
 10
143.9707409257
 20
338.1374316003
 30
0.0
 10
143.5734896312
 20
338.0257795802
 30
0.0
 10
143.3736682311
 20
338.0082270936
 30
0.0
  0
SPLINE
  5
2A7
100
AcDbEntity
  8
0
100
AcDbSpline
 62
7
  6
CONTINUOUS
 70
0
 71
3
 72
12
 73
8
 74
0
 42
0.0000001
 43
0.0000001
 44
0.0000000001
 40
0.0
 40
0.0
 40
0.0
 40
0.0
 40
0.06917949
 40
0.1546535742
 40
0.375378538
 40
0.6600074165
 40
1.0
 40
1.0
 40
1.0
 40
1.0
 10
120.8079552098
 20
333.9387120601
 30
0.0
 10
120.7675398692
 20
334.0246420147
 30
0.0
 10
120.6949199451
 20
334.2249696371
 30
0.0
 10
120.5692257078
 20
334.725060933
 30
0.0
 10
120.4537212741
 20
335.5294432337
 30
0.0
 10
120.356093736
 20
336.6856511461
 30
0.0
 10
120.3117579756
 20
337.5420851555
 30
0.0
 10
120.2911232136
 20
338.0083222127
 30
0.0
  0
SPLINE
  5
2A8
100
AcDbEntity
  8
0
100
AcDbSpline
 62
7
  6
CONTINUOUS
 70
0
 71
3
 72
11
 73
7
 74
0
 42
0.0000001
 43
0.0000001
 44
0.0000000001
 40
0.0
 40
0.0
 40
0.0
 40
0.0
 40
0.2422832538
 40
0.4976240995
 40
0.7541595824
 40
1.0
 40
1.0
 40
1.0
 40
1.0
 10
117.2644897203
 20
337.4497913236
 30
0.0
 10
117.2778194126
 20
337.0619593567
 30
0.0
 10
117.4208299382
 20
336.2647732681
 30
0.0
 10
117.9815520014
 20
335.1739899723
 30
0.0
 10
118.8512162107
 20
334.3000317619
 30
0.0
 10
119.5780772796
 20
333.9223260303
 30
0.0
 10
119.9509192882
 20
333.7956985147
 30
0.0
  0
SPLINE
  5
2A9
100
AcDbEntity
  8
0
100
AcDbSpline
 62
7
  6
CONTINUOUS
 70
0
 71
3
 72
9
 73
5
 74
0
 42
0.0000001
 43
0.0000001
 44
0.0000000001
 40
0.0
 40
0.0
 40
0.0
 40
0.0
 40
0.4954798247
 40
1.0
 40
1.0
 40
1.0
 40
1.0
 10
139.4694450753
 20
333.6406307392
 30
0.0
 10
140.0020417468
 20
333.8012133278
 30
0.0
 10
141.1106528316
 20
334.0249522894
 30
0.0
 10
142.2431905181
 20
334.0116866336
 30
0.0
 10
142.8056744297
 20
333.9449563392
 30
0.0
  0
LINE
  5
2AA
100
AcDbEntity
  8
0
100
AcDbLine
 62
7
  6
CONTINUOUS
 10
134.3338482913
 20
333.5999033398
 11
134.3636928057
 21
333.6089394783
  0
SPLINE
  5
2AB
100
AcDbEntity
  8
0
100
AcDbSpline
 62
7
  6
CONTINUOUS
 70
0
 71
3
 72
13
 73
9
 74
0
 42
0.0000001
 43
0.0000001
 44
0.0000000001
 40
0.0
 40
0.0
 40
0.0
 40
0.0
 40
0.0712499204
 40
0.1990773572
 40
0.5297574783
 40
0.8178063846
 40
0.9238192297
 40
1.0
 40
1.0
 40
1.0
 40
1.0
 10
134.3636928057
 20
333.6089394783
 30
0.0
 10
134.4736861097
 20
333.6433622327
 30
0.0
 10
134.7816847605
 20
333.7376977311
 30
0.0
 10
135.6170197024
 20
333.9322808327
 30
0.0
 10
136.8276618742
 20
334.0477177115
 30
0.0
 10
138.0014773891
 20
333.9383646361
 30
0.0
 10
138.7449836234
 20
333.776122324
 30
0.0
 10
139.0293970207
 20
333.698195587
 30
0.0
 10
139.1470505641
 20
333.6615448311
 30
0.0
  0
SPLINE
  5
2AC
100
AcDbEntity
  8
0
100
AcDbSpline
 62
7
  6
CONTINUOUS
 70
0
 71
3
 72
9
 73
5
 74
0
 42
0.0000001
 43
0.0000001
 44
0.0000000001
 40
0.0
 40
0.0
 40
0.0
 40
0.0
 40
0.2979995868
 40
1.0
 40
1.0
 40
1.0
 40
1.0
 10
139.1470505641
 20
333.6615448311
 30
0.0
 10
139.1627761264
 20
333.6566460943
 30
0.0
 10
139.2154750088
 20
333.6399768287
 30
0.0
 10
139.2678646247
 20
333.6223417531
 30
0.0
 10
139.3049071355
 20
333.6107942333
 30
0.0
  0
SPLINE
  5
2AD
100
AcDbEntity
  8
0
100
AcDbSpline
 62
7
  6
CONTINUOUS
 70
0
 71
3
 72
8
 73
4
 74
0
 42
0.0000001
 43
0.0000001
 44
0.0000000001
 40
0.0
 40
0.0
 40
0.0
 40
0.0
 40
1.0
 40
1.0
 40
1.0
 40
1.0
 10
139.3112277076
 20
333.6088376436
 30
0.0
 10
139.3205020007
 20
333.6059882207
 30
0.0
 10
139.3298044033
 20
333.603223455
 30
0.0
 10
139.3391619117
 20
333.6006604958
 30
0.0
  0
SPLINE
  5
2AE
100
AcDbEntity
  8
0
100
AcDbSpline
 62
7
  6
CONTINUOUS
 70
0
 71
3
 72
10
 73
6
 74
0
 42
0.0000001
 43
0.0000001
 44
0.0000000001
 40
0.0
 40
0.0
 40
0.0
 40
0.0
 40
0.2334701421
 40
0.558012622
 40
1.0
 40
1.0
 40
1.0
 40
1.0
 10
129.1929350359
 20
333.6432709824
 30
0.0
 10
128.8393367195
 20
333.7513304091
 30
0.0
 10
127.9758359515
 20
333.9537832083
 30
0.0
 10
126.3875144686
 20
334.0584347604
 30
0.0
 10
125.1707872123
 20
333.8633354337
 30
0.0
 10
124.5020222962
 20
333.656684097
 30
0.0
  0
LINE
  5
2AF
100
AcDbEntity
  8
0
100
AcDbLine
 62
7
  6
CONTINUOUS
 10
124.3725864822
 20
333.6151367981
 11
124.3280400764
 21
333.5999102859
  0
SPLINE
  5
2B0
100
AcDbEntity
  8
0
100
AcDbSpline
 62
7
  6
CONTINUOUS
 70
0
 71
3
 72
9
 73
5
 74
0
 42
0.0000001
 43
0.0000001
 44
0.0000000001
 40
0.0
 40
0.0
 40
0.0
 40
0.0
 40
0.4943559088
 40
1.0
 40
1.0
 40
1.0
 40
1.0
 10
124.2004683499
 20
333.6390863256
 30
0.0
 10
123.668281896
 20
333.7997226947
 30
0.0
 10
122.5581669214
 20
334.0248529599
 30
0.0
 10
121.4237056471
 20
334.0119390361
 30
0.0
 10
120.8590710904
 20
333.9449457333
 30
0.0
  0
SPLINE
  5
2B1
100
AcDbEntity
  8
0
100
AcDbSpline
 62
7
  6
CONTINUOUS
 70
0
 71
3
 72
8
 73
4
 74
0
 42
0.0000001
 43
0.0000001
 44
0.0000000001
 40
0.0
 40
0.0
 40
0.0
 40
0.0
 40
1.0
 40
1.0
 40
1.0
 40
1.0
 10
120.8652517604
 20
333.9308145102
 30
0.0
 10
120.8461767117
 20
333.9284871603
 30
0.0
 10
120.8259780805
 20
333.9315467398
 30
0.0
 10
120.8081448882
 20
333.9387057407
 30
0.0
  0
SPLINE
  5
2B2
100
AcDbEntity
  8
0
100
AcDbSpline
 62
7
  6
CONTINUOUS
 70
0
 71
3
 72
9
 73
5
 74
0
 42
0.0000001
 43
0.0000001
 44
0.0000000001
 40
0.0
 40
0.0
 40
0.0
 40
0.0
 40
0.3706096924
 40
1.0
 40
1.0
 40
1.0
 40
1.0
 10
120.8081491946
 20
333.9387062642
 30
0.0
 10
120.7093989039
 20
333.9276241082
 30
0.0
 10
120.4435536568
 20
333.8925498987
 30
0.0
 10
120.179168954
 20
333.8463155292
 30
0.0
 10
120.0143433899
 20
333.8101058308
 30
0.0
  0
SPLINE
  5
2B3
100
AcDbEntity
  8
0
100
AcDbSpline
 62
7
  6
CONTINUOUS
 70
0
 71
3
 72
8
 73
4
 74
0
 42
0.0000001
 43
0.0000001
 44
0.0000000001
 40
0.0
 40
0.0
 40
0.0
 40
0.0
 40
1.0
 40
1.0
 40
1.0
 40
1.0
 10
120.0576311006
 20
333.79036179
 30
0.0
 10
120.0229018655
 20
333.7824776721
 30
0.0
 10
119.9846961222
 20
333.7844124847
 30
0.0
 10
119.9509269715
 20
333.7957228138
 30
0.0
  0
SPLINE
  5
2B4
100
AcDbEntity
  8
0
100
AcDbSpline
 62
7
  6
CONTINUOUS
 70
0
 71
3
 72
9
 73
5
 74
0
 42
0.0000001
 43
0.0000001
 44
0.0000000001
 40
0.0
 40
0.0
 40
0.0
 40
0.0
 40
0.3506107392
 40
1.0
 40
1.0
 40
1.0
 40
1.0
 10
119.9509270167
 20
333.7957228602
 30
0.0
 10
119.89673089
 20
333.7823121323
 30
0.0
 10
119.7426185516
 20
333.7422104812
 30
0.0
 10
119.5899377003
 20
333.696611384
 30
0.0
 10
119.4918667885
 20
333.6638203003
 30
0.0
  0
SPLINE
  5
2B5
100
AcDbEntity
  8
0
100
AcDbSpline
 62
7
  6
CONTINUOUS
 70
0
 71
3
 72
8
 73
4
 74
0
 42
0.0000001
 43
0.0000001
 44
0.0000000001
 40
0.0
 40
0.0
 40
0.0
 40
0.0
 40
1.0
 40
1.0
 40
1.0
 40
1.0
 10
143.6071681816
 20
333.7903639658
 30
0.0
 10
143.6418966618
 20
333.7824698481
 30
0.0
 10
143.6801047191
 20
333.7843944982
 30
0.0
 10
143.7138781745
 20
333.7956966282
 30
0.0
  0
SPLINE
  5
2B6
100
AcDbEntity
  8
0
100
AcDbSpline
 62
7
  6
CONTINUOUS
 70
0
 71
3
 72
9
 73
5
 74
0
 42
0.0000001
 43
0.0000001
 44
0.0000000001
 40
0.0
 40
0.0
 40
0.0
 40
0.0
 40
0.1440815929
 40
1.0
 40
1.0
 40
1.0
 40
1.0
 10
143.6502839597
 20
333.8101448406
 30
0.0
 10
143.6125638461
 20
333.8184293415
 30
0.0
 10
143.3500828318
 20
333.8727395735
 30
0.0
 10
143.0846414237
 20
333.9131130394
 30
0.0
 10
142.8566559262
 20
333.9387070203
 30
0.0
  0
SPLINE
  5
2B7
100
AcDbEntity
  8
0
100
AcDbSpline
 62
7
  6
CONTINUOUS
 70
0
 71
3
 72
8
 73
4
 74
0
 42
0.0000001
 43
0.0000001
 44
0.0000000001
 40
0.0
 40
0.0
 40
0.0
 40
0.0
 40
1.0
 40
1.0
 40
1.0
 40
1.0
 10
142.7995493935
 20
333.930805997
 30
0.0
 10
142.818628884
 20
333.9284881464
 30
0.0
 10
142.8388302817
 20
333.9315650541
 30
0.0
 10
142.8566600249
 20
333.9387413796
 30
0.0
  0
SPLINE
  5
2B8
100
AcDbEntity
  8
0
100
AcDbSpline
 62
7
  6
CONTINUOUS
 70
0
 71
3
 72
8
 73
4
 74
0
 42
0.0000001
 43
0.0000001
 44
0.0000000001
 40
0.0
 40
0.0
 40
0.0
 40
0.0
 40
1.0
 40
1.0
 40
1.0
 40
1.0
 10
139.3932769961
 20
333.6091134226
 30
0.0
 10
139.375632556
 20
333.6034754285
 30
0.0
 10
139.3569547232
 20
333.5999714395
 30
0.0
 10
139.3384324089
 20
333.600164096
 30
0.0
  0
SPLINE
  5
2B9
100
AcDbEntity
  8
0
100
AcDbSpline
 62
7
  6
CONTINUOUS
 70
0
 71
3
 72
8
 73
4
 74
0
 42
0.0000001
 43
0.0000001
 44
0.0000000001
 40
0.0
 40
0.0
 40
0.0
 40
0.0
 40
1.0
 40
1.0
 40
1.0
 40
1.0
 10
139.31977964
 20
333.6001800977
 30
0.0
 10
139.325987991
 20
333.5998412352
 30
0.0
 10
139.3322223204
 20
333.5998587267
 30
0.0
 10
139.3384324089
 20
333.600164096
 30
0.0
  0
SPLINE
  5
2BA
100
AcDbEntity
  8
0
100
AcDbSpline
 62
7
  6
CONTINUOUS
 70
0
 71
3
 72
11
 73
7
 74
0
 42
0.0000001
 43
0.0000001
 44
0.0000000001
 40
0.0
 40
0.0
 40
0.0
 40
0.0
 40
0.1797336583
 40
0.4999912504
 40
0.8202278069
 40
1.0
 40
1.0
 40
1.0
 40
1.0
 10
134.3036404256
 20
333.6099402343
 30
0.0
 10
134.0180690804
 20
333.7039103433
 30
0.0
 10
133.2070177038
 20
333.915673271
 30
0.0
 10
131.8325346111
 20
334.0546625118
 30
0.0
 10
130.4579851003
 20
333.9157103453
 30
0.0
 10
129.6468978176
 20
333.7039634497
 30
0.0
 10
129.3612646318
 20
333.6099750603
 30
0.0
  0
SPLINE
  5
2BB
100
AcDbEntity
  8
0
100
AcDbSpline
 62
7
  6
CONTINUOUS
 70
0
 71
3
 72
14
 73
10
 74
0
 42
0.0000001
 43
0.0000001
 44
0.0000000001
 40
0.0
 40
0.0
 40
0.0
 40
0.0
 40
0.3918893884
 40
0.5517638755
 40
0.6858801938
 40
0.7946542376
 40
0.8801250825
 40
0.9461364756
 40
1.0
 40
1.0
 40
1.0
 40
1.0
 10
145.5561953104
 20
339.5893905371
 30
0.0
 10
145.5838424553
 20
339.2754424681
 30
0.0
 10
145.6449582544
 20
338.834176065
 30
0.0
 10
145.7826850373
 20
338.2995191379
 30
0.0
 10
145.891486786
 20
337.9938638772
 30
0.0
 10
146.008584108
 20
337.7562330935
 30
0.0
 10
146.1315202632
 20
337.5852981495
 30
0.0
 10
146.2600954329
 20
337.4772582388
 30
0.0
 10
146.3569894558
 20
337.4497904084
 30
0.0
 10
146.4003072738
 20
337.4497901177
 30
0.0
  0
SPLINE
  5
2BC
100
AcDbEntity
  8
0
100
AcDbSpline
 62
7
  6
CONTINUOUS
 70
0
 71
3
 72
14
 73
10
 74
0
 42
0.0000001
 43
0.0000001
 44
0.0000000001
 40
0.0
 40
0.0
 40
0.0
 40
0.0
 40
0.0538635253
 40
0.1198749191
 40
0.2053457642
 40
0.3141198077
 40
0.4482361254
 40
0.608110612
 40
1.0
 40
1.0
 40
1.0
 40
1.0
 10
117.2644893622
 20
337.4497901225
 30
0.0
 10
117.3078071809
 20
337.4497904112
 30
0.0
 10
117.4047012063
 20
337.4772582406
 30
0.0
 10
117.5332763759
 20
337.5852981535
 30
0.0
 10
117.6562125308
 20
337.756233098
 30
0.0
 10
117.7733098513
 20
337.9938638816
 30
0.0
 10
117.8821115994
 20
338.299519141
 30
0.0
 10
118.0198383814
 20
338.8341760667
 30
0.0
 10
118.0809541804
 20
339.2754424688
 30
0.0
 10
118.1086013253
 20
339.5893905372
 30
0.0
  0
SPLINE
  5
2BD
100
AcDbEntity
  8
0
100
AcDbSpline
 62
7
  6
CONTINUOUS
 70
0
 71
3
 72
8
 73
4
 74
0
 42
0.0000001
 43
0.0000001
 44
0.0000000001
 40
0.0
 40
0.0
 40
0.0
 40
0.0
 40
1.0
 40
1.0
 40
1.0
 40
1.0
 10
677.3323983179
 20
357.9893894046
 30
0.0
 10
677.2617870749
 20
358.1681997268
 30
0.0
 10
677.1913362626
 20
358.3471029428
 30
0.0
 10
677.1171195405
 20
358.5244471197
 30
0.0
  0
SPLINE
  5
2BE
100
AcDbEntity
  8
0
100
AcDbSpline
 62
7
  6
CONTINUOUS
 70
0
 71
3
 72
8
 73
4
 74
0
 42
0.0000001
 43
0.0000001
 44
0.0000000001
 40
0.0
 40
0.0
 40
0.0
 40
0.0
 40
1.0
 40
1.0
 40
1.0
 40
1.0
 10
677.1171195405
 20
358.5244471197
 30
0.0
 10
677.0668821676
 20
358.6444915694
 30
0.0
 10
677.0149433845
 20
358.7638969869
 30
0.0
 10
676.9589821288
 20
358.881382311
 30
0.0
  0
SPLINE
  5
2BF
100
AcDbEntity
  8
0
100
AcDbSpline
 62
7
  6
CONTINUOUS
 70
0
 71
3
 72
9
 73
5
 74
0
 42
0.0000001
 43
0.0000001
 44
0.0000000001
 40
0.0
 40
0.0
 40
0.0
 40
0.0
 40
0.2832535112
 40
1.0
 40
1.0
 40
1.0
 40
1.0
 10
676.9589821288
 20
358.881382311
 30
0.0
 10
676.9358666761
 20
358.9299110014
 30
0.0
 10
676.851628616
 20
359.0997371545
 30
0.0
 10
676.7565513861
 20
359.2658465086
 30
0.0
 10
676.6724236209
 20
359.3727247201
 30
0.0
  0
SPLINE
  5
2C0
100
AcDbEntity
  8
0
100
AcDbSpline
 62
7
  6
CONTINUOUS
 70
0
 71
3
 72
8
 73
4
 74
0
 42
0.0000001
 43
0.0000001
 44
0.0000000001
 40
0.0
 40
0.0
 40
0.0
 40
0.0
 40
1.0
 40
1.0
 40
1.0
 40
1.0
 10
676.6724236209
 20
359.3727247201
 30
0.0
 10
676.639821305
 20
359.4141435929
 30
0.0
 10
676.6043969408
 20
359.4537822132
 30
0.0
 10
676.5648382934
 20
359.488618221
 30
0.0
  0
SPLINE
  5
2C1
100
AcDbEntity
  8
0
100
AcDbSpline
 62
7
  6
CONTINUOUS
 70
0
 71
3
 72
8
 73
4
 74
0
 42
0.0000001
 43
0.0000001
 44
0.0000000001
 40
0.0
 40
0.0
 40
0.0
 40
0.0
 40
1.0
 40
1.0
 40
1.0
 40
1.0
 10
676.5648382934
 20
359.488618221
 30
0.0
 10
676.5031837494
 20
359.5429122456
 30
0.0
 10
676.4220734259
 20
359.5893122261
 30
0.0
 10
676.339920407
 20
359.589385574
 30
0.0
  0
SPLINE
  5
2C2
100
AcDbEntity
  8
0
100
AcDbSpline
 62
7
  6
CONTINUOUS
 70
0
 71
3
 72
8
 73
4
 74
0
 42
0.0000001
 43
0.0000001
 44
0.0000000001
 40
0.0
 40
0.0
 40
0.0
 40
0.0
 40
1.0
 40
1.0
 40
1.0
 40
1.0
 10
83.3323983179
 20
357.9893894046
 30
0.0
 10
83.4027263829
 20
358.1674826296
 30
0.0
 10
83.4728872277
 20
358.3456708856
 30
0.0
 10
83.5467764272
 20
358.5223163489
 30
0.0
  0
SPLINE
  5
2C3
100
AcDbEntity
  8
0
100
AcDbSpline
 62
7
  6
CONTINUOUS
 70
0
 71
3
 72
8
 73
4
 74
0
 42
0.0000001
 43
0.0000001
 44
0.0000000001
 40
0.0
 40
0.0
 40
0.0
 40
0.0
 40
1.0
 40
1.0
 40
1.0
 40
1.0
 10
83.5467764272
 20
358.5223163489
 30
0.0
 10
83.5966321579
 20
358.6415054686
 30
0.0
 10
83.6481703447
 20
358.7600608762
 30
0.0
 10
83.7036309625
 20
358.8767474651
 30
0.0
  0
SPLINE
  5
2C4
100
AcDbEntity
  8
0
100
AcDbSpline
 62
7
  6
CONTINUOUS
 70
0
 71
3
 72
9
 73
5
 74
0
 42
0.0000001
 43
0.0000001
 44
0.0000000001
 40
0.0
 40
0.0
 40
0.0
 40
0.0
 40
0.2823802918
 40
1.0
 40
1.0
 40
1.0
 40
1.0
 10
83.7036309625
 20
358.8767474651
 30
0.0
 10
83.7264343668
 20
358.9247247789
 30
0.0
 10
83.8097309251
 20
359.0931945874
 30
0.0
 10
83.9035362098
 20
359.2579852396
 30
0.0
 10
83.9861714023
 20
359.3647356225
 30
0.0
  0
SPLINE
  5
2C5
100
AcDbEntity
  8
0
100
AcDbSpline
 62
7
  6
CONTINUOUS
 70
0
 71
3
 72
8
 73
4
 74
0
 42
0.0000001
 43
0.0000001
 44
0.0000000001
 40
0.0
 40
0.0
 40
0.0
 40
0.0
 40
1.0
 40
1.0
 40
1.0
 40
1.0
 10
83.9861714023
 20
359.3647356225
 30
0.0
 10
84.017526749
 20
359.4052413097
 30
0.0
 10
84.0514533087
 20
359.4441132577
 30
0.0
 10
84.089134071
 20
359.4788123732
 30
0.0
  0
SPLINE
  5
2C6
100
AcDbEntity
  8
0
100
AcDbSpline
 62
7
  6
CONTINUOUS
 70
0
 71
3
 72
8
 73
4
 74
0
 42
0.0000001
 43
0.0000001
 44
0.0000000001
 40
0.0
 40
0.0
 40
0.0
 40
0.0
 40
1.0
 40
1.0
 40
1.0
 40
1.0
 10
84.089134071
 20
359.4788123732
 30
0.0
 10
84.1529817842
 20
359.537607871
 30
0.0
 10
84.2380812881
 20
359.5893052912
 30
0.0
 10
84.3248766486
 20
359.5893854551
 30
0.0
  0
SPLINE
  5
2C7
100
AcDbEntity
  8
0
100
AcDbSpline
 62
7
  6
CONTINUOUS
 70
0
 71
3
 72
8
 73
4
 74
0
 42
0.0000001
 43
0.0000001
 44
0.0000000001
 40
0.0
 40
0.0
 40
0.0
 40
0.0
 40
1.0
 40
1.0
 40
1.0
 40
1.0
 10
668.7922673614
 20
340.2424071796
 30
0.0
 10
668.968659327
 20
340.4157425646
 30
0.0
 10
669.1306248604
 20
340.6039518688
 30
0.0
 10
669.2840429805
 20
340.7979161996
 30
0.0
  0
SPLINE
  5
2C8
100
AcDbEntity
  8
0
100
AcDbSpline
 62
7
  6
CONTINUOUS
 70
0
 71
3
 72
8
 73
4
 74
0
 42
0.0000001
 43
0.0000001
 44
0.0000000001
 40
0.0
 40
0.0
 40
0.0
 40
0.0
 40
1.0
 40
1.0
 40
1.0
 40
1.0
 10
669.3672710812
 20
340.9048348229
 30
0.0
 10
669.5514857786
 20
341.1451549937
 30
0.0
 10
669.7246422271
 20
341.3939735411
 30
0.0
 10
669.8928575626
 20
341.6457520949
 30
0.0
  0
SPLINE
  5
2C9
100
AcDbEntity
  8
0
100
AcDbSpline
 62
7
  6
CONTINUOUS
 70
0
 71
3
 72
8
 73
4
 74
0
 42
0.0000001
 43
0.0000001
 44
0.0000000001
 40
0.0
 40
0.0
 40
0.0
 40
0.0
 40
1.0
 40
1.0
 40
1.0
 40
1.0
 10
669.8928575626
 20
341.6457520949
 30
0.0
 10
670.1008090293
 20
341.9570062346
 30
0.0
 10
670.3011844256
 20
342.2732760919
 30
0.0
 10
670.5016721447
 20
342.5893894046
 30
0.0
  0
SPLINE
  5
2CA
100
AcDbEntity
  8
0
100
AcDbSpline
 62
7
  6
CONTINUOUS
 70
0
 71
3
 72
8
 73
4
 74
0
 42
0.0000001
 43
0.0000001
 44
0.0000000001
 40
0.0
 40
0.0
 40
0.0
 40
0.0
 40
1.0
 40
1.0
 40
1.0
 40
1.0
 10
90.1631244911
 20
342.5893894046
 30
0.0
 10
90.3636122101
 20
342.2732760919
 30
0.0
 10
90.5639876064
 20
341.9570062346
 30
0.0
 10
90.7719390731
 20
341.6457520949
 30
0.0
  0
SPLINE
  5
2CB
100
AcDbEntity
  8
0
100
AcDbSpline
 62
7
  6
CONTINUOUS
 70
0
 71
3
 72
8
 73
4
 74
0
 42
0.0000001
 43
0.0000001
 44
0.0000000001
 40
0.0
 40
0.0
 40
0.0
 40
0.0
 40
1.0
 40
1.0
 40
1.0
 40
1.0
 10
90.7719390731
 20
341.6457520949
 30
0.0
 10
90.9652230731
 20
341.3564516822
 30
0.0
 10
91.1649126144
 20
341.0708009344
 30
0.0
 10
91.3807536552
 20
340.7979161996
 30
0.0
  0
SPLINE
  5
2CC
100
AcDbEntity
  8
0
100
AcDbSpline
 62
7
  6
CONTINUOUS
 70
0
 71
3
 72
8
 73
4
 74
0
 42
0.0000001
 43
0.0000001
 44
0.0000000001
 40
0.0
 40
0.0
 40
0.0
 40
0.0
 40
1.0
 40
1.0
 40
1.0
 40
1.0
 10
91.5646711266
 20
340.5741417627
 30
0.0
 10
91.662807909
 20
340.4595666926
 30
0.0
 10
91.764928033
 20
340.3481438696
 30
0.0
 10
91.8725292743
 20
340.2424071796
 30
0.0
  0
SPLINE
  5
2CD
100
AcDbEntity
  8
0
100
AcDbSpline
 62
7
  6
CONTINUOUS
 70
0
 71
3
 72
9
 73
5
 74
0
 42
0.0000001
 43
0.0000001
 44
0.0000000001
 40
0.0
 40
0.0
 40
0.0
 40
0.0
 40
0.2915617533
 40
1.0
 40
1.0
 40
1.0
 40
1.0
 10
91.9895682374
 20
340.1319332718
 30
0.0
 10
92.0313093801
 20
340.0763049576
 30
0.0
 10
92.180201105
 20
339.8913082595
 30
0.0
 10
92.3624243795
 20
339.7231952735
 30
0.0
 10
92.5153858687
 20
339.6513676066
 30
0.0
  0
SPLINE
  5
2CE
100
AcDbEntity
  8
0
100
AcDbSpline
 62
7
  6
CONTINUOUS
 70
0
 71
3
 72
8
 73
4
 74
0
 42
0.0000001
 43
0.0000001
 44
0.0000000001
 40
0.0
 40
0.0
 40
0.0
 40
0.0
 40
1.0
 40
1.0
 40
1.0
 40
1.0
 10
92.5153858687
 20
339.6513676066
 30
0.0
 10
92.596885993
 20
339.6130967725
 30
0.0
 10
92.6882562094
 20
339.5893894046
 30
0.0
 10
92.7782946845
 20
339.5893894046
 30
0.0
  0
SPLINE
  5
2CF
100
AcDbEntity
  8
0
100
AcDbSpline
 62
7
  6
CONTINUOUS
 70
0
 71
3
 72
9
 73
5
 74
0
 42
0.0000001
 43
0.0000001
 44
0.0000000001
 40
0.0
 40
0.0
 40
0.0
 40
0.0
 40
0.2043650434
 40
1.0
 40
1.0
 40
1.0
 40
1.0
 10
667.8865019513
 20
339.5893894046
 30
0.0
 10
667.95324289
 20
339.5893894046
 30
0.0
 10
668.2815679641
 20
339.6538072722
 30
0.0
 10
668.5192791187
 20
339.9241000657
 30
0.0
 10
668.6752283984
 20
340.1319332718
 30
0.0
  0
SPLINE
  5
2D0
100
AcDbEntity
  8
0
100
AcDbSpline
 62
7
  6
CONTINUOUS
 70
0
 71
3
 72
8
 73
4
 74
0
 42
0.0000001
 43
0.0000001
 44
0.0000000001
 40
0.0
 40
0.0
 40
0.0
 40
0.0
 40
1.0
 40
1.0
 40
1.0
 40
1.0
 10
659.8964491338
 20
364.099684047
 30
0.0
 10
660.0155169765
 20
364.2218697632
 30
0.0
 10
660.1345872212
 20
364.3440588495
 30
0.0
 10
660.2546867368
 20
364.4652306565
 30
0.0
  0
SPLINE
  5
2D1
100
AcDbEntity
  8
0
100
AcDbSpline
 62
7
  6
CONTINUOUS
 70
0
 71
3
 72
8
 73
4
 74
0
 42
0.0000001
 43
0.0000001
 44
0.0000000001
 40
0.0
 40
0.0
 40
0.0
 40
0.0
 40
1.0
 40
1.0
 40
1.0
 40
1.0
 10
660.2546867368
 20
364.4652306565
 30
0.0
 10
660.3903636467
 20
364.6021189384
 30
0.0
 10
660.5273511486
 20
364.7377690336
 30
0.0
 10
660.6673168356
 20
364.8702689661
 30
0.0
  0
SPLINE
  5
2D2
100
AcDbEntity
  8
0
100
AcDbSpline
 62
7
  6
CONTINUOUS
 70
0
 71
3
 72
9
 73
5
 74
0
 42
0.0000001
 43
0.0000001
 44
0.0000000001
 40
0.0
 40
0.0
 40
0.0
 40
0.0
 40
0.2668621916
 40
1.0
 40
1.0
 40
1.0
 40
1.0
 10
660.6673168356
 20
364.8702689661
 30
0.0
 10
660.7613000772
 20
364.9592391519
 30
0.0
 10
661.1183696298
 20
365.2866714726
 30
0.0
 10
661.5037269679
 20
365.5889692524
 30
0.0
 10
661.812998591
 20
365.7643515621
 30
0.0
  0
SPLINE
  5
2D3
100
AcDbEntity
  8
0
100
AcDbSpline
 62
7
  6
CONTINUOUS
 70
0
 71
3
 72
9
 73
5
 74
0
 42
0.0000001
 43
0.0000001
 44
0.0000000001
 40
0.0
 40
0.0
 40
0.0
 40
0.0
 40
0.2674041233
 40
1.0
 40
1.0
 40
1.0
 40
1.0
 10
661.812998591
 20
365.7643515621
 30
0.0
 10
661.9060517635
 20
365.8171203229
 30
0.0
 10
662.2622683367
 20
365.9979980962
 30
0.0
 10
662.6649168157
 20
366.099686016
 30
0.0
 10
662.957988982
 20
366.099686016
 30
0.0
  0
SPLINE
  5
2D4
100
AcDbEntity
  8
0
100
AcDbSpline
 62
7
  6
CONTINUOUS
 70
0
 71
3
 72
9
 73
5
 74
0
 42
0.0000001
 43
0.0000001
 44
0.0000000001
 40
0.0
 40
0.0
 40
0.0
 40
0.0
 40
0.3684262578
 40
1.0
 40
1.0
 40
1.0
 40
1.0
 10
83.7317949738
 20
743.099686016
 30
0.0
 10
83.5502568563
 20
743.099686016
 30
0.0
 10
83.1262976624
 20
742.719194865
 30
0.0
 10
82.9343688783
 20
742.2848715878
 30
0.0
 10
82.8070773637
 20
742.0008943316
 30
0.0
  0
SPLINE
  5
2D5
100
AcDbEntity
  8
0
100
AcDbSpline
 62
7
  6
CONTINUOUS
 70
0
 71
3
 72
9
 73
5
 74
0
 42
0.0000001
 43
0.0000001
 44
0.0000000001
 40
0.0
 40
0.0
 40
0.0
 40
0.0
 40
0.2312197016
 40
1.0
 40
1.0
 40
1.0
 40
1.0
 10
82.8070773637
 20
742.0008943316
 30
0.0
 10
82.7723988947
 20
741.9235294222
 30
0.0
 10
82.6276556169
 20
741.5865830921
 30
0.0
 10
82.4989443833
 20
741.2430015118
 30
0.0
 10
82.4036545579
 20
740.9777061184
 30
0.0
  0
SPLINE
  5
2D6
100
AcDbEntity
  8
0
100
AcDbSpline
 62
7
  6
CONTINUOUS
 70
0
 71
3
 72
8
 73
4
 74
0
 42
0.0000001
 43
0.0000001
 44
0.0000000001
 40
0.0
 40
0.0
 40
0.0
 40
0.0
 40
1.0
 40
1.0
 40
1.0
 40
1.0
 10
82.4036545579
 20
740.9777061184
 30
0.0
 10
82.275159709
 20
740.6199649712
 30
0.0
 10
82.1535762092
 20
740.2597679308
 30
0.0
 10
82.0317949738
 20
739.899686016
 30
0.0
  0
SPLINE
  5
2D7
100
AcDbEntity
  8
0
100
AcDbSpline
 62
7
  6
CONTINUOUS
 70
0
 71
3
 72
8
 73
4
 74
0
 42
0.0000001
 43
0.0000001
 44
0.0000000001
 40
0.0
 40
0.0
 40
0.0
 40
0.0
 40
1.0
 40
1.0
 40
1.0
 40
1.0
 10
679.0317949738
 20
739.899686016
 30
0.0
 10
678.9100149089
 20
740.25976447
 30
0.0
 10
678.7884325746
 20
740.6199580455
 30
0.0
 10
678.659939097
 20
740.9776958033
 30
0.0
  0
SPLINE
  5
2D8
100
AcDbEntity
  8
0
100
AcDbSpline
 62
7
  6
CONTINUOUS
 70
0
 71
3
 72
9
 73
5
 74
0
 42
0.0000001
 43
0.0000001
 44
0.0000000001
 40
0.0
 40
0.0
 40
0.0
 40
0.0
 40
0.2783451033
 40
1.0
 40
1.0
 40
1.0
 40
1.0
 10
678.659939097
 20
740.9776958033
 30
0.0
 10
678.6130733761
 20
741.1081743168
 30
0.0
 10
678.4407673725
 20
741.5752486922
 30
0.0
 10
678.2524041337
 20
742.0383337129
 30
0.0
 10
678.0846055014
 20
742.3562102434
 30
0.0
  0
SPLINE
  5
2D9
100
AcDbEntity
  8
0
100
AcDbSpline
 62
7
  6
CONTINUOUS
 70
0
 71
3
 72
9
 73
5
 74
0
 42
0.0000001
 43
0.0000001
 44
0.0000000001
 40
0.0
 40
0.0
 40
0.0
 40
0.0
 40
0.3430032484
 40
1.0
 40
1.0
 40
1.0
 40
1.0
 10
678.0846055014
 20
742.3562102434
 30
0.0
 10
678.0271517671
 20
742.4650501874
 30
0.0
 10
677.8571857308
 20
742.762781238
 30
0.0
 10
677.567532778
 20
743.099686016
 30
0.0
 10
677.3317949738
 20
743.099686016
 30
0.0
  0
SPLINE
  5
2DA
100
AcDbEntity
  8
0
100
AcDbSpline
 62
7
  6
CONTINUOUS
 70
0
 71
3
 72
9
 73
5
 74
0
 42
0.0000001
 43
0.0000001
 44
0.0000000001
 40
0.0
 40
0.0
 40
0.0
 40
0.0
 40
0.3684262578
 40
1.0
 40
1.0
 40
1.0
 40
1.0
 10
677.3317949738
 20
366.099686016
 30
0.0
 10
677.5133330914
 20
366.099686016
 30
0.0
 10
677.9372922852
 20
366.4801771671
 30
0.0
 10
678.1292210693
 20
366.9145004443
 30
0.0
 10
678.2565125839
 20
367.1984777005
 30
0.0
  0
SPLINE
  5
2DB
100
AcDbEntity
  8
0
100
AcDbSpline
 62
7
  6
CONTINUOUS
 70
0
 71
3
 72
9
 73
5
 74
0
 42
0.0000001
 43
0.0000001
 44
0.0000000001
 40
0.0
 40
0.0
 40
0.0
 40
0.0
 40
0.2312197016
 40
1.0
 40
1.0
 40
1.0
 40
1.0
 10
678.2565125839
 20
367.1984777005
 30
0.0
 10
678.291191053
 20
367.2758426099
 30
0.0
 10
678.4359343308
 20
367.61278894
 30
0.0
 10
678.5646455643
 20
367.9563705202
 30
0.0
 10
678.6599353897
 20
368.2216659137
 30
0.0
  0
SPLINE
  5
2DC
100
AcDbEntity
  8
0
100
AcDbSpline
 62
7
  6
CONTINUOUS
 70
0
 71
3
 72
8
 73
4
 74
0
 42
0.0000001
 43
0.0000001
 44
0.0000000001
 40
0.0
 40
0.0
 40
0.0
 40
0.0
 40
1.0
 40
1.0
 40
1.0
 40
1.0
 10
678.6599353897
 20
368.2216659137
 30
0.0
 10
678.7884302386
 20
368.5794070609
 30
0.0
 10
678.9100137384
 20
368.9396041013
 30
0.0
 10
679.0317949738
 20
369.299686016
 30
0.0
  0
SPLINE
  5
2DD
100
AcDbEntity
  8
0
100
AcDbSpline
 62
7
  6
CONTINUOUS
 70
0
 71
3
 72
8
 73
4
 74
0
 42
0.0000001
 43
0.0000001
 44
0.0000000001
 40
0.0
 40
0.0
 40
0.0
 40
0.0
 40
1.0
 40
1.0
 40
1.0
 40
1.0
 10
82.0317949738
 20
369.299686016
 30
0.0
 10
82.1535750387
 20
368.9396075621
 30
0.0
 10
82.275157373
 20
368.5794139866
 30
0.0
 10
82.4036508506
 20
368.2216762287
 30
0.0
  0
SPLINE
  5
2DE
100
AcDbEntity
  8
0
100
AcDbSpline
 62
7
  6
CONTINUOUS
 70
0
 71
3
 72
9
 73
5
 74
0
 42
0.0000001
 43
0.0000001
 44
0.0000000001
 40
0.0
 40
0.0
 40
0.0
 40
0.0
 40
0.2783451033
 40
1.0
 40
1.0
 40
1.0
 40
1.0
 10
82.4036508506
 20
368.2216762287
 30
0.0
 10
82.4505165716
 20
368.0911977153
 30
0.0
 10
82.6228225752
 20
367.6241233399
 30
0.0
 10
82.811185814
 20
367.1610383192
 30
0.0
 10
82.9789844462
 20
366.8431617887
 30
0.0
  0
SPLINE
  5
2DF
100
AcDbEntity
  8
0
100
AcDbSpline
 62
7
  6
CONTINUOUS
 70
0
 71
3
 72
9
 73
5
 74
0
 42
0.0000001
 43
0.0000001
 44
0.0000000001
 40
0.0
 40
0.0
 40
0.0
 40
0.0
 40
0.3430032484
 40
1.0
 40
1.0
 40
1.0
 40
1.0
 10
82.9789844462
 20
366.8431617887
 30
0.0
 10
83.0364381806
 20
366.7343218447
 30
0.0
 10
83.2064042168
 20
366.4365907941
 30
0.0
 10
83.4960571696
 20
366.099686016
 30
0.0
 10
83.7317949738
 20
366.099686016
 30
0.0
  0
SPLINE
  5
2E0
100
AcDbEntity
  8
0
100
AcDbSpline
 62
7
  6
CONTINUOUS
 70
0
 71
3
 72
9
 73
5
 74
0
 42
0.0000001
 43
0.0000001
 44
0.0000000001
 40
0.0
 40
0.0
 40
0.0
 40
0.0
 40
0.7325951206
 40
1.0
 40
1.0
 40
1.0
 40
1.0
 10
98.1056009656
 20
366.099686016
 30
0.0
 10
98.3986818585
 20
366.099686016
 30
0.0
 10
98.8013426247
 20
365.9979915823
 30
0.0
 10
99.1575682191
 20
365.8171045533
 30
0.0
 10
99.2506239614
 20
365.7643330297
 30
0.0
  0
SPLINE
  5
2E1
100
AcDbEntity
  8
0
100
AcDbSpline
 62
7
  6
CONTINUOUS
 70
0
 71
3
 72
9
 73
5
 74
0
 42
0.0000001
 43
0.0000001
 44
0.0000000001
 40
0.0
 40
0.0
 40
0.0
 40
0.0
 40
0.2284809131
 40
1.0
 40
1.0
 40
1.0
 40
1.0
 10
99.2506239614
 20
365.7643330297
 30
0.0
 10
99.3853076997
 20
365.687954443
 30
0.0
 10
99.9516643812
 20
365.3126335439
 30
0.0
 10
100.4408535076
 20
364.8365665035
 30
0.0
 10
100.8089043167
 20
364.465229557
 30
0.0
  0
SPLINE
  5
2E2
100
AcDbEntity
  8
0
100
AcDbSpline
 62
7
  6
CONTINUOUS
 70
0
 71
3
 72
8
 73
4
 74
0
 42
0.0000001
 43
0.0000001
 44
0.0000000001
 40
0.0
 40
0.0
 40
0.0
 40
0.0
 40
1.0
 40
1.0
 40
1.0
 40
1.0
 10
100.8089043167
 20
364.465229557
 30
0.0
 10
100.9290034585
 20
364.3440581115
 30
0.0
 10
101.048073338
 20
364.2218693953
 30
0.0
 10
101.1671408163
 20
364.0996840498
 30
0.0
  0
ENDSEC
  0
SECTION
  2
OBJECTS
  0
DICTIONARY
  5
C
100
AcDbDictionary
280
0
281
1
  3
ACAD_GROUP
350
D
  3
ACAD_MLINESTYLE
350
17
  3
ACAD_LAYOUT
350
1A
  3
ACAD_PLOTSETTINGS
350
19
  3
ACAD_PLOTSTYLENAME
350
E
  0
DICTIONARY
  5
D
102
{ACAD_REACTORS
330
C
102
}
100
AcDbDictionary
280
0
281
1
  0
ACDBDICTIONARYWDFLT
  5
E
102
{ACAD_REACTORS
330
C
102
}
100
AcDbDictionary
281
1
  3
Normal
350
F
100
AcDbDictionaryWithDefault
340
F
  0
DICTIONARY
  5
17
102
{ACAD_REACTORS
330
C
102
}
100
AcDbDictionary
280
0
281
1
  3
Standard
350
18
  0
DICTIONARY
  5
19
102
{ACAD_REACTORS
330
C
102
}
100
AcDbDictionary
281
1
  0
DICTIONARY
  5
1A
102
{ACAD_REACTORS
330
C
102
}
100
AcDbDictionary
281
1
  3
Model
350
2E3
  3
Layout1
350
2E4
  0
ACDBPLACEHOLDER
  5
F
102
{ACAD_REACTORS
330
E
102
}
  0
MLINESTYLE
  5
18
102
{ACAD_REACTORS
330
17
102
}
100
AcDbMlineStyle
  2
STANDARD
 70
0
  3

 62
256
 51
90.0
 52
90.0
 71
2
 49
0.5
 62
256
  6
BYLAYER
 49
-0.5
 62
256
  6
BYLAYER
  0
LAYOUT
  5
2E3
102
{ACAD_REACTORS
330
1A
102
}
100
AcDbPlotSettings
  1

  2
none_device
  4

  6

 40
0.0
 41
0.0
 42
0.0
 43
0.0
 44
210.0
 45
297.0
 46
0.0
 47
0.0
 48
0.0
 49
0.0
140
0.0
141
0.0
142
1.0
143
1.0
 70
1024
 72
1
 73
0
 74
0
  7

 75
0
147
1.0
148
0.0
149
0.0
100
AcDbLayout
  1
Model
 70
0
 71
0
 10
0.0
 20
0.0
 11
210.0
 21
297.0
 12
0.0
 22
0.0
 32
0.0
 14
0.0
 24
0.0
 34
0.0
 15
0.0
 25
0.0
 35
0.0
146
0.0
 13
0.0
 23
0.0
 33
0.0
 16
1.0
 26
0.0
 36
0.0
 17
0.0
 27
1.0
 37
0.0
 76
0
330
210
345
0
346
0
  0
LAYOUT
  5
2E4
102
{ACAD_REACTORS
330
1A
102
}
100
AcDbPlotSettings
  1

  2
none_device
  4

  6

 40
0.0
 41
0.0
 42
0.0
 43
0.0
 44
210.0
 45
297.0
 46
0.0
 47
0.0
 48
0.0
 49
0.0
140
0.0
141
0.0
142
1.0
143
1.0
 70
0
 72
1
 73
0
 74
0
  7

 75
0
147
1.0
148
0.0
149
0.0
100
AcDbLayout
  1
Layout1
 70
0
 71
1
 10
0.0
 20
0.0
 11
210.0
 21
297.0
 12
0.0
 22
0.0
 32
0.0
 14
0.0
 24
0.0
 34
0.0
 15
0.0
 25
0.0
 35
0.0
146
0.0
 13
0.0
 23
0.0
 33
0.0
 16
1.0
 26
0.0
 36
0.0
 17
0.0
 27
1.0
 37
0.0
 76
0
330
211
345
0
346
0
  0
ENDSEC
  0
EOF
