999
DXF file: C:\Users\sesa63760\Dev\_Creo\CAD\MCADID0000488_3D-CAD\drw0001_5.dxf
999
Pro/ENGINEER 2019471 by Parametric Technology Corporation
  0
SECTION
  2
HEADER
  9
$ACADVER
  1
AC1024
  9
$DWGCODEPAGE
  3
ANSI_1252
  9
$EXTMAX
 10
194.102762317
 20
274.5167638484
 30
0.0
  9
$EXTMIN
 10
0.0
 20
0.0
 30
0.0
  9
$LIMMIN
 10
0.0
 20
0.0
  9
$LIMMAX
 10
194.102762317
 20
274.5167638484
  9
$VIEWCTR
 10
97.0513811585
 20
137.2583819242
  9
$VIEWSIZE
 40
274.5167638484
  9
$CLAYER
  8
0
  9
$LTSCALE
 40
17.8944260879
  9
$CELTYPE
  6
BYLAYER
  9
$DIMSCALE
 40
1.0
  9
$DIMASZ
 40
2.3107471704
  9
$DIMEXO
 40
1.0
  9
$DIMDLI
 40
12.3634216607
  9
$DIMEXE
 40
1.0
  9
$DIMCEN
 40
2.9281788144
  9
$DIMLFAC
 40
1.0
  9
$DIMBLK
  1
_FILLED
  9
$DIMALT
 70
0
  9
$DIMALTF
 40
0.0393700787
  9
$DIMTXT
 40
3.2350460386
  9
$DIMTOL
 70
1
  9
$DIMLIM
 70
0
  9
$DIMTFAC
 40
1.0
  9
$DIMTP
 40
0.01
  9
$DIMTM
 40
0.01
  9
$DIMGAP
 40
0.625
  9
$DIMDSEP
 70
46
  9
$AUNITS
 70
0
  9
$PDMODE
 70
3
  9
$PDSIZE
 40
0.3125
  9
$HANDSEED
  5
332
  9
$TILEMODE
 70
1
  9
$MEASUREMENT
 70
1
  9
$INSUNITS
 70
4
  0
ENDSEC
  0
SECTION
  2
CLASSES
  0
CLASS
  1
ACDBDICTIONARYWDFLT
  2
AcDbDictionaryWithDefault
  3
AutoCAD 2000
 90
0
 91
1
280
0
281
0
  0
CLASS
  1
ACDBPLACEHOLDER
  2
AcDbPlaceHolder
  3
AutoCAD 2000
 90
0
 91
1
280
0
281
0
  0
CLASS
  1
LAYOUT
  2
AcDbLayout
  3
AutoCAD 2000
 90
0
 91
0
280
0
281
0
  0
ENDSEC
  0
SECTION
  2
TABLES
  0
TABLE
  2
VPORT
  5
8
100
AcDbSymbolTable
 70
2
  0
VPORT
  5
1F4
100
AcDbSymbolTableRecord
100
AcDbViewportTableRecord
  2
*ACTIVE
 70
0
 10
0.0
 20
0.0
 11
1.0
 21
1.0
 12
97.0513811585
 22
137.2583819242
 13
0.0
 23
0.0
 14
1.0
 24
1.0
 15
0.0
 25
0.0
 16
0.0
 26
0.0
 36
1.0
 17
0.0
 27
0.0
 37
0.0
 40
274.5167638484
 41
0.7070707071
 42
50.0
 43
0.0
 44
0.0
 50
0.0
 51
0.0
 71
0
 72
100
 73
1
 74
1
 75
0
 76
0
 77
0
 78
0
  0
ENDTAB
  0
TABLE
  2
LTYPE
  5
5
100
AcDbSymbolTable
 70
6
  0
LTYPE
  5
14
100
AcDbSymbolTableRecord
100
AcDbLinetypeTableRecord
  2
BYBLOCK
 70
0
  3

 72
65
 73
0
 40
0.0
  0
LTYPE
  5
15
100
AcDbSymbolTableRecord
100
AcDbLinetypeTableRecord
  2
BYLAYER
 70
0
  3

 72
65
 73
0
 40
0.0
  0
LTYPE
  5
16
100
AcDbSymbolTableRecord
100
AcDbLinetypeTableRecord
  2
CONTINUOUS
 70
64
  3
Solid line
 72
65
 73
0
 40
0.0
  0
LTYPE
  5
1F5
100
AcDbSymbolTableRecord
100
AcDbLinetypeTableRecord
  2
CENTER
 70
64
  3
____ _ ____ _ ____ _ ____ _ ____ _ ____ _ ____
 72
65
 73
4
 40
0.6
 49
0.375
 74
0
 49
-0.075
 74
0
 49
0.075
 74
0
 49
-0.075
 74
0
  0
LTYPE
  5
1F6
100
AcDbSymbolTableRecord
100
AcDbLinetypeTableRecord
  2
HIDDEN
 70
64
  3
- - - - - - - - - - - - - - - - - - - -
 72
65
 73
2
 40
0.2
 49
0.1
 74
0
 49
-0.1
 74
0
  0
LTYPE
  5
1F7
100
AcDbSymbolTableRecord
100
AcDbLinetypeTableRecord
  2
PHANTOM
 70
64
  3
_____ _ _ _____ _ _ _____ _ _ _____
 72
65
 73
6
 40
0.8
 49
0.45
 74
0
 49
-0.05
 74
0
 49
0.1
 74
0
 49
-0.05
 74
0
 49
0.1
 74
0
 49
-0.05
 74
0
  0
LTYPE
  5
1F8
100
AcDbSymbolTableRecord
100
AcDbLinetypeTableRecord
  2
DOT
 70
64
  3
. . . . . . . . . . . . . . . . . . . .
 72
65
 73
2
 40
0.2
 49
0.1
 74
0
 49
-0.1
 74
0
  0
LTYPE
  5
1F9
100
AcDbSymbolTableRecord
100
AcDbLinetypeTableRecord
  2
DASHED
 70
64
  3
- - - - - - - - - - - - - - - - - - - -
 72
65
 73
2
 40
0.2
 49
0.1
 74
0
 49
-0.1
 74
0
  0
ENDTAB
  0
TABLE
  2
LAYER
  5
2
100
AcDbSymbolTable
 70
36
  0
LAYER
  5
10
100
AcDbSymbolTableRecord
100
AcDbLayerTableRecord
  2
0
 70
0
 62
7
  6
CONTINUOUS
370
-3
390
F
  0
LAYER
  5
1FA
100
AcDbSymbolTableRecord
100
AcDbLayerTableRecord
  2
DEFAULT_1
 70
0
 62
7
  6
CENTER
370
-3
390
F
  0
LAYER
  5
1FB
100
AcDbSymbolTableRecord
100
AcDbLayerTableRecord
  2
DEFAULT_2
 70
0
 62
8
  6
HIDDEN
370
-3
390
F
  0
LAYER
  5
1FC
100
AcDbSymbolTableRecord
100
AcDbLayerTableRecord
  2
DEFAULT_3
 70
0
 62
7
  6
PHANTOM
370
-3
390
F
  0
LAYER
  5
1FD
100
AcDbSymbolTableRecord
100
AcDbLayerTableRecord
  2
00_COMPONENTS
 70
0
 62
7
  6
CONTINUOUS
370
-3
390
F
  0
LAYER
  5
1FE
100
AcDbSymbolTableRecord
100
AcDbLayerTableRecord
  2
01_1_DEFAULT_DATUMS
 70
0
 62
7
  6
CONTINUOUS
370
-3
390
F
  0
LAYER
  5
1FF
100
AcDbSymbolTableRecord
100
AcDbLayerTableRecord
  2
01_PLANES
 70
0
 62
7
  6
CONTINUOUS
370
-3
390
F
  0
LAYER
  5
200
100
AcDbSymbolTableRecord
100
AcDbLayerTableRecord
  2
02_COORD_SYS
 70
0
 62
7
  6
CONTINUOUS
370
-3
390
F
  0
LAYER
  5
201
100
AcDbSymbolTableRecord
100
AcDbLayerTableRecord
  2
03_AXES
 70
0
 62
7
  6
CONTINUOUS
370
-3
390
F
  0
LAYER
  5
202
100
AcDbSymbolTableRecord
100
AcDbLayerTableRecord
  2
04_POINTS
 70
0
 62
7
  6
CONTINUOUS
370
-3
390
F
  0
LAYER
  5
203
100
AcDbSymbolTableRecord
100
AcDbLayerTableRecord
  2
05_CURVES
 70
0
 62
7
  6
CONTINUOUS
370
-3
390
F
  0
LAYER
  5
204
100
AcDbSymbolTableRecord
100
AcDbLayerTableRecord
  2
06_SURFS
 70
0
 62
7
  6
CONTINUOUS
370
-3
390
F
  0
LAYER
  5
205
100
AcDbSymbolTableRecord
100
AcDbLayerTableRecord
  2
07_COSMETICS
 70
0
 62
7
  6
CONTINUOUS
370
-3
390
F
  0
LAYER
  5
206
100
AcDbSymbolTableRecord
100
AcDbLayerTableRecord
  2
10_NOTES
 70
0
 62
7
  6
CONTINUOUS
370
-3
390
F
  0
LAYER
  5
207
100
AcDbSymbolTableRecord
100
AcDbLayerTableRecord
  2
11_NOTES_PUB
 70
0
 62
7
  6
CONTINUOUS
370
-3
390
F
  0
LAYER
  5
208
100
AcDbSymbolTableRecord
100
AcDbLayerTableRecord
  2
13_REF_GTOL
 70
0
 62
7
  6
CONTINUOUS
370
-3
390
F
  0
LAYER
  5
209
100
AcDbSymbolTableRecord
100
AcDbLayerTableRecord
  2
16_MISC
 70
0
 62
7
  6
CONTINUOUS
370
-3
390
F
  0
LAYER
  5
20A
100
AcDbSymbolTableRecord
100
AcDbLayerTableRecord
  2
17_NO_PRINT
 70
0
 62
7
  6
CONTINUOUS
370
-3
390
F
  0
LAYER
  5
20B
100
AcDbSymbolTableRecord
100
AcDbLayerTableRecord
  2
18_DATUM_CAMS_JOINTS
 70
0
 62
7
  6
CONTINUOUS
370
-3
390
F
  0
LAYER
  5
20C
100
AcDbSymbolTableRecord
100
AcDbLayerTableRecord
  2
19_DATUM_FUNCTIONAL
 70
0
 62
7
  6
CONTINUOUS
370
-3
390
F
  0
LAYER
  5
20D
100
AcDbSymbolTableRecord
100
AcDbLayerTableRecord
  2
20_DATUM_KINEMATIC_SCHEME
 70
0
 62
7
  6
CONTINUOUS
370
-3
390
F
  0
ENDTAB
  0
TABLE
  2
STYLE
  5
3
100
AcDbSymbolTable
 70
1
  0
STYLE
  5
11
100
AcDbSymbolTableRecord
100
AcDbTextStyleTableRecord
  2
STANDARD
 70
0
 40
0.0
 41
0.8
 50
0.0
 71
0
 42
0.2
  3
txt
  4

  0
STYLE
  5
20E
100
AcDbSymbolTableRecord
100
AcDbTextStyleTableRecord
  2
TEXTSTYLE_1
 70
0
 40
0.0
 41
0.8
 50
0.0
 71
0
 42
0.2
  3
gdt
  4

  0
ENDTAB
  0
TABLE
  2
VIEW
  5
6
100
AcDbSymbolTable
 70
0
  0
ENDTAB
  0
TABLE
  2
UCS
  5
7
100
AcDbSymbolTable
 70
0
  0
ENDTAB
  0
TABLE
  2
APPID
  5
9
100
AcDbSymbolTable
 70
1
  0
APPID
  5
20F
100
AcDbSymbolTableRecord
100
AcDbRegAppTableRecord
  2
ACAD
 70
0
  0
ENDTAB
  0
TABLE
  2
BLOCK_RECORD
  5
1
100
AcDbSymbolTable
 70
0
  0
BLOCK_RECORD
  5
210
100
AcDbSymbolTableRecord
100
AcDbBlockTableRecord
  2
*Model_Space
  0
BLOCK_RECORD
  5
211
100
AcDbSymbolTableRecord
100
AcDbBlockTableRecord
  2
*Paper_Space
  0
BLOCK_RECORD
  5
212
100
AcDbSymbolTableRecord
100
AcDbBlockTableRecord
  2
_FILLED
  0
ENDTAB
  0
TABLE
  2
DIMSTYLE
  5
A
100
AcDbSymbolTable
 70
1
100
AcDbDimStyleTable
 71
0
  0
DIMSTYLE
105
213
100
AcDbSymbolTableRecord
100
AcDbDimStyleTableRecord
  2
STANDARD
 70
0
  3

  4

 40
1.0
 41
2.3107471704
 42
1.0
 43
0.38
 44
1.0
 45
0.0
 46
0.0
 47
0.01
 48
0.01
140
3.2350460386
141
0.09
142
0.0
143
25.4
144
1.0
145
0.0
146
1.0
147
0.625
 71
1
 72
0
 73
0
 74
0
 75
0
 76
0
 77
1
 78
8
 79
2
170
0
171
1
172
0
173
0
174
0
175
0
176
0
177
0
178
0
270
2
179
2
271
2
272
2
273
2
274
2
275
0
280
0
281
0
282
0
283
1
284
8
285
0
286
0
287
3
288
0
340
11
278
46
341
212
342
212
343
212
344
212
  0
ENDTAB
  0
ENDSEC
  0
SECTION
  2
BLOCKS
  0
BLOCK
  5
20
100
AcDbEntity
  8
0
100
AcDbBlockBegin
  2
*Model_Space
 70
0
 10
0.0
 20
0.0
 30
0.0
  3
*Model_Space
  1

  0
ENDBLK
  5
21
100
AcDbEntity
  8
0
100
AcDbBlockEnd
  0
BLOCK
  5
1C
100
AcDbEntity
  8
0
100
AcDbBlockBegin
  2
*Paper_Space
 70
0
 10
0.0
 20
0.0
 30
0.0
  3
*Paper_Space
  1

  0
ENDBLK
  5
1D
100
AcDbEntity
  8
0
100
AcDbBlockEnd
  0
BLOCK
  5
214
100
AcDbEntity
  8
0
100
AcDbBlockBegin
  2
_FILLED
 70
64
 10
0.0
 20
0.0
  3
_FILLED
  1

  0
SOLID
  5
215
100
AcDbEntity
  8
0
  6
BYBLOCK
 62
0
100
AcDbTrace
 10
0.0
 20
0.0
 11
-1.0
 21
0.25
 12
-1.0
 22
-0.25
 13
-1.0
 23
-0.25
  0
ENDBLK
  5
216
100
AcDbEntity
  8
0
  6
BYBLOCK
 62
0
100
AcDbBlockEnd
  0
ENDSEC
  0
SECTION
  2
ENTITIES
  0
LINE
  5
217
100
AcDbEntity
  8
0
100
AcDbLine
 62
7
  6
CONTINUOUS
 10
126.2494278058
 20
22.3443877551
 11
132.9494278058
 21
22.9305618007
  0
LINE
  5
218
100
AcDbEntity
  8
0
100
AcDbLine
 62
7
  6
CONTINUOUS
 10
132.9494278058
 20
25.6190391291
 11
133.0494278058
 21
25.6190391291
  0
LINE
  5
219
100
AcDbEntity
  8
0
100
AcDbLine
 62
7
  6
CONTINUOUS
 10
96.9494278108
 20
31.5694462764
 11
97.9319753993
 21
31.5696011444
  0
LINE
  5
21A
100
AcDbEntity
  8
0
100
AcDbLine
 62
7
  6
CONTINUOUS
 10
96.8494278058
 20
29.6443877551
 11
101.9494278056
 21
29.6443877551
  0
LINE
  5
21B
100
AcDbEntity
  8
0
100
AcDbLine
 62
7
  6
CONTINUOUS
 10
132.9494278058
 20
29.8443877551
 11
126.2494278058
 21
29.8443877551
  0
LINE
  5
21C
100
AcDbEntity
  8
0
100
AcDbLine
 62
7
  6
CONTINUOUS
 10
133.9494278058
 20
30.5443877551
 11
132.9494278058
 21
30.5443877551
  0
LINE
  5
21D
100
AcDbEntity
  8
0
100
AcDbLine
 62
7
  6
CONTINUOUS
 10
99.9668810108
 20
31.4985234084
 11
100.9494278058
 21
31.4985407016
  0
LINE
  5
21E
100
AcDbEntity
  8
0
100
AcDbLine
 62
7
  6
CONTINUOUS
 10
98.5494278057
 20
31.7443877551
 11
100.9494278058
 21
31.7443877551
  0
LINE
  5
21F
100
AcDbEntity
  8
0
100
AcDbLine
 62
7
  6
CONTINUOUS
 10
92.9082270575
 20
30.7447446251
 11
92.9126233169
 21
30.7447350633
  0
LINE
  5
220
100
AcDbEntity
  8
0
100
AcDbLine
 62
7
  6
CONTINUOUS
 10
102.9494278058
 20
33.8922556497
 11
102.4494276793
 21
33.9009858691
  0
LINE
  5
221
100
AcDbEntity
  8
0
100
AcDbLine
 62
7
  6
CONTINUOUS
 10
126.2494278058
 20
29.4943877551
 11
102.9494278058
 21
30.0943877551
  0
LINE
  5
222
100
AcDbEntity
  8
0
100
AcDbLine
 62
7
  6
CONTINUOUS
 10
102.9494278058
 20
33.5932278758
 11
126.2494278058
 21
32.9932278758
  0
LINE
  5
223
100
AcDbEntity
  8
0
100
AcDbLine
 62
7
  6
CONTINUOUS
 10
102.2708663041
 20
29.1180836449
 11
102.9494278058
 21
29.0943877551
  0
LINE
  5
224
100
AcDbEntity
  8
0
100
AcDbLine
 62
7
  6
CONTINUOUS
 10
96.8494278058
 20
30.607404449
 11
92.9131574616
 21
30.7448620383
  0
LINE
  5
225
100
AcDbEntity
  8
0
100
AcDbLine
 62
7
  6
CONTINUOUS
 10
97.914466057
 20
30.5702124937
 11
102.9494278058
 21
30.3943877551
  0
LINE
  5
226
100
AcDbEntity
  8
0
100
AcDbLine
 62
7
  6
CONTINUOUS
 10
93.4492006873
 20
31.7092007441
 11
96.8494278058
 21
31.5904953383
  0
LINE
  5
227
100
AcDbEntity
  8
0
100
AcDbLine
 62
7
  6
CONTINUOUS
 10
97.9319753993
 20
31.5696011469
 11
99.9668810108
 21
31.498522497
  0
LINE
  5
228
100
AcDbEntity
  8
0
100
AcDbLine
 62
7
  6
CONTINUOUS
 10
102.4494276793
 20
33.9009858691
 11
100.9494288711
 21
33.9620971453
  0
LWPOLYLINE
  5
229
100
AcDbEntity
  8
0
100
AcDbPolyline
 62
7
  6
CONTINUOUS
 90
7
 70
0
 10
92.7087998838
 20
30.7538792116
 10
92.7422860312
 20
30.7510152358
 10
92.7753161383
 20
30.7487491139
 10
92.8089189968
 20
30.7469871384
 10
92.8493816485
 20
30.7455593035
 10
92.8909926953
 20
30.7448399993
 10
92.9018217853
 20
30.7447681639
  0
LINE
  5
22A
100
AcDbEntity
  8
0
100
AcDbLine
 62
7
  6
CONTINUOUS
 10
92.6752628062
 20
30.7573488639
 11
92.7087998838
 21
30.7538792116
  0
LINE
  5
22B
100
AcDbEntity
  8
0
100
AcDbLine
 62
7
  6
CONTINUOUS
 10
133.0494278058
 20
24.6920115602
 11
133.7336844916
 21
24.5443877551
  0
LINE
  5
22C
100
AcDbEntity
  8
0
100
AcDbLine
 62
7
  6
CONTINUOUS
 10
97.4034046086
 20
30.6912694104
 11
97.9064477848
 21
30.570364943
  0
LINE
  5
22D
100
AcDbEntity
  8
0
100
AcDbLine
 62
7
  6
CONTINUOUS
 10
92.5344866928
 20
244.368958314
 11
92.3480445672
 21
244.2778215431
  0
LINE
  5
22E
100
AcDbEntity
  8
0
100
AcDbLine
 62
7
  6
CONTINUOUS
 10
92.4923402885
 20
244.3527768924
 11
92.4095971402
 21
244.3139422719
  0
LWPOLYLINE
  5
22F
100
AcDbEntity
  8
0
100
AcDbPolyline
 62
7
  6
CONTINUOUS
 90
4
 70
0
 10
92.4774786148
 20
244.3459366753
 10
92.4801270028
 20
244.3470827795
 10
92.2657230334
 20
244.2165446176
 10
92.1571661071
 20
244.1048550113
  0
LINE
  5
230
100
AcDbEntity
  8
0
100
AcDbLine
 62
7
  6
CONTINUOUS
 10
96.9494278108
 20
34.8443877551
 11
98.5494278057
 21
34.8443877588
  0
LINE
  5
231
100
AcDbEntity
  8
0
100
AcDbLine
 62
7
  6
CONTINUOUS
 10
96.8494278058
 20
35.6443877551
 11
96.9494278058
 21
35.6443877551
  0
LINE
  5
232
100
AcDbEntity
  8
0
100
AcDbLine
 62
7
  6
CONTINUOUS
 10
98.5494278057
 20
37.3443877551
 11
100.9494278058
 21
37.3443877551
  0
LINE
  5
233
100
AcDbEntity
  8
0
100
AcDbLine
 62
7
  6
CONTINUOUS
 10
97.9145283091
 20
39.9318154078
 11
96.9494278058
 21
39.9318154078
  0
LINE
  5
234
100
AcDbEntity
  8
0
100
AcDbLine
 62
7
  6
CONTINUOUS
 10
99.9668811292
 20
38.896448301
 11
97.9319758746
 21
38.9319677043
  0
LINE
  5
235
100
AcDbEntity
  8
0
100
AcDbLine
 62
7
  6
CONTINUOUS
 10
99.9843293687
 20
39.89563941
 11
97.9145283091
 21
39.9318154078
  0
LINE
  5
236
100
AcDbEntity
  8
0
100
AcDbLine
 62
7
  6
CONTINUOUS
 10
92.3087724608
 20
244.2511168732
 11
92.2445335438
 21
244.1990591284
  0
LINE
  5
237
100
AcDbEntity
  8
0
100
AcDbLine
 62
7
  6
CONTINUOUS
 10
92.4095971402
 20
244.3139422719
 11
92.3087724608
 21
244.2511168732
  0
LINE
  5
238
100
AcDbEntity
  8
0
100
AcDbLine
 62
7
  6
CONTINUOUS
 10
65.9494278058
 20
222.3943877551
 11
91.4287530266
 21
236.3100192219
  0
LINE
  5
239
100
AcDbEntity
  8
0
100
AcDbLine
 62
7
  6
CONTINUOUS
 10
104.4317897155
 20
41.9915854317
 11
116.467065896
 21
45.2164279649
  0
LINE
  5
23A
100
AcDbEntity
  8
0
100
AcDbLine
 62
7
  6
CONTINUOUS
 10
91.428753106
 20
35.178756245
 11
65.9494278058
 21
49.0943877551
  0
LINE
  5
23B
100
AcDbEntity
  8
0
100
AcDbLine
 62
7
  6
CONTINUOUS
 10
65.9494278058
 20
54.6485836936
 11
91.0017434627
 21
40.9662396138
  0
LINE
  5
23C
100
AcDbEntity
  8
0
100
AcDbLine
 62
7
  6
CONTINUOUS
 10
92.5220803315
 20
30.8401173666
 11
92.331224917
 21
30.9582446131
  0
LINE
  5
23D
100
AcDbEntity
  8
0
100
AcDbLine
 62
7
  6
CONTINUOUS
 10
92.3480445672
 20
244.2778215431
 11
92.1802336978
 21
244.1335521858
  0
LINE
  5
23E
100
AcDbEntity
  8
0
100
AcDbLine
 62
7
  6
CONTINUOUS
 10
106.9494278058
 20
248.8943877551
 11
101.9494278058
 21
245.0610544218
  0
LINE
  5
23F
100
AcDbEntity
  8
0
100
AcDbLine
 62
7
  6
CONTINUOUS
 10
91.001721874
 20
230.5225071698
 11
65.9494278058
 21
216.8401954433
  0
LWPOLYLINE
  5
240
100
AcDbEntity
  8
0
100
AcDbPolyline
 62
7
  6
CONTINUOUS
 90
3
 70
0
 10
92.2445335438
 20
244.1990591284
 10
92.1293134316
 20
244.0687390738
 10
92.0666758114
 20
243.9636955917
  0
LINE
  5
241
100
AcDbEntity
  8
0
100
AcDbLine
 62
7
  6
CONTINUOUS
 10
97.0520117136
 20
31.0696511858
 11
97.4034046086
 21
30.6912694104
  0
LINE
  5
242
100
AcDbEntity
  8
0
100
AcDbLine
 62
7
  6
CONTINUOUS
 10
92.1802336978
 20
244.1335521858
 11
92.0650972702
 21
243.9602703701
  0
LWPOLYLINE
  5
243
100
AcDbEntity
  8
0
100
AcDbPolyline
 62
7
  6
CONTINUOUS
 90
4
 70
0
 10
97.3705085257
 20
244.4798300449
 10
97.0254538825
 20
244.0559151978
 10
96.963826638
 20
243.8004829441
 10
96.9519628396
 20
243.6833518507
  0
LINE
  5
244
100
AcDbEntity
  8
0
100
AcDbLine
 62
7
  6
CONTINUOUS
 10
91.9494278087
 20
67.9943877551
 11
96.9494278058
 21
67.9943877564
  0
LINE
  5
245
100
AcDbEntity
  8
0
100
AcDbLine
 62
7
  6
CONTINUOUS
 10
92.4494424564
 20
68.4943877551
 11
96.9494278058
 21
68.4943877551
  0
LINE
  5
246
100
AcDbEntity
  8
0
100
AcDbLine
 62
7
  6
CONTINUOUS
 10
96.9494278058
 20
69.4943877551
 11
91.9494278066
 21
69.4943877551
  0
LINE
  5
247
100
AcDbEntity
  8
0
100
AcDbLine
 62
7
  6
CONTINUOUS
 10
91.0017699937
 20
74.3300909905
 11
91.9494278058
 21
74.3300879678
  0
LINE
  5
248
100
AcDbEntity
  8
0
100
AcDbLine
 62
7
  6
CONTINUOUS
 10
91.9635015647
 20
67.2044057139
 11
65.9494278058
 21
70.3985419285
  0
LINE
  5
249
100
AcDbEntity
  8
0
100
AcDbLine
 62
7
  6
CONTINUOUS
 10
91.9494278058
 20
69.2083105596
 11
65.9494278058
 21
72.4007091431
  0
LINE
  5
24A
100
AcDbEntity
  8
0
100
AcDbLine
 62
7
  6
CONTINUOUS
 10
67.9494282529
 20
77.1605625635
 11
91.0017703568
 21
74.3300909905
  0
LINE
  5
24B
100
AcDbEntity
  8
0
100
AcDbLine
 62
7
  6
CONTINUOUS
 10
92.1571661071
 20
244.1048550113
 11
92.0299933189
 21
243.8792669574
  0
LINE
  5
24C
100
AcDbEntity
  8
0
100
AcDbLine
 62
7
  6
CONTINUOUS
 10
87.4494278058
 20
76.4943877551
 11
90.4032721886
 21
76.4943877551
  0
LINE
  5
24D
100
AcDbEntity
  8
0
100
AcDbLine
 62
7
  6
CONTINUOUS
 10
65.4494278058
 20
77.0443877551
 11
66.8947258696
 21
77.0444384014
  0
LINE
  5
24E
100
AcDbEntity
  8
0
100
AcDbLine
 62
7
  6
CONTINUOUS
 10
65.4494278058
 20
78.1443877551
 11
65.9494278058
 21
78.1443877551
  0
LINE
  5
24F
100
AcDbEntity
  8
0
100
AcDbLine
 62
7
  6
CONTINUOUS
 10
96.9494278058
 20
82.5452450486
 11
95.9494278058
 21
82.5801658181
  0
LINE
  5
250
100
AcDbEntity
  8
0
100
AcDbLine
 62
7
  6
CONTINUOUS
 10
87.4494278058
 20
78.1997906047
 11
96.9494278058
 21
72.7149630474
  0
LWPOLYLINE
  5
251
100
AcDbEntity
  8
0
100
AcDbPolyline
 62
7
  6
CONTINUOUS
 90
17
 70
0
 10
91.9737256532
 20
31.1642526537
 10
92.02821486
 20
31.0669723217
 10
92.0933743381
 20
30.9896756872
 10
92.1612807336
 20
30.9317183129
 10
92.2242246456
 20
30.8906016917
 10
92.2767552919
 20
30.8628340967
 10
92.3213657149
 20
30.8428788202
 10
92.361397027
 20
30.8273176828
 10
92.3987797764
 20
30.8145132211
 10
92.4345919961
 20
30.803627026
 10
92.4695900173
 20
30.7941584662
 10
92.5042310063
 20
30.7858226689
 10
92.5387559844
 20
30.7784583486
 10
92.5732304492
 20
30.771976896
 10
92.6075429507
 20
30.7663315663
 10
92.6415527098
 20
30.7614769296
 10
92.6752628062
 20
30.7573488639
  0
LINE
  5
252
100
AcDbEntity
  8
0
100
AcDbLine
 62
7
  6
CONTINUOUS
 10
92.0666758114
 20
243.9636955917
 11
92.02392308
 21
243.8645382762
  0
LINE
  5
253
100
AcDbEntity
  8
0
100
AcDbLine
 62
7
  6
CONTINUOUS
 10
86.9494278058
 20
83.0443877551
 11
87.4494278058
 21
83.0443877551
  0
LINE
  5
254
100
AcDbEntity
  8
0
100
AcDbLine
 62
7
  6
CONTINUOUS
 10
87.4494278058
 20
84.1443877551
 11
86.9494278058
 21
84.1443877551
  0
LINE
  5
255
100
AcDbEntity
  8
0
100
AcDbLine
 62
7
  6
CONTINUOUS
 10
95.9494278058
 20
86.2943877551
 11
88.4494278058
 21
86.2943877551
  0
LINE
  5
256
100
AcDbEntity
  8
0
100
AcDbLine
 62
7
  6
CONTINUOUS
 10
89.4494278058
 20
87.2943877551
 11
94.9494278058
 21
87.2943877551
  0
LWPOLYLINE
  5
257
100
AcDbEntity
  8
0
100
AcDbPolyline
 62
7
  6
CONTINUOUS
 90
3
 70
0
 10
91.9508411023
 20
31.6937896356
 10
92.2384289986
 20
31.040610048
 10
92.3312129994
 20
30.9582779815
  0
LWPOLYLINE
  5
258
100
AcDbEntity
  8
0
100
AcDbPolyline
 62
7
  6
CONTINUOUS
 90
4
 70
0
 10
92.02392308
 20
243.8645382762
 10
91.9943898503
 20
243.7704254144
 10
91.9754603846
 20
243.6873109607
 10
91.9620863729
 20
243.6039657832
  0
LWPOLYLINE
  5
259
100
AcDbEntity
  8
0
100
AcDbPolyline
 62
7
  6
CONTINUOUS
 90
4
 70
0
 10
92.0650972702
 20
243.9602703701
 10
92.0030101856
 20
243.8007877766
 10
91.9725671867
 20
243.6713018525
 10
91.9560280169
 20
243.549446594
  0
LINE
  5
25A
100
AcDbEntity
  8
0
100
AcDbLine
 62
7
  6
CONTINUOUS
 10
96.9494278058
 20
95.1801741927
 11
97.9145283091
 21
95.1801741927
  0
LINE
  5
25B
100
AcDbEntity
  8
0
100
AcDbLine
 62
7
  6
CONTINUOUS
 10
91.9494278058
 20
97.3801743045
 11
92.4494278058
 21
97.3801743045
  0
LINE
  5
25C
100
AcDbEntity
  8
0
100
AcDbLine
 62
7
  6
CONTINUOUS
 10
97.1494278058
 20
98.0943877551
 11
97.8494278058
 21
98.0943877551
  0
LINE
  5
25D
100
AcDbEntity
  8
0
100
AcDbLine
 62
7
  6
CONTINUOUS
 10
65.4494278058
 20
206.1443877551
 11
65.4494278058
 21
205.0443877551
  0
LINE
  5
25E
100
AcDbEntity
  8
0
100
AcDbLine
 62
7
  6
CONTINUOUS
 10
65.4494278058
 20
78.1443877551
 11
65.4494278058
 21
77.0443877551
  0
LINE
  5
25F
100
AcDbEntity
  8
0
100
AcDbLine
 62
7
  6
CONTINUOUS
 10
65.8494278058
 20
203.7943877551
 11
65.8494278058
 21
205.0443877551
  0
LINE
  5
260
100
AcDbEntity
  8
0
100
AcDbLine
 62
7
  6
CONTINUOUS
 10
65.8494278058
 20
206.1443877551
 11
65.8494278058
 21
217.7943877551
  0
LINE
  5
261
100
AcDbEntity
  8
0
100
AcDbLine
 62
7
  6
CONTINUOUS
 10
65.9494278058
 20
49.0943877551
 11
65.9494278058
 21
77.0443877551
  0
LINE
  5
262
100
AcDbEntity
  8
0
100
AcDbLine
 62
7
  6
CONTINUOUS
 10
65.9494278058
 20
78.1443877551
 11
65.9494278058
 21
205.0443877551
  0
LINE
  5
263
100
AcDbEntity
  8
0
100
AcDbLine
 62
7
  6
CONTINUOUS
 10
65.9494278058
 20
206.1443877551
 11
65.9494278058
 21
222.3943877551
  0
LINE
  5
264
100
AcDbEntity
  8
0
100
AcDbLine
 62
7
  6
CONTINUOUS
 10
100.9494278058
 20
100.0085951032
 11
101.9145283091
 21
100.0085951032
  0
LINE
  5
265
100
AcDbEntity
  8
0
100
AcDbLine
 62
7
  6
CONTINUOUS
 10
97.1494278058
 20
101.0943877551
 11
97.8494278058
 21
101.0943877551
  0
LINE
  5
266
100
AcDbEntity
  8
0
100
AcDbLine
 62
7
  6
CONTINUOUS
 10
99.9494278058
 20
101.0943877551
 11
100.9494278058
 21
101.0943877551
  0
LINE
  5
267
100
AcDbEntity
  8
0
100
AcDbLine
 62
7
  6
CONTINUOUS
 10
94.9494278058
 20
87.2943877551
 11
95.9494278058
 21
86.2943877551
  0
LINE
  5
268
100
AcDbEntity
  8
0
100
AcDbLine
 62
7
  6
CONTINUOUS
 10
92.5958744439
 20
97.733727571
 11
92.2423210327
 21
98.0872809821
  0
LINE
  5
269
100
AcDbEntity
  8
0
100
AcDbLine
 62
7
  6
CONTINUOUS
 10
92.0257740323
 20
243.8277985247
 11
91.9494278628
 21
243.4449083975
  0
LINE
  5
26A
100
AcDbEntity
  8
0
100
AcDbLine
 62
7
  6
CONTINUOUS
 10
96.9522821753
 20
31.5009932567
 11
97.0520117136
 21
31.0696511858
  0
LWPOLYLINE
  5
26B
100
AcDbEntity
  8
0
100
AcDbPolyline
 62
7
  6
CONTINUOUS
 90
3
 70
0
 10
91.9189516839
 20
31.3959414029
 10
91.9364572707
 20
31.2777370612
 10
91.9737256532
 20
31.1642526537
  0
LINE
  5
26C
100
AcDbEntity
  8
0
100
AcDbLine
 62
7
  6
CONTINUOUS
 10
116.467065896
 20
111.9682459301
 11
106.4317897155
 21
114.6571900785
  0
LINE
  5
26D
100
AcDbEntity
  8
0
100
AcDbLine
 62
7
  6
CONTINUOUS
 10
91.9508357253
 20
31.6937960844
 11
91.9492310381
 21
31.7441282576
  0
LINE
  5
26E
100
AcDbEntity
  8
0
100
AcDbLine
 62
7
  6
CONTINUOUS
 10
86.9494278058
 20
84.1443877551
 11
86.9494278058
 21
83.0443877551
  0
LINE
  5
26F
100
AcDbEntity
  8
0
100
AcDbLine
 62
7
  6
CONTINUOUS
 10
87.4494278058
 20
85.2943877551
 11
87.4494278058
 21
76.4943877551
  0
LINE
  5
270
100
AcDbEntity
  8
0
100
AcDbLine
 62
7
  6
CONTINUOUS
 10
91.0017702143
 20
76.1488447588
 11
91.0017703568
 21
74.3300909905
  0
LINE
  5
271
100
AcDbEntity
  8
0
100
AcDbLine
 62
7
  6
CONTINUOUS
 10
91.9494278058
 20
97.3801742263
 11
91.9494278058
 21
87.2943877551
  0
LINE
  5
272
100
AcDbEntity
  8
0
100
AcDbLine
 62
7
  6
CONTINUOUS
 10
91.9494278058
 20
31.7441290665
 11
91.9494278058
 21
75.6017143933
  0
LINE
  5
273
100
AcDbEntity
  8
0
100
AcDbLine
 62
7
  6
CONTINUOUS
 10
91.9494278058
 20
235.4531913108
 11
91.9494278058
 21
243.4449085151
  0
LINE
  5
274
100
AcDbEntity
  8
0
100
AcDbLine
 62
7
  6
CONTINUOUS
 10
92.4494278058
 20
68.4943877551
 11
92.4494278058
 21
75.3130392587
  0
LINE
  5
275
100
AcDbEntity
  8
0
100
AcDbLine
 62
7
  6
CONTINUOUS
 10
92.4494278058
 20
87.2943877551
 11
92.4494278058
 21
97.3801743045
  0
LINE
  5
276
100
AcDbEntity
  8
0
100
AcDbLine
 62
7
  6
CONTINUOUS
 10
107.5213349606
 20
245.2121192698
 11
107.9494278058
 21
248.2943877551
  0
LINE
  5
277
100
AcDbEntity
  8
0
100
AcDbLine
 62
7
  6
CONTINUOUS
 10
106.4317897155
 20
130.5315854317
 11
116.467065896
 21
133.2205295801
  0
LINE
  5
278
100
AcDbEntity
  8
0
100
AcDbLine
 62
7
  6
CONTINUOUS
 10
92.8970918564
 20
235.4532147351
 11
92.8970918564
 21
243.4445705162
  0
LINE
  5
279
100
AcDbEntity
  8
0
100
AcDbLine
 62
7
  6
CONTINUOUS
 10
95.9494278058
 20
82.5801658181
 11
95.9494278058
 21
86.2943877551
  0
LINE
  5
27A
100
AcDbEntity
  8
0
100
AcDbLine
 62
7
  6
CONTINUOUS
 10
96.0018019124
 20
243.5529893804
 11
96.001763762
 21
187.5086013147
  0
LINE
  5
27B
100
AcDbEntity
  8
0
100
AcDbLine
 62
7
  6
CONTINUOUS
 10
96.8494278058
 20
29.6455221675
 11
96.8494278058
 21
35.6432533427
  0
LINE
  5
27C
100
AcDbEntity
  8
0
100
AcDbLine
 62
7
  6
CONTINUOUS
 10
96.8494278058
 20
239.5455221675
 11
96.8494278058
 21
245.5432533427
  0
LINE
  5
27D
100
AcDbEntity
  8
0
100
AcDbLine
 62
7
  6
CONTINUOUS
 10
96.9494278058
 20
31.5694440761
 11
96.9494278058
 21
95.1801741927
  0
LINE
  5
27E
100
AcDbEntity
  8
0
100
AcDbLine
 62
7
  6
CONTINUOUS
 10
96.9494278058
 20
187.5086013368
 11
96.9494278058
 21
243.6193268485
  0
LINE
  5
27F
100
AcDbEntity
  8
0
100
AcDbLine
 62
7
  6
CONTINUOUS
 10
97.1494278058
 20
98.0944290116
 11
97.1494278058
 21
101.0943464986
  0
LINE
  5
280
100
AcDbEntity
  8
0
100
AcDbLine
 62
7
  6
CONTINUOUS
 10
97.8494278058
 20
96.4943877551
 11
97.8494278058
 21
186.4443877551
  0
LINE
  5
281
100
AcDbEntity
  8
0
100
AcDbLine
 62
7
  6
CONTINUOUS
 10
97.9145283091
 20
39.9318154078
 11
97.9145283091
 21
95.1801741927
  0
LINE
  5
282
100
AcDbEntity
  8
0
100
AcDbLine
 62
7
  6
CONTINUOUS
 10
97.9145283091
 20
187.7586013174
 11
97.9145283091
 21
235.2569601024
  0
LINE
  5
283
100
AcDbEntity
  8
0
100
AcDbLine
 62
7
  6
CONTINUOUS
 10
97.9319753993
 20
31.5696011469
 11
97.9319758746
 21
38.9319677043
  0
LINE
  5
284
100
AcDbEntity
  8
0
100
AcDbLine
 62
7
  6
CONTINUOUS
 10
97.931975637
 20
236.2568078017
 11
97.9319758746
 21
243.6191743716
  0
LINE
  5
285
100
AcDbEntity
  8
0
100
AcDbLine
 62
7
  6
CONTINUOUS
 10
98.5494278057
 20
31.74544654
 11
98.5494278057
 21
37.3433289702
  0
LINE
  5
286
100
AcDbEntity
  8
0
100
AcDbLine
 62
7
  6
CONTINUOUS
 10
98.5494278057
 20
237.84544654
 11
98.5494278057
 21
243.4433289702
  0
LINE
  5
287
100
AcDbEntity
  8
0
100
AcDbLine
 62
7
  6
CONTINUOUS
 10
99.9494278058
 20
98.5943877551
 11
99.9494278058
 21
101.0943464986
  0
LINE
  5
288
100
AcDbEntity
  8
0
100
AcDbLine
 62
7
  6
CONTINUOUS
 10
99.9668810119
 20
237.8443877551
 11
99.9668810119
 21
236.2923272071
  0
LINE
  5
289
100
AcDbEntity
  8
0
100
AcDbLine
 62
7
  6
CONTINUOUS
 10
99.9668810108
 20
38.8964483031
 11
99.9668810108
 21
37.3443877551
  0
LINE
  5
28A
100
AcDbEntity
  8
0
100
AcDbLine
 62
7
  6
CONTINUOUS
 10
99.9668810108
 20
31.7443877551
 11
99.9668810108
 21
31.498522497
  0
LINE
  5
28B
100
AcDbEntity
  8
0
100
AcDbLine
 62
7
  6
CONTINUOUS
 10
99.96688113
 20
243.6902617938
 11
99.96688113
 21
243.4443877551
  0
LINE
  5
28C
100
AcDbEntity
  8
0
100
AcDbLine
 62
7
  6
CONTINUOUS
 10
100.2994278058
 20
147.1193877551
 11
100.2994278058
 21
183.9943877551
  0
LINE
  5
28D
100
AcDbEntity
  8
0
100
AcDbLine
 62
7
  6
CONTINUOUS
 10
93.4509756631
 20
67.9943877551
 11
93.4492006873
 21
31.7092007441
  0
LINE
  5
28E
100
AcDbEntity
  8
0
100
AcDbLine
 62
7
  6
CONTINUOUS
 10
100.9494278058
 20
30.4642292941
 11
100.9494278058
 21
38.1845872143
  0
LINE
  5
28F
100
AcDbEntity
  8
0
100
AcDbLine
 62
7
  6
CONTINUOUS
 10
100.9494278058
 20
100.0085911344
 11
100.9494278058
 21
182.9301845735
  0
LINE
  5
290
100
AcDbEntity
  8
0
100
AcDbLine
 62
7
  6
CONTINUOUS
 10
100.9494278058
 20
237.0041826151
 11
100.9494278058
 21
244.7245462608
  0
LINE
  5
291
100
AcDbEntity
  8
0
100
AcDbLine
 62
7
  6
CONTINUOUS
 10
101.9145283091
 20
100.0086013148
 11
101.9145283091
 21
182.9301741881
  0
LINE
  5
292
100
AcDbEntity
  8
0
100
AcDbLine
 62
7
  6
CONTINUOUS
 10
101.9494278058
 20
245.5438994392
 11
101.9494278058
 21
244.7594669856
  0
LINE
  5
293
100
AcDbEntity
  8
0
100
AcDbLine
 62
7
  6
CONTINUOUS
 10
101.9494278058
 20
30.4293085248
 11
101.9494278058
 21
29.6448760783
  0
LINE
  5
294
100
AcDbEntity
  8
0
100
AcDbLine
 62
7
  6
CONTINUOUS
 10
102.9494278058
 20
29.0943877551
 11
102.9494278058
 21
40.0597337791
  0
LINE
  5
295
100
AcDbEntity
  8
0
100
AcDbLine
 62
7
  6
CONTINUOUS
 10
102.9494278058
 20
235.1290417311
 11
102.9494278058
 21
245.0943877551
  0
LINE
  5
296
100
AcDbEntity
  8
0
100
AcDbLine
 62
7
  6
CONTINUOUS
 10
104.9494278058
 20
116.5890417311
 11
104.9494278058
 21
128.5997337791
  0
LINE
  5
297
100
AcDbEntity
  8
0
100
AcDbLine
 62
7
  6
CONTINUOUS
 10
107.9494278058
 20
248.2943877551
 11
107.9494278058
 21
248.8943877551
  0
LINE
  5
298
100
AcDbEntity
  8
0
100
AcDbLine
 62
7
  6
CONTINUOUS
 10
91.9431089707
 20
31.6947799892
 11
91.9166115715
 21
31.4866918629
  0
LINE
  5
299
100
AcDbEntity
  8
0
100
AcDbLine
 62
7
  6
CONTINUOUS
 10
100.2994278058
 20
147.1193877551
 11
100.9494278058
 21
146.4693877551
  0
LINE
  5
29A
100
AcDbEntity
  8
0
100
AcDbLine
 62
7
  6
CONTINUOUS
 10
117.9494278058
 20
47.1482796175
 11
117.9494278058
 21
110.0363942775
  0
LINE
  5
29B
100
AcDbEntity
  8
0
100
AcDbLine
 62
7
  6
CONTINUOUS
 10
117.9494278058
 20
135.1523812327
 11
117.9494278058
 21
228.0404958927
  0
LINE
  5
29C
100
AcDbEntity
  8
0
100
AcDbLine
 62
7
  6
CONTINUOUS
 10
97.8494278058
 20
103.6943877551
 11
92.2423210246
 21
98.0872809739
  0
LINE
  5
29D
100
AcDbEntity
  8
0
100
AcDbLine
 62
7
  6
CONTINUOUS
 10
97.8494278058
 20
102.9872809434
 11
92.5958740834
 21
97.7337271694
  0
LINE
  5
29E
100
AcDbEntity
  8
0
100
AcDbLine
 62
7
  6
CONTINUOUS
 10
126.2494278058
 20
22.3443877551
 11
126.2494278058
 21
252.8443877551
  0
LINE
  5
29F
100
AcDbEntity
  8
0
100
AcDbLine
 62
7
  6
CONTINUOUS
 10
97.2423210246
 20
95.8872809739
 11
100.6565606125
 21
99.3015205618
  0
LINE
  5
2A0
100
AcDbEntity
  8
0
100
AcDbLine
 62
7
  6
CONTINUOUS
 10
87.4494278058
 20
85.2943877551
 11
89.4494278058
 21
87.2943877551
  0
LINE
  5
2A1
100
AcDbEntity
  8
0
100
AcDbLine
 62
7
  6
CONTINUOUS
 10
101.3287406497
 20
98.5943865333
 11
97.9145283091
 21
95.1801741927
  0
LINE
  5
2A2
100
AcDbEntity
  8
0
100
AcDbLine
 62
7
  6
CONTINUOUS
 10
97.8494278058
 20
184.8325101951
 11
96.5875529904
 21
186.0943850292
  0
LINE
  5
2A3
100
AcDbEntity
  8
0
100
AcDbLine
 62
7
  6
CONTINUOUS
 10
97.8494278058
 20
186.1943877551
 11
97.2423210244
 21
186.8014945365
  0
LINE
  5
2A4
100
AcDbEntity
  8
0
100
AcDbLine
 62
7
  6
CONTINUOUS
 10
132.9494278058
 20
22.9305618007
 11
132.9494278058
 21
252.2582137095
  0
LINE
  5
2A5
100
AcDbEntity
  8
0
100
AcDbLine
 62
7
  6
CONTINUOUS
 10
133.0494278058
 20
24.6920115602
 11
133.0494278058
 21
250.49676395
  0
LINE
  5
2A6
100
AcDbEntity
  8
0
100
AcDbLine
 62
7
  6
CONTINUOUS
 10
133.7336844916
 20
24.5443877551
 11
133.7336844916
 21
250.6443877551
  0
LINE
  5
2A7
100
AcDbEntity
  8
0
100
AcDbLine
 62
7
  6
CONTINUOUS
 10
133.9336844926
 20
249.7173601818
 11
133.9336844926
 21
25.4714153284
  0
LINE
  5
2A8
100
AcDbEntity
  8
0
100
AcDbLine
 62
7
  6
CONTINUOUS
 10
133.9494278058
 20
25.6190391291
 11
133.9494278058
 21
249.5697363811
  0
LINE
  5
2A9
100
AcDbEntity
  8
0
100
AcDbLine
 62
7
  6
CONTINUOUS
 10
134.0294278058
 20
222.7943877551
 11
134.0294278058
 21
239.2943877551
  0
LINE
  5
2AA
100
AcDbEntity
  8
0
100
AcDbLine
 62
7
  6
CONTINUOUS
 10
100.6565587313
 20
183.6372568295
 11
97.2423210246
 21
187.0514945363
  0
LINE
  5
2AB
100
AcDbEntity
  8
0
100
AcDbLine
 62
7
  6
CONTINUOUS
 10
97.9145283091
 20
187.7586013174
 11
101.328741283
 21
184.3443883339
  0
LINE
  5
2AC
100
AcDbEntity
  8
0
100
AcDbLine
 62
7
  6
CONTINUOUS
 10
100.9494278058
 20
182.9301793808
 11
101.9145283091
 21
182.9301793808
  0
LINE
  5
2AD
100
AcDbEntity
  8
0
100
AcDbLine
 62
7
  6
CONTINUOUS
 10
97.8494278058
 20
185.5971286856
 11
98.6966868753
 21
185.5971286856
  0
LINE
  5
2AE
100
AcDbEntity
  8
0
100
AcDbLine
 62
7
  6
CONTINUOUS
 10
133.7336844916
 20
24.5443877551
 11
133.9336844916
 21
25.471415324
  0
LINE
  5
2AF
100
AcDbEntity
  8
0
100
AcDbLine
 62
7
  6
CONTINUOUS
 10
96.9823157731
 20
187.5086013365
 11
96.0017828372
 21
187.5086001069
  0
LINE
  5
2B0
100
AcDbEntity
  8
0
100
AcDbLine
 62
7
  6
CONTINUOUS
 10
97.9145283091
 20
187.7586013174
 11
96.9494278058
 21
187.7586013174
  0
LINE
  5
2B1
100
AcDbEntity
  8
0
100
AcDbLine
 62
7
  6
CONTINUOUS
 10
133.9336844916
 20
249.7173601862
 11
133.7336844916
 21
250.6443877551
  0
LINE
  5
2B2
100
AcDbEntity
  8
0
100
AcDbLine
 62
7
  6
CONTINUOUS
 10
65.8494278058
 20
203.7943877551
 11
65.9494278058
 21
203.7943877551
  0
LINE
  5
2B3
100
AcDbEntity
  8
0
100
AcDbLine
 62
7
  6
CONTINUOUS
 10
65.9494278058
 20
204.7943877551
 11
65.8494278058
 21
204.7943877551
  0
LINE
  5
2B4
100
AcDbEntity
  8
0
100
AcDbLine
 62
7
  6
CONTINUOUS
 10
65.4494278058
 20
205.0443877551
 11
65.9494278058
 21
205.0443877551
  0
LINE
  5
2B5
100
AcDbEntity
  8
0
100
AcDbLine
 62
7
  6
CONTINUOUS
 10
65.4494278058
 20
206.1443877551
 11
65.9494278058
 21
206.1443877551
  0
LINE
  5
2B6
100
AcDbEntity
  8
0
100
AcDbLine
 62
7
  6
CONTINUOUS
 10
65.8494278058
 20
216.7943877551
 11
65.9494278058
 21
216.7943877551
  0
LINE
  5
2B7
100
AcDbEntity
  8
0
100
AcDbLine
 62
7
  6
CONTINUOUS
 10
65.9494278058
 20
217.7943877551
 11
65.8494278058
 21
217.7943877551
  0
LINE
  5
2B8
100
AcDbEntity
  8
0
100
AcDbLine
 62
7
  6
CONTINUOUS
 10
133.9494278058
 20
222.7943877551
 11
134.0294278058
 21
222.7943877551
  0
LINE
  5
2B9
100
AcDbEntity
  8
0
100
AcDbLine
 62
7
  6
CONTINUOUS
 10
134.0294278058
 20
224.7943877551
 11
133.9494278058
 21
224.7943877551
  0
LINE
  5
2BA
100
AcDbEntity
  8
0
100
AcDbLine
 62
7
  6
CONTINUOUS
 10
116.467065896
 20
229.9723475453
 11
104.4317897155
 21
233.1971900785
  0
LINE
  5
2BB
100
AcDbEntity
  8
0
100
AcDbLine
 62
7
  6
CONTINUOUS
 10
97.9062444153
 20
244.6184111044
 11
97.3705085257
 21
244.4798300449
  0
LINE
  5
2BC
100
AcDbEntity
  8
0
100
AcDbLine
 62
7
  6
CONTINUOUS
 10
133.7336844916
 20
250.6443877551
 11
133.0494278058
 21
250.49676395
  0
LINE
  5
2BD
100
AcDbEntity
  8
0
100
AcDbLine
 62
7
  6
CONTINUOUS
 10
100.949427806
 20
241.2266783215
 11
102.4494274114
 21
241.2877896389
  0
LINE
  5
2BE
100
AcDbEntity
  8
0
100
AcDbLine
 62
7
  6
CONTINUOUS
 10
126.2494278058
 20
242.1955476344
 11
102.9494278058
 21
241.5955476344
  0
LINE
  5
2BF
100
AcDbEntity
  8
0
100
AcDbLine
 62
7
  6
CONTINUOUS
 10
97.9145283091
 20
235.2569601024
 11
99.9843251231
 21
235.2931452723
  0
LINE
  5
2C0
100
AcDbEntity
  8
0
100
AcDbLine
 62
7
  6
CONTINUOUS
 10
97.9319753993
 20
236.2568077976
 11
99.9668791682
 21
236.292327175
  0
LINE
  5
2C1
100
AcDbEntity
  8
0
100
AcDbLine
 62
7
  6
CONTINUOUS
 10
102.4494274114
 20
241.2877896389
 11
102.9494278058
 21
241.2965198605
  0
LINE
  5
2C2
100
AcDbEntity
  8
0
100
AcDbLine
 62
7
  6
CONTINUOUS
 10
96.9494278058
 20
235.2569601024
 11
97.9145283091
 21
235.2569601024
  0
LINE
  5
2C3
100
AcDbEntity
  8
0
100
AcDbLine
 62
7
  6
CONTINUOUS
 10
92.8970918564
 20
235.4532127551
 11
91.9494278059
 21
235.4531913113
  0
LINE
  5
2C4
100
AcDbEntity
  8
0
100
AcDbLine
 62
7
  6
CONTINUOUS
 10
133.9494278058
 20
237.2943877551
 11
134.0294278058
 21
237.2943877551
  0
LINE
  5
2C5
100
AcDbEntity
  8
0
100
AcDbLine
 62
7
  6
CONTINUOUS
 10
98.5494278057
 20
237.8443877551
 11
100.9494278058
 21
237.8443877551
  0
LINE
  5
2C6
100
AcDbEntity
  8
0
100
AcDbLine
 62
7
  6
CONTINUOUS
 10
134.0294278058
 20
239.2943877551
 11
133.9494278058
 21
239.2943877551
  0
LINE
  5
2C7
100
AcDbEntity
  8
0
100
AcDbLine
 62
7
  6
CONTINUOUS
 10
96.8494278058
 20
239.5443877551
 11
96.9494278058
 21
239.5443877551
  0
LINE
  5
2C8
100
AcDbEntity
  8
0
100
AcDbLine
 62
7
  6
CONTINUOUS
 10
98.5494278057
 20
240.3443877579
 11
96.9494278106
 21
240.3443877547
  0
LINE
  5
2C9
100
AcDbEntity
  8
0
100
AcDbLine
 62
7
  6
CONTINUOUS
 10
92.9141959828
 20
244.4439496825
 11
92.5366015684
 21
244.3553803192
  0
LWPOLYLINE
  5
2CA
100
AcDbEntity
  8
0
100
AcDbPolyline
 62
7
  6
CONTINUOUS
 90
3
 70
0
 10
92.9127830769
 20
244.4439003981
 10
92.8778971379
 20
244.4411235722
 10
92.5344866928
 20
244.368958314
  0
LWPOLYLINE
  5
2CB
100
AcDbEntity
  8
0
100
AcDbPolyline
 62
7
  6
CONTINUOUS
 90
7
 70
0
 10
92.912195221
 20
244.4438798697
 10
92.8948931663
 20
244.4425871835
 10
92.780992061
 20
244.4297274092
 10
92.7050594245
 20
244.4164250436
 10
92.635605854
 20
244.4003679733
 10
92.5671034641
 20
244.3803089483
 10
92.5022508905
 20
244.3564265401
  0
LINE
  5
2CC
100
AcDbEntity
  8
0
100
AcDbLine
 62
7
  6
CONTINUOUS
 10
96.9126494797
 20
243.6166769791
 11
96.0017828372
 21
243.55298888
  0
LINE
  5
2CD
100
AcDbEntity
  8
0
100
AcDbLine
 62
7
  6
CONTINUOUS
 10
99.96688113
 20
243.6902617938
 11
97.9319758746
 21
243.6191743716
  0
LINE
  5
2CE
100
AcDbEntity
  8
0
100
AcDbLine
 62
7
  6
CONTINUOUS
 10
96.0018019124
 20
243.5529893804
 11
92.8970918564
 21
243.4445705162
  0
LINE
  5
2CF
100
AcDbEntity
  8
0
100
AcDbLine
 62
7
  6
CONTINUOUS
 10
102.9494278058
 20
244.7943877551
 11
97.9144672616
 21
244.6185630585
  0
LINE
  5
2D0
100
AcDbEntity
  8
0
100
AcDbLine
 62
7
  6
CONTINUOUS
 10
92.9141958665
 20
244.4439497338
 11
96.8494278058
 21
244.5813710612
  0
LINE
  5
2D1
100
AcDbEntity
  8
0
100
AcDbLine
 62
7
  6
CONTINUOUS
 10
102.9494278058
 20
245.0943877551
 11
126.2494278058
 21
245.6943877551
  0
LINE
  5
2D2
100
AcDbEntity
  8
0
100
AcDbLine
 62
7
  6
CONTINUOUS
 10
98.5494278057
 20
243.4443877551
 11
100.9494278058
 21
243.4443877551
  0
LINE
  5
2D3
100
AcDbEntity
  8
0
100
AcDbLine
 62
7
  6
CONTINUOUS
 10
132.9494278058
 20
244.6443877551
 11
133.9494278058
 21
244.6443877551
  0
LINE
  5
2D4
100
AcDbEntity
  8
0
100
AcDbLine
 62
7
  6
CONTINUOUS
 10
126.2494278058
 20
245.3443877534
 11
132.9494278058
 21
245.3443877534
  0
LINE
  5
2D5
100
AcDbEntity
  8
0
100
AcDbLine
 62
7
  6
CONTINUOUS
 10
96.8494278058
 20
245.5443877551
 11
101.9494278058
 21
245.5443877551
  0
LINE
  5
2D6
100
AcDbEntity
  8
0
100
AcDbLine
 62
7
  6
CONTINUOUS
 10
107.9494278058
 20
248.8943877551
 11
106.9494278058
 21
248.8943877551
  0
LINE
  5
2D7
100
AcDbEntity
  8
0
100
AcDbLine
 62
7
  6
CONTINUOUS
 10
133.0494278058
 20
249.5697363811
 11
132.9494278058
 21
249.5697363811
  0
LINE
  5
2D8
100
AcDbEntity
  8
0
100
AcDbLine
 62
7
  6
CONTINUOUS
 10
96.9494278106
 20
243.619326855
 11
97.9319758746
 21
243.6191743684
  0
LINE
  5
2D9
100
AcDbEntity
  8
0
100
AcDbLine
 62
7
  6
CONTINUOUS
 10
99.96688113
 20
243.6902617972
 11
100.9494278058
 21
243.6902347996
  0
LINE
  5
2DA
100
AcDbEntity
  8
0
100
AcDbLine
 62
7
  6
CONTINUOUS
 10
92.8970918564
 20
243.4445706935
 11
91.9494278059
 21
243.4449085191
  0
LINE
  5
2DB
100
AcDbEntity
  8
0
100
AcDbLine
 62
7
  6
CONTINUOUS
 10
132.9494278058
 20
252.2582137095
 11
126.2494278058
 21
252.8443877551
  0
ARC
  5
2DC
100
AcDbEntity
  8
0
100
AcDbCircle
 62
7
  6
CONTINUOUS
 10
-657.0776132947
 20
290.6699492526
 40
750.4934441056
100
AcDbArc
 50
355.4031688896
 51
355.7091119227
  0
ARC
  5
2DD
100
AcDbEntity
  8
0
100
AcDbCircle
 62
7
  6
CONTINUOUS
 10
92.7666727754
 20
-10.4660324123
 40
42.1807563982
100
AcDbArc
 50
89.0716493125
 51
89.3592185031
  0
ARC
  5
2DE
100
AcDbEntity
  8
0
100
AcDbCircle
 62
7
  6
CONTINUOUS
 10
75.6958395075
 20
34.6651395434
 40
16.3468477316
100
AcDbArc
 50
9.4037005475
 51
10.1973957267
  0
ARC
  5
2DF
100
AcDbEntity
  8
0
100
AcDbCircle
 62
7
  6
CONTINUOUS
 10
102.4296590105
 20
33.6653119079
 40
4.55
100
AcDbArc
 50
242.556101143
 51
268.0000000457
  0
ARC
  5
2E0
100
AcDbEntity
  8
0
100
AcDbCircle
 62
7
  6
CONTINUOUS
 10
99.9087066656
 20
100.011012724
 40
2.005823093
100
AcDbArc
 50
315.0688316808
 51
359.9311187477
  0
ARC
  5
2E1
100
AcDbEntity
  8
0
100
AcDbCircle
 62
7
  6
CONTINUOUS
 10
104.9494278058
 20
40.0597337791
 40
2.0
100
AcDbArc
 50
105.0000000001
 51
180.0
  0
ARC
  5
2E2
100
AcDbEntity
  8
0
100
AcDbCircle
 62
7
  6
CONTINUOUS
 10
115.9494278058
 20
47.1482796175
 40
2.0
100
AcDbArc
 50
285.0000000001
 51
360.0
  0
ARC
  5
2E3
100
AcDbEntity
  8
0
100
AcDbCircle
 62
7
  6
CONTINUOUS
 10
115.9494278058
 20
110.0363942775
 40
2.0
100
AcDbArc
 50
0.0
 51
75.0
  0
ARC
  5
2E4
100
AcDbEntity
  8
0
100
AcDbCircle
 62
7
  6
CONTINUOUS
 10
106.9494278058
 20
116.5890417311
 40
2.0
100
AcDbArc
 50
180.0
 51
254.9999999999
  0
ARC
  5
2E5
100
AcDbEntity
  8
0
100
AcDbCircle
 62
7
  6
CONTINUOUS
 10
106.9494278058
 20
128.5997337791
 40
2.0
100
AcDbArc
 50
105.0000000001
 51
180.0
  0
ARC
  5
2E6
100
AcDbEntity
  8
0
100
AcDbCircle
 62
7
  6
CONTINUOUS
 10
115.9494278058
 20
135.1523812327
 40
2.0
100
AcDbArc
 50
285.0
 51
360.0
  0
ARC
  5
2E7
100
AcDbEntity
  8
0
100
AcDbCircle
 62
7
  6
CONTINUOUS
 10
99.9494278058
 20
37.8966006218
 40
1.0
100
AcDbArc
 50
15.6433755894
 51
88.9999474518
  0
ARC
  5
2E8
100
AcDbEntity
  8
0
100
AcDbCircle
 62
7
  6
CONTINUOUS
 10
90.9494278058
 20
34.30111893
 40
1.0
100
AcDbArc
 50
16.6229113478
 51
61.358654421
  0
ARC
  5
2E9
100
AcDbEntity
  8
0
100
AcDbCircle
 62
7
  6
CONTINUOUS
 10
97.9494278058
 20
95.1801741927
 40
1.0
100
AcDbArc
 50
135.0000000001
 51
180.0
  0
ARC
  5
2EA
100
AcDbEntity
  8
0
100
AcDbCircle
 62
7
  6
CONTINUOUS
 10
99.9494278058
 20
100.0086013175
 40
1.0
100
AcDbArc
 50
315.0010544057
 51
359.9997082776
  0
ARC
  5
2EB
100
AcDbEntity
  8
0
100
AcDbCircle
 62
7
  6
CONTINUOUS
 10
97.9494278058
 20
39.9318154078
 40
1.0
100
AcDbArc
 50
180.0007860803
 51
269.0000272358
  0
ARC
  5
2EC
100
AcDbEntity
  8
0
100
AcDbCircle
 62
7
  6
CONTINUOUS
 10
92.949427694
 20
97.3801744163
 40
0.99999975
100
AcDbArc
 50
135.0000045295
 51
180.0000128117
  0
ARC
  5
2ED
100
AcDbEntity
  8
0
100
AcDbCircle
 62
7
  6
CONTINUOUS
 10
133.2494278057
 20
25.6190391291
 40
0.7
100
AcDbArc
 50
347.8254189768
 51
359.9999999986
  0
ARC
  5
2EE
100
AcDbEntity
  8
0
100
AcDbCircle
 62
7
  6
CONTINUOUS
 10
92.4494278058
 20
67.9943877551
 40
0.5
100
AcDbArc
 50
89.9991605824
 51
180.0
  0
ARC
  5
2EF
100
AcDbEntity
  8
0
100
AcDbCircle
 62
7
  6
CONTINUOUS
 10
92.949427694
 20
97.3801744163
 40
0.4999998652
100
AcDbArc
 50
135.0000694793
 51
180.0000128117
  0
ARC
  5
2F0
100
AcDbEntity
  8
0
100
AcDbCircle
 62
7
  6
CONTINUOUS
 10
107.0066818528
 20
261.8964053002
 40
33.2770484981
100
AcDbArc
 50
242.178386209
 51
243.0969835207
  0
ARC
  5
2F1
100
AcDbEntity
  8
0
100
AcDbCircle
 62
7
  6
CONTINUOUS
 10
98.0073414053
 20
187.5109117244
 40
2.005578974
100
AcDbArc
 50
180.0660042582
 51
224.9341107434
  0
ARC
  5
2F2
100
AcDbEntity
  8
0
100
AcDbCircle
 62
7
  6
CONTINUOUS
 10
99.9089613763
 20
182.9278682827
 40
2.0055682584
100
AcDbArc
 50
0.0658759302
 51
44.9341480529
  0
ARC
  5
2F3
100
AcDbEntity
  8
0
100
AcDbCircle
 62
7
  6
CONTINUOUS
 10
115.9494278058
 20
228.0404958927
 40
2.0
100
AcDbArc
 50
0.0
 51
74.9999999999
  0
ARC
  5
2F4
100
AcDbEntity
  8
0
100
AcDbCircle
 62
7
  6
CONTINUOUS
 10
104.9494278058
 20
235.1290417311
 40
2.0
100
AcDbArc
 50
180.0
 51
254.9999999999
  0
ARC
  5
2F5
100
AcDbEntity
  8
0
100
AcDbCircle
 62
7
  6
CONTINUOUS
 10
90.9494278058
 20
237.1876565802
 40
1.0
100
AcDbArc
 50
298.6413403985
 51
360.0
  0
ARC
  5
2F6
100
AcDbEntity
  8
0
100
AcDbCircle
 62
7
  6
CONTINUOUS
 10
92.9494278058
 20
243.4445705159
 40
1.0
100
AcDbArc
 50
114.3824986975
 51
157.4662231441
  0
ARC
  5
2F7
100
AcDbEntity
  8
0
100
AcDbCircle
 62
7
  6
CONTINUOUS
 10
99.9494278058
 20
182.9301741927
 40
1.0
100
AcDbArc
 50
0.0
 51
44.9990949986
  0
ARC
  5
2F8
100
AcDbEntity
  8
0
100
AcDbCircle
 62
7
  6
CONTINUOUS
 10
97.9494278058
 20
187.5086013175
 40
1.0
100
AcDbArc
 50
180.0
 51
224.9995669334
  0
ARC
  5
2F9
100
AcDbEntity
  8
0
100
AcDbCircle
 62
7
  6
CONTINUOUS
 10
97.9494278058
 20
187.7586013175
 40
1.0
100
AcDbArc
 50
180.0000000113
 51
224.9999999999
  0
ARC
  5
2FA
100
AcDbEntity
  8
0
100
AcDbCircle
 62
7
  6
CONTINUOUS
 10
97.9494278058
 20
235.2569601024
 40
1.0
100
AcDbArc
 50
91.0
 51
180.0
  0
ARC
  5
2FB
100
AcDbEntity
  8
0
100
AcDbCircle
 62
7
  6
CONTINUOUS
 10
99.9494278058
 20
237.2921748884
 40
1.0
100
AcDbArc
 50
270.9999401721
 51
344.3367796847
  0
ARC
  5
2FC
100
AcDbEntity
  8
0
100
AcDbCircle
 62
7
  6
CONTINUOUS
 10
133.2494278059
 20
249.5697363811
 40
0.7
100
AcDbArc
 50
0.0
 51
12.1745810243
  0
SPLINE
  5
2FD
100
AcDbEntity
  8
0
100
AcDbSpline
 62
7
  6
CONTINUOUS
 70
0
 71
3
 72
11
 73
7
 74
0
 42
0.0000001
 43
0.0000001
 44
0.0000000001
 40
0.0
 40
0.0
 40
0.0
 40
0.0
 40
0.2414719775
 40
0.501191914
 40
0.7602416327
 40
1.0
 40
1.0
 40
1.0
 40
1.0
 10
97.9288834458
 20
244.6188443614
 30
0.0
 10
97.8049766474
 20
244.6156886348
 30
0.0
 10
97.5465784674
 20
244.5611233173
 30
0.0
 10
97.2148120963
 20
244.3364685427
 30
0.0
 10
96.9977009345
 20
244.0007197623
 30
0.0
 10
96.9494278048
 20
243.7422417408
 30
0.0
 10
96.9494278058
 20
243.619174355
 30
0.0
  0
SPLINE
  5
2FE
100
AcDbEntity
  8
0
100
AcDbSpline
 62
7
  6
CONTINUOUS
 70
0
 71
3
 72
9
 73
5
 74
0
 42
0.0000001
 43
0.0000001
 44
0.0000000001
 40
0.0
 40
0.0
 40
0.0
 40
0.0
 40
0.2461586653
 40
1.0
 40
1.0
 40
1.0
 40
1.0
 10
92.9131526534
 20
30.7447235224
 30
0.0
 10
92.8800353144
 20
30.7462229436
 30
0.0
 10
92.7458175168
 20
30.7577725745
 30
0.0
 10
92.6138291128
 20
30.7966535448
 30
0.0
 10
92.5220803315
 20
30.8401173666
 30
0.0
  0
SPLINE
  5
2FF
100
AcDbEntity
  8
0
100
AcDbSpline
 62
7
  6
CONTINUOUS
 70
0
 71
3
 72
11
 73
7
 74
0
 42
0.0000001
 43
0.0000001
 44
0.0000000001
 40
0.0
 40
0.0
 40
0.0
 40
0.0
 40
0.2421936917
 40
0.5019294162
 40
0.7605878877
 40
1.0
 40
1.0
 40
1.0
 40
1.0
 10
97.9140282614
 20
30.5704184989
 30
0.0
 10
97.7910003625
 20
30.5753572267
 30
0.0
 10
97.5355330053
 20
30.6329041918
 30
0.0
 10
97.2092943508
 20
30.8588084842
 30
0.0
 10
96.9966800457
 20
31.1921656813
 30
0.0
 10
96.949447263
 20
31.4477292773
 30
0.0
 10
96.9494278185
 20
31.5694421571
 30
0.0
  0
SPLINE
  5
300
100
AcDbEntity
  8
0
100
AcDbSpline
 62
7
  6
CONTINUOUS
 70
0
 71
3
 72
9
 73
5
 74
0
 42
0.0000001
 43
0.0000001
 44
0.0000000001
 40
0.0
 40
0.0
 40
0.0
 40
0.0
 40
0.2124357452
 40
1.0
 40
1.0
 40
1.0
 40
1.0
 10
91.8230118515
 20
37.3360463086
 30
0.0
 10
91.831123289
 20
37.3388115715
 30
0.0
 10
91.8693439498
 20
37.351718064
 30
0.0
 10
91.9076749243
 20
37.3642954956
 30
0.0
 10
91.9378888595
 20
37.3741196914
 30
0.0
  0
SPLINE
  5
301
100
AcDbEntity
  8
0
100
AcDbSpline
 62
7
  6
CONTINUOUS
 70
0
 71
3
 72
8
 73
4
 74
0
 42
0.0000001
 43
0.0000001
 44
0.0000000001
 40
0.0
 40
0.0
 40
0.0
 40
0.0
 40
1.0
 40
1.0
 40
1.0
 40
1.0
 10
91.882348442
 20
36.9803177236
 30
0.0
 10
91.8630689515
 20
37.098975424
 30
0.0
 10
91.8424260757
 20
37.2174083915
 30
0.0
 10
91.8229955278
 20
37.3360414494
 30
0.0
  0
SPLINE
  5
302
100
AcDbEntity
  8
0
100
AcDbSpline
 62
7
  6
CONTINUOUS
 70
0
 71
3
 72
9
 73
5
 74
0
 42
0.0000001
 43
0.0000001
 44
0.0000000001
 40
0.0
 40
0.0
 40
0.0
 40
0.0
 40
0.5127419605
 40
1.0
 40
1.0
 40
1.0
 40
1.0
 10
91.0017472331
 20
40.9662396145
 30
0.0
 10
91.1497521089
 20
40.3873107645
 30
0.0
 10
91.4263067511
 20
39.255349211
 30
0.0
 10
91.6840307752
 20
38.1180823403
 30
0.0
 10
91.7844668091
 20
37.5591855533
 30
0.0
  0
SPLINE
  5
303
100
AcDbEntity
  8
0
100
AcDbSpline
 62
7
  6
CONTINUOUS
 70
0
 71
3
 72
9
 73
5
 74
0
 42
0.0000001
 43
0.0000001
 44
0.0000000001
 40
0.0
 40
0.0
 40
0.0
 40
0.0
 40
0.2584833617
 40
1.0
 40
1.0
 40
1.0
 40
1.0
 10
91.8781639943
 20
234.517948738
 30
0.0
 10
91.8889892071
 20
234.5980670094
 30
0.0
 10
91.927401047
 20
234.9084188079
 30
0.0
 10
91.9494271541
 20
235.2212777613
 30
0.0
 10
91.9494267345
 20
235.4532032091
 30
0.0
  0
SPLINE
  5
304
100
AcDbEntity
  8
0
100
AcDbSpline
 62
7
  6
CONTINUOUS
 70
0
 71
3
 72
9
 73
5
 74
0
 42
0.0000001
 43
0.0000001
 44
0.0000000001
 40
0.0
 40
0.0
 40
0.0
 40
0.0
 40
0.2603461814
 40
1.0
 40
1.0
 40
1.0
 40
1.0
 10
91.4756434217
 20
232.4660132436
 30
0.0
 10
91.5166813647
 20
232.6428066734
 30
0.0
 10
91.6716616199
 20
233.3223466539
 30
0.0
 10
91.8091420375
 20
234.0069684747
 30
0.0
 10
91.878177611
 20
234.5179574588
 30
0.0
  0
SPLINE
  5
305
100
AcDbEntity
  8
0
100
AcDbSpline
 62
7
  6
CONTINUOUS
 70
0
 71
3
 72
10
 73
6
 74
0
 42
0.0000001
 43
0.0000001
 44
0.0000000001
 40
0.0
 40
0.0
 40
0.0
 40
0.0
 40
0.4565794316
 40
0.7184531878
 40
1.0
 40
1.0
 40
1.0
 40
1.0
 10
92.4986470897
 20
31.7236818641
 30
0.0
 10
92.6112268826
 20
31.7214967612
 30
0.0
 10
92.7883916693
 20
31.7176625791
 30
0.0
 10
93.0349588247
 20
31.7160775909
 30
0.0
 10
93.1690917516
 20
31.7162438932
 30
0.0
 10
93.2384018454
 20
31.7120861092
 30
0.0
  0
SPLINE
  5
306
100
AcDbEntity
  8
0
100
AcDbSpline
 62
7
  6
CONTINUOUS
 70
0
 71
3
 72
9
 73
5
 74
0
 42
0.0000001
 43
0.0000001
 44
0.0000000001
 40
0.0
 40
0.0
 40
0.0
 40
0.0
 40
0.2748277389
 40
1.0
 40
1.0
 40
1.0
 40
1.0
 10
93.1157964521
 20
30.8197417202
 30
0.0
 10
93.1004982598
 20
30.8067906369
 30
0.0
 10
93.0409861917
 20
30.7645371855
 30
0.0
 10
92.9660073004
 20
30.743091757
 30
0.0
 10
92.9131478028
 20
30.7448633299
 30
0.0
  0
SPLINE
  5
307
100
AcDbEntity
  8
0
100
AcDbSpline
 62
7
  6
CONTINUOUS
 70
0
 71
3
 72
9
 73
5
 74
0
 42
0.0000001
 43
0.0000001
 44
0.0000000001
 40
0.0
 40
0.0
 40
0.0
 40
0.0
 40
0.27435688
 40
1.0
 40
1.0
 40
1.0
 40
1.0
 10
93.2245123333
 20
30.9379918581
 30
0.0
 10
93.215973742
 20
30.9260069125
 30
0.0
 10
93.1837174271
 20
30.8831785899
 30
0.0
 10
93.1461874047
 20
30.8440568546
 30
0.0
 10
93.1157964521
 20
30.8197417202
 30
0.0
  0
SPLINE
  5
308
100
AcDbEntity
  8
0
100
AcDbSpline
 62
7
  6
CONTINUOUS
 70
0
 71
3
 72
9
 73
5
 74
0
 42
0.0000001
 43
0.0000001
 44
0.0000000001
 40
0.0
 40
0.0
 40
0.0
 40
0.0
 40
0.270937962
 40
1.0
 40
1.0
 40
1.0
 40
1.0
 10
93.3081846184
 20
31.0835728228
 30
0.0
 10
93.3018239194
 20
31.0697937904
 30
0.0
 10
93.2771200869
 20
31.0194939942
 30
0.0
 10
93.2474903031
 20
30.9717516857
 30
0.0
 10
93.2245123333
 20
30.9379918581
 30
0.0
  0
SPLINE
  5
309
100
AcDbEntity
  8
0
100
AcDbSpline
 62
7
  6
CONTINUOUS
 70
0
 71
3
 72
22
 73
18
 74
0
 42
0.0000001
 43
0.0000001
 44
0.0000000001
 40
0.0
 40
0.0
 40
0.0
 40
0.0
 40
0.0012360745
 40
0.0052223553
 40
0.0119289139
 40
0.0213017363
 40
0.0332844462
 40
0.0478200462
 40
0.0843208482
 40
0.1302571998
 40
0.1847289133
 40
0.2467473915
 40
0.3153239145
 40
0.4684552116
 40
0.6375087505
 40
0.8163841944
 40
1.0
 40
1.0
 40
1.0
 40
1.0
 10
91.4285831624
 20
35.1790392299
 30
0.0
 10
91.4306837758
 20
35.1778968863
 30
0.0
 10
91.4289392009
 20
35.1966325639
 30
0.0
 10
91.4310852734
 20
35.2110378881
 30
0.0
 10
91.4284483285
 20
35.2548516729
 30
0.0
 10
91.4265604458
 20
35.3068651489
 30
0.0
 10
91.4226377823
 20
35.377049124
 30
0.0
 10
91.4156540488
 20
35.4983504777
 30
0.0
 10
91.4036464829
 20
35.6858189739
 30
0.0
 10
91.3857907498
 20
35.9499495869
 30
0.0
 10
91.3637405858
 20
36.2634213288
 30
0.0
 10
91.3379646632
 20
36.6204836587
 30
0.0
 10
91.297642848
 20
37.1678623883
 30
0.0
 10
91.2407455575
 20
37.9216274453
 30
0.0
 10
91.1661961762
 20
38.888037933
 30
0.0
 10
91.0857218708
 20
39.9131352983
 30
0.0
 10
91.0300071426
 20
40.6121429483
 30
0.0
 10
91.0015844551
 20
40.9662010883
 30
0.0
  0
SPLINE
  5
30A
100
AcDbEntity
  8
0
100
AcDbSpline
 62
7
  6
CONTINUOUS
 70
0
 71
3
 72
8
 73
4
 74
0
 42
0.0000001
 43
0.0000001
 44
0.0000000001
 40
0.0
 40
0.0
 40
0.0
 40
0.0
 40
1.0
 40
1.0
 40
1.0
 40
1.0
 10
91.0017434627
 20
40.9662396138
 30
0.0
 10
91.3405707919
 20
40.4041953771
 30
0.0
 10
91.6636442005
 20
39.8319072746
 30
0.0
 10
91.9601258859
 20
39.2464191934
 30
0.0
  0
SPLINE
  5
30B
100
AcDbEntity
  8
0
100
AcDbSpline
 62
7
  6
CONTINUOUS
 70
0
 71
3
 72
9
 73
5
 74
0
 42
0.0000001
 43
0.0000001
 44
0.0000000001
 40
0.0
 40
0.0
 40
0.0
 40
0.0
 40
0.2757938088
 40
1.0
 40
1.0
 40
1.0
 40
1.0
 10
93.4000361199
 20
31.3530937227
 30
0.0
 10
93.3944498122
 20
31.3274927808
 30
0.0
 10
93.3696557479
 20
31.235724495
 30
0.0
 10
93.3370231527
 20
31.1460450612
 30
0.0
 10
93.3081846184
 20
31.0835728228
 30
0.0
  0
SPLINE
  5
30C
100
AcDbEntity
  8
0
100
AcDbSpline
 62
7
  6
CONTINUOUS
 70
0
 71
3
 72
9
 73
5
 74
0
 42
0.0000001
 43
0.0000001
 44
0.0000000001
 40
0.0
 40
0.0
 40
0.0
 40
0.0
 40
0.2619955328
 40
1.0
 40
1.0
 40
1.0
 40
1.0
 10
93.4492098577
 20
31.7092918358
 30
0.0
 10
93.4478543631
 20
31.6778913782
 30
0.0
 10
93.4397912307
 20
31.5581875304
 30
0.0
 10
93.4206639586
 20
31.4391901255
 30
0.0
 10
93.4000361199
 20
31.3530937227
 30
0.0
  0
SPLINE
  5
30D
100
AcDbEntity
  8
0
100
AcDbSpline
 62
7
  6
CONTINUOUS
 70
0
 71
3
 72
13
 73
9
 74
0
 42
0.0000001
 43
0.0000001
 44
0.0000000001
 40
0.0
 40
0.0
 40
0.0
 40
0.0
 40
0.4171014678
 40
0.7270161626
 40
0.8394126812
 40
0.9225900877
 40
0.9761535533
 40
1.0
 40
1.0
 40
1.0
 40
1.0
 10
92.4986470897
 20
31.7236818641
 30
0.0
 10
92.4223092503
 20
31.7251302134
 30
0.0
 10
92.289296617
 20
31.7279699649
 30
0.0
 10
92.1355758697
 20
31.73194606
 30
0.0
 10
92.0432760158
 20
31.7358948247
 30
0.0
 10
91.9974475005
 20
31.7376987936
 30
0.0
 10
91.9686798607
 20
31.740946808
 30
0.0
 10
91.9539248751
 20
31.7414245291
 30
0.0
 10
91.9500641053
 20
31.7434614536
 30
0.0
  0
SPLINE
  5
30E
100
AcDbEntity
  8
0
100
AcDbSpline
 62
7
  6
CONTINUOUS
 70
0
 71
3
 72
9
 73
5
 74
0
 42
0.0000001
 43
0.0000001
 44
0.0000000001
 40
0.0
 40
0.0
 40
0.0
 40
0.0
 40
0.2522787035
 40
1.0
 40
1.0
 40
1.0
 40
1.0
 10
91.0019220868
 20
230.522457646
 30
0.0
 10
91.0429587084
 20
230.6856018126
 30
0.0
 10
91.2049864086
 20
231.3324399919
 30
0.0
 10
91.3630273789
 20
231.9803079197
 30
0.0
 10
91.4757693899
 20
232.4659945708
 30
0.0
  0
LINE
  5
30F
100
AcDbEntity
  8
0
100
AcDbLine
 62
7
  6
CONTINUOUS
 10
67.9494282529
 20
77.1605625635
 11
67.9493600626
 21
77.0443999496
  0
SPLINE
  5
310
100
AcDbEntity
  8
0
100
AcDbSpline
 62
7
  6
CONTINUOUS
 70
0
 71
3
 72
18
 73
14
 74
0
 42
0.0000001
 43
0.0000001
 44
0.0000000001
 40
0.0
 40
0.0
 40
0.0
 40
0.0
 40
0.005020595
 40
0.0194373009
 40
0.0432358707
 40
0.0762705201
 40
0.1183121804
 40
0.1688630382
 40
0.2932382616
 40
0.4446930623
 40
0.6175765424
 40
0.8054644027
 40
1.0
 40
1.0
 40
1.0
 40
1.0
 10
99.9843252024
 20
30.4979314224
 30
0.0
 10
99.9859996314
 20
30.497871052
 30
0.0
 10
99.9854943644
 20
30.5079250196
 30
0.0
 10
99.9877991501
 20
30.5189185447
 30
0.0
 10
99.9877111765
 20
30.54460526
 30
0.0
 10
99.9884432066
 20
30.5767639657
 30
0.0
 10
99.9883742226
 20
30.6190092716
 30
0.0
 10
99.9880168994
 20
30.691269553
 30
0.0
 10
99.9864236043
 20
30.8002754069
 30
0.0
 10
99.9831915365
 20
30.9499517366
 30
0.0
 10
99.9787035631
 20
31.1208503215
 30
0.0
 10
99.9733046754
 20
31.306089893
 30
0.0
 10
99.9691403745
 20
31.4336489775
 30
0.0
 10
99.9668783178
 20
31.4985316811
 30
0.0
  0
SPLINE
  5
311
100
AcDbEntity
  8
0
100
AcDbSpline
 62
7
  6
CONTINUOUS
 70
0
 71
3
 72
16
 73
12
 74
0
 42
0.0000001
 43
0.0000001
 44
0.0000000001
 40
0.0
 40
0.0
 40
0.0
 40
0.0
 40
0.005474887
 40
0.0199626353
 40
0.0437565796
 40
0.0767045965
 40
0.1688117208
 40
0.2928502437
 40
0.4440520636
 40
0.6169117593
 40
1.0
 40
1.0
 40
1.0
 40
1.0
 10
97.9144664614
 20
30.5702124823
 30
0.0
 10
97.9126421013
 20
30.5702808292
 30
0.0
 10
97.911416659
 20
30.5796053581
 30
0.0
 10
97.9098581353
 20
30.5916360409
 30
0.0
 10
97.9093850801
 20
30.6167718083
 30
0.0
 10
97.9093019616
 20
30.6655843974
 30
0.0
 10
97.9106602375
 20
30.7492341985
 30
0.0
 10
97.9126830576
 20
30.8714370924
 30
0.0
 10
97.9156731025
 20
31.0209288144
 30
0.0
 10
97.9213198408
 20
31.256624333
 30
0.0
 10
97.9274057709
 20
31.4419303299
 30
0.0
 10
97.9319751792
 20
31.5695920645
 30
0.0
  0
SPLINE
  5
312
100
AcDbEntity
  8
0
100
AcDbSpline
 62
7
  6
CONTINUOUS
 70
0
 71
3
 72
9
 73
5
 74
0
 42
0.0000001
 43
0.0000001
 44
0.0000000001
 40
0.0
 40
0.0
 40
0.0
 40
0.0
 40
0.4186417597
 40
1.0
 40
1.0
 40
1.0
 40
1.0
 10
91.0809795325
 20
69.9203006937
 30
0.0
 10
91.0777549584
 20
70.5357699975
 30
0.0
 10
91.0533169282
 20
72.0057979817
 30
0.0
 10
91.0221388317
 20
73.4756335801
 30
0.0
 10
91.0015847509
 20
74.33008628
 30
0.0
  0
SPLINE
  5
313
100
AcDbEntity
  8
0
100
AcDbSpline
 62
7
  6
CONTINUOUS
 70
0
 71
3
 72
14
 73
10
 74
0
 42
0.0000001
 43
0.0000001
 44
0.0000000001
 40
0.0
 40
0.0
 40
0.0
 40
0.0
 40
0.0162608593
 40
0.0641613603
 40
0.1436856925
 40
0.2544156905
 40
0.3958887996
 40
0.5676304605
 40
1.0
 40
1.0
 40
1.0
 40
1.0
 10
91.0712507339
 20
69.3162696642
 30
0.0
 10
91.074494695
 20
69.3158032296
 30
0.0
 10
91.0735260791
 20
69.336669976
 30
0.0
 10
91.0783131296
 20
69.3578713625
 30
0.0
 10
91.0785017391
 20
69.4102020369
 30
0.0
 10
91.0805701178
 20
69.4751339809
 30
0.0
 10
91.0812271976
 20
69.5613106368
 30
0.0
 10
91.0819969692
 20
69.7112266724
 30
0.0
 10
91.0815691246
 20
69.8331438816
 30
0.0
 10
91.0811125819
 20
69.9202853486
 30
0.0
  0
SPLINE
  5
314
100
AcDbEntity
  8
0
100
AcDbSpline
 62
7
  6
CONTINUOUS
 70
0
 71
3
 72
10
 73
6
 74
0
 42
0.0000001
 43
0.0000001
 44
0.0000000001
 40
0.0
 40
0.0
 40
0.0
 40
0.0
 40
0.2497879543
 40
0.4999625966
 40
1.0
 40
1.0
 40
1.0
 40
1.0
 10
100.9494288711
 20
38.1845891578
 30
0.0
 10
100.9494359298
 20
38.3522551395
 30
0.0
 10
100.8863173136
 20
38.6893880596
 30
0.0
 10
100.5770743019
 20
39.2921535939
 30
0.0
 10
100.2216407724
 20
39.6582817231
 30
0.0
 10
99.9843293687
 20
39.89563941
 30
0.0
  0
LINE
  5
315
100
AcDbEntity
  8
0
100
AcDbLine
 62
7
  6
CONTINUOUS
 10
67.9493600626
 20
77.0443999496
 11
66.8947258696
 21
77.0444384014
  0
SPLINE
  5
316
100
AcDbEntity
  8
0
100
AcDbSpline
 62
7
  6
CONTINUOUS
 70
0
 71
3
 72
10
 73
6
 74
0
 42
0.0000001
 43
0.0000001
 44
0.0000000001
 40
0.0
 40
0.0
 40
0.0
 40
0.0
 40
0.3239200415
 40
0.6128249927
 40
1.0
 40
1.0
 40
1.0
 40
1.0
 10
93.4494278049
 20
67.9943877551
 30
0.0
 10
93.4494278049
 20
68.0584023965
 30
0.0
 10
93.4625805728
 20
68.1813315029
 30
0.0
 10
93.5142383913
 20
68.3651441231
 30
0.0
 10
93.6229160748
 20
68.4943899971
 30
0.0
 10
93.6994314677
 20
68.494387755
 30
0.0
  0
SPLINE
  5
317
100
AcDbEntity
  8
0
100
AcDbSpline
 62
7
  6
CONTINUOUS
 70
0
 71
3
 72
8
 73
4
 74
0
 42
0.0000001
 43
0.0000001
 44
0.0000000001
 40
0.0
 40
0.0
 40
0.0
 40
0.0
 40
1.0
 40
1.0
 40
1.0
 40
1.0
 10
91.001721874
 20
230.5225071698
 30
0.0
 10
91.3313439392
 20
231.0807302661
 30
0.0
 10
91.6539266673
 20
231.6437964292
 30
0.0
 10
91.9494277803
 20
232.2208084077
 30
0.0
  0
SPLINE
  5
318
100
AcDbEntity
  8
0
100
AcDbSpline
 62
7
  6
CONTINUOUS
 70
0
 71
3
 72
9
 73
5
 74
0
 42
0.0000001
 43
0.0000001
 44
0.0000000001
 40
0.0
 40
0.0
 40
0.0
 40
0.0
 40
0.2602008816
 40
1.0
 40
1.0
 40
1.0
 40
1.0
 10
96.5875403753
 20
186.0943975174
 30
0.0
 10
96.6293821888
 20
186.1363537188
 30
0.0
 10
96.7896002549
 20
186.2981766414
 30
0.0
 10
96.9480801701
 20
186.4617784803
 30
0.0
 10
97.0625453862
 20
186.5853910414
 30
0.0
  0
SPLINE
  5
319
100
AcDbEntity
  8
0
100
AcDbSpline
 62
7
  6
CONTINUOUS
 70
0
 71
3
 72
13
 73
9
 74
0
 42
0.0000001
 43
0.0000001
 44
0.0000000001
 40
0.0
 40
0.0
 40
0.0
 40
0.0
 40
0.4387969668
 40
0.7544815508
 40
0.8621013719
 40
0.9371680872
 40
0.9818729924
 40
1.0
 40
1.0
 40
1.0
 40
1.0
 10
97.0625453862
 20
186.5853910414
 30
0.0
 10
97.0906086634
 20
186.6156969604
 30
0.0
 10
97.1384057672
 20
186.6680259619
 30
0.0
 10
97.1921075533
 20
186.7294366943
 30
0.0
 10
97.2213249096
 20
186.7654676271
 30
0.0
 10
97.234477234
 20
186.7834262072
 30
0.0
 10
97.2405793822
 20
186.7931614674
 30
0.0
 10
97.2435222031
 20
186.8002917943
 30
0.0
 10
97.242315716
 20
186.8014983584
 30
0.0
  0
SPLINE
  5
31A
100
AcDbEntity
  8
0
100
AcDbSpline
 62
7
  6
CONTINUOUS
 70
0
 71
3
 72
18
 73
14
 74
0
 42
0.0000001
 43
0.0000001
 44
0.0000000001
 40
0.0
 40
0.0
 40
0.0
 40
0.0
 40
0.2178604936
 40
0.4146933464
 40
0.5874314353
 40
0.7330080321
 40
0.8486297781
 40
0.8946588264
 40
0.9325955915
 40
0.9622626457
 40
0.9834845704
 40
0.9960935934
 40
1.0
 40
1.0
 40
1.0
 40
1.0
 10
91.3121597207
 20
234.5179101714
 30
0.0
 10
91.3218027453
 20
234.6479808931
 30
0.0
 10
91.340016235
 20
234.895581815
 30
0.0
 10
91.3652967028
 20
235.2463401075
 30
0.0
 10
91.3868980514
 20
235.5540271127
 30
0.0
 10
91.4043718741
 20
235.8131166374
 30
0.0
 10
91.4161085067
 20
235.9969293806
 30
0.0
 10
91.422926451
 20
236.1158248658
 30
0.0
 10
91.4267456202
 20
236.1845936681
 30
0.0
 10
91.4285865076
 20
236.2355482454
 30
0.0
 10
91.4311238959
 20
236.2784550944
 30
0.0
 10
91.4290498212
 20
236.2925651517
 30
0.0
 10
91.4306967176
 20
236.310893093
 30
0.0
 10
91.4286431309
 20
236.3097740961
 30
0.0
  0
SPLINE
  5
31B
100
AcDbEntity
  8
0
100
AcDbSpline
 62
7
  6
CONTINUOUS
 70
0
 71
3
 72
16
 73
12
 74
0
 42
0.0000001
 43
0.0000001
 44
0.0000000001
 40
0.0
 40
0.0
 40
0.0
 40
0.0
 40
0.0059493519
 40
0.0209747209
 40
0.0452362742
 40
0.0784475758
 40
0.1703273572
 40
0.2937337803
 40
0.4450394727
 40
0.6178846469
 40
1.0
 40
1.0
 40
1.0
 40
1.0
 10
99.9668610011
 20
38.8964607566
 30
0.0
 10
99.9688456584
 20
38.8964187384
 30
0.0
 10
99.9714115714
 20
38.9056847343
 30
0.0
 10
99.973927284
 20
38.9182803151
 30
0.0
 10
99.9766813876
 20
38.9435569612
 30
0.0
 10
99.9804068618
 20
38.9925384919
 30
0.0
 10
99.983994243
 20
39.075905551
 30
0.0
 10
99.9868860144
 20
39.1979570876
 30
0.0
 10
99.9883759802
 20
39.3473745083
 30
0.0
 10
99.9885311375
 20
39.5829974696
 30
0.0
 10
99.9865296625
 20
39.7681823928
 30
0.0
 10
99.9843080182
 20
39.8956623
 30
0.0
  0
SPLINE
  5
31C
100
AcDbEntity
  8
0
100
AcDbSpline
 62
7
  6
CONTINUOUS
 70
0
 71
3
 72
14
 73
10
 74
0
 42
0.0000001
 43
0.0000001
 44
0.0000000001
 40
0.0
 40
0.0
 40
0.0
 40
0.0
 40
0.3666829772
 40
0.5450154939
 40
0.7043694526
 40
0.8335958605
 40
0.9267289906
 40
0.9807818707
 40
1.0
 40
1.0
 40
1.0
 40
1.0
 10
96.0017767797
 20
243.5529885202
 30
0.0
 10
95.9975126951
 20
243.6754540412
 30
0.0
 10
95.992799591
 20
243.857687046
 30
0.0
 10
95.9909276158
 20
244.0927164704
 30
0.0
 10
95.991717537
 20
244.2496428753
 30
0.0
 10
95.9955027468
 20
244.3747448905
 30
0.0
 10
96.0000041419
 20
244.4725440836
 30
0.0
 10
96.0078251768
 20
244.5182391568
 30
0.0
 10
96.0128139927
 20
244.5521725246
 30
0.0
 10
96.0192325266
 20
244.5523953095
 30
0.0
  0
SPLINE
  5
31D
100
AcDbEntity
  8
0
100
AcDbSpline
 62
7
  6
CONTINUOUS
 70
0
 71
3
 72
16
 73
12
 74
0
 42
0.0000001
 43
0.0000001
 44
0.0000000001
 40
0.0
 40
0.0
 40
0.0
 40
0.0
 40
0.0059076446
 40
0.0206757808
 40
0.0446556853
 40
0.0777621986
 40
0.1702280447
 40
0.2943300046
 40
0.4455240211
 40
0.6181303633
 40
1.0
 40
1.0
 40
1.0
 40
1.0
 10
97.9319747822
 20
38.9319677236
 30
0.0
 10
97.9300026623
 20
38.9320031984
 30
0.0
 10
97.9274485458
 20
38.940959174
 30
0.0
 10
97.9248867044
 20
38.9535501807
 30
0.0
 10
97.9221266844
 20
38.9785309772
 30
0.0
 10
97.9183725204
 20
39.0276553027
 30
0.0
 10
97.9148425272
 20
39.1114422987
 30
0.0
 10
97.9119624742
 20
39.233975358
 30
0.0
 10
97.9104297643
 20
39.3835971609
 30
0.0
 10
97.9102471402
 20
39.6191734198
 30
0.0
 10
97.9123055901
 20
39.804312761
 30
0.0
 10
97.9145279269
 20
39.9317916715
 30
0.0
  0
SPLINE
  5
31E
100
AcDbEntity
  8
0
100
AcDbSpline
 62
7
  6
CONTINUOUS
 70
0
 71
3
 72
9
 73
5
 74
0
 42
0.0000001
 43
0.0000001
 44
0.0000000001
 40
0.0
 40
0.0
 40
0.0
 40
0.0
 40
0.2870396024
 40
1.0
 40
1.0
 40
1.0
 40
1.0
 10
97.3535244807
 20
186.9257036108
 30
0.0
 10
97.3468064817
 20
186.9186821061
 30
0.0
 10
97.3234482578
 20
186.8941765538
 30
0.0
 10
97.3002481026
 20
186.8695174449
 30
0.0
 10
97.2839433726
 20
186.851719786
 30
0.0
  0
SPLINE
  5
31F
100
AcDbEntity
  8
0
100
AcDbSpline
 62
7
  6
CONTINUOUS
 70
0
 71
3
 72
11
 73
7
 74
0
 42
0.0000001
 43
0.0000001
 44
0.0000000001
 40
0.0
 40
0.0
 40
0.0
 40
0.0
 40
0.428171119
 40
0.7400026691
 40
0.9313569923
 40
1.0
 40
1.0
 40
1.0
 40
1.0
 10
97.2839433726
 20
186.851719786
 30
0.0
 10
97.2776360234
 20
186.8448349097
 30
0.0
 10
97.2672840571
 20
186.8330915342
 30
0.0
 10
97.25245435
 20
186.8171003276
 30
0.0
 10
97.2472717561
 20
186.8085721431
 30
0.0
 10
97.2412625441
 20
186.8025530167
 30
0.0
 10
97.2423210244
 20
186.8014945365
 30
0.0
  0
SPLINE
  5
320
100
AcDbEntity
  8
0
100
AcDbSpline
 62
7
  6
CONTINUOUS
 70
0
 71
3
 72
9
 73
5
 74
0
 42
0.0000001
 43
0.0000001
 44
0.0000000001
 40
0.0
 40
0.0
 40
0.0
 40
0.0
 40
0.4897087053
 40
1.0
 40
1.0
 40
1.0
 40
1.0
 10
91.0713962321
 20
69.316251357
 30
0.0
 10
91.1821020616
 20
69.3023496445
 30
0.0
 10
91.4191510056
 20
69.3383296517
 30
0.0
 10
91.6091543136
 20
69.4758351102
 30
0.0
 10
91.691569205
 20
69.5578429675
 30
0.0
  0
SPLINE
  5
321
100
AcDbEntity
  8
0
100
AcDbSpline
 62
7
  6
CONTINUOUS
 70
0
 71
3
 72
8
 73
4
 74
0
 42
0.0000001
 43
0.0000001
 44
0.0000000001
 40
0.0
 40
0.0
 40
0.0
 40
0.0
 40
1.0
 40
1.0
 40
1.0
 40
1.0
 10
91.6919424815
 20
69.5573891684
 30
0.0
 10
91.7419852272
 20
69.6071908142
 30
0.0
 10
91.7874733115
 20
69.6621800038
 30
0.0
 10
91.8261528323
 20
69.7212424707
 30
0.0
  0
SPLINE
  5
322
100
AcDbEntity
  8
0
100
AcDbSpline
 62
7
  6
CONTINUOUS
 70
0
 71
3
 72
8
 73
4
 74
0
 42
0.0000001
 43
0.0000001
 44
0.0000000001
 40
0.0
 40
0.0
 40
0.0
 40
0.0
 40
1.0
 40
1.0
 40
1.0
 40
1.0
 10
91.8261528323
 20
69.7212424707
 30
0.0
 10
91.8633235305
 20
69.7780010107
 30
0.0
 10
91.8947021808
 20
69.8393755495
 30
0.0
 10
91.9165453435
 20
69.9036100332
 30
0.0
  0
SPLINE
  5
323
100
AcDbEntity
  8
0
100
AcDbSpline
 62
7
  6
CONTINUOUS
 70
0
 71
3
 72
16
 73
12
 74
0
 42
0.0000001
 43
0.0000001
 44
0.0000000001
 40
0.0
 40
0.0
 40
0.0
 40
0.0
 40
0.3840781967
 40
0.5568358329
 40
0.7078035151
 40
0.8314875892
 40
0.9234712803
 40
0.9563443381
 40
0.9801006964
 40
0.9946126509
 40
1.0
 40
1.0
 40
1.0
 40
1.0
 10
97.914528323
 20
95.1801742066
 30
0.0
 10
97.8261823588
 20
95.2686279052
 30
0.0
 10
97.6986424617
 20
95.3974406953
 30
0.0
 10
97.5379718395
 20
95.5624970024
 30
0.0
 10
97.4369993917
 20
95.667585821
 30
0.0
 10
97.3553975925
 20
95.754272559
 30
0.0
 10
97.300158199
 20
95.8142372823
 30
0.0
 10
97.2690679987
 20
95.8501768928
 30
0.0
 10
97.2530519611
 20
95.8688416904
 30
0.0
 10
97.2467911655
 20
95.8787194524
 30
0.0
 10
97.2410811137
 20
95.8860409465
 30
0.0
 10
97.2423210135
 20
95.8872809628
 30
0.0
  0
SPLINE
  5
324
100
AcDbEntity
  8
0
100
AcDbSpline
 62
7
  6
CONTINUOUS
 70
0
 71
3
 72
16
 73
12
 74
0
 42
0.0000001
 43
0.0000001
 44
0.0000000001
 40
0.0
 40
0.0
 40
0.0
 40
0.0
 40
0.004665519
 40
0.0175129366
 40
0.0393791084
 40
0.0708619802
 40
0.1634407086
 40
0.2922202968
 40
0.4513759128
 40
0.6300515078
 40
1.0
 40
1.0
 40
1.0
 40
1.0
 10
100.6565399043
 20
99.3015069894
 30
0.0
 10
100.6554660633
 20
99.3004331377
 30
0.0
 10
100.6601594108
 20
99.2939003032
 30
0.0
 10
100.6659118179
 20
99.2849384677
 30
0.0
 10
100.6806243927
 20
99.2674714982
 30
0.0
 10
100.7111100628
 20
99.2321183733
 30
0.0
 10
100.7672325576
 20
99.171053265
 30
0.0
 10
100.8519030114
 20
99.0810652417
 30
0.0
 10
100.9572564266
 20
98.9715039061
 30
0.0
 10
101.1179766221
 20
98.8065001489
 30
0.0
 10
101.2436638688
 20
98.6796097971
 30
0.0
 10
101.3287628345
 20
98.5944092704
 30
0.0
  0
SPLINE
  5
325
100
AcDbEntity
  8
0
100
AcDbSpline
 62
7
  6
CONTINUOUS
 70
0
 71
3
 72
10
 73
6
 74
0
 42
0.0000001
 43
0.0000001
 44
0.0000000001
 40
0.0
 40
0.0
 40
0.0
 40
0.0
 40
0.615740114
 40
0.8485097648
 40
1.0
 40
1.0
 40
1.0
 40
1.0
 10
92.8970918667
 20
243.4445705165
 30
0.0
 10
92.8903211966
 20
243.6389896659
 30
0.0
 10
92.8838678362
 20
243.9071521711
 30
0.0
 10
92.8885199703
 20
244.2229638679
 30
0.0
 10
92.8938796668
 20
244.3444343166
 30
0.0
 10
92.8995876928
 20
244.3919545705
 30
0.0
  0
SPLINE
  5
326
100
AcDbEntity
  8
0
100
AcDbSpline
 62
7
  6
CONTINUOUS
 70
0
 71
3
 72
9
 73
5
 74
0
 42
0.0000001
 43
0.0000001
 44
0.0000000001
 40
0.0
 40
0.0
 40
0.0
 40
0.0
 40
0.7180449386
 40
1.0
 40
1.0
 40
1.0
 40
1.0
 10
92.8995876928
 20
244.3919545705
 30
0.0
 10
92.9011499597
 20
244.4049606994
 30
0.0
 10
92.903894042
 20
244.419037041
 30
0.0
 10
92.9090556407
 20
244.4437689805
 30
0.0
 10
92.914196298
 20
244.4439497488
 30
0.0
  0
SPLINE
  5
327
100
AcDbEntity
  8
0
100
AcDbSpline
 62
7
  6
CONTINUOUS
 70
0
 71
3
 72
16
 73
12
 74
0
 42
0.0000001
 43
0.0000001
 44
0.0000000001
 40
0.0
 40
0.0
 40
0.0
 40
0.0
 40
0.0046654678
 40
0.0175128196
 40
0.0393789343
 40
0.0708617645
 40
0.163440492
 40
0.2922201747
 40
0.4513759408
 40
0.6300516631
 40
1.0
 40
1.0
 40
1.0
 40
1.0
 10
100.6565402442
 20
183.6372649738
 30
0.0
 10
100.655466373
 20
183.6383387771
 30
0.0
 10
100.6601596442
 20
183.6448717155
 30
0.0
 10
100.665912054
 20
183.653833434
 30
0.0
 10
100.6806246224
 20
183.6713004628
 30
0.0
 10
100.7111103968
 20
183.7066535772
 30
0.0
 10
100.7672331479
 20
183.7677187837
 30
0.0
 10
100.8519040608
 20
183.8577068987
 30
0.0
 10
100.9572580809
 20
183.9672683569
 30
0.0
 10
101.1179791209
 20
184.1322721555
 30
0.0
 10
101.2436670191
 20
184.2591624835
 30
0.0
 10
101.3287664025
 20
184.3443629507
 30
0.0
  0
SPLINE
  5
328
100
AcDbEntity
  8
0
100
AcDbSpline
 62
7
  6
CONTINUOUS
 70
0
 71
3
 72
16
 73
12
 74
0
 42
0.0000001
 43
0.0000001
 44
0.0000000001
 40
0.0
 40
0.0
 40
0.0
 40
0.0
 40
0.3650368509
 40
0.5425852521
 40
0.70139279
 40
0.8310401177
 40
0.9246568577
 40
0.9570820392
 40
0.9800921339
 40
0.9941080458
 40
1.0
 40
1.0
 40
1.0
 40
1.0
 10
97.9412949002
 20
243.6191878609
 30
0.0
 10
97.9412949139
 20
243.7409457886
 30
0.0
 10
97.9415708357
 20
243.9219321221
 30
0.0
 10
97.9414355279
 20
244.1558629731
 30
0.0
 10
97.940866328
 20
244.3113439695
 30
0.0
 10
97.9394450017
 20
244.4386505565
 30
0.0
 10
97.9376830338
 20
244.524187713
 30
0.0
 10
97.9351579465
 20
244.5734976031
 30
0.0
 10
97.9337301067
 20
244.5971808999
 30
0.0
 10
97.9313721801
 20
244.6103333969
 30
0.0
 10
97.9303198518
 20
244.6180415983
 30
0.0
 10
97.9286272224
 20
244.6190402226
 30
0.0
  0
SPLINE
  5
329
100
AcDbEntity
  8
0
100
AcDbSpline
 62
7
  6
CONTINUOUS
 70
0
 71
3
 72
18
 73
14
 74
0
 42
0.0000001
 43
0.0000001
 44
0.0000000001
 40
0.0
 40
0.0
 40
0.0
 40
0.0
 40
0.1950005553
 40
0.3825573857
 40
0.5556164626
 40
0.7071244831
 40
0.8307028272
 40
0.8808251307
 40
0.9226684969
 40
0.9558589169
 40
0.9800263577
 40
0.9948154285
 40
1.0
 40
1.0
 40
1.0
 40
1.0
 10
99.9668642421
 20
243.6902487752
 30
0.0
 10
99.9691293344
 20
243.7552860608
 30
0.0
 10
99.9733485726
 20
243.8828868226
 30
0.0
 10
99.9788325228
 20
244.0682257311
 30
0.0
 10
99.9832477267
 20
244.23909073
 30
0.0
 10
99.9863918832
 20
244.3885779728
 30
0.0
 10
99.9880050338
 20
244.4971902526
 30
0.0
 10
99.9883841873
 20
244.5689764741
 30
0.0
 10
99.9884672612
 20
244.6110618879
 30
0.0
 10
99.9877240714
 20
244.6433253757
 30
0.0
 10
99.9878420588
 20
244.6693468259
 30
0.0
 10
99.9854436251
 20
244.6805374305
 30
0.0
 10
99.9860411227
 20
244.6909096825
 30
0.0
 10
99.9843122176
 20
244.6908421059
 30
0.0
  0
SPLINE
  5
32A
100
AcDbEntity
  8
0
100
AcDbSpline
 62
7
  6
CONTINUOUS
 70
0
 71
3
 72
16
 73
12
 74
0
 42
0.0000001
 43
0.0000001
 44
0.0000000001
 40
0.0
 40
0.0
 40
0.0
 40
0.0
 40
0.3824137887
 40
0.5552778074
 40
0.7066034736
 40
0.8305851717
 40
0.9227572266
 40
0.9557142978
 40
0.9795611773
 40
0.9942032682
 40
1.0
 40
1.0
 40
1.0
 40
1.0
 10
99.9843249913
 20
235.2930885379
 30
0.0
 10
99.9865405753
 20
235.4206746583
 30
0.0
 10
99.9884883417
 20
235.6059749417
 30
0.0
 10
99.9883842242
 20
235.8417230957
 30
0.0
 10
99.9869095099
 20
235.9913516406
 30
0.0
 10
99.9839619642
 20
236.1137087841
 30
0.0
 10
99.9803154252
 20
236.1972726899
 30
0.0
 10
99.9766147271
 20
236.2461513101
 30
0.0
 10
99.9738570719
 20
236.2710255443
 30
0.0
 10
99.9714281201
 20
236.2834260803
 30
0.0
 10
99.9688119883
 20
236.2923632595
 30
0.0
 10
99.9668780487
 20
236.2923271554
 30
0.0
  0
SPLINE
  5
32B
100
AcDbEntity
  8
0
100
AcDbSpline
 62
7
  6
CONTINUOUS
 70
0
 71
3
 72
10
 73
6
 74
0
 42
0.0000001
 43
0.0000001
 44
0.0000000001
 40
0.0
 40
0.0
 40
0.0
 40
0.0
 40
0.5000373556
 40
0.750211743
 40
1.0
 40
1.0
 40
1.0
 40
1.0
 10
99.9843251231
 20
235.2931452723
 30
0.0
 10
100.2216584814
 20
235.5304769517
 30
0.0
 10
100.5770704648
 20
235.8966217912
 30
0.0
 10
100.8863149624
 20
236.499377796
 30
0.0
 10
100.9494333666
 20
236.8365081273
 30
0.0
 10
100.949427806
 20
237.0041728959
 30
0.0
  0
SPLINE
  5
32C
100
AcDbEntity
  8
0
100
AcDbSpline
 62
7
  6
CONTINUOUS
 70
0
 71
3
 72
8
 73
4
 74
0
 42
0.0000001
 43
0.0000001
 44
0.0000000001
 40
0.0
 40
0.0
 40
0.0
 40
0.0
 40
1.0
 40
1.0
 40
1.0
 40
1.0
 10
92.801116153
 20
234.5179468674
 30
0.0
 10
92.8616381913
 20
234.8254405107
 30
0.0
 10
92.8970713871
 20
235.1398215996
 30
0.0
 10
92.8970918564
 20
235.4532147351
 30
0.0
  0
SPLINE
  5
32D
100
AcDbEntity
  8
0
100
AcDbSpline
 62
7
  6
CONTINUOUS
 70
0
 71
3
 72
16
 73
12
 74
0
 42
0.0000001
 43
0.0000001
 44
0.0000000001
 40
0.0
 40
0.0
 40
0.0
 40
0.0
 40
0.0053867915
 40
0.0198974256
 40
0.043652224
 40
0.0765239667
 40
0.1685019004
 40
0.2921792239
 40
0.4431420473
 40
0.6159039198
 40
1.0
 40
1.0
 40
1.0
 40
1.0
 10
97.2423210246
 20
187.0514945363
 30
0.0
 10
97.2410811948
 20
187.0527343661
 30
0.0
 10
97.2467902504
 20
187.0600554849
 30
0.0
 10
97.2530507386
 20
187.069932343
 30
0.0
 10
97.2690656493
 20
187.0885961959
 30
0.0
 10
97.3001541814
 20
187.1245335884
 30
0.0
 10
97.3553902816
 20
187.1844951847
 30
0.0
 10
97.4369881698
 20
187.2711778752
 30
0.0
 10
97.5379587699
 20
187.3762651543
 30
0.0
 10
97.698633347
 20
187.5413254753
 30
0.0
 10
97.8261782219
 20
187.6701434909
 30
0.0
 10
97.9145283066
 20
187.7586013151
 30
0.0
  0
SPLINE
  5
32E
100
AcDbEntity
  8
0
100
AcDbSpline
 62
7
  6
CONTINUOUS
 70
0
 71
3
 72
16
 73
12
 74
0
 42
0.0000001
 43
0.0000001
 44
0.0000000001
 40
0.0
 40
0.0
 40
0.0
 40
0.0
 40
0.3818696191
 40
0.5544625977
 40
0.705640046
 40
0.8297398932
 40
0.9222059686
 40
0.9553144876
 40
0.9793064767
 40
0.994087696
 40
1.0
 40
1.0
 40
1.0
 40
1.0
 10
97.9145283091
 20
235.2569601024
 30
0.0
 10
97.9123058163
 20
235.3844418976
 30
0.0
 10
97.9102472575
 20
235.5695809928
 30
0.0
 10
97.9104296099
 20
235.8051525449
 30
0.0
 10
97.9119621661
 20
235.954767166
 30
0.0
 10
97.9148408466
 20
236.077296506
 30
0.0
 10
97.9183691786
 20
236.1610863293
 30
0.0
 10
97.9221264032
 20
236.2102152348
 30
0.0
 10
97.924885825
 20
236.2352081852
 30
0.0
 10
97.927450076
 20
236.2478039402
 30
0.0
 10
97.9300013481
 20
236.2567730833
 30
0.0
 10
97.9319750824
 20
236.256807792
 30
0.0
  0
SPLINE
  5
32F
100
AcDbEntity
  8
0
100
AcDbSpline
 62
7
  6
CONTINUOUS
 70
0
 71
3
 72
9
 73
5
 74
0
 42
0.0000001
 43
0.0000001
 44
0.0000000001
 40
0.0
 40
0.0
 40
0.0
 40
0.0
 40
0.7497573115
 40
1.0
 40
1.0
 40
1.0
 40
1.0
 10
91.9494277803
 20
232.2208084077
 30
0.0
 10
92.2269376657
 20
232.7680007652
 30
0.0
 10
92.5601006439
 20
233.5224455063
 30
0.0
 10
92.7615696974
 20
234.3170236321
 30
0.0
 10
92.801116153
 20
234.5179468674
 30
0.0
  0
ENDSEC
  0
SECTION
  2
OBJECTS
  0
DICTIONARY
  5
C
100
AcDbDictionary
280
0
281
1
  3
ACAD_GROUP
350
D
  3
ACAD_MLINESTYLE
350
17
  3
ACAD_LAYOUT
350
1A
  3
ACAD_PLOTSETTINGS
350
19
  3
ACAD_PLOTSTYLENAME
350
E
  0
DICTIONARY
  5
D
102
{ACAD_REACTORS
330
C
102
}
100
AcDbDictionary
280
0
281
1
  0
ACDBDICTIONARYWDFLT
  5
E
102
{ACAD_REACTORS
330
C
102
}
100
AcDbDictionary
281
1
  3
Normal
350
F
100
AcDbDictionaryWithDefault
340
F
  0
DICTIONARY
  5
17
102
{ACAD_REACTORS
330
C
102
}
100
AcDbDictionary
280
0
281
1
  3
Standard
350
18
  0
DICTIONARY
  5
19
102
{ACAD_REACTORS
330
C
102
}
100
AcDbDictionary
281
1
  0
DICTIONARY
  5
1A
102
{ACAD_REACTORS
330
C
102
}
100
AcDbDictionary
281
1
  3
Model
350
330
  3
Layout1
350
331
  0
ACDBPLACEHOLDER
  5
F
102
{ACAD_REACTORS
330
E
102
}
  0
MLINESTYLE
  5
18
102
{ACAD_REACTORS
330
17
102
}
100
AcDbMlineStyle
  2
STANDARD
 70
0
  3

 62
256
 51
90.0
 52
90.0
 71
2
 49
0.5
 62
256
  6
BYLAYER
 49
-0.5
 62
256
  6
BYLAYER
  0
LAYOUT
  5
330
102
{ACAD_REACTORS
330
1A
102
}
100
AcDbPlotSettings
  1

  2
none_device
  4

  6

 40
0.0
 41
0.0
 42
0.0
 43
0.0
 44
210.0
 45
297.0
 46
0.0
 47
0.0
 48
0.0
 49
0.0
140
0.0
141
0.0
142
1.0
143
1.0
 70
1024
 72
1
 73
0
 74
0
  7

 75
0
147
1.0
148
0.0
149
0.0
100
AcDbLayout
  1
Model
 70
0
 71
0
 10
0.0
 20
0.0
 11
210.0
 21
297.0
 12
0.0
 22
0.0
 32
0.0
 14
0.0
 24
0.0
 34
0.0
 15
0.0
 25
0.0
 35
0.0
146
0.0
 13
0.0
 23
0.0
 33
0.0
 16
1.0
 26
0.0
 36
0.0
 17
0.0
 27
1.0
 37
0.0
 76
0
330
210
345
0
346
0
  0
LAYOUT
  5
331
102
{ACAD_REACTORS
330
1A
102
}
100
AcDbPlotSettings
  1

  2
none_device
  4

  6

 40
0.0
 41
0.0
 42
0.0
 43
0.0
 44
210.0
 45
297.0
 46
0.0
 47
0.0
 48
0.0
 49
0.0
140
0.0
141
0.0
142
1.0
143
1.0
 70
0
 72
1
 73
0
 74
0
  7

 75
0
147
1.0
148
0.0
149
0.0
100
AcDbLayout
  1
Layout1
 70
0
 71
1
 10
0.0
 20
0.0
 11
210.0
 21
297.0
 12
0.0
 22
0.0
 32
0.0
 14
0.0
 24
0.0
 34
0.0
 15
0.0
 25
0.0
 35
0.0
146
0.0
 13
0.0
 23
0.0
 33
0.0
 16
1.0
 26
0.0
 36
0.0
 17
0.0
 27
1.0
 37
0.0
 76
0
330
211
345
0
346
0
  0
ENDSEC
  0
EOF
