999
DXF file: C:\Users\sesa63760\Dev\_Creo\CAD\MCADID0005486_3D-CAD\drw0001_6.dxf
999
Pro/ENGINEER 2019471 by Parametric Technology Corporation
  0
SECTION
  2
HEADER
  9
$ACADVER
  1
AC1024
  9
$DWGCODEPAGE
  3
ANSI_1252
  9
$EXTMAX
 10
71.6759000753
 20
101.3702015351
 30
0.0
  9
$EXTMIN
 10
0.0
 20
0.0
 30
0.0
  9
$LIMMIN
 10
0.0
 20
0.0
  9
$LIMMAX
 10
71.6759000753
 20
101.3702015351
  9
$VIEWCTR
 10
35.8379500377
 20
50.6851007675
  9
$VIEWSIZE
 40
101.3702015351
  9
$CLAYER
  8
0
  9
$LTSCALE
 40
6.6078353593
  9
$CELTYPE
  6
BYLAYER
  9
$DIMSCALE
 40
1.0
  9
$DIMASZ
 40
0.8532845247
  9
$DIMEXO
 40
1.0
  9
$DIMDLI
 40
4.565413521
  9
$DIMEXE
 40
1.0
  9
$DIMCEN
 40
1.0812821497
  9
$DIMLFAC
 40
1.0
  9
$DIMBLK
  1
_FILLED
  9
$DIMALT
 70
0
  9
$DIMALTF
 40
0.0393700787
  9
$DIMTXT
 40
1.1945983346
  9
$DIMTOL
 70
1
  9
$DIMLIM
 70
0
  9
$DIMTFAC
 40
1.0
  9
$DIMTP
 40
0.01
  9
$DIMTM
 40
0.01
  9
$DIMGAP
 40
0.625
  9
$DIMDSEP
 70
46
  9
$AUNITS
 70
0
  9
$PDMODE
 70
3
  9
$PDSIZE
 40
0.3125
  9
$HANDSEED
  5
2B8
  9
$TILEMODE
 70
1
  9
$MEASUREMENT
 70
1
  9
$INSUNITS
 70
4
  0
ENDSEC
  0
SECTION
  2
CLASSES
  0
CLASS
  1
ACDBDICTIONARYWDFLT
  2
AcDbDictionaryWithDefault
  3
AutoCAD 2000
 90
0
 91
1
280
0
281
0
  0
CLASS
  1
ACDBPLACEHOLDER
  2
AcDbPlaceHolder
  3
AutoCAD 2000
 90
0
 91
1
280
0
281
0
  0
CLASS
  1
LAYOUT
  2
AcDbLayout
  3
AutoCAD 2000
 90
0
 91
0
280
0
281
0
  0
ENDSEC
  0
SECTION
  2
TABLES
  0
TABLE
  2
VPORT
  5
8
100
AcDbSymbolTable
 70
2
  0
VPORT
  5
1F4
100
AcDbSymbolTableRecord
100
AcDbViewportTableRecord
  2
*ACTIVE
 70
0
 10
0.0
 20
0.0
 11
1.0
 21
1.0
 12
35.8379500377
 22
50.6851007675
 13
0.0
 23
0.0
 14
1.0
 24
1.0
 15
0.0
 25
0.0
 16
0.0
 26
0.0
 36
1.0
 17
0.0
 27
0.0
 37
0.0
 40
101.3702015351
 41
0.7070707071
 42
50.0
 43
0.0
 44
0.0
 50
0.0
 51
0.0
 71
0
 72
100
 73
1
 74
1
 75
0
 76
0
 77
0
 78
0
  0
ENDTAB
  0
TABLE
  2
LTYPE
  5
5
100
AcDbSymbolTable
 70
6
  0
LTYPE
  5
14
100
AcDbSymbolTableRecord
100
AcDbLinetypeTableRecord
  2
BYBLOCK
 70
0
  3

 72
65
 73
0
 40
0.0
  0
LTYPE
  5
15
100
AcDbSymbolTableRecord
100
AcDbLinetypeTableRecord
  2
BYLAYER
 70
0
  3

 72
65
 73
0
 40
0.0
  0
LTYPE
  5
16
100
AcDbSymbolTableRecord
100
AcDbLinetypeTableRecord
  2
CONTINUOUS
 70
64
  3
Solid line
 72
65
 73
0
 40
0.0
  0
LTYPE
  5
1F5
100
AcDbSymbolTableRecord
100
AcDbLinetypeTableRecord
  2
CENTER
 70
64
  3
____ _ ____ _ ____ _ ____ _ ____ _ ____ _ ____
 72
65
 73
4
 40
0.6
 49
0.375
 74
0
 49
-0.075
 74
0
 49
0.075
 74
0
 49
-0.075
 74
0
  0
LTYPE
  5
1F6
100
AcDbSymbolTableRecord
100
AcDbLinetypeTableRecord
  2
HIDDEN
 70
64
  3
- - - - - - - - - - - - - - - - - - - -
 72
65
 73
2
 40
0.2
 49
0.1
 74
0
 49
-0.1
 74
0
  0
LTYPE
  5
1F7
100
AcDbSymbolTableRecord
100
AcDbLinetypeTableRecord
  2
PHANTOM
 70
64
  3
_____ _ _ _____ _ _ _____ _ _ _____
 72
65
 73
6
 40
0.8
 49
0.45
 74
0
 49
-0.05
 74
0
 49
0.1
 74
0
 49
-0.05
 74
0
 49
0.1
 74
0
 49
-0.05
 74
0
  0
LTYPE
  5
1F8
100
AcDbSymbolTableRecord
100
AcDbLinetypeTableRecord
  2
DOT
 70
64
  3
. . . . . . . . . . . . . . . . . . . .
 72
65
 73
2
 40
0.2
 49
0.1
 74
0
 49
-0.1
 74
0
  0
LTYPE
  5
1F9
100
AcDbSymbolTableRecord
100
AcDbLinetypeTableRecord
  2
DASHED
 70
64
  3
- - - - - - - - - - - - - - - - - - - -
 72
65
 73
2
 40
0.2
 49
0.1
 74
0
 49
-0.1
 74
0
  0
ENDTAB
  0
TABLE
  2
LAYER
  5
2
100
AcDbSymbolTable
 70
36
  0
LAYER
  5
10
100
AcDbSymbolTableRecord
100
AcDbLayerTableRecord
  2
0
 70
0
 62
7
  6
CONTINUOUS
370
-3
390
F
  0
LAYER
  5
1FA
100
AcDbSymbolTableRecord
100
AcDbLayerTableRecord
  2
DEFAULT_1
 70
0
 62
7
  6
CENTER
370
-3
390
F
  0
LAYER
  5
1FB
100
AcDbSymbolTableRecord
100
AcDbLayerTableRecord
  2
DEFAULT_2
 70
0
 62
7
  6
HIDDEN
370
-3
390
F
  0
LAYER
  5
1FC
100
AcDbSymbolTableRecord
100
AcDbLayerTableRecord
  2
DEFAULT_3
 70
0
 62
7
  6
PHANTOM
370
-3
390
F
  0
LAYER
  5
1FD
100
AcDbSymbolTableRecord
100
AcDbLayerTableRecord
  2
00_COMPONENTS
 70
0
 62
7
  6
CONTINUOUS
370
-3
390
F
  0
LAYER
  5
1FE
100
AcDbSymbolTableRecord
100
AcDbLayerTableRecord
  2
01_1_DEFAULT_DATUMS
 70
0
 62
7
  6
CONTINUOUS
370
-3
390
F
  0
LAYER
  5
1FF
100
AcDbSymbolTableRecord
100
AcDbLayerTableRecord
  2
01_PLANES
 70
0
 62
7
  6
CONTINUOUS
370
-3
390
F
  0
LAYER
  5
200
100
AcDbSymbolTableRecord
100
AcDbLayerTableRecord
  2
02_COORD_SYS
 70
0
 62
7
  6
CONTINUOUS
370
-3
390
F
  0
LAYER
  5
201
100
AcDbSymbolTableRecord
100
AcDbLayerTableRecord
  2
03_AXES
 70
0
 62
7
  6
CONTINUOUS
370
-3
390
F
  0
LAYER
  5
202
100
AcDbSymbolTableRecord
100
AcDbLayerTableRecord
  2
04_POINTS
 70
0
 62
7
  6
CONTINUOUS
370
-3
390
F
  0
LAYER
  5
203
100
AcDbSymbolTableRecord
100
AcDbLayerTableRecord
  2
05_CURVES
 70
0
 62
7
  6
CONTINUOUS
370
-3
390
F
  0
LAYER
  5
204
100
AcDbSymbolTableRecord
100
AcDbLayerTableRecord
  2
06_SURFS
 70
0
 62
7
  6
CONTINUOUS
370
-3
390
F
  0
LAYER
  5
205
100
AcDbSymbolTableRecord
100
AcDbLayerTableRecord
  2
07_COSMETICS
 70
0
 62
7
  6
CONTINUOUS
370
-3
390
F
  0
LAYER
  5
206
100
AcDbSymbolTableRecord
100
AcDbLayerTableRecord
  2
10_NOTES
 70
0
 62
7
  6
CONTINUOUS
370
-3
390
F
  0
LAYER
  5
207
100
AcDbSymbolTableRecord
100
AcDbLayerTableRecord
  2
11_NOTES_PUB
 70
0
 62
7
  6
CONTINUOUS
370
-3
390
F
  0
LAYER
  5
208
100
AcDbSymbolTableRecord
100
AcDbLayerTableRecord
  2
13_REF_GTOL
 70
0
 62
7
  6
CONTINUOUS
370
-3
390
F
  0
LAYER
  5
209
100
AcDbSymbolTableRecord
100
AcDbLayerTableRecord
  2
16_MISC
 70
0
 62
7
  6
CONTINUOUS
370
-3
390
F
  0
LAYER
  5
20A
100
AcDbSymbolTableRecord
100
AcDbLayerTableRecord
  2
17_NO_PRINT
 70
0
 62
7
  6
CONTINUOUS
370
-3
390
F
  0
LAYER
  5
20B
100
AcDbSymbolTableRecord
100
AcDbLayerTableRecord
  2
18_DATUM_CAMS_JOINTS
 70
0
 62
7
  6
CONTINUOUS
370
-3
390
F
  0
LAYER
  5
20C
100
AcDbSymbolTableRecord
100
AcDbLayerTableRecord
  2
19_DATUM_FUNCTIONAL
 70
0
 62
7
  6
CONTINUOUS
370
-3
390
F
  0
LAYER
  5
20D
100
AcDbSymbolTableRecord
100
AcDbLayerTableRecord
  2
20_DATUM_KINEMATIC_SCHEME
 70
0
 62
7
  6
CONTINUOUS
370
-3
390
F
  0
ENDTAB
  0
TABLE
  2
STYLE
  5
3
100
AcDbSymbolTable
 70
1
  0
STYLE
  5
11
100
AcDbSymbolTableRecord
100
AcDbTextStyleTableRecord
  2
STANDARD
 70
0
 40
0.0
 41
1.0
 50
0.0
 71
0
 42
0.2
  3
ARIAL.TTF
  4

  0
STYLE
  5
20E
100
AcDbSymbolTableRecord
100
AcDbTextStyleTableRecord
  2
TEXTSTYLE_1
 70
0
 40
0.0
 41
0.8
 50
0.0
 71
0
 42
0.2
  3
gdt
  4

  0
ENDTAB
  0
TABLE
  2
VIEW
  5
6
100
AcDbSymbolTable
 70
0
  0
ENDTAB
  0
TABLE
  2
UCS
  5
7
100
AcDbSymbolTable
 70
0
  0
ENDTAB
  0
TABLE
  2
APPID
  5
9
100
AcDbSymbolTable
 70
1
  0
APPID
  5
20F
100
AcDbSymbolTableRecord
100
AcDbRegAppTableRecord
  2
ACAD
 70
0
  0
ENDTAB
  0
TABLE
  2
BLOCK_RECORD
  5
1
100
AcDbSymbolTable
 70
0
  0
BLOCK_RECORD
  5
210
100
AcDbSymbolTableRecord
100
AcDbBlockTableRecord
  2
*Model_Space
  0
BLOCK_RECORD
  5
211
100
AcDbSymbolTableRecord
100
AcDbBlockTableRecord
  2
*Paper_Space
  0
BLOCK_RECORD
  5
212
100
AcDbSymbolTableRecord
100
AcDbBlockTableRecord
  2
_FILLED
  0
ENDTAB
  0
TABLE
  2
DIMSTYLE
  5
A
100
AcDbSymbolTable
 70
1
100
AcDbDimStyleTable
 71
0
  0
DIMSTYLE
105
213
100
AcDbSymbolTableRecord
100
AcDbDimStyleTableRecord
  2
STANDARD
 70
0
  3

  4

 40
1.0
 41
0.8532845247
 42
1.0
 43
0.38
 44
1.0
 45
0.0
 46
0.0
 47
0.01
 48
0.01
140
1.1945983346
141
0.09
142
0.0
143
25.4
144
1.0
145
0.0
146
1.0
147
0.625
 71
1
 72
0
 73
0
 74
0
 75
0
 76
0
 77
1
 78
8
 79
2
170
0
171
1
172
0
173
0
174
0
175
0
176
0
177
0
178
0
270
2
179
2
271
2
272
2
273
2
274
2
275
0
280
0
281
0
282
0
283
1
284
8
285
0
286
0
287
3
288
0
340
11
278
46
341
212
342
212
343
212
344
212
  0
ENDTAB
  0
ENDSEC
  0
SECTION
  2
BLOCKS
  0
BLOCK
  5
20
100
AcDbEntity
  8
0
100
AcDbBlockBegin
  2
*Model_Space
 70
0
 10
0.0
 20
0.0
 30
0.0
  3
*Model_Space
  1

  0
ENDBLK
  5
21
100
AcDbEntity
  8
0
100
AcDbBlockEnd
  0
BLOCK
  5
1C
100
AcDbEntity
  8
0
100
AcDbBlockBegin
  2
*Paper_Space
 70
0
 10
0.0
 20
0.0
 30
0.0
  3
*Paper_Space
  1

  0
ENDBLK
  5
1D
100
AcDbEntity
  8
0
100
AcDbBlockEnd
  0
BLOCK
  5
214
100
AcDbEntity
  8
0
100
AcDbBlockBegin
  2
_FILLED
 70
64
 10
0.0
 20
0.0
  3
_FILLED
  1

  0
SOLID
  5
215
100
AcDbEntity
  8
0
  6
BYBLOCK
 62
0
100
AcDbTrace
 10
0.0
 20
0.0
 11
-1.0
 21
0.25
 12
-1.0
 22
-0.25
 13
-1.0
 23
-0.25
  0
ENDBLK
  5
216
100
AcDbEntity
  8
0
  6
BYBLOCK
 62
0
100
AcDbBlockEnd
  0
ENDSEC
  0
SECTION
  2
ENTITIES
  0
LINE
  5
217
100
AcDbEntity
  8
0
100
AcDbLine
 62
7
  6
BYLAYER
 10
28.9671052984
 20
8.375139142
 11
43.9583403522
 21
8.5059656684
  0
LINE
  5
218
100
AcDbEntity
  8
0
100
AcDbLine
 62
7
  6
BYLAYER
 10
43.9583403522
 20
9.3846118628
 11
28.9671052984
 21
9.2537853367
  0
LINE
  5
219
100
AcDbEntity
  8
0
100
AcDbLine
 62
7
  6
BYLAYER
 10
28.4583213137
 20
9.610424023
 11
28.9671052984
 21
9.2537853367
  0
LINE
  5
21A
100
AcDbEntity
  8
0
100
AcDbLine
 62
7
  6
BYLAYER
 10
28.9671052984
 20
15.4964480432
 11
43.9583403522
 21
15.5506381644
  0
LINE
  5
21B
100
AcDbEntity
  8
0
100
AcDbLine
 62
7
  6
BYLAYER
 10
28.9671052984
 20
8.375139142
 11
28.4583213137
 21
8.8795024098
  0
LINE
  5
21C
100
AcDbEntity
  8
0
100
AcDbLine
 62
7
  6
BYLAYER
 10
43.9583403522
 20
17.6718777317
 11
28.9671052984
 21
17.6176876047
  0
LINE
  5
21D
100
AcDbEntity
  8
0
100
AcDbLine
 62
7
  6
BYLAYER
 10
28.4583213137
 20
17.6176876042
 11
28.9671052984
 21
17.6176876047
  0
LINE
  5
21E
100
AcDbEntity
  8
0
100
AcDbLine
 62
7
  6
BYLAYER
 10
43.9583403522
 20
17.6718777317
 11
44.4583213137
 21
17.6718777254
  0
LINE
  5
21F
100
AcDbEntity
  8
0
100
AcDbLine
 62
7
  6
BYLAYER
 10
28.9671052984
 20
15.4964480432
 11
28.4583213137
 21
15.8530867306
  0
LINE
  5
220
100
AcDbEntity
  8
0
100
AcDbLine
 62
7
  6
BYLAYER
 10
34.9833213137
 20
92.9950624854
 11
34.7833213137
 21
92.7950624854
  0
LINE
  5
221
100
AcDbEntity
  8
0
100
AcDbLine
 62
7
  6
BYLAYER
 10
33.1583213137
 20
89.8950624854
 11
32.9583213137
 21
89.6950624854
  0
LINE
  5
222
100
AcDbEntity
  8
0
100
AcDbLine
 62
7
  6
BYLAYER
 10
38.8012520057
 20
85.7511818482
 11
38.801234032
 21
85.751170893
  0
LWPOLYLINE
  5
223
100
AcDbEntity
  8
0
100
AcDbPolyline
 62
7
  6
BYLAYER
 90
4
 70
0
 10
38.8013333677
 20
85.7512177596
 10
38.7022336051
 20
85.6915980619
 10
38.5090046728
 20
85.5801095623
 10
38.4153213167
 20
85.528442216
  0
LINE
  5
224
100
AcDbEntity
  8
0
100
AcDbLine
 62
7
  6
BYLAYER
 10
38.415348695
 20
85.5284634041
 11
38.415277412
 21
85.5284247075
  0
LINE
  5
225
100
AcDbEntity
  8
0
100
AcDbLine
 62
7
  6
BYLAYER
 10
44.4583213137
 20
20.3750624854
 11
28.4583213137
 21
20.3750624854
  0
LINE
  5
226
100
AcDbEntity
  8
0
100
AcDbLine
 62
7
  6
BYLAYER
 10
28.4583213137
 20
20.5250624854
 11
44.4583213137
 21
20.5250624854
  0
LINE
  5
227
100
AcDbEntity
  8
0
100
AcDbLine
 62
7
  6
BYLAYER
 10
28.9583213137
 20
74.0950624854
 11
28.4583213137
 21
73.5950624854
  0
LINE
  5
228
100
AcDbEntity
  8
0
100
AcDbLine
 62
7
  6
BYLAYER
 10
37.9333213137
 20
81.3950624854
 11
38.1333213137
 21
81.5950624854
  0
LINE
  5
229
100
AcDbEntity
  8
0
100
AcDbLine
 62
7
  6
BYLAYER
 10
28.4583213137
 20
71.5950624854
 11
28.9583213137
 21
72.0950624854
  0
LINE
  5
22A
100
AcDbEntity
  8
0
100
AcDbLine
 62
7
  6
BYLAYER
 10
30.2864012135
 20
84.9645081304
 11
30.2981411267
 21
84.9973809415
  0
LINE
  5
22B
100
AcDbEntity
  8
0
100
AcDbLine
 62
7
  6
BYLAYER
 10
30.3432273665
 20
85.1749200165
 11
30.2788993824
 21
85.0042527726
  0
LINE
  5
22C
100
AcDbEntity
  8
0
100
AcDbLine
 62
7
  6
BYLAYER
 10
30.2583213471
 20
84.8950708291
 11
30.2933801025
 21
84.9820472401
  0
LINE
  5
22D
100
AcDbEntity
  8
0
100
AcDbLine
 62
7
  6
BYLAYER
 10
30.4778842882
 20
85.5808959515
 11
30.4778109541
 21
85.58064961
  0
LWPOLYLINE
  5
22E
100
AcDbEntity
  8
0
100
AcDbPolyline
 62
7
  6
BYLAYER
 90
4
 70
0
 10
30.477810388
 20
85.5806448978
 10
30.3827218726
 20
85.2860854803
 10
30.3038805555
 20
85.0691371714
 10
30.2788993824
 20
85.0042527726
  0
LINE
  5
22F
100
AcDbEntity
  8
0
100
AcDbLine
 62
7
  6
BYLAYER
 10
30.3526784182
 20
85.2034146566
 11
30.3432273665
 21
85.1749200165
  0
LWPOLYLINE
  5
230
100
AcDbEntity
  8
0
100
AcDbPolyline
 62
7
  6
BYLAYER
 90
3
 70
0
 10
30.2788993824
 20
85.0042527726
 10
30.2591626353
 20
84.917475339
 10
30.2583245796
 20
84.8950671029
  0
LINE
  5
231
100
AcDbEntity
  8
0
100
AcDbLine
 62
7
  6
BYLAYER
 10
28.4583213137
 20
20.3750624854
 11
28.4583213137
 21
8.8795024098
  0
LINE
  5
232
100
AcDbEntity
  8
0
100
AcDbLine
 62
7
  6
BYLAYER
 10
28.4583213137
 20
20.5250624854
 11
28.4583213137
 21
73.5950624854
  0
LINE
  5
233
100
AcDbEntity
  8
0
100
AcDbLine
 62
7
  6
BYLAYER
 10
28.9583213137
 20
72.0950624854
 11
28.9583213137
 21
20.5250624854
  0
LINE
  5
234
100
AcDbEntity
  8
0
100
AcDbLine
 62
7
  6
BYLAYER
 10
28.9671052984
 20
20.3750624854
 11
28.9671052984
 21
17.6176876047
  0
LINE
  5
235
100
AcDbEntity
  8
0
100
AcDbLine
 62
7
  6
BYLAYER
 10
28.9671052984
 20
15.4964480432
 11
28.9671052984
 21
8.375139142
  0
LINE
  5
236
100
AcDbEntity
  8
0
100
AcDbLine
 62
7
  6
BYLAYER
 10
30.2583213137
 20
84.8950670609
 11
30.2583213137
 21
74.0950624854
  0
LINE
  5
237
100
AcDbEntity
  8
0
100
AcDbLine
 62
7
  6
BYLAYER
 10
30.4778109541
 20
85.58064961
 11
30.4758697419
 21
85.4950568575
  0
LINE
  5
238
100
AcDbEntity
  8
0
100
AcDbLine
 62
7
  6
BYLAYER
 10
31.3477929653
 20
85.7950624854
 11
31.3477929653
 21
85.738627111
  0
LINE
  5
239
100
AcDbEntity
  8
0
100
AcDbLine
 62
7
  6
BYLAYER
 10
32.9583213137
 20
85.7950624854
 11
32.9583213137
 21
89.6950624854
  0
LINE
  5
23A
100
AcDbEntity
  8
0
100
AcDbLine
 62
7
  6
BYLAYER
 10
33.95917646
 20
85.738627111
 11
33.95917646
 21
85.7950624854
  0
LINE
  5
23B
100
AcDbEntity
  8
0
100
AcDbLine
 62
7
  6
BYLAYER
 10
34.2515416527
 20
77.7950624854
 11
34.2515416527
 21
81.5758181746
  0
LINE
  5
23C
100
AcDbEntity
  8
0
100
AcDbLine
 62
7
  6
BYLAYER
 10
34.3583213137
 20
81.7055003691
 11
34.3583213137
 21
85.4946372631
  0
LINE
  5
23D
100
AcDbEntity
  8
0
100
AcDbLine
 62
7
  6
BYLAYER
 10
34.6583213137
 20
77.7950624854
 11
34.6583213137
 21
85.2647208985
  0
LINE
  5
23E
100
AcDbEntity
  8
0
100
AcDbLine
 62
7
  6
BYLAYER
 10
34.7083213137
 20
81.2771255525
 11
34.7083213137
 21
89.8950624854
  0
LINE
  5
23F
100
AcDbEntity
  8
0
100
AcDbLine
 62
7
  6
BYLAYER
 10
34.7833213137
 20
92.7950624854
 11
34.7833213137
 21
81.5950624854
  0
LINE
  5
240
100
AcDbEntity
  8
0
100
AcDbLine
 62
7
  6
BYLAYER
 10
34.9833213137
 20
92.9950624854
 11
34.9833213137
 21
81.3950624854
  0
LINE
  5
241
100
AcDbEntity
  8
0
100
AcDbLine
 62
7
  6
BYLAYER
 10
35.1027771426
 20
77.7950624854
 11
35.1027771426
 21
74.0950624854
  0
LINE
  5
242
100
AcDbEntity
  8
0
100
AcDbLine
 62
7
  6
BYLAYER
 10
35.5652927587
 20
73.5950389736
 11
35.5652927587
 21
72.5950624854
  0
LINE
  5
243
100
AcDbEntity
  8
0
100
AcDbLine
 62
7
  6
BYLAYER
 10
36.4583213137
 20
20.3750624854
 11
36.4583212737
 21
20.5250624854
  0
LINE
  5
244
100
AcDbEntity
  8
0
100
AcDbLine
 62
7
  6
BYLAYER
 10
37.3513498687
 20
72.5950624854
 11
37.3513498687
 21
73.5950389736
  0
LINE
  5
245
100
AcDbEntity
  8
0
100
AcDbLine
 62
7
  6
BYLAYER
 10
37.8138654849
 20
74.0950624854
 11
37.8138654849
 21
77.7950624854
  0
LINE
  5
246
100
AcDbEntity
  8
0
100
AcDbLine
 62
7
  6
BYLAYER
 10
37.9333213137
 20
81.3950624854
 11
37.9333213137
 21
92.9950624854
  0
LINE
  5
247
100
AcDbEntity
  8
0
100
AcDbLine
 62
7
  6
BYLAYER
 10
38.1333213137
 20
81.5950624854
 11
38.1333213137
 21
92.7950624854
  0
LINE
  5
248
100
AcDbEntity
  8
0
100
AcDbLine
 62
7
  6
BYLAYER
 10
38.2083213137
 20
81.2771255525
 11
38.2083213137
 21
89.8950624854
  0
LINE
  5
249
100
AcDbEntity
  8
0
100
AcDbLine
 62
7
  6
BYLAYER
 10
38.2583213137
 20
77.7950624854
 11
38.2583213137
 21
85.264722717
  0
LINE
  5
24A
100
AcDbEntity
  8
0
100
AcDbLine
 62
7
  6
BYLAYER
 10
38.5583213137
 20
85.4946381324
 11
38.5583213137
 21
81.7055003691
  0
LINE
  5
24B
100
AcDbEntity
  8
0
100
AcDbLine
 62
7
  6
BYLAYER
 10
38.6651009747
 20
81.5758181746
 11
38.6651009747
 21
77.7950624854
  0
LINE
  5
24C
100
AcDbEntity
  8
0
100
AcDbLine
 62
7
  6
BYLAYER
 10
38.9574661675
 20
85.7950624854
 11
38.9574661675
 21
85.7386271185
  0
LINE
  5
24D
100
AcDbEntity
  8
0
100
AcDbLine
 62
7
  6
BYLAYER
 10
39.9583213137
 20
85.7950624854
 11
39.9583213137
 21
89.6950624854
  0
LINE
  5
24E
100
AcDbEntity
  8
0
100
AcDbLine
 62
7
  6
BYLAYER
 10
41.5688496621
 20
85.7950624854
 11
41.5688496621
 21
85.7386271185
  0
LWPOLYLINE
  5
24F
100
AcDbEntity
  8
0
100
AcDbPolyline
 62
7
  6
BYLAYER
 90
3
 70
0
 10
42.65831808
 20
84.8950670605
 10
42.6574799669
 20
84.9174760633
 10
42.6377424515
 20
85.0042548452
  0
LINE
  5
250
100
AcDbEntity
  8
0
100
AcDbLine
 62
7
  6
BYLAYER
 10
42.4388145371
 20
85.580707515
 11
42.4407748506
 21
85.4950624858
  0
LINE
  5
251
100
AcDbEntity
  8
0
100
AcDbLine
 62
7
  6
BYLAYER
 10
42.6583213137
 20
84.8950670189
 11
42.6583213137
 21
74.0950624854
  0
LINE
  5
252
100
AcDbEntity
  8
0
100
AcDbLine
 62
7
  6
BYLAYER
 10
43.9583213137
 20
72.0950624854
 11
43.9583213137
 21
20.5250624854
  0
LINE
  5
253
100
AcDbEntity
  8
0
100
AcDbLine
 62
7
  6
BYLAYER
 10
43.9583509545
 20
8.5059657609
 11
43.9583403522
 21
15.5506381644
  0
LINE
  5
254
100
AcDbEntity
  8
0
100
AcDbLine
 62
7
  6
BYLAYER
 10
43.9583512396
 20
15.5506382039
 11
43.9583403522
 21
20.3750624854
  0
LINE
  5
255
100
AcDbEntity
  8
0
100
AcDbLine
 62
7
  6
BYLAYER
 10
44.4583213137
 20
9.0103289361
 11
44.4583213137
 21
20.3750624854
  0
LINE
  5
256
100
AcDbEntity
  8
0
100
AcDbLine
 62
7
  6
BYLAYER
 10
44.4583213137
 20
20.5250624854
 11
44.4583213137
 21
73.5950624854
  0
LINE
  5
257
100
AcDbEntity
  8
0
100
AcDbLine
 62
7
  6
BYLAYER
 10
43.9586581685
 20
16.5238720274
 11
43.9583512396
 21
15.5506382039
  0
LINE
  5
258
100
AcDbEntity
  8
0
100
AcDbLine
 62
7
  6
BYLAYER
 10
42.6185663295
 20
84.9974035613
 11
42.6309854054
 21
84.9626436946
  0
LINE
  5
259
100
AcDbEntity
  8
0
100
AcDbLine
 62
7
  6
BYLAYER
 10
42.5726075547
 20
85.177140806
 11
42.438726298
 21
85.581003793
  0
LINE
  5
25A
100
AcDbEntity
  8
0
100
AcDbLine
 62
7
  6
BYLAYER
 10
42.438790665
 20
85.5807875542
 11
42.4388145371
 21
85.580707515
  0
LINE
  5
25B
100
AcDbEntity
  8
0
100
AcDbLine
 62
7
  6
BYLAYER
 10
43.9583213137
 20
72.0950624854
 11
44.4583213137
 21
71.5950624854
  0
LINE
  5
25C
100
AcDbEntity
  8
0
100
AcDbLine
 62
7
  6
BYLAYER
 10
42.6236458928
 20
84.9810786184
 11
42.6583212623
 21
84.895070326
  0
LWPOLYLINE
  5
25D
100
AcDbEntity
  8
0
100
AcDbPolyline
 62
7
  6
BYLAYER
 90
4
 70
0
 10
42.6377424515
 20
85.0042548452
 10
42.6117386557
 20
85.0718306326
 10
42.5327726666
 20
85.2894016123
 10
42.4387843222
 20
85.5808060338
  0
LINE
  5
25E
100
AcDbEntity
  8
0
100
AcDbLine
 62
7
  6
BYLAYER
 10
42.5974235363
 20
85.1112723541
 11
42.5726075547
 21
85.177140806
  0
LINE
  5
25F
100
AcDbEntity
  8
0
100
AcDbLine
 62
7
  6
BYLAYER
 10
28.4583213137
 20
71.5950624854
 11
44.4583213137
 21
71.5950624854
  0
LINE
  5
260
100
AcDbEntity
  8
0
100
AcDbLine
 62
7
  6
BYLAYER
 10
28.9583213137
 20
72.0950624854
 11
43.9583213137
 21
72.0950624854
  0
LINE
  5
261
100
AcDbEntity
  8
0
100
AcDbLine
 62
7
  6
BYLAYER
 10
44.4583160033
 20
72.5950624854
 11
28.4583011368
 21
72.5950624854
  0
LINE
  5
262
100
AcDbEntity
  8
0
100
AcDbLine
 62
7
  6
BYLAYER
 10
44.4583213137
 20
73.5950624854
 11
37.3513498687
 21
73.5950624854
  0
LINE
  5
263
100
AcDbEntity
  8
0
100
AcDbLine
 62
7
  6
BYLAYER
 10
35.5652927587
 20
73.5950624854
 11
28.4583213137
 21
73.5950624854
  0
LINE
  5
264
100
AcDbEntity
  8
0
100
AcDbLine
 62
7
  6
BYLAYER
 10
34.9833213137
 20
81.3950624854
 11
34.7833213137
 21
81.5950624854
  0
LINE
  5
265
100
AcDbEntity
  8
0
100
AcDbLine
 62
7
  6
BYLAYER
 10
43.9583213137
 20
74.0950624854
 11
44.4583213137
 21
73.5950624854
  0
LINE
  5
266
100
AcDbEntity
  8
0
100
AcDbLine
 62
7
  6
BYLAYER
 10
43.9582151729
 20
74.0950624854
 11
28.9583938373
 21
74.0950624854
  0
LINE
  5
267
100
AcDbEntity
  8
0
100
AcDbLine
 62
7
  6
BYLAYER
 10
34.2515416527
 20
77.7950624854
 11
38.6651009747
 21
77.7950624854
  0
LINE
  5
268
100
AcDbEntity
  8
0
100
AcDbLine
 62
7
  6
BYLAYER
 10
34.1153873959
 20
85.7511838168
 11
34.1154050948
 21
85.751173029
  0
LINE
  5
269
100
AcDbEntity
  8
0
100
AcDbLine
 62
7
  6
BYLAYER
 10
37.9333213137
 20
81.3950624854
 11
34.9833213137
 21
81.3950624854
  0
LINE
  5
26A
100
AcDbEntity
  8
0
100
AcDbLine
 62
7
  6
BYLAYER
 10
38.6651009747
 20
81.5758181746
 11
38.2583213137
 21
81.5758181746
  0
LINE
  5
26B
100
AcDbEntity
  8
0
100
AcDbLine
 62
7
  6
BYLAYER
 10
34.6583213137
 20
81.5758181746
 11
34.2515416527
 21
81.5758181746
  0
LINE
  5
26C
100
AcDbEntity
  8
0
100
AcDbLine
 62
7
  6
BYLAYER
 10
34.5012938291
 20
85.5284634601
 11
34.5013665227
 21
85.5284239967
  0
LWPOLYLINE
  5
26D
100
AcDbEntity
  8
0
100
AcDbPolyline
 62
7
  6
BYLAYER
 90
4
 70
0
 10
34.5013206861
 20
85.5284423878
 10
34.3990335603
 20
85.5849351719
 10
34.2061962676
 20
85.6964780887
 10
34.1153091992
 20
85.7512178699
  0
LINE
  5
26E
100
AcDbEntity
  8
0
100
AcDbLine
 62
7
  6
BYLAYER
 10
39.7583213137
 20
89.8950624854
 11
39.9583213137
 21
89.6950624854
  0
LINE
  5
26F
100
AcDbEntity
  8
0
100
AcDbLine
 62
7
  6
BYLAYER
 10
37.9333213137
 20
92.9950624854
 11
38.1333213137
 21
92.7950624854
  0
LINE
  5
270
100
AcDbEntity
  8
0
100
AcDbLine
 62
7
  6
BYLAYER
 10
44.4583213137
 20
15.9072768516
 11
43.9583403522
 21
15.5506381644
  0
LINE
  5
271
100
AcDbEntity
  8
0
100
AcDbLine
 62
7
  6
BYLAYER
 10
40.2097100481
 20
83.7077282886
 11
38.5583213137
 21
83.7077282886
  0
LINE
  5
272
100
AcDbEntity
  8
0
100
AcDbLine
 62
7
  6
BYLAYER
 10
34.3583213137
 20
83.7077282887
 11
32.7069325793
 21
83.7077282886
  0
LINE
  5
273
100
AcDbEntity
  8
0
100
AcDbLine
 62
7
  6
BYLAYER
 10
42.4407617372
 20
85.4950624854
 11
41.8287088585
 21
85.4950624854
  0
LINE
  5
274
100
AcDbEntity
  8
0
100
AcDbLine
 62
7
  6
BYLAYER
 10
31.0879341115
 20
85.4950624854
 11
30.4758788352
 21
85.4950624854
  0
LINE
  5
275
100
AcDbEntity
  8
0
100
AcDbLine
 62
7
  6
BYLAYER
 10
44.4583213137
 20
9.0103289361
 11
43.9583403522
 21
8.5059656684
  0
LINE
  5
276
100
AcDbEntity
  8
0
100
AcDbLine
 62
7
  6
BYLAYER
 10
41.5688496621
 20
85.7386271185
 11
38.9574661675
 21
85.7386271185
  0
LINE
  5
277
100
AcDbEntity
  8
0
100
AcDbLine
 62
7
  6
BYLAYER
 10
33.95917646
 20
85.738627111
 11
31.3477929653
 21
85.738627111
  0
LINE
  5
278
100
AcDbEntity
  8
0
100
AcDbLine
 62
7
  6
BYLAYER
 10
30.7653426336
 20
85.7950624854
 11
33.9592212669
 21
85.7950624854
  0
LINE
  5
279
100
AcDbEntity
  8
0
100
AcDbLine
 62
7
  6
BYLAYER
 10
38.9574236128
 20
85.7950624854
 11
42.1513002489
 21
85.7950624854
  0
LINE
  5
27A
100
AcDbEntity
  8
0
100
AcDbLine
 62
7
  6
BYLAYER
 10
43.9583403522
 20
9.3846118628
 11
44.4583213137
 21
9.7412505491
  0
LINE
  5
27B
100
AcDbEntity
  8
0
100
AcDbLine
 62
7
  6
BYLAYER
 10
39.9583213137
 20
89.6950624854
 11
38.2083213137
 21
89.6950624854
  0
LINE
  5
27C
100
AcDbEntity
  8
0
100
AcDbLine
 62
7
  6
BYLAYER
 10
34.7083213137
 20
89.6950624854
 11
32.9583213137
 21
89.6950624854
  0
LINE
  5
27D
100
AcDbEntity
  8
0
100
AcDbLine
 62
7
  6
BYLAYER
 10
39.7583179948
 20
89.8950624854
 11
38.2083213137
 21
89.8950624854
  0
LINE
  5
27E
100
AcDbEntity
  8
0
100
AcDbLine
 62
7
  6
BYLAYER
 10
34.7083213137
 20
89.8950624854
 11
33.1583246326
 21
89.8950624854
  0
LINE
  5
27F
100
AcDbEntity
  8
0
100
AcDbLine
 62
7
  6
BYLAYER
 10
37.9333213137
 20
92.9950624854
 11
34.9833213137
 21
92.9950624854
  0
ARC
  5
280
100
AcDbEntity
  8
0
100
AcDbCircle
 62
7
  6
BYLAYER
 10
36.4525553318
 20
67.6319869776
 40
13.7576350043
100
AcDbArc
 50
82.6678475105
 51
89.9759866837
  0
ARC
  5
281
100
AcDbEntity
  8
0
100
AcDbCircle
 62
7
  6
BYLAYER
 10
36.464087264
 20
67.6319874711
 40
13.7576345108
100
AcDbArc
 50
90.0240131851
 51
97.3321526208
  0
ARC
  5
282
100
AcDbEntity
  8
0
100
AcDbCircle
 62
7
  6
BYLAYER
 10
33.8006212121
 20
93.7121273222
 40
9.4957122793
100
AcDbArc
 50
301.0230760372
 51
302.8920949419
  0
ARC
  5
283
100
AcDbEntity
  8
0
100
AcDbCircle
 62
7
  6
BYLAYER
 10
34.3135362557
 20
92.8748720428
 40
8.5138741335
100
AcDbArc
 50
299.9056142204
 51
300.9689678166
  0
ARC
  5
284
100
AcDbEntity
  8
0
100
AcDbCircle
 62
7
  6
BYLAYER
 10
38.5659965542
 20
92.8116201215
 40
8.4405431745
100
AcDbArc
 50
239.0272374779
 51
240.0986848642
  0
ARC
  5
285
100
AcDbEntity
  8
0
100
AcDbCircle
 62
7
  6
BYLAYER
 10
36.4551209703
 20
65.5878710423
 40
8.0571685174
100
AcDbArc
 50
83.6135604895
 51
89.9772418593
  0
ARC
  5
286
100
AcDbEntity
  8
0
100
AcDbCircle
 62
7
  6
BYLAYER
 10
36.4615216571
 20
65.5878710423
 40
8.0571685174
100
AcDbArc
 50
90.0227581407
 51
96.3864395105
  0
ARC
  5
287
100
AcDbEntity
  8
0
100
AcDbCircle
 62
7
  6
BYLAYER
 10
49.4444279881
 20
87.6975568558
 40
7.3418201017
100
AcDbArc
 50
197.4571805011
 51
201.7156576021
  0
ARC
  5
288
100
AcDbEntity
  8
0
100
AcDbCircle
 62
7
  6
BYLAYER
 10
29.0433213137
 20
20.8750624854
 40
0.5
100
AcDbArc
 50
270.0
 51
314.783185272
  0
ARC
  5
289
100
AcDbEntity
  8
0
100
AcDbCircle
 62
7
  6
BYLAYER
 10
43.8733213137
 20
20.8750624854
 40
0.5
100
AcDbArc
 50
225.216814728
 51
270.0
  0
ARC
  5
28A
100
AcDbEntity
  8
0
100
AcDbCircle
 62
7
  6
BYLAYER
 10
42.128488942
 20
85.4947056156
 40
0.3122841709
100
AcDbArc
 50
0.065476061
 51
14.9337246458
  0
ARC
  5
28B
100
AcDbEntity
  8
0
100
AcDbCircle
 62
7
  6
BYLAYER
 10
30.7881006982
 20
85.4946928451
 40
0.3122311685
100
AcDbArc
 50
165.1041059402
 51
179.9332021303
  0
ARC
  5
28C
100
AcDbEntity
  8
0
100
AcDbCircle
 62
7
  6
BYLAYER
 10
30.7653431827
 20
85.4950624854
 40
0.3
100
AcDbArc
 50
90.0
 51
163.3739374677
  0
ARC
  5
28D
100
AcDbEntity
  8
0
100
AcDbCircle
 62
7
  6
BYLAYER
 10
34.3583213137
 20
85.2647233232
 40
0.3
100
AcDbArc
 50
0.0001297511
 51
61.5380489124
  0
ARC
  5
28E
100
AcDbEntity
  8
0
100
AcDbCircle
 62
7
  6
BYLAYER
 10
33.95917646
 20
85.4950624854
 40
0.3
100
AcDbArc
 50
58.630838782
 51
89.9994559766
  0
ARC
  5
28F
100
AcDbEntity
  8
0
100
AcDbCircle
 62
7
  6
BYLAYER
 10
38.9574661675
 20
85.4950624854
 40
0.3
100
AcDbArc
 50
90.0005488088
 51
121.3692534077
  0
ARC
  5
290
100
AcDbEntity
  8
0
100
AcDbCircle
 62
7
  6
BYLAYER
 10
42.1512994447
 20
85.4950624854
 40
0.3
100
AcDbArc
 50
16.6237515902
 51
90.0008952691
  0
ARC
  5
291
100
AcDbEntity
  8
0
100
AcDbCircle
 62
7
  6
BYLAYER
 10
38.5583213137
 20
85.2647233232
 40
0.3
100
AcDbArc
 50
118.4619735532
 51
179.9999839485
  0
SPLINE
  5
292
100
AcDbEntity
  8
0
100
AcDbSpline
 62
7
  6
BYLAYER
 70
0
 71
3
 72
9
 73
5
 74
0
 42
0.0000001
 43
0.0000001
 44
0.0000000001
 40
0.0
 40
0.0
 40
0.0
 40
0.0
 40
0.2527189185
 40
1.0
 40
1.0
 40
1.0
 40
1.0
 10
38.5583826
 20
85.494599837
 30
0.0
 10
38.5472437834
 20
85.4946009448
 30
0.0
 10
38.503198567
 20
85.4926782775
 30
0.0
 10
38.4594002575
 20
85.483319254
 30
0.0
 10
38.428488844
 20
85.4719466229
 30
0.0
  0
SPLINE
  5
293
100
AcDbEntity
  8
0
100
AcDbSpline
 62
7
  6
BYLAYER
 70
0
 71
3
 72
11
 73
7
 74
0
 42
0.0000001
 43
0.0000001
 44
0.0000000001
 40
0.0
 40
0.0
 40
0.0
 40
0.0
 40
0.2758260416
 40
0.5329290778
 40
0.7723474628
 40
1.0
 40
1.0
 40
1.0
 40
1.0
 10
38.428488844
 20
85.4719466229
 30
0.0
 10
38.4039486208
 20
85.4629180192
 30
0.0
 10
38.3582530744
 20
85.4400347058
 30
0.0
 10
38.3027358998
 20
85.3908444091
 30
0.0
 10
38.2668089683
 20
85.3309399912
 30
0.0
 10
38.2583213243
 20
85.2863049337
 30
0.0
 10
38.2583213137
 20
85.2647234071
 30
0.0
  0
SPLINE
  5
294
100
AcDbEntity
  8
0
100
AcDbSpline
 62
7
  6
BYLAYER
 70
0
 71
3
 72
15
 73
11
 74
0
 42
0.0000001
 43
0.0000001
 44
0.0000000001
 40
0.0
 40
0.0
 40
0.0
 40
0.0
 40
0.1668927566
 40
0.3292724618
 40
0.4813070259
 40
0.6189502011
 40
0.7392597196
 40
0.8411173087
 40
0.9260567832
 40
1.0
 40
1.0
 40
1.0
 40
1.0
 10
38.5583213137
 20
83.7077282888
 30
0.0
 10
38.5388347957
 20
83.7077282888
 30
0.0
 10
38.5003702866
 20
83.7060857984
 30
0.0
 10
38.4445559727
 20
83.6989380018
 30
0.0
 10
38.392995915
 20
83.687224596
 30
0.0
 10
38.3476477908
 20
83.6715181569
 30
0.0
 10
38.3100970253
 20
83.652301719
 30
0.0
 10
38.2815036622
 20
83.6301790734
 30
0.0
 10
38.2629966637
 20
83.6053544054
 30
0.0
 10
38.2583213137
 20
83.5866797573
 30
0.0
 10
38.2583213137
 20
83.5780460942
 30
0.0
  0
SPLINE
  5
295
100
AcDbEntity
  8
0
100
AcDbSpline
 62
7
  6
BYLAYER
 70
0
 71
3
 72
10
 73
6
 74
0
 42
0.0000001
 43
0.0000001
 44
0.0000000001
 40
0.0
 40
0.0
 40
0.0
 40
0.0
 40
0.276452873
 40
0.5380196228
 40
1.0
 40
1.0
 40
1.0
 40
1.0
 10
40.2097100481
 20
83.7077282886
 30
0.0
 10
40.3181899773
 20
83.9052633728
 30
0.0
 10
40.5429008848
 20
84.2822899954
 30
0.0
 10
40.9933015353
 20
84.9619343769
 30
0.0
 10
41.3414851479
 20
85.4383919871
 30
0.0
 10
41.5688354867
 20
85.7386271185
 30
0.0
  0
SPLINE
  5
296
100
AcDbEntity
  8
0
100
AcDbSpline
 62
7
  6
BYLAYER
 70
0
 71
3
 72
10
 73
6
 74
0
 42
0.0000001
 43
0.0000001
 44
0.0000000001
 40
0.0
 40
0.0
 40
0.0
 40
0.0
 40
0.2505279776
 40
0.5092562633
 40
1.0
 40
1.0
 40
1.0
 40
1.0
 10
41.5688350797
 20
85.7386266212
 30
0.0
 10
41.5984721844
 20
85.7305172051
 30
0.0
 10
41.6566998927
 20
85.7056490702
 30
0.0
 10
41.7558044033
 20
85.6327133003
 30
0.0
 10
41.8107997294
 20
85.5525256867
 30
0.0
 10
41.8287075623
 20
85.4950631405
 30
0.0
  0
SPLINE
  5
297
100
AcDbEntity
  8
0
100
AcDbSpline
 62
7
  6
BYLAYER
 70
0
 71
3
 72
10
 73
6
 74
0
 42
0.0000001
 43
0.0000001
 44
0.0000000001
 40
0.0
 40
0.0
 40
0.0
 40
0.0
 40
0.4959294443
 40
0.7468633378
 40
1.0
 40
1.0
 40
1.0
 40
1.0
 10
40.2097104663
 20
83.7077280907
 30
0.0
 10
39.9928617897
 20
83.3350500077
 30
0.0
 10
39.6300109055
 20
82.7926094154
 30
0.0
 10
39.0556751007
 20
82.1384429947
 30
0.0
 10
38.7306436413
 20
81.8424028764
 30
0.0
 10
38.5583235954
 20
81.7054980338
 30
0.0
  0
SPLINE
  5
298
100
AcDbEntity
  8
0
100
AcDbSpline
 62
7
  6
BYLAYER
 70
0
 71
3
 72
18
 73
14
 74
0
 42
0.0000001
 43
0.0000001
 44
0.0000000001
 40
0.0
 40
0.0
 40
0.0
 40
0.0
 40
0.2249946958
 40
0.4245119059
 40
0.5966086645
 40
0.7398025527
 40
0.8526425524
 40
0.8972805999
 40
0.9339550126
 40
0.9626050922
 40
0.9831736782
 40
0.9956165005
 40
1.0
 40
1.0
 40
1.0
 40
1.0
 10
31.5245830574
 20
20.520717138
 30
0.0
 10
31.5244872439
 20
20.5097874245
 30
0.0
 10
31.524290156
 20
20.4891656129
 30
0.0
 10
31.5239522831
 20
20.4601852057
 30
0.0
 10
31.5235941572
 20
20.4351768287
 30
0.0
 10
31.5232161862
 20
20.4143868512
 30
0.0
 10
31.5228790874
 20
20.3997724584
 30
0.0
 10
31.5225779781
 20
20.3903632189
 30
0.0
 10
31.5223899114
 20
20.3849869195
 30
0.0
 10
31.5221464295
 20
20.3809182975
 30
0.0
 10
31.5220415097
 20
20.3777030643
 30
0.0
 10
31.521694223
 20
20.376296962
 30
0.0
 10
31.5217179233
 20
20.3750624854
 30
0.0
 10
31.521504975
 20
20.3750624854
 30
0.0
  0
SPLINE
  5
299
100
AcDbEntity
  8
0
100
AcDbSpline
 62
7
  6
BYLAYER
 70
0
 71
3
 72
10
 73
6
 74
0
 42
0.0000001
 43
0.0000001
 44
0.0000000001
 40
0.0
 40
0.0
 40
0.0
 40
0.0
 40
0.5046497132
 40
0.7532965541
 40
1.0
 40
1.0
 40
1.0
 40
1.0
 10
38.6651009747
 20
81.5758181746
 30
0.0
 10
39.0222822833
 20
81.8458481522
 30
0.0
 10
39.5030026408
 20
82.3205955398
 30
0.0
 10
40.0446648481
 20
83.0234854918
 30
0.0
 10
40.2862693558
 20
83.3912949224
 30
0.0
 10
40.4004586277
 20
83.5780460941
 30
0.0
  0
SPLINE
  5
29A
100
AcDbEntity
  8
0
100
AcDbSpline
 62
7
  6
BYLAYER
 70
0
 71
3
 72
18
 73
14
 74
0
 42
0.0000001
 43
0.0000001
 44
0.0000000001
 40
0.0
 40
0.0
 40
0.0
 40
0.0
 40
0.0043834995
 40
0.0168263218
 40
0.0373949078
 40
0.0660449874
 40
0.1027194001
 40
0.1473574476
 40
0.2601974473
 40
0.4033913355
 40
0.5754880941
 40
0.7750053042
 40
1.0
 40
1.0
 40
1.0
 40
1.0
 10
41.3951376525
 20
20.3750624854
 30
0.0
 10
41.3949247042
 20
20.3750624854
 30
0.0
 10
41.3949484044
 20
20.376296962
 30
0.0
 10
41.3946011178
 20
20.3777030643
 30
0.0
 10
41.394496198
 20
20.3809182975
 30
0.0
 10
41.394252716
 20
20.3849869195
 30
0.0
 10
41.3940646494
 20
20.3903632189
 30
0.0
 10
41.3937635401
 20
20.3997724584
 30
0.0
 10
41.3934264413
 20
20.4143868512
 30
0.0
 10
41.3930484703
 20
20.4351768287
 30
0.0
 10
41.3926903444
 20
20.4601852057
 30
0.0
 10
41.3923524714
 20
20.4891656129
 30
0.0
 10
41.3921553836
 20
20.5097874245
 30
0.0
 10
41.39205957
 20
20.520717138
 30
0.0
  0
SPLINE
  5
29B
100
AcDbEntity
  8
0
100
AcDbSpline
 62
7
  6
BYLAYER
 70
0
 71
3
 72
10
 73
6
 74
0
 42
0.0000001
 43
0.0000001
 44
0.0000000001
 40
0.0
 40
0.0
 40
0.0
 40
0.0
 40
0.2753855977
 40
0.5367147848
 40
1.0
 40
1.0
 40
1.0
 40
1.0
 10
40.4004694609
 20
83.5780319709
 30
0.0
 10
40.5150306361
 20
83.7654079191
 30
0.0
 10
40.7513917595
 20
84.122689567
 30
0.0
 10
41.2259395976
 20
84.7638544391
 30
0.0
 10
41.5905679961
 20
85.2125460838
 30
0.0
 10
41.8287149293
 20
85.49502986
 30
0.0
  0
SPLINE
  5
29C
100
AcDbEntity
  8
0
100
AcDbSpline
 62
7
  6
BYLAYER
 70
0
 71
3
 72
11
 73
7
 74
0
 42
0.0000001
 43
0.0000001
 44
0.0000000001
 40
0.0
 40
0.0
 40
0.0
 40
0.0
 40
0.2465024013
 40
0.4949876695
 40
0.7459527218
 40
1.0
 40
1.0
 40
1.0
 40
1.0
 10
30.7653431782
 20
85.7950624854
 30
0.0
 10
30.7340806236
 20
85.7950624851
 30
0.0
 10
30.6708104185
 20
85.7842806001
 30
0.0
 10
30.5865210928
 20
85.7377064917
 30
0.0
 10
30.521098241
 20
85.6658239346
 30
0.0
 10
30.4946420934
 20
85.6060934558
 30
0.0
 10
30.4863622132
 20
85.5749560945
 30
0.0
  0
SPLINE
  5
29D
100
AcDbEntity
  8
0
100
AcDbSpline
 62
7
  6
BYLAYER
 70
0
 71
3
 72
11
 73
7
 74
0
 42
0.0000001
 43
0.0000001
 44
0.0000000001
 40
0.0
 40
0.0
 40
0.0
 40
0.0
 40
0.2276548352
 40
0.4670758524
 40
0.7241781001
 40
1.0
 40
1.0
 40
1.0
 40
1.0
 10
34.6583213137
 20
85.2647240009
 30
0.0
 10
34.6583212286
 20
85.286304791
 30
0.0
 10
34.6498335189
 20
85.3309381595
 30
0.0
 10
34.6139094921
 20
85.3908410438
 30
0.0
 10
34.5583957128
 20
85.4400299884
 30
0.0
 10
34.5127033544
 20
85.4629132876
 30
0.0
 10
34.4881649623
 20
85.4719423821
 30
0.0
  0
SPLINE
  5
29E
100
AcDbEntity
  8
0
100
AcDbSpline
 62
7
  6
BYLAYER
 70
0
 71
3
 72
9
 73
5
 74
0
 42
0.0000001
 43
0.0000001
 44
0.0000000001
 40
0.0
 40
0.0
 40
0.0
 40
0.0
 40
0.2464196434
 40
1.0
 40
1.0
 40
1.0
 40
1.0
 10
34.4881649623
 20
85.4719423821
 30
0.0
 10
34.4779703662
 20
85.475693564
 30
0.0
 10
34.4358907733
 20
85.4889357418
 30
0.0
 10
34.3914813791
 20
85.4946031708
 30
0.0
 10
34.3582615519
 20
85.494599949
 30
0.0
  0
SPLINE
  5
29F
100
AcDbEntity
  8
0
100
AcDbSpline
 62
7
  6
BYLAYER
 70
0
 71
3
 72
11
 73
7
 74
0
 42
0.0000001
 43
0.0000001
 44
0.0000000001
 40
0.0
 40
0.0
 40
0.0
 40
0.0
 40
0.2332400002
 40
0.4766306782
 40
0.7336932451
 40
1.0
 40
1.0
 40
1.0
 40
1.0
 10
31.3477929653
 20
85.7950624854
 30
0.0
 10
31.3137824739
 20
85.7950624854
 30
0.0
 10
31.2433999381
 20
85.7785448162
 30
0.0
 10
31.1572415459
 20
85.7102408611
 30
0.0
 10
31.1008772287
 20
85.6108807955
 30
0.0
 10
31.0879355917
 20
85.5338946908
 30
0.0
 10
31.0879355917
 20
85.4950624854
 30
0.0
  0
SPLINE
  5
2A0
100
AcDbEntity
  8
0
100
AcDbSpline
 62
7
  6
BYLAYER
 70
0
 71
3
 72
10
 73
6
 74
0
 42
0.0000001
 43
0.0000001
 44
0.0000000001
 40
0.0
 40
0.0
 40
0.0
 40
0.0
 40
0.2531363181
 40
0.5040706902
 40
1.0
 40
1.0
 40
1.0
 40
1.0
 10
34.3583190177
 20
81.7054980192
 30
0.0
 10
34.1859992572
 20
81.842402738
 30
0.0
 10
33.8609678105
 20
82.1384430206
 30
0.0
 10
33.2866317716
 20
82.7926092217
 30
0.0
 10
32.9237806505
 20
83.33505004
 30
0.0
 10
32.706932132
 20
83.7077280769
 30
0.0
  0
SPLINE
  5
2A1
100
AcDbEntity
  8
0
100
AcDbSpline
 62
7
  6
BYLAYER
 70
0
 71
3
 72
15
 73
11
 74
0
 42
0.0000001
 43
0.0000001
 44
0.0000000001
 40
0.0
 40
0.0
 40
0.0
 40
0.0
 40
0.0739432168
 40
0.1588826913
 40
0.2607402804
 40
0.3810497989
 40
0.5186929741
 40
0.6707275382
 40
0.8331072434
 40
1.0
 40
1.0
 40
1.0
 40
1.0
 10
34.6583213137
 20
83.5780460941
 30
0.0
 10
34.6583213137
 20
83.5866797571
 30
0.0
 10
34.6536459638
 20
83.6053544053
 30
0.0
 10
34.6351389653
 20
83.6301790732
 30
0.0
 10
34.6065456021
 20
83.6523017189
 30
0.0
 10
34.5689948367
 20
83.6715181567
 30
0.0
 10
34.5236467124
 20
83.6872245958
 30
0.0
 10
34.4720866548
 20
83.6989380017
 30
0.0
 10
34.4162723408
 20
83.7060857982
 30
0.0
 10
34.3778078317
 20
83.7077282886
 30
0.0
 10
34.3583213137
 20
83.7077282886
 30
0.0
  0
SPLINE
  5
2A2
100
AcDbEntity
  8
0
100
AcDbSpline
 62
7
  6
BYLAYER
 70
0
 71
3
 72
11
 73
7
 74
0
 42
0.0000001
 43
0.0000001
 44
0.0000000001
 40
0.0
 40
0.0
 40
0.0
 40
0.0
 40
0.3056948486
 40
0.5710356076
 40
0.7975691944
 40
1.0
 40
1.0
 40
1.0
 40
1.0
 10
34.3582615519
 20
85.494599949
 30
0.0
 10
34.3707872015
 20
85.504138513
 30
0.0
 10
34.3955678677
 20
85.5202769306
 30
0.0
 10
34.4339991453
 20
85.5357552193
 30
0.0
 10
34.4701605919
 20
85.5396323293
 30
0.0
 10
34.4921318102
 20
85.5334388939
 30
0.0
 10
34.5012950811
 20
85.5284659691
 30
0.0
  0
SPLINE
  5
2A3
100
AcDbEntity
  8
0
100
AcDbSpline
 62
7
  6
BYLAYER
 70
0
 71
3
 72
11
 73
7
 74
0
 42
0.0000001
 43
0.0000001
 44
0.0000000001
 40
0.0
 40
0.0
 40
0.0
 40
0.0
 40
0.2884877908
 40
0.5480662277
 40
0.7817981104
 40
1.0
 40
1.0
 40
1.0
 40
1.0
 10
33.9591708087
 20
85.738559041
 30
0.0
 10
33.9728977954
 20
85.7462350515
 30
0.0
 10
34.0002353918
 20
85.7587578133
 30
0.0
 10
34.0421762573
 20
85.7683139932
 30
0.0
 10
34.0814687164
 20
85.7665387264
 30
0.0
 10
34.1049804281
 20
85.7574934697
 30
0.0
 10
34.1151526536
 20
85.7513264355
 30
0.0
  0
SPLINE
  5
2A4
100
AcDbEntity
  8
0
100
AcDbSpline
 62
7
  6
BYLAYER
 70
0
 71
3
 72
9
 73
5
 74
0
 42
0.0000001
 43
0.0000001
 44
0.0000000001
 40
0.0
 40
0.0
 40
0.0
 40
0.0
 40
0.2548533459
 40
1.0
 40
1.0
 40
1.0
 40
1.0
 10
34.2222353182
 20
85.5745967414
 30
0.0
 10
34.1996598222
 20
85.5881432145
 30
0.0
 10
34.1113134546
 20
85.6416906482
 30
0.0
 10
34.0239600117
 20
85.6968666023
 30
0.0
 10
33.9592938383
 20
85.738627111
 30
0.0
  0
SPLINE
  5
2A5
100
AcDbEntity
  8
0
100
AcDbSpline
 62
7
  6
BYLAYER
 70
0
 71
3
 72
9
 73
5
 74
0
 42
0.0000001
 43
0.0000001
 44
0.0000000001
 40
0.0
 40
0.0
 40
0.0
 40
0.0
 40
0.5281897271
 40
1.0
 40
1.0
 40
1.0
 40
1.0
 10
32.7069325103
 20
83.7077313945
 30
0.0
 10
32.6701076753
 20
83.6903055612
 30
0.0
 10
32.6029769704
 20
83.6516715357
 30
0.0
 10
32.5422195004
 20
83.6034742344
 30
0.0
 10
32.5161879233
 20
83.5780444557
 30
0.0
  0
SPLINE
  5
2A6
100
AcDbEntity
  8
0
100
AcDbSpline
 62
7
  6
BYLAYER
 70
0
 71
3
 72
10
 73
6
 74
0
 42
0.0000001
 43
0.0000001
 44
0.0000000001
 40
0.0
 40
0.0
 40
0.0
 40
0.0
 40
0.4619806209
 40
0.7235472114
 40
1.0
 40
1.0
 40
1.0
 40
1.0
 10
31.3478056331
 20
85.738627111
 30
0.0
 10
31.5751563968
 20
85.4383918815
 30
0.0
 10
31.9233416102
 20
84.9619350542
 30
0.0
 10
32.3737414128
 20
84.2822897552
 30
0.0
 10
32.59845274
 20
83.9052634364
 30
0.0
 10
32.7069325793
 20
83.7077282886
 30
0.0
  0
SPLINE
  5
2A7
100
AcDbEntity
  8
0
100
AcDbSpline
 62
7
  6
BYLAYER
 70
0
 71
3
 72
10
 73
6
 74
0
 42
0.0000001
 43
0.0000001
 44
0.0000000001
 40
0.0
 40
0.0
 40
0.0
 40
0.0
 40
0.2505510334
 40
0.5093285944
 40
1.0
 40
1.0
 40
1.0
 40
1.0
 10
31.3477927771
 20
85.7386230404
 30
0.0
 10
31.3181509671
 20
85.7305250239
 30
0.0
 10
31.2599116769
 20
85.705654909
 30
0.0
 10
31.1608523181
 20
85.6326716972
 30
0.0
 10
31.1058369669
 20
85.5525145205
 30
0.0
 10
31.0879337493
 20
85.4950624854
 30
0.0
  0
SPLINE
  5
2A8
100
AcDbEntity
  8
0
100
AcDbSpline
 62
7
  6
BYLAYER
 70
0
 71
3
 72
11
 73
7
 74
0
 42
0.0000001
 43
0.0000001
 44
0.0000000001
 40
0.0
 40
0.0
 40
0.0
 40
0.0
 40
0.288505707
 40
0.5480667866
 40
0.7817703761
 40
1.0
 40
1.0
 40
1.0
 40
1.0
 10
38.9574717829
 20
85.7385595233
 30
0.0
 10
38.9437208037
 20
85.7462489148
 30
0.0
 10
38.9163346635
 20
85.7587886465
 30
0.0
 10
38.8743176862
 20
85.7683395791
 30
0.0
 10
38.8349585206
 20
85.7665045114
 30
0.0
 10
38.8114271914
 20
85.7573864038
 30
0.0
 10
38.8012522566
 20
85.7511823385
 30
0.0
  0
SPLINE
  5
2A9
100
AcDbEntity
  8
0
100
AcDbSpline
 62
7
  6
BYLAYER
 70
0
 71
3
 72
11
 73
7
 74
0
 42
0.0000001
 43
0.0000001
 44
0.0000000001
 40
0.0
 40
0.0
 40
0.0
 40
0.0
 40
0.2332371167
 40
0.476316366
 40
0.733329615
 40
1.0
 40
1.0
 40
1.0
 40
1.0
 10
41.568849657
 20
85.7950624854
 30
0.0
 10
41.6028595412
 20
85.7950624857
 30
0.0
 10
41.6732128174
 20
85.7786026434
 30
0.0
 10
41.7592942935
 20
85.7102915877
 30
0.0
 10
41.8157252717
 20
85.6109854946
 30
0.0
 10
41.8287075312
 20
85.533948156
 30
0.0
 10
41.8287075623
 20
85.4950631405
 30
0.0
  0
SPLINE
  5
2AA
100
AcDbEntity
  8
0
100
AcDbSpline
 62
7
  6
BYLAYER
 70
0
 71
3
 72
9
 73
5
 74
0
 42
0.0000001
 43
0.0000001
 44
0.0000000001
 40
0.0
 40
0.0
 40
0.0
 40
0.0
 40
0.4975269223
 40
1.0
 40
1.0
 40
1.0
 40
1.0
 10
42.1512994447
 20
85.7950624854
 30
0.0
 10
42.1890014434
 20
85.7950624854
 30
0.0
 10
42.2655725184
 20
85.7793250592
 30
0.0
 10
42.3295487399
 20
85.734595326
 30
0.0
 10
42.3559880943
 20
85.7071945197
 30
0.0
  0
SPLINE
  5
2AB
100
AcDbEntity
  8
0
100
AcDbSpline
 62
7
  6
BYLAYER
 70
0
 71
3
 72
9
 73
5
 74
0
 42
0.0000001
 43
0.0000001
 44
0.0000000001
 40
0.0
 40
0.0
 40
0.0
 40
0.0
 40
0.4976345099
 40
1.0
 40
1.0
 40
1.0
 40
1.0
 10
42.3559880943
 20
85.7071945197
 30
0.0
 10
42.3735735735
 20
85.6889695547
 30
0.0
 10
42.4042947361
 20
85.6476135298
 30
0.0
 10
42.4236380404
 20
85.5998850991
 30
0.0
 10
42.4302255783
 20
85.5751817346
 30
0.0
  0
SPLINE
  5
2AC
100
AcDbEntity
  8
0
100
AcDbSpline
 62
7
  6
BYLAYER
 70
0
 71
3
 72
11
 73
7
 74
0
 42
0.0000001
 43
0.0000001
 44
0.0000000001
 40
0.0
 40
0.0
 40
0.0
 40
0.0
 40
0.305701772
 40
0.5710456559
 40
0.7975757915
 40
1.0
 40
1.0
 40
1.0
 40
1.0
 10
38.5583826
 20
85.494599837
 30
0.0
 10
38.5458564557
 20
85.5041386044
 30
0.0
 10
38.5210748769
 20
85.5202771591
 30
0.0
 10
38.4826427417
 20
85.5357552439
 30
0.0
 10
38.4464813445
 20
85.5396325481
 30
0.0
 10
38.4245103602
 20
85.5334389826
 30
0.0
 10
38.4153474608
 20
85.5284658629
 30
0.0
  0
SPLINE
  5
2AD
100
AcDbEntity
  8
0
100
AcDbSpline
 62
7
  6
BYLAYER
 70
0
 71
3
 72
10
 73
6
 74
0
 42
0.0000001
 43
0.0000001
 44
0.0000000001
 40
0.0
 40
0.0
 40
0.0
 40
0.0
 40
0.2467048392
 40
0.4953543796
 40
1.0
 40
1.0
 40
1.0
 40
1.0
 10
32.5161839997
 20
83.5780460941
 30
0.0
 10
32.6303739232
 20
83.3912938642
 30
0.0
 10
32.8719798596
 20
83.02348099
 30
0.0
 10
33.41364373
 20
82.3205922063
 30
0.0
 10
33.8943633234
 20
81.8458460932
 30
0.0
 10
34.2515416527
 20
81.5758181746
 30
0.0
  0
SPLINE
  5
2AE
100
AcDbEntity
  8
0
100
AcDbSpline
 62
7
  6
BYLAYER
 70
0
 71
3
 72
10
 73
6
 74
0
 42
0.0000001
 43
0.0000001
 44
0.0000000001
 40
0.0
 40
0.0
 40
0.0
 40
0.0
 40
0.4632846658
 40
0.7246141855
 40
1.0
 40
1.0
 40
1.0
 40
1.0
 10
31.0879278357
 20
85.4950296027
 30
0.0
 10
31.3260746107
 20
85.2125463221
 30
0.0
 10
31.6907025622
 20
84.7638546226
 30
0.0
 10
32.1652506208
 20
84.1226900371
 30
0.0
 10
32.4016119513
 20
83.7654080487
 30
0.0
 10
32.5161731105
 20
83.578031918
 30
0.0
  0
SPLINE
  5
2AF
100
AcDbEntity
  8
0
100
AcDbSpline
 62
7
  6
BYLAYER
 70
0
 71
3
 72
15
 73
11
 74
0
 42
0.0000001
 43
0.0000001
 44
0.0000000001
 40
0.0
 40
0.0
 40
0.0
 40
0.0
 40
0.1668925376
 40
0.3292718276
 40
0.4813063903
 40
0.6189498829
 40
0.7392596396
 40
0.8411173638
 40
0.9260568184
 40
1.0
 40
1.0
 40
1.0
 40
1.0
 10
34.3583213137
 20
81.7055003691
 30
0.0
 10
34.3778078063
 20
81.7055003705
 30
0.0
 10
34.4162722429
 20
81.7038579143
 30
0.0
 10
34.4720864844
 20
81.6967101173
 30
0.0
 10
34.5236465263
 20
81.6849967038
 30
0.0
 10
34.5689947312
 20
81.6692902956
 30
0.0
 10
34.6065455662
 20
81.6500738117
 30
0.0
 10
34.6351389687
 20
81.6279511526
 30
0.0
 10
34.653645985
 20
81.6031264799
 30
0.0
 10
34.6583213137
 20
81.5844518336
 30
0.0
 10
34.6583213137
 20
81.5758181746
 30
0.0
  0
SPLINE
  5
2B0
100
AcDbEntity
  8
0
100
AcDbSpline
 62
7
  6
BYLAYER
 70
0
 71
3
 72
9
 73
5
 74
0
 42
0.0000001
 43
0.0000001
 44
0.0000000001
 40
0.0
 40
0.0
 40
0.0
 40
0.0
 40
0.5079162248
 40
1.0
 40
1.0
 40
1.0
 40
1.0
 10
34.2515405394
 20
81.5758181761
 30
0.0
 10
34.2677673365
 20
81.5992039476
 30
0.0
 10
34.3018029346
 20
81.6438088945
 30
0.0
 10
34.3390484223
 20
81.6857761991
 30
0.0
 10
34.358321122
 20
81.7055003779
 30
0.0
  0
SPLINE
  5
2B1
100
AcDbEntity
  8
0
100
AcDbSpline
 62
7
  6
BYLAYER
 70
0
 71
3
 72
9
 73
5
 74
0
 42
0.0000001
 43
0.0000001
 44
0.0000000001
 40
0.0
 40
0.0
 40
0.0
 40
0.0
 40
0.515702502
 40
1.0
 40
1.0
 40
1.0
 40
1.0
 10
40.2097104146
 20
83.7077280018
 30
0.0
 10
40.245665153
 20
83.6907151631
 30
0.0
 10
40.3128408848
 20
83.6522099214
 30
0.0
 10
40.3737380406
 20
83.6041480852
 30
0.0
 10
40.4004595013
 20
83.5780461831
 30
0.0
  0
SPLINE
  5
2B2
100
AcDbEntity
  8
0
100
AcDbSpline
 62
7
  6
BYLAYER
 70
0
 71
3
 72
15
 73
11
 74
0
 42
0.0000001
 43
0.0000001
 44
0.0000000001
 40
0.0
 40
0.0
 40
0.0
 40
0.0
 40
0.0739431617
 40
0.1588825841
 40
0.2607403125
 40
0.3810500973
 40
0.5186936468
 40
0.6707282321
 40
0.8331074866
 40
1.0
 40
1.0
 40
1.0
 40
1.0
 10
38.2583213137
 20
81.5758181746
 30
0.0
 10
38.2583213137
 20
81.5844518313
 30
0.0
 10
38.2629966298
 20
81.6031264742
 30
0.0
 10
38.2815036479
 20
81.6279511415
 30
0.0
 10
38.3100970495
 20
81.6500737997
 30
0.0
 10
38.3476478906
 20
81.6692902964
 30
0.0
 10
38.3929961099
 20
81.6849967031
 30
0.0
 10
38.4445561562
 20
81.6967101205
 30
0.0
 10
38.5003703939
 20
81.7038579177
 30
0.0
 10
38.5388348238
 20
81.7055003704
 30
0.0
 10
38.5583213137
 20
81.7055003691
 30
0.0
  0
SPLINE
  5
2B3
100
AcDbEntity
  8
0
100
AcDbSpline
 62
7
  6
BYLAYER
 70
0
 71
3
 72
9
 73
5
 74
0
 42
0.0000001
 43
0.0000001
 44
0.0000000001
 40
0.0
 40
0.0
 40
0.0
 40
0.0
 40
0.4920837815
 40
1.0
 40
1.0
 40
1.0
 40
1.0
 10
38.5583214915
 20
81.7055003773
 30
0.0
 10
38.5775941954
 20
81.685776199
 30
0.0
 10
38.614839691
 20
81.6438088951
 30
0.0
 10
38.6488752963
 20
81.5992039478
 30
0.0
 10
38.6651020963
 20
81.5758181759
 30
0.0
  0
SPLINE
  5
2B4
100
AcDbEntity
  8
0
100
AcDbSpline
 62
7
  6
BYLAYER
 70
0
 71
3
 72
9
 73
5
 74
0
 42
0.0000001
 43
0.0000001
 44
0.0000000001
 40
0.0
 40
0.0
 40
0.0
 40
0.0
 40
0.1717882212
 40
1.0
 40
1.0
 40
1.0
 40
1.0
 10
30.2933801025
 20
84.9820472401
 30
0.0
 10
30.3048786546
 20
85.0110327978
 30
0.0
 10
30.3708127585
 20
85.1801511547
 30
0.0
 10
30.4308713415
 20
85.3516207294
 30
0.0
 10
30.4758788352
 20
85.4950624854
 30
0.0
  0
SPLINE
  5
2B5
100
AcDbEntity
  8
0
100
AcDbSpline
 62
7
  6
BYLAYER
 70
0
 71
3
 72
9
 73
5
 74
0
 42
0.0000001
 43
0.0000001
 44
0.0000000001
 40
0.0
 40
0.0
 40
0.0
 40
0.0
 40
0.2143056351
 40
1.0
 40
1.0
 40
1.0
 40
1.0
 10
28.9671052984
 20
15.4964480431
 30
0.0
 10
28.967235332
 20
15.6479791915
 30
0.0
 10
28.9677312712
 20
16.3550589347
 30
0.0
 10
28.9674318239
 20
17.0621389902
 30
0.0
 10
28.9670947198
 20
17.6176875705
 30
0.0
  0
ENDSEC
  0
SECTION
  2
OBJECTS
  0
DICTIONARY
  5
C
100
AcDbDictionary
280
0
281
1
  3
ACAD_GROUP
350
D
  3
ACAD_MLINESTYLE
350
17
  3
ACAD_LAYOUT
350
1A
  3
ACAD_PLOTSETTINGS
350
19
  3
ACAD_PLOTSTYLENAME
350
E
  0
DICTIONARY
  5
D
102
{ACAD_REACTORS
330
C
102
}
100
AcDbDictionary
280
0
281
1
  0
ACDBDICTIONARYWDFLT
  5
E
102
{ACAD_REACTORS
330
C
102
}
100
AcDbDictionary
281
1
  3
Normal
350
F
100
AcDbDictionaryWithDefault
340
F
  0
DICTIONARY
  5
17
102
{ACAD_REACTORS
330
C
102
}
100
AcDbDictionary
280
0
281
1
  3
Standard
350
18
  0
DICTIONARY
  5
19
102
{ACAD_REACTORS
330
C
102
}
100
AcDbDictionary
281
1
  0
DICTIONARY
  5
1A
102
{ACAD_REACTORS
330
C
102
}
100
AcDbDictionary
281
1
  3
Model
350
2B6
  3
Layout1
350
2B7
  0
ACDBPLACEHOLDER
  5
F
102
{ACAD_REACTORS
330
E
102
}
  0
MLINESTYLE
  5
18
102
{ACAD_REACTORS
330
17
102
}
100
AcDbMlineStyle
  2
STANDARD
 70
0
  3

 62
256
 51
90.0
 52
90.0
 71
2
 49
0.5
 62
256
  6
BYLAYER
 49
-0.5
 62
256
  6
BYLAYER
  0
LAYOUT
  5
2B6
102
{ACAD_REACTORS
330
1A
102
}
100
AcDbPlotSettings
  1

  2
none_device
  4

  6

 40
0.0
 41
0.0
 42
0.0
 43
0.0
 44
210.0
 45
297.0
 46
0.0
 47
0.0
 48
0.0
 49
0.0
140
0.0
141
0.0
142
1.0
143
1.0
 70
1024
 72
1
 73
0
 74
0
  7

 75
0
147
1.0
148
0.0
149
0.0
100
AcDbLayout
  1
Model
 70
0
 71
0
 10
0.0
 20
0.0
 11
210.0
 21
297.0
 12
0.0
 22
0.0
 32
0.0
 14
0.0
 24
0.0
 34
0.0
 15
0.0
 25
0.0
 35
0.0
146
0.0
 13
0.0
 23
0.0
 33
0.0
 16
1.0
 26
0.0
 36
0.0
 17
0.0
 27
1.0
 37
0.0
 76
0
330
210
345
0
346
0
  0
LAYOUT
  5
2B7
102
{ACAD_REACTORS
330
1A
102
}
100
AcDbPlotSettings
  1

  2
none_device
  4

  6

 40
0.0
 41
0.0
 42
0.0
 43
0.0
 44
210.0
 45
297.0
 46
0.0
 47
0.0
 48
0.0
 49
0.0
140
0.0
141
0.0
142
1.0
143
1.0
 70
0
 72
1
 73
0
 74
0
  7

 75
0
147
1.0
148
0.0
149
0.0
100
AcDbLayout
  1
Layout1
 70
0
 71
1
 10
0.0
 20
0.0
 11
210.0
 21
297.0
 12
0.0
 22
0.0
 32
0.0
 14
0.0
 24
0.0
 34
0.0
 15
0.0
 25
0.0
 35
0.0
146
0.0
 13
0.0
 23
0.0
 33
0.0
 16
1.0
 26
0.0
 36
0.0
 17
0.0
 27
1.0
 37
0.0
 76
0
330
211
345
0
346
0
  0
ENDSEC
  0
EOF
