999
DXF file: C:\Users\sesa63760\Dev\_Creo\CAD\MCADUE0002386_3D-CAD\drw0001_4.dxf
999
Pro/ENGINEER 2019471 by Parametric Technology Corporation
  0
SECTION
  2
HEADER
  9
$ACADVER
  1
AC1024
  9
$DWGCODEPAGE
  3
ANSI_1252
  9
$EXTMAX
 10
747.3063173711
 20
1056.9046488534
 30
0.0
  9
$EXTMIN
 10
0.0
 20
0.0
 30
0.0
  9
$LIMMIN
 10
0.0
 20
0.0
  9
$LIMMAX
 10
747.3063173711
 20
1056.9046488534
  9
$VIEWCTR
 10
373.6531586855
 20
528.4523244267
  9
$VIEWSIZE
 40
1056.9046488534
  9
$CLAYER
  8
0
  9
$LTSCALE
 40
68.8945252586
  9
$CELTYPE
  6
BYLAYER
  9
$DIMSCALE
 40
1.0
  9
$DIMASZ
 40
8.8965037782
  9
$DIMEXO
 40
1.0
  9
$DIMDLI
 40
47.599853815
  9
$DIMEXE
 40
1.0
  9
$DIMCEN
 40
11.2736495878
  9
$DIMLFAC
 40
1.0
  9
$DIMBLK
  1
_FILLED
  9
$DIMALT
 70
0
  9
$DIMALTF
 40
0.0393700787
  9
$DIMTXT
 40
12.4551052895
  9
$DIMTOL
 70
1
  9
$DIMLIM
 70
0
  9
$DIMTFAC
 40
1.0
  9
$DIMTP
 40
0.01
  9
$DIMTM
 40
0.01
  9
$DIMGAP
 40
0.625
  9
$DIMDSEP
 70
46
  9
$AUNITS
 70
0
  9
$PDMODE
 70
3
  9
$PDSIZE
 40
0.3125
  9
$HANDSEED
  5
5F6
  9
$TILEMODE
 70
1
  9
$MEASUREMENT
 70
1
  9
$INSUNITS
 70
4
  0
ENDSEC
  0
SECTION
  2
CLASSES
  0
CLASS
  1
ACDBDICTIONARYWDFLT
  2
AcDbDictionaryWithDefault
  3
AutoCAD 2000
 90
0
 91
1
280
0
281
0
  0
CLASS
  1
ACDBPLACEHOLDER
  2
AcDbPlaceHolder
  3
AutoCAD 2000
 90
0
 91
1
280
0
281
0
  0
CLASS
  1
LAYOUT
  2
AcDbLayout
  3
AutoCAD 2000
 90
0
 91
0
280
0
281
0
  0
ENDSEC
  0
SECTION
  2
TABLES
  0
TABLE
  2
VPORT
  5
8
100
AcDbSymbolTable
 70
2
  0
VPORT
  5
1F4
100
AcDbSymbolTableRecord
100
AcDbViewportTableRecord
  2
*ACTIVE
 70
0
 10
0.0
 20
0.0
 11
1.0
 21
1.0
 12
373.6531586855
 22
528.4523244267
 13
0.0
 23
0.0
 14
1.0
 24
1.0
 15
0.0
 25
0.0
 16
0.0
 26
0.0
 36
1.0
 17
0.0
 27
0.0
 37
0.0
 40
1056.9046488534
 41
0.7070707071
 42
50.0
 43
0.0
 44
0.0
 50
0.0
 51
0.0
 71
0
 72
100
 73
1
 74
1
 75
0
 76
0
 77
0
 78
0
  0
ENDTAB
  0
TABLE
  2
LTYPE
  5
5
100
AcDbSymbolTable
 70
6
  0
LTYPE
  5
14
100
AcDbSymbolTableRecord
100
AcDbLinetypeTableRecord
  2
BYBLOCK
 70
0
  3

 72
65
 73
0
 40
0.0
  0
LTYPE
  5
15
100
AcDbSymbolTableRecord
100
AcDbLinetypeTableRecord
  2
BYLAYER
 70
0
  3

 72
65
 73
0
 40
0.0
  0
LTYPE
  5
16
100
AcDbSymbolTableRecord
100
AcDbLinetypeTableRecord
  2
CONTINUOUS
 70
64
  3
Solid line
 72
65
 73
0
 40
0.0
  0
LTYPE
  5
1F5
100
AcDbSymbolTableRecord
100
AcDbLinetypeTableRecord
  2
CENTER
 70
64
  3
____ _ ____ _ ____ _ ____ _ ____ _ ____ _ ____
 72
65
 73
4
 40
0.6
 49
0.375
 74
0
 49
-0.075
 74
0
 49
0.075
 74
0
 49
-0.075
 74
0
  0
LTYPE
  5
1F6
100
AcDbSymbolTableRecord
100
AcDbLinetypeTableRecord
  2
HIDDEN
 70
64
  3
- - - - - - - - - - - - - - - - - - - -
 72
65
 73
2
 40
0.2
 49
0.1
 74
0
 49
-0.1
 74
0
  0
LTYPE
  5
1F7
100
AcDbSymbolTableRecord
100
AcDbLinetypeTableRecord
  2
PHANTOM
 70
64
  3
_____ _ _ _____ _ _ _____ _ _ _____
 72
65
 73
6
 40
0.8
 49
0.45
 74
0
 49
-0.05
 74
0
 49
0.1
 74
0
 49
-0.05
 74
0
 49
0.1
 74
0
 49
-0.05
 74
0
  0
LTYPE
  5
1F8
100
AcDbSymbolTableRecord
100
AcDbLinetypeTableRecord
  2
DOT
 70
64
  3
. . . . . . . . . . . . . . . . . . . .
 72
65
 73
2
 40
0.2
 49
0.1
 74
0
 49
-0.1
 74
0
  0
LTYPE
  5
1F9
100
AcDbSymbolTableRecord
100
AcDbLinetypeTableRecord
  2
DASHED
 70
64
  3
- - - - - - - - - - - - - - - - - - - -
 72
65
 73
2
 40
0.2
 49
0.1
 74
0
 49
-0.1
 74
0
  0
ENDTAB
  0
TABLE
  2
LAYER
  5
2
100
AcDbSymbolTable
 70
36
  0
LAYER
  5
10
100
AcDbSymbolTableRecord
100
AcDbLayerTableRecord
  2
0
 70
0
 62
7
  6
CONTINUOUS
370
-3
390
F
  0
LAYER
  5
1FA
100
AcDbSymbolTableRecord
100
AcDbLayerTableRecord
  2
DEFAULT_1
 70
0
 62
7
  6
CENTER
370
-3
390
F
  0
LAYER
  5
1FB
100
AcDbSymbolTableRecord
100
AcDbLayerTableRecord
  2
DEFAULT_2
 70
0
 62
8
  6
HIDDEN
370
-3
390
F
  0
LAYER
  5
1FC
100
AcDbSymbolTableRecord
100
AcDbLayerTableRecord
  2
DEFAULT_3
 70
0
 62
7
  6
PHANTOM
370
-3
390
F
  0
LAYER
  5
1FD
100
AcDbSymbolTableRecord
100
AcDbLayerTableRecord
  2
00_COMPONENTS
 70
0
 62
7
  6
CONTINUOUS
370
-3
390
F
  0
LAYER
  5
1FE
100
AcDbSymbolTableRecord
100
AcDbLayerTableRecord
  2
01_1_DEFAULT_DATUMS
 70
0
 62
7
  6
CONTINUOUS
370
-3
390
F
  0
LAYER
  5
1FF
100
AcDbSymbolTableRecord
100
AcDbLayerTableRecord
  2
01_PLANES
 70
0
 62
7
  6
CONTINUOUS
370
-3
390
F
  0
LAYER
  5
200
100
AcDbSymbolTableRecord
100
AcDbLayerTableRecord
  2
02_COORD_SYS
 70
0
 62
7
  6
CONTINUOUS
370
-3
390
F
  0
LAYER
  5
201
100
AcDbSymbolTableRecord
100
AcDbLayerTableRecord
  2
03_AXES
 70
0
 62
7
  6
CONTINUOUS
370
-3
390
F
  0
LAYER
  5
202
100
AcDbSymbolTableRecord
100
AcDbLayerTableRecord
  2
04_POINTS
 70
0
 62
7
  6
CONTINUOUS
370
-3
390
F
  0
LAYER
  5
203
100
AcDbSymbolTableRecord
100
AcDbLayerTableRecord
  2
05_CURVES
 70
0
 62
7
  6
CONTINUOUS
370
-3
390
F
  0
LAYER
  5
204
100
AcDbSymbolTableRecord
100
AcDbLayerTableRecord
  2
06_SURFS
 70
0
 62
7
  6
CONTINUOUS
370
-3
390
F
  0
LAYER
  5
205
100
AcDbSymbolTableRecord
100
AcDbLayerTableRecord
  2
07_COSMETICS
 70
0
 62
7
  6
CONTINUOUS
370
-3
390
F
  0
LAYER
  5
206
100
AcDbSymbolTableRecord
100
AcDbLayerTableRecord
  2
10_NOTES
 70
0
 62
7
  6
CONTINUOUS
370
-3
390
F
  0
LAYER
  5
207
100
AcDbSymbolTableRecord
100
AcDbLayerTableRecord
  2
11_NOTES_PUB
 70
0
 62
7
  6
CONTINUOUS
370
-3
390
F
  0
LAYER
  5
208
100
AcDbSymbolTableRecord
100
AcDbLayerTableRecord
  2
13_REF_GTOL
 70
0
 62
7
  6
CONTINUOUS
370
-3
390
F
  0
LAYER
  5
209
100
AcDbSymbolTableRecord
100
AcDbLayerTableRecord
  2
16_MISC
 70
0
 62
7
  6
CONTINUOUS
370
-3
390
F
  0
LAYER
  5
20A
100
AcDbSymbolTableRecord
100
AcDbLayerTableRecord
  2
17_NO_PRINT
 70
0
 62
7
  6
CONTINUOUS
370
-3
390
F
  0
LAYER
  5
20B
100
AcDbSymbolTableRecord
100
AcDbLayerTableRecord
  2
18_DATUM_CAMS_JOINTS
 70
0
 62
7
  6
CONTINUOUS
370
-3
390
F
  0
LAYER
  5
20C
100
AcDbSymbolTableRecord
100
AcDbLayerTableRecord
  2
19_DATUM_FUNCTIONAL
 70
0
 62
7
  6
CONTINUOUS
370
-3
390
F
  0
LAYER
  5
20D
100
AcDbSymbolTableRecord
100
AcDbLayerTableRecord
  2
20_DATUM_KINEMATIC_SCHEME
 70
0
 62
7
  6
CONTINUOUS
370
-3
390
F
  0
ENDTAB
  0
TABLE
  2
STYLE
  5
3
100
AcDbSymbolTable
 70
1
  0
STYLE
  5
11
100
AcDbSymbolTableRecord
100
AcDbTextStyleTableRecord
  2
STANDARD
 70
0
 40
0.0
 41
0.8
 50
0.0
 71
0
 42
0.2
  3
txt
  4

  0
STYLE
  5
20E
100
AcDbSymbolTableRecord
100
AcDbTextStyleTableRecord
  2
TEXTSTYLE_1
 70
0
 40
0.0
 41
0.8
 50
0.0
 71
0
 42
0.2
  3
gdt
  4

  0
ENDTAB
  0
TABLE
  2
VIEW
  5
6
100
AcDbSymbolTable
 70
0
  0
ENDTAB
  0
TABLE
  2
UCS
  5
7
100
AcDbSymbolTable
 70
0
  0
ENDTAB
  0
TABLE
  2
APPID
  5
9
100
AcDbSymbolTable
 70
1
  0
APPID
  5
20F
100
AcDbSymbolTableRecord
100
AcDbRegAppTableRecord
  2
ACAD
 70
0
  0
ENDTAB
  0
TABLE
  2
BLOCK_RECORD
  5
1
100
AcDbSymbolTable
 70
0
  0
BLOCK_RECORD
  5
210
100
AcDbSymbolTableRecord
100
AcDbBlockTableRecord
  2
*Model_Space
  0
BLOCK_RECORD
  5
211
100
AcDbSymbolTableRecord
100
AcDbBlockTableRecord
  2
*Paper_Space
  0
BLOCK_RECORD
  5
212
100
AcDbSymbolTableRecord
100
AcDbBlockTableRecord
  2
_FILLED
  0
ENDTAB
  0
TABLE
  2
DIMSTYLE
  5
A
100
AcDbSymbolTable
 70
1
100
AcDbDimStyleTable
 71
0
  0
DIMSTYLE
105
213
100
AcDbSymbolTableRecord
100
AcDbDimStyleTableRecord
  2
STANDARD
 70
0
  3

  4

 40
1.0
 41
8.8965037782
 42
1.0
 43
0.38
 44
1.0
 45
0.0
 46
0.0
 47
0.01
 48
0.01
140
12.4551052895
141
0.09
142
0.0
143
25.4
144
1.0
145
0.0
146
1.0
147
0.625
 71
1
 72
0
 73
0
 74
0
 75
0
 76
0
 77
1
 78
8
 79
2
170
0
171
1
172
0
173
0
174
0
175
0
176
0
177
0
178
0
270
2
179
2
271
2
272
2
273
2
274
2
275
0
280
0
281
0
282
0
283
1
284
8
285
0
286
0
287
3
288
0
340
11
278
46
341
212
342
212
343
212
344
212
  0
ENDTAB
  0
ENDSEC
  0
SECTION
  2
BLOCKS
  0
BLOCK
  5
20
100
AcDbEntity
  8
0
100
AcDbBlockBegin
  2
*Model_Space
 70
0
 10
0.0
 20
0.0
 30
0.0
  3
*Model_Space
  1

  0
ENDBLK
  5
21
100
AcDbEntity
  8
0
100
AcDbBlockEnd
  0
BLOCK
  5
1C
100
AcDbEntity
  8
0
100
AcDbBlockBegin
  2
*Paper_Space
 70
0
 10
0.0
 20
0.0
 30
0.0
  3
*Paper_Space
  1

  0
ENDBLK
  5
1D
100
AcDbEntity
  8
0
100
AcDbBlockEnd
  0
BLOCK
  5
214
100
AcDbEntity
  8
0
100
AcDbBlockBegin
  2
_FILLED
 70
64
 10
0.0
 20
0.0
  3
_FILLED
  1

  0
SOLID
  5
215
100
AcDbEntity
  8
0
  6
BYBLOCK
 62
0
100
AcDbTrace
 10
0.0
 20
0.0
 11
-1.0
 21
0.25
 12
-1.0
 22
-0.25
 13
-1.0
 23
-0.25
  0
ENDBLK
  5
216
100
AcDbEntity
  8
0
  6
BYBLOCK
 62
0
100
AcDbBlockEnd
  0
ENDSEC
  0
SECTION
  2
ENTITIES
  0
LINE
  5
217
100
AcDbEntity
  8
0
100
AcDbLine
 62
7
  6
CONTINUOUS
 10
454.3014367577
 20
121.7150106328
 11
454.2978842512
 21
121.7142931097
  0
LINE
  5
218
100
AcDbEntity
  8
0
100
AcDbLine
 62
7
  6
CONTINUOUS
 10
454.3016633656
 20
121.7157814357
 11
454.2981161139
 21
121.7150801736
  0
LINE
  5
219
100
AcDbEntity
  8
0
100
AcDbLine
 62
7
  6
CONTINUOUS
 10
454.1414317851
 20
121.689462411
 11
454.132756147
 21
121.6887259314
  0
LINE
  5
21A
100
AcDbEntity
  8
0
100
AcDbLine
 62
7
  6
CONTINUOUS
 10
455.9978594881
 20
122.0513885531
 11
456.0257274885
 21
122.0521864972
  0
LINE
  5
21B
100
AcDbEntity
  8
0
100
AcDbLine
 62
7
  6
CONTINUOUS
 10
456.0864067947
 20
122.0634469571
 11
456.0303604304
 21
122.0618419402
  0
LINE
  5
21C
100
AcDbEntity
  8
0
100
AcDbLine
 62
7
  6
CONTINUOUS
 10
315.9978601909
 20
122.0513887792
 11
316.0257274885
 21
122.0521864972
  0
LINE
  5
21D
100
AcDbEntity
  8
0
100
AcDbLine
 62
7
  6
CONTINUOUS
 10
316.0864067947
 20
122.0634469571
 11
316.0303604304
 21
122.0618419402
  0
LINE
  5
21E
100
AcDbEntity
  8
0
100
AcDbLine
 62
7
  6
CONTINUOUS
 10
452.9651640715
 20
122.050453614
 11
453.281904069
 21
122.0518594798
  0
LINE
  5
21F
100
AcDbEntity
  8
0
100
AcDbLine
 62
7
  6
CONTINUOUS
 10
312.9651640715
 20
122.050453614
 11
313.2819040691
 21
122.0518594798
  0
LINE
  5
220
100
AcDbEntity
  8
0
100
AcDbLine
 62
7
  6
CONTINUOUS
 10
313.4801540417
 20
122.0518629281
 11
313.6784241449
 21
122.0518594797
  0
LWPOLYLINE
  5
221
100
AcDbEntity
  8
0
100
AcDbPolyline
 62
7
  6
CONTINUOUS
 90
3
 70
0
 10
453.2806296487
 20
122.0518594577
 10
453.6768763078
 20
122.0518663498
 10
453.9951640715
 20
122.050453628
  0
LWPOLYLINE
  5
222
100
AcDbEntity
  8
0
100
AcDbPolyline
 62
7
  6
CONTINUOUS
 90
3
 70
0
 10
313.2806296487
 20
122.0518594577
 10
313.6768763078
 20
122.0518663498
 10
313.9951640715
 20
122.050453628
  0
LINE
  5
223
100
AcDbEntity
  8
0
100
AcDbLine
 62
7
  6
CONTINUOUS
 10
453.4801540407
 20
122.0518629281
 11
453.678424145
 21
122.0518594797
  0
LINE
  5
224
100
AcDbEntity
  8
0
100
AcDbLine
 62
7
  6
CONTINUOUS
 10
318.1490136197
 20
123.157430459
 11
308.8112219664
 21
123.1574467922
  0
LINE
  5
225
100
AcDbEntity
  8
0
100
AcDbLine
 62
7
  6
CONTINUOUS
 10
458.1490136197
 20
123.157430459
 11
448.8112219664
 21
123.1574467922
  0
LINE
  5
226
100
AcDbEntity
  8
0
100
AcDbLine
 62
7
  6
CONTINUOUS
 10
458.2300923694
 20
123.3182347754
 11
448.7301640715
 21
123.3182347754
  0
LINE
  5
227
100
AcDbEntity
  8
0
100
AcDbLine
 62
7
  6
CONTINUOUS
 10
318.2300923694
 20
123.3182347754
 11
308.7301640715
 21
123.3182347754
  0
LINE
  5
228
100
AcDbEntity
  8
0
100
AcDbLine
 62
7
  6
CONTINUOUS
 10
309.383294609
 20
123.618222074
 11
311.076383605
 21
123.618222074
  0
LINE
  5
229
100
AcDbEntity
  8
0
100
AcDbLine
 62
7
  6
CONTINUOUS
 10
308.7301640715
 20
123.618222074
 11
308.8835104089
 21
123.618222074
  0
LINE
  5
22A
100
AcDbEntity
  8
0
100
AcDbLine
 62
7
  6
CONTINUOUS
 10
312.2829694288
 20
123.618222074
 11
314.6773587894
 21
123.618222074
  0
LINE
  5
22B
100
AcDbEntity
  8
0
100
AcDbLine
 62
7
  6
CONTINUOUS
 10
315.8839445508
 20
123.618222074
 11
317.5770335632
 21
123.618222074
  0
LINE
  5
22C
100
AcDbEntity
  8
0
100
AcDbLine
 62
7
  6
CONTINUOUS
 10
318.0768177279
 20
123.618222074
 11
318.2301640715
 21
123.618222074
  0
LINE
  5
22D
100
AcDbEntity
  8
0
100
AcDbLine
 62
7
  6
CONTINUOUS
 10
448.7301640715
 20
123.618222074
 11
448.8835104089
 21
123.618222074
  0
LINE
  5
22E
100
AcDbEntity
  8
0
100
AcDbLine
 62
7
  6
CONTINUOUS
 10
449.383294609
 20
123.618222074
 11
451.076383605
 21
123.618222074
  0
LINE
  5
22F
100
AcDbEntity
  8
0
100
AcDbLine
 62
7
  6
CONTINUOUS
 10
452.2829694288
 20
123.618222074
 11
454.6773587894
 21
123.618222074
  0
LINE
  5
230
100
AcDbEntity
  8
0
100
AcDbLine
 62
7
  6
CONTINUOUS
 10
455.8839445508
 20
123.618222074
 11
457.5770335632
 21
123.618222074
  0
LINE
  5
231
100
AcDbEntity
  8
0
100
AcDbLine
 62
7
  6
CONTINUOUS
 10
458.0768177279
 20
123.618222074
 11
458.2301640715
 21
123.618222074
  0
LINE
  5
232
100
AcDbEntity
  8
0
100
AcDbLine
 62
7
  6
CONTINUOUS
 10
457.6253631361
 20
123.6759602479
 11
455.7996057064
 21
123.6759602479
  0
LINE
  5
233
100
AcDbEntity
  8
0
100
AcDbLine
 62
7
  6
CONTINUOUS
 10
454.7711680925
 20
123.6759602479
 11
452.1891600506
 21
123.6759602479
  0
LINE
  5
234
100
AcDbEntity
  8
0
100
AcDbLine
 62
7
  6
CONTINUOUS
 10
451.1607224482
 20
123.6759602479
 11
449.334965007
 21
123.6759602479
  0
LINE
  5
235
100
AcDbEntity
  8
0
100
AcDbLine
 62
7
  6
CONTINUOUS
 10
317.6253631361
 20
123.6759602479
 11
315.7996057064
 21
123.6759602479
  0
LINE
  5
236
100
AcDbEntity
  8
0
100
AcDbLine
 62
7
  6
CONTINUOUS
 10
314.7711680925
 20
123.6759602479
 11
312.1891600506
 21
123.6759602479
  0
LINE
  5
237
100
AcDbEntity
  8
0
100
AcDbLine
 62
7
  6
CONTINUOUS
 10
311.1607224482
 20
123.6759602479
 11
309.334965007
 21
123.6759602479
  0
LINE
  5
238
100
AcDbEntity
  8
0
100
AcDbLine
 62
7
  6
CONTINUOUS
 10
308.9427971615
 20
123.918222074
 11
309.2780807482
 21
123.918222074
  0
LINE
  5
239
100
AcDbEntity
  8
0
100
AcDbLine
 62
7
  6
CONTINUOUS
 10
311.265441573
 20
123.918222074
 11
312.0748877558
 21
123.918222074
  0
LINE
  5
23A
100
AcDbEntity
  8
0
100
AcDbLine
 62
7
  6
CONTINUOUS
 10
314.8854403873
 20
123.918222074
 11
315.69488657
 21
123.918222074
  0
LINE
  5
23B
100
AcDbEntity
  8
0
100
AcDbLine
 62
7
  6
CONTINUOUS
 10
317.6822473949
 20
123.918222074
 11
318.0175309816
 21
123.918222074
  0
LINE
  5
23C
100
AcDbEntity
  8
0
100
AcDbLine
 62
7
  6
CONTINUOUS
 10
448.9427971615
 20
123.918222074
 11
449.2780807482
 21
123.918222074
  0
LINE
  5
23D
100
AcDbEntity
  8
0
100
AcDbLine
 62
7
  6
CONTINUOUS
 10
451.265441573
 20
123.918222074
 11
452.0748877558
 21
123.918222074
  0
LINE
  5
23E
100
AcDbEntity
  8
0
100
AcDbLine
 62
7
  6
CONTINUOUS
 10
454.8854403873
 20
123.918222074
 11
455.69488657
 21
123.918222074
  0
LINE
  5
23F
100
AcDbEntity
  8
0
100
AcDbLine
 62
7
  6
CONTINUOUS
 10
457.6822473949
 20
123.918222074
 11
458.0175309816
 21
123.918222074
  0
LINE
  5
240
100
AcDbEntity
  8
0
100
AcDbLine
 62
7
  6
CONTINUOUS
 10
505.9801640715
 20
124.018222074
 11
260.9801640715
 21
124.018222074
  0
LINE
  5
241
100
AcDbEntity
  8
0
100
AcDbLine
 62
7
  6
CONTINUOUS
 10
674.9801640715
 20
125.018222074
 11
661.9801640715
 21
125.018222074
  0
LINE
  5
242
100
AcDbEntity
  8
0
100
AcDbLine
 62
7
  6
CONTINUOUS
 10
104.7307674155
 20
125.018222074
 11
91.7307674155
 21
125.018222074
  0
LINE
  5
243
100
AcDbEntity
  8
0
100
AcDbLine
 62
7
  6
CONTINUOUS
 10
83.4801640715
 20
125.218222074
 11
683.4801640715
 21
125.218222074
  0
LINE
  5
244
100
AcDbEntity
  8
0
100
AcDbLine
 62
7
  6
CONTINUOUS
 10
83.2307674155
 20
126.718222074
 11
683.2307674156
 21
126.718222074
  0
LINE
  5
245
100
AcDbEntity
  8
0
100
AcDbLine
 62
7
  6
CONTINUOUS
 10
310.9345317444
 20
122.0521885759
 11
310.9643234286
 21
122.0513356466
  0
LINE
  5
246
100
AcDbEntity
  8
0
100
AcDbLine
 62
7
  6
CONTINUOUS
 10
310.9299649445
 20
122.0618428932
 11
310.8739213429
 21
122.0634469586
  0
LINE
  5
247
100
AcDbEntity
  8
0
100
AcDbLine
 62
7
  6
CONTINUOUS
 10
450.9345317444
 20
122.0521885759
 11
450.9643234286
 21
122.0513356466
  0
LINE
  5
248
100
AcDbEntity
  8
0
100
AcDbLine
 62
7
  6
CONTINUOUS
 10
450.9299649445
 20
122.0618428932
 11
450.8739213429
 21
122.0634469586
  0
LINE
  5
249
100
AcDbEntity
  8
0
100
AcDbLine
 62
7
  6
CONTINUOUS
 10
312.8275719961
 20
121.6887259314
 11
312.7893725978
 21
121.6920156754
  0
LINE
  5
24A
100
AcDbEntity
  8
0
100
AcDbLine
 62
7
  6
CONTINUOUS
 10
312.7893725978
 20
121.6920156754
 11
312.7701437077
 21
121.6937429789
  0
LINE
  5
24B
100
AcDbEntity
  8
0
100
AcDbLine
 62
7
  6
CONTINUOUS
 10
312.6587014281
 20
121.7157741902
 11
312.6630438728
 21
121.714915725
  0
LINE
  5
24C
100
AcDbEntity
  8
0
100
AcDbLine
 62
7
  6
CONTINUOUS
 10
312.6639736529
 20
121.7201708257
 11
312.6588684071
 21
121.7211827755
  0
LINE
  5
24D
100
AcDbEntity
  8
0
100
AcDbLine
 62
7
  6
CONTINUOUS
 10
312.6589280943
 20
121.7150032057
 11
312.6632768567
 21
121.7141252345
  0
LINE
  5
24E
100
AcDbEntity
  8
0
100
AcDbLine
 62
7
  6
CONTINUOUS
 10
312.6643789115
 20
121.718780715
 11
312.6592605378
 21
121.7198336882
  0
LINE
  5
24F
100
AcDbEntity
  8
0
100
AcDbLine
 62
7
  6
CONTINUOUS
 10
308.4801640715
 20
927.1502728816
 11
307.2122148791
 21
926.418222074
  0
LINE
  5
250
100
AcDbEntity
  8
0
100
AcDbLine
 62
7
  6
CONTINUOUS
 10
333.4801640715
 20
927.1502728816
 11
332.2122148791
 21
926.418222074
  0
LINE
  5
251
100
AcDbEntity
  8
0
100
AcDbLine
 62
7
  6
CONTINUOUS
 10
314.3014367577
 20
121.7150106328
 11
314.2978842512
 21
121.7142931097
  0
LINE
  5
252
100
AcDbEntity
  8
0
100
AcDbLine
 62
7
  6
CONTINUOUS
 10
314.3016633656
 20
121.7157814357
 11
314.2981161139
 21
121.7150801736
  0
LINE
  5
253
100
AcDbEntity
  8
0
100
AcDbLine
 62
7
  6
CONTINUOUS
 10
90.2469267389
 20
128.218222074
 11
93.7565378172
 21
128.5373126192
  0
LINE
  5
254
100
AcDbEntity
  8
0
100
AcDbLine
 62
7
  6
CONTINUOUS
 10
314.1414317851
 20
121.689462411
 11
314.132756147
 21
121.6887259314
  0
LINE
  5
255
100
AcDbEntity
  8
0
100
AcDbLine
 62
7
  6
CONTINUOUS
 10
681.2801640715
 20
127.418222074
 11
680.4807674156
 21
127.418222074
  0
LINE
  5
256
100
AcDbEntity
  8
0
100
AcDbLine
 62
7
  6
CONTINUOUS
 10
86.0313707596
 20
127.418222074
 11
85.6801640715
 21
127.418222074
  0
LINE
  5
257
100
AcDbEntity
  8
0
100
AcDbLine
 62
7
  6
CONTINUOUS
 10
681.5313707596
 20
128.218222074
 11
675.8158147798
 21
128.218222074
  0
LINE
  5
258
100
AcDbEntity
  8
0
100
AcDbLine
 62
7
  6
CONTINUOUS
 10
90.2469267394
 20
128.218222074
 11
84.5313707596
 21
128.218222074
  0
LINE
  5
259
100
AcDbEntity
  8
0
100
AcDbLine
 62
7
  6
CONTINUOUS
 10
91.1072913934
 20
128.218222074
 11
92.8620969328
 21
128.218222074
  0
LINE
  5
25A
100
AcDbEntity
  8
0
100
AcDbLine
 62
7
  6
CONTINUOUS
 10
673.2006445864
 20
128.218222074
 11
674.9554501259
 21
128.218222074
  0
LINE
  5
25B
100
AcDbEntity
  8
0
100
AcDbLine
 62
7
  6
CONTINUOUS
 10
672.306203702
 20
128.5373126192
 11
671.4458390475
 21
128.5373126192
  0
LINE
  5
25C
100
AcDbEntity
  8
0
100
AcDbLine
 62
7
  6
CONTINUOUS
 10
93.7565378172
 20
128.5373126192
 11
94.6169024717
 21
128.5373126192
  0
LINE
  5
25D
100
AcDbEntity
  8
0
100
AcDbLine
 62
7
  6
CONTINUOUS
 10
683.2307674156
 20
128.718222074
 11
681.5313707596
 21
128.718222074
  0
LINE
  5
25E
100
AcDbEntity
  8
0
100
AcDbLine
 62
7
  6
CONTINUOUS
 10
84.5313707596
 20
128.718222074
 11
83.2307674156
 21
128.718222074
  0
LINE
  5
25F
100
AcDbEntity
  8
0
100
AcDbLine
 62
7
  6
CONTINUOUS
 10
670.585474393
 20
129.718222074
 11
95.4772671262
 21
129.718222074
  0
LINE
  5
260
100
AcDbEntity
  8
0
100
AcDbLine
 62
7
  6
CONTINUOUS
 10
452.8275719961
 20
121.6887259314
 11
452.7893725978
 21
121.6920156754
  0
LINE
  5
261
100
AcDbEntity
  8
0
100
AcDbLine
 62
7
  6
CONTINUOUS
 10
452.7893725978
 20
121.6920156754
 11
452.7701437077
 21
121.6937429789
  0
LINE
  5
262
100
AcDbEntity
  8
0
100
AcDbLine
 62
7
  6
CONTINUOUS
 10
675.8158147798
 20
128.2182220741
 11
672.306203702
 21
128.5373126192
  0
LINE
  5
263
100
AcDbEntity
  8
0
100
AcDbLine
 62
7
  6
CONTINUOUS
 10
452.6587014281
 20
121.7157741902
 11
452.6630438728
 21
121.714915725
  0
LINE
  5
264
100
AcDbEntity
  8
0
100
AcDbLine
 62
7
  6
CONTINUOUS
 10
452.6639736529
 20
121.7201708257
 11
452.6588684071
 21
121.7211827755
  0
LINE
  5
265
100
AcDbEntity
  8
0
100
AcDbLine
 62
7
  6
CONTINUOUS
 10
452.6589280943
 20
121.7150032057
 11
452.6632768567
 21
121.7141252345
  0
LINE
  5
266
100
AcDbEntity
  8
0
100
AcDbLine
 62
7
  6
CONTINUOUS
 10
452.6643789115
 20
121.718780715
 11
452.6592605378
 21
121.7198336882
  0
LINE
  5
267
100
AcDbEntity
  8
0
100
AcDbLine
 62
7
  6
CONTINUOUS
 10
308.4801640715
 20
123.2861712665
 11
307.2122148791
 21
124.018222074
  0
LINE
  5
268
100
AcDbEntity
  8
0
100
AcDbLine
 62
7
  6
CONTINUOUS
 10
333.4801640715
 20
123.2861712665
 11
332.2122148791
 21
124.018222074
  0
LINE
  5
269
100
AcDbEntity
  8
0
100
AcDbLine
 62
7
  6
CONTINUOUS
 10
358.4801640715
 20
927.1502728816
 11
357.2122148791
 21
926.418222074
  0
LINE
  5
26A
100
AcDbEntity
  8
0
100
AcDbLine
 62
7
  6
CONTINUOUS
 10
383.4801640715
 20
927.1502728816
 11
382.2122148791
 21
926.418222074
  0
LINE
  5
26B
100
AcDbEntity
  8
0
100
AcDbLine
 62
7
  6
CONTINUOUS
 10
408.4801640715
 20
927.1502728816
 11
407.2122148791
 21
926.418222074
  0
LINE
  5
26C
100
AcDbEntity
  8
0
100
AcDbLine
 62
7
  6
CONTINUOUS
 10
358.4801640715
 20
123.2861712665
 11
357.2122148791
 21
124.018222074
  0
LINE
  5
26D
100
AcDbEntity
  8
0
100
AcDbLine
 62
7
  6
CONTINUOUS
 10
383.4801640715
 20
123.2861712665
 11
382.2122148791
 21
124.018222074
  0
LINE
  5
26E
100
AcDbEntity
  8
0
100
AcDbLine
 62
7
  6
CONTINUOUS
 10
408.4801640715
 20
123.2861712665
 11
407.2122148791
 21
124.018222074
  0
LINE
  5
26F
100
AcDbEntity
  8
0
100
AcDbLine
 62
7
  6
CONTINUOUS
 10
83.2307674156
 20
923.718222074
 11
83.2307674156
 21
126.718222074
  0
LINE
  5
270
100
AcDbEntity
  8
0
100
AcDbLine
 62
7
  6
CONTINUOUS
 10
83.4801640715
 20
925.218222074
 11
83.4801640715
 21
923.718222074
  0
LINE
  5
271
100
AcDbEntity
  8
0
100
AcDbLine
 62
7
  6
CONTINUOUS
 10
83.4801640715
 20
126.718222074
 11
83.4801640715
 21
125.218222074
  0
LINE
  5
272
100
AcDbEntity
  8
0
100
AcDbLine
 62
7
  6
CONTINUOUS
 10
84.5313707596
 20
922.218222074
 11
84.5313707596
 21
128.218222074
  0
LINE
  5
273
100
AcDbEntity
  8
0
100
AcDbLine
 62
7
  6
CONTINUOUS
 10
84.7307674156
 20
125.218222074
 11
84.7307674155
 21
128.218222074
  0
LINE
  5
274
100
AcDbEntity
  8
0
100
AcDbLine
 62
7
  6
CONTINUOUS
 10
84.7307674156
 20
922.218222074
 11
84.7307674156
 21
925.2182220741
  0
LINE
  5
275
100
AcDbEntity
  8
0
100
AcDbLine
 62
7
  6
CONTINUOUS
 10
85.6801640715
 20
127.418222074
 11
85.6801640715
 21
128.218222074
  0
LINE
  5
276
100
AcDbEntity
  8
0
100
AcDbLine
 62
7
  6
CONTINUOUS
 10
85.6801640715
 20
922.218222074
 11
85.6801640715
 21
923.018222074
  0
LINE
  5
277
100
AcDbEntity
  8
0
100
AcDbLine
 62
7
  6
CONTINUOUS
 10
85.8106414505
 20
128.218222074
 11
85.8106414505
 21
922.218222074
  0
LINE
  5
278
100
AcDbEntity
  8
0
100
AcDbLine
 62
7
  6
CONTINUOUS
 10
86.0313707596
 20
128.218222074
 11
86.0313707596
 21
126.718222074
  0
LINE
  5
279
100
AcDbEntity
  8
0
100
AcDbLine
 62
7
  6
CONTINUOUS
 10
86.0313707596
 20
922.218222074
 11
86.0313707596
 21
923.718222074
  0
LINE
  5
27A
100
AcDbEntity
  8
0
100
AcDbLine
 62
7
  6
CONTINUOUS
 10
433.4801640715
 20
927.1502728816
 11
432.2122148791
 21
926.418222074
  0
LINE
  5
27B
100
AcDbEntity
  8
0
100
AcDbLine
 62
7
  6
CONTINUOUS
 10
458.4801640715
 20
927.1502728816
 11
458.2301640715
 21
927.0059353143
  0
LINE
  5
27C
100
AcDbEntity
  8
0
100
AcDbLine
 62
7
  6
CONTINUOUS
 10
593.0313707596
 20
225.218222074
 11
173.0313707596
 21
225.218222074
  0
LINE
  5
27D
100
AcDbEntity
  8
0
100
AcDbLine
 62
7
  6
CONTINUOUS
 10
433.4801640715
 20
123.2861712665
 11
432.2122148791
 21
124.018222074
  0
LINE
  5
27E
100
AcDbEntity
  8
0
100
AcDbLine
 62
7
  6
CONTINUOUS
 10
458.4801640715
 20
123.2861712665
 11
458.2301640715
 21
123.4305088338
  0
LINE
  5
27F
100
AcDbEntity
  8
0
100
AcDbLine
 62
7
  6
CONTINUOUS
 10
312.7644805081
 20
121.700248593
 11
312.7701437077
 21
121.6937429789
  0
LINE
  5
280
100
AcDbEntity
  8
0
100
AcDbLine
 62
7
  6
CONTINUOUS
 10
86.6710061051
 20
128.218222074
 11
86.6710061051
 21
126.718222074
  0
LINE
  5
281
100
AcDbEntity
  8
0
100
AcDbLine
 62
7
  6
CONTINUOUS
 10
86.6710061051
 20
922.218222074
 11
86.6710061051
 21
923.718222074
  0
LINE
  5
282
100
AcDbEntity
  8
0
100
AcDbLine
 62
7
  6
CONTINUOUS
 10
86.7307674156
 20
125.218222074
 11
86.7307674156
 21
126.718222074
  0
LINE
  5
283
100
AcDbEntity
  8
0
100
AcDbLine
 62
7
  6
CONTINUOUS
 10
86.7307674156
 20
923.718222074
 11
86.7307674156
 21
925.218222074
  0
LINE
  5
284
100
AcDbEntity
  8
0
100
AcDbLine
 62
7
  6
CONTINUOUS
 10
91.7307674155
 20
125.018222074
 11
91.7307674155
 21
125.218222074
  0
LINE
  5
285
100
AcDbEntity
  8
0
100
AcDbLine
 62
7
  6
CONTINUOUS
 10
92.8620969328
 20
923.718222074
 11
92.8620969328
 21
922.218222074
  0
LINE
  5
286
100
AcDbEntity
  8
0
100
AcDbLine
 62
7
  6
CONTINUOUS
 10
92.8620969328
 20
128.218222074
 11
92.8620969328
 21
126.718222074
  0
LINE
  5
287
100
AcDbEntity
  8
0
100
AcDbLine
 62
7
  6
CONTINUOUS
 10
93.7565378172
 20
921.8991315288
 11
93.7565378172
 21
128.5373126192
  0
LINE
  5
288
100
AcDbEntity
  8
0
100
AcDbLine
 62
7
  6
CONTINUOUS
 10
94.6885406791
 20
128.8578574195
 11
94.6885406791
 21
127.9974927649
  0
LINE
  5
289
100
AcDbEntity
  8
0
100
AcDbLine
 62
7
  6
CONTINUOUS
 10
94.6885406791
 20
921.5785867286
 11
94.6885406791
 21
922.4389513831
  0
LINE
  5
28A
100
AcDbEntity
  8
0
100
AcDbLine
 62
7
  6
CONTINUOUS
 10
95.4772671262
 20
129.718222074
 11
95.4772671262
 21
920.718222074
  0
LINE
  5
28B
100
AcDbEntity
  8
0
100
AcDbLine
 62
7
  6
CONTINUOUS
 10
104.7307674155
 20
125.218222074
 11
104.7307674155
 21
125.018222074
  0
LINE
  5
28C
100
AcDbEntity
  8
0
100
AcDbLine
 62
7
  6
CONTINUOUS
 10
126.9704900199
 20
503.6327208228
 11
126.9704900199
 21
521.6572338203
  0
LINE
  5
28D
100
AcDbEntity
  8
0
100
AcDbLine
 62
7
  6
CONTINUOUS
 10
126.9704887499
 20
528.7792069968
 11
126.9704887499
 21
537.2036999887
  0
LINE
  5
28E
100
AcDbEntity
  8
0
100
AcDbLine
 62
7
  6
CONTINUOUS
 10
127.0922535603
 20
529.027038539
 11
127.0922535603
 21
537.20368603
  0
LINE
  5
28F
100
AcDbEntity
  8
0
100
AcDbLine
 62
7
  6
CONTINUOUS
 10
129.732831452
 20
527.2160313688
 11
129.732831452
 21
526.8160922908
  0
LINE
  5
290
100
AcDbEntity
  8
0
100
AcDbLine
 62
7
  6
CONTINUOUS
 10
129.732831452
 20
523.6203518573
 11
129.732831452
 21
523.2204127792
  0
LINE
  5
291
100
AcDbEntity
  8
0
100
AcDbLine
 62
7
  6
CONTINUOUS
 10
129.7939120305
 20
526.7250822468
 11
129.7939120305
 21
526.3251431688
  0
LINE
  5
292
100
AcDbEntity
  8
0
100
AcDbLine
 62
7
  6
CONTINUOUS
 10
129.7939120309
 20
524.1113009793
 11
129.7939120309
 21
523.7113619012
  0
LINE
  5
293
100
AcDbEntity
  8
0
100
AcDbLine
 62
7
  6
CONTINUOUS
 10
131.9704864843
 20
502.2042355978
 11
131.9704864843
 21
514.800060037
  0
LINE
  5
294
100
AcDbEntity
  8
0
100
AcDbLine
 62
7
  6
CONTINUOUS
 10
131.9704877997
 20
535.6363848631
 11
131.9704877997
 21
538.6322742691
  0
LINE
  5
295
100
AcDbEntity
  8
0
100
AcDbLine
 62
7
  6
CONTINUOUS
 10
132.0922535603
 20
502.2041670555
 11
132.0922535603
 21
514.7451663971
  0
LINE
  5
296
100
AcDbEntity
  8
0
100
AcDbLine
 62
7
  6
CONTINUOUS
 10
132.0922535603
 20
535.691277751
 11
132.0922535603
 21
538.6322770926
  0
LINE
  5
297
100
AcDbEntity
  8
0
100
AcDbLine
 62
7
  6
CONTINUOUS
 10
136.970487959
 20
538.6322770926
 11
136.970487959
 21
535.691277751
  0
LINE
  5
298
100
AcDbEntity
  8
0
100
AcDbLine
 62
7
  6
CONTINUOUS
 10
136.970487959
 20
514.7451663971
 11
136.970487959
 21
502.2041670555
  0
LINE
  5
299
100
AcDbEntity
  8
0
100
AcDbLine
 62
7
  6
CONTINUOUS
 10
137.092255035
 20
538.6322085502
 11
137.092255035
 21
535.6363841111
  0
LINE
  5
29A
100
AcDbEntity
  8
0
100
AcDbLine
 62
7
  6
CONTINUOUS
 10
137.0922537196
 20
514.8000592849
 11
137.0922537196
 21
502.2041698789
  0
LINE
  5
29B
100
AcDbEntity
  8
0
100
AcDbLine
 62
7
  6
CONTINUOUS
 10
139.2688294888
 20
523.7113619012
 11
139.2688294888
 21
524.1113009793
  0
LINE
  5
29C
100
AcDbEntity
  8
0
100
AcDbLine
 62
7
  6
CONTINUOUS
 10
139.2688294883
 20
526.3251431688
 11
139.2688294883
 21
526.7250822468
  0
LINE
  5
29D
100
AcDbEntity
  8
0
100
AcDbLine
 62
7
  6
CONTINUOUS
 10
139.3299100673
 20
523.2204127792
 11
139.3299100673
 21
523.6203518573
  0
LINE
  5
29E
100
AcDbEntity
  8
0
100
AcDbLine
 62
7
  6
CONTINUOUS
 10
139.3299100673
 20
526.8160922908
 11
139.3299100673
 21
527.2160313688
  0
LINE
  5
29F
100
AcDbEntity
  8
0
100
AcDbLine
 62
7
  6
CONTINUOUS
 10
141.970487959
 20
521.4094056091
 11
141.970487959
 21
503.632758118
  0
LINE
  5
2A0
100
AcDbEntity
  8
0
100
AcDbLine
 62
7
  6
CONTINUOUS
 10
142.0922514994
 20
537.2037233252
 11
142.0922514994
 21
528.7792103277
  0
LINE
  5
2A1
100
AcDbEntity
  8
0
100
AcDbLine
 62
7
  6
CONTINUOUS
 10
142.0922527694
 20
521.6572371513
 11
142.0922527694
 21
503.6327441593
  0
LINE
  5
2A2
100
AcDbEntity
  8
0
100
AcDbLine
 62
7
  6
CONTINUOUS
 10
127.0907600354
 20
503.632758118
 11
127.0922535603
 21
521.4094056091
  0
LINE
  5
2A3
100
AcDbEntity
  8
0
100
AcDbLine
 62
7
  6
CONTINUOUS
 10
141.9719819503
 20
537.20368603
 11
141.970487959
 21
529.027038539
  0
LINE
  5
2A4
100
AcDbEntity
  8
0
100
AcDbLine
 62
7
  6
CONTINUOUS
 10
142.4796557164
 20
525.218222074
 11
142.4795405293
 21
525.1754311123
  0
LINE
  5
2A5
100
AcDbEntity
  8
0
100
AcDbLine
 62
7
  6
CONTINUOUS
 10
126.7505951846
 20
526.0911141931
 11
126.774953411
 21
526.1881022139
  0
LINE
  5
2A6
100
AcDbEntity
  8
0
100
AcDbLine
 62
7
  6
CONTINUOUS
 10
126.7505951693
 20
524.3453299511
 11
126.7749534371
 21
524.2483419375
  0
LINE
  5
2A7
100
AcDbEntity
  8
0
100
AcDbLine
 62
7
  6
CONTINUOUS
 10
173.0313707596
 20
225.218222074
 11
173.0313707596
 21
825.218222074
  0
LINE
  5
2A8
100
AcDbEntity
  8
0
100
AcDbLine
 62
7
  6
CONTINUOUS
 10
146.1523072519
 20
542.5200418658
 11
146.0726582145
 21
542.3685576309
  0
LINE
  5
2A9
100
AcDbEntity
  8
0
100
AcDbLine
 62
7
  6
CONTINUOUS
 10
122.9104342674
 20
498.3164022822
 11
122.9900833049
 21
498.4678865171
  0
LINE
  5
2AA
100
AcDbEntity
  8
0
100
AcDbLine
 62
7
  6
CONTINUOUS
 10
129.732831452
 20
523.6203518573
 11
129.7939120309
 21
523.7113619012
  0
LINE
  5
2AB
100
AcDbEntity
  8
0
100
AcDbLine
 62
7
  6
CONTINUOUS
 10
139.3299100673
 20
526.8160922908
 11
139.2688294883
 21
526.7250822468
  0
LINE
  5
2AC
100
AcDbEntity
  8
0
100
AcDbLine
 62
7
  6
CONTINUOUS
 10
452.7644805081
 20
121.700248593
 11
452.7701437077
 21
121.6937429789
  0
LINE
  5
2AD
100
AcDbEntity
  8
0
100
AcDbLine
 62
7
  6
CONTINUOUS
 10
129.7939120309
 20
526.7250822468
 11
129.732831452
 21
526.8160922908
  0
LINE
  5
2AE
100
AcDbEntity
  8
0
100
AcDbLine
 62
7
  6
CONTINUOUS
 10
139.2688294883
 20
523.7113619012
 11
139.3299100673
 21
523.6203518573
  0
LINE
  5
2AF
100
AcDbEntity
  8
0
100
AcDbLine
 62
7
  6
CONTINUOUS
 10
146.0726651589
 20
498.4678901685
 11
146.1523142443
 21
498.3164059588
  0
LINE
  5
2B0
100
AcDbEntity
  8
0
100
AcDbLine
 62
7
  6
CONTINUOUS
 10
122.9900749773
 20
542.3685532524
 11
122.9104258823
 21
542.520037457
  0
LINE
  5
2B1
100
AcDbEntity
  8
0
100
AcDbLine
 62
7
  6
CONTINUOUS
 10
129.0408126364
 20
519.033011116
 11
128.9080601806
 21
518.8834631237
  0
LINE
  5
2B2
100
AcDbEntity
  8
0
100
AcDbLine
 62
7
  6
CONTINUOUS
 10
140.0219288829
 20
531.4034330321
 11
140.1546813386
 21
531.5529810243
  0
LINE
  5
2B3
100
AcDbEntity
  8
0
100
AcDbLine
 62
7
  6
CONTINUOUS
 10
140.0219287947
 20
519.0330110377
 11
140.1546812483
 21
518.8834630435
  0
LINE
  5
2B4
100
AcDbEntity
  8
0
100
AcDbLine
 62
7
  6
CONTINUOUS
 10
129.0408127245
 20
531.4034331103
 11
128.908060271
 21
531.5529811045
  0
LINE
  5
2B5
100
AcDbEntity
  8
0
100
AcDbLine
 62
7
  6
CONTINUOUS
 10
260.9801640715
 20
926.418222074
 11
260.9801640715
 21
925.218222074
  0
LINE
  5
2B6
100
AcDbEntity
  8
0
100
AcDbLine
 62
7
  6
CONTINUOUS
 10
260.9801640715
 20
125.218222074
 11
260.9801640715
 21
124.018222074
  0
LINE
  5
2B7
100
AcDbEntity
  8
0
100
AcDbLine
 62
7
  6
CONTINUOUS
 10
285.9801640715
 20
124.018222074
 11
285.9801640715
 21
125.218222074
  0
LINE
  5
2B8
100
AcDbEntity
  8
0
100
AcDbLine
 62
7
  6
CONTINUOUS
 10
285.9801640715
 20
925.218222074
 11
285.9801640715
 21
926.418222074
  0
LINE
  5
2B9
100
AcDbEntity
  8
0
100
AcDbLine
 62
7
  6
CONTINUOUS
 10
318.0404618771
 20
926.6806156425
 11
318.0291316916
 21
926.5994629407
  0
LINE
  5
2BA
100
AcDbEntity
  8
0
100
AcDbLine
 62
7
  6
CONTINUOUS
 10
318.0404615431
 20
926.6806155363
 11
318.0356442075
 21
926.646104459
  0
LINE
  5
2BB
100
AcDbEntity
  8
0
100
AcDbLine
 62
7
  6
CONTINUOUS
 10
318.0404615431
 20
123.7558286116
 11
318.0291317628
 21
123.8369811846
  0
LINE
  5
2BC
100
AcDbEntity
  8
0
100
AcDbLine
 62
7
  6
CONTINUOUS
 10
314.3016633656
 20
121.7157814357
 11
314.3023342997
 21
121.6937429789
  0
LINE
  5
2BD
100
AcDbEntity
  8
0
100
AcDbLine
 62
7
  6
CONTINUOUS
 10
314.3024617745
 20
121.6887259314
 11
314.3023342997
 21
121.6937429789
  0
LINE
  5
2BE
100
AcDbEntity
  8
0
100
AcDbLine
 62
7
  6
CONTINUOUS
 10
308.7301640715
 20
123.3182347754
 11
308.7301640715
 21
123.618222074
  0
LINE
  5
2BF
100
AcDbEntity
  8
0
100
AcDbLine
 62
7
  6
CONTINUOUS
 10
308.7301640715
 20
926.818222074
 11
308.7301640715
 21
927.1182093726
  0
LINE
  5
2C0
100
AcDbEntity
  8
0
100
AcDbLine
 62
7
  6
CONTINUOUS
 10
312.9651640715
 20
928.7423229635
 11
312.9651640715
 21
928.3746013129
  0
LINE
  5
2C1
100
AcDbEntity
  8
0
100
AcDbLine
 62
7
  6
CONTINUOUS
 10
312.9651640715
 20
122.0618428246
 11
312.9651640715
 21
121.6941211845
  0
LINE
  5
2C2
100
AcDbEntity
  8
0
100
AcDbLine
 62
7
  6
CONTINUOUS
 10
313.9951640715
 20
928.7423229635
 11
313.9951640715
 21
928.3746013821
  0
LINE
  5
2C3
100
AcDbEntity
  8
0
100
AcDbLine
 62
7
  6
CONTINUOUS
 10
313.9951640715
 20
122.0618427752
 11
313.9951640715
 21
121.6941211845
  0
LINE
  5
2C4
100
AcDbEntity
  8
0
100
AcDbLine
 62
7
  6
CONTINUOUS
 10
318.2301640715
 20
927.1182093726
 11
318.2301640715
 21
926.818222074
  0
LINE
  5
2C5
100
AcDbEntity
  8
0
100
AcDbLine
 62
7
  6
CONTINUOUS
 10
318.2301640715
 20
123.618222074
 11
318.2301640715
 21
123.3182347754
  0
LINE
  5
2C6
100
AcDbEntity
  8
0
100
AcDbLine
 62
7
  6
CONTINUOUS
 10
314.3024434701
 20
928.7469919787
 11
314.3024617745
 21
928.7477182166
  0
LINE
  5
2C7
100
AcDbEntity
  8
0
100
AcDbLine
 62
7
  6
CONTINUOUS
 10
314.3014773639
 20
928.7152578783
 11
314.3024434701
 21
928.7469919787
  0
LINE
  5
2C8
100
AcDbEntity
  8
0
100
AcDbLine
 62
7
  6
CONTINUOUS
 10
681.2801640715
 20
923.018222074
 11
680.4801640715
 21
922.218222074
  0
LINE
  5
2C9
100
AcDbEntity
  8
0
100
AcDbLine
 62
7
  6
CONTINUOUS
 10
130.1020491893
 20
523.3741317716
 11
129.732831452
 21
523.2204127792
  0
LINE
  5
2CA
100
AcDbEntity
  8
0
100
AcDbLine
 62
7
  6
CONTINUOUS
 10
138.96069233
 20
527.0623123764
 11
139.3299100673
 21
527.2160313688
  0
LINE
  5
2CB
100
AcDbEntity
  8
0
100
AcDbLine
 62
7
  6
CONTINUOUS
 10
138.8978153199
 20
526.9756903065
 11
138.5268011313
 21
526.8263592796
  0
LINE
  5
2CC
100
AcDbEntity
  8
0
100
AcDbLine
 62
7
  6
CONTINUOUS
 10
130.1649261994
 20
523.4607538415
 11
130.535940388
 21
523.6100848685
  0
LINE
  5
2CD
100
AcDbEntity
  8
0
100
AcDbLine
 62
7
  6
CONTINUOUS
 10
130.5359403883
 20
526.8263592802
 11
130.1649261996
 21
526.9756903072
  0
LINE
  5
2CE
100
AcDbEntity
  8
0
100
AcDbLine
 62
7
  6
CONTINUOUS
 10
138.526801131
 20
523.6100848679
 11
138.8978153197
 21
523.4607538408
  0
LINE
  5
2CF
100
AcDbEntity
  8
0
100
AcDbLine
 62
7
  6
CONTINUOUS
 10
130.1020491894
 20
527.0623123766
 11
129.732831452
 21
527.2160313688
  0
LINE
  5
2D0
100
AcDbEntity
  8
0
100
AcDbLine
 62
7
  6
CONTINUOUS
 10
138.9606923299
 20
523.3741317715
 11
139.3299100673
 21
523.2204127793
  0
LINE
  5
2D1
100
AcDbEntity
  8
0
100
AcDbLine
 62
7
  6
CONTINUOUS
 10
681.2801640715
 20
127.418222074
 11
680.4801640715
 21
128.218222074
  0
LINE
  5
2D2
100
AcDbEntity
  8
0
100
AcDbLine
 62
7
  6
CONTINUOUS
 10
312.6586647774
 20
928.7206627123
 11
312.6579938434
 21
928.7427011691
  0
LINE
  5
2D3
100
AcDbEntity
  8
0
100
AcDbLine
 62
7
  6
CONTINUOUS
 10
312.6578663686
 20
928.7477182166
 11
312.6579938434
 21
928.7427011691
  0
LINE
  5
2D4
100
AcDbEntity
  8
0
100
AcDbLine
 62
7
  6
CONTINUOUS
 10
312.657884673
 20
121.6894521693
 11
312.6578663686
 21
121.6887259314
  0
LINE
  5
2D5
100
AcDbEntity
  8
0
100
AcDbLine
 62
7
  6
CONTINUOUS
 10
312.6588507792
 20
121.7211862697
 11
312.657884673
 21
121.6894521693
  0
LINE
  5
2D6
100
AcDbEntity
  8
0
100
AcDbLine
 62
7
  6
CONTINUOUS
 10
126.774953411
 20
526.1881022139
 11
126.6757412787
 21
526.2005079254
  0
LINE
  5
2D7
100
AcDbEntity
  8
0
100
AcDbLine
 62
7
  6
CONTINUOUS
 10
149.0992813823
 20
505.1877985282
 11
146.4128420607
 21
505.6704765652
  0
LINE
  5
2D8
100
AcDbEntity
  8
0
100
AcDbLine
 62
7
  6
CONTINUOUS
 10
119.963460137
 20
535.6486456199
 11
122.6498994586
 21
535.1659675829
  0
LINE
  5
2D9
100
AcDbEntity
  8
0
100
AcDbLine
 62
7
  6
CONTINUOUS
 10
308.919866266
 20
123.7558285052
 11
308.9311964515
 21
123.8369812078
  0
LINE
  5
2DA
100
AcDbEntity
  8
0
100
AcDbLine
 62
7
  6
CONTINUOUS
 10
137.0922537196
 20
502.2041670555
 11
136.970487959
 21
502.2041670555
  0
LINE
  5
2DB
100
AcDbEntity
  8
0
100
AcDbLine
 62
7
  6
CONTINUOUS
 10
132.0922535603
 20
502.2041670555
 11
131.9704864843
 21
502.2041670555
  0
LINE
  5
2DC
100
AcDbEntity
  8
0
100
AcDbLine
 62
7
  6
CONTINUOUS
 10
126.9704900199
 20
503.632758118
 11
127.0907600354
 21
503.632758118
  0
LINE
  5
2DD
100
AcDbEntity
  8
0
100
AcDbLine
 62
7
  6
CONTINUOUS
 10
141.970487959
 20
503.632758118
 11
142.0922527694
 21
503.632758118
  0
LINE
  5
2DE
100
AcDbEntity
  8
0
100
AcDbLine
 62
7
  6
CONTINUOUS
 10
127.388205554
 20
523.2204127792
 11
129.732831452
 21
523.2204127792
  0
LINE
  5
2DF
100
AcDbEntity
  8
0
100
AcDbLine
 62
7
  6
CONTINUOUS
 10
139.3299100673
 20
523.2204127792
 11
141.6745359653
 21
523.2204127792
  0
LINE
  5
2E0
100
AcDbEntity
  8
0
100
AcDbLine
 62
7
  6
CONTINUOUS
 10
142.1835426004
 20
523.6203518573
 11
139.3299100673
 21
523.6203518573
  0
LINE
  5
2E1
100
AcDbEntity
  8
0
100
AcDbLine
 62
7
  6
CONTINUOUS
 10
129.732831452
 20
523.6203518573
 11
126.8791989189
 21
523.6203518573
  0
LINE
  5
2E2
100
AcDbEntity
  8
0
100
AcDbLine
 62
7
  6
CONTINUOUS
 10
126.9400832666
 20
523.6553838403
 11
127.8106909834
 21
523.6553838403
  0
LINE
  5
2E3
100
AcDbEntity
  8
0
100
AcDbLine
 62
7
  6
CONTINUOUS
 10
141.2520505359
 20
523.6553838403
 11
142.1226582526
 21
523.6553838403
  0
LINE
  5
2E4
100
AcDbEntity
  8
0
100
AcDbLine
 62
7
  6
CONTINUOUS
 10
128.208383775
 20
523.7113619012
 11
129.7939120309
 21
523.7113619012
  0
LINE
  5
2E5
100
AcDbEntity
  8
0
100
AcDbLine
 62
7
  6
CONTINUOUS
 10
139.2688294883
 20
523.7113619012
 11
140.8543577443
 21
523.7113619012
  0
LINE
  5
2E6
100
AcDbEntity
  8
0
100
AcDbLine
 62
7
  6
CONTINUOUS
 10
141.3420040408
 20
524.1113009793
 11
139.2688329059
 21
524.1113009793
  0
LINE
  5
2E7
100
AcDbEntity
  8
0
100
AcDbLine
 62
7
  6
CONTINUOUS
 10
129.7939050436
 20
524.1113009793
 11
127.7207374785
 21
524.1113009793
  0
LINE
  5
2E8
100
AcDbEntity
  8
0
100
AcDbLine
 62
7
  6
CONTINUOUS
 10
127.7207374785
 20
526.3251431688
 11
129.7939086767
 21
526.3251431688
  0
LINE
  5
2E9
100
AcDbEntity
  8
0
100
AcDbLine
 62
7
  6
CONTINUOUS
 10
139.2688364124
 20
526.3251431688
 11
141.3420040408
 21
526.3251431688
  0
LINE
  5
2EA
100
AcDbEntity
  8
0
100
AcDbLine
 62
7
  6
CONTINUOUS
 10
140.8543577443
 20
526.7250822468
 11
139.2688294883
 21
526.7250822468
  0
LINE
  5
2EB
100
AcDbEntity
  8
0
100
AcDbLine
 62
7
  6
CONTINUOUS
 10
129.7939120309
 20
526.7250822468
 11
128.208383775
 21
526.7250822468
  0
LINE
  5
2EC
100
AcDbEntity
  8
0
100
AcDbLine
 62
7
  6
CONTINUOUS
 10
126.8362169329
 20
526.7810603078
 11
127.8106909834
 21
526.7810603078
  0
LINE
  5
2ED
100
AcDbEntity
  8
0
100
AcDbLine
 62
7
  6
CONTINUOUS
 10
141.2520505359
 20
526.7810603078
 11
142.2265245863
 21
526.7810603078
  0
LINE
  5
2EE
100
AcDbEntity
  8
0
100
AcDbLine
 62
7
  6
CONTINUOUS
 10
126.8791989189
 20
526.8160922908
 11
129.732831452
 21
526.8160922908
  0
LINE
  5
2EF
100
AcDbEntity
  8
0
100
AcDbLine
 62
7
  6
CONTINUOUS
 10
139.3299100673
 20
526.8160922908
 11
142.1835426004
 21
526.8160922908
  0
LINE
  5
2F0
100
AcDbEntity
  8
0
100
AcDbLine
 62
7
  6
CONTINUOUS
 10
141.6745359653
 20
527.2160313688
 11
139.3299100673
 21
527.2160313688
  0
LINE
  5
2F1
100
AcDbEntity
  8
0
100
AcDbLine
 62
7
  6
CONTINUOUS
 10
129.732831452
 20
527.2160313688
 11
127.388205554
 21
527.2160313688
  0
LINE
  5
2F2
100
AcDbEntity
  8
0
100
AcDbLine
 62
7
  6
CONTINUOUS
 10
308.9198666
 20
926.6806155362
 11
308.9311963803
 21
926.5994629638
  0
LINE
  5
2F3
100
AcDbEntity
  8
0
100
AcDbLine
 62
7
  6
CONTINUOUS
 10
458.0404618771
 20
926.6806156425
 11
458.0291316916
 21
926.5994629406
  0
LINE
  5
2F4
100
AcDbEntity
  8
0
100
AcDbLine
 62
7
  6
CONTINUOUS
 10
458.0404615431
 20
926.6806155363
 11
458.0356442076
 21
926.6461044596
  0
LINE
  5
2F5
100
AcDbEntity
  8
0
100
AcDbLine
 62
7
  6
CONTINUOUS
 10
122.649899628
 20
505.6704748789
 11
119.9634604456
 21
505.1877968107
  0
LINE
  5
2F6
100
AcDbEntity
  8
0
100
AcDbLine
 62
7
  6
CONTINUOUS
 10
126.6757412787
 20
524.2359362226
 11
126.774953411
 21
524.2483419341
  0
LINE
  5
2F7
100
AcDbEntity
  8
0
100
AcDbLine
 62
7
  6
CONTINUOUS
 10
142.0922514994
 20
537.20368603
 11
141.9719819503
 21
537.20368603
  0
LINE
  5
2F8
100
AcDbEntity
  8
0
100
AcDbLine
 62
7
  6
CONTINUOUS
 10
127.0922535603
 20
537.20368603
 11
126.9704887499
 21
537.20368603
  0
LINE
  5
2F9
100
AcDbEntity
  8
0
100
AcDbLine
 62
7
  6
CONTINUOUS
 10
131.9704877997
 20
538.6322770926
 11
132.0922535603
 21
538.6322770926
  0
LINE
  5
2FA
100
AcDbEntity
  8
0
100
AcDbLine
 62
7
  6
CONTINUOUS
 10
136.970487959
 20
538.6322770926
 11
137.092255035
 21
538.6322770926
  0
LINE
  5
2FB
100
AcDbEntity
  8
0
100
AcDbLine
 62
7
  6
CONTINUOUS
 10
458.0404615431
 20
123.7558286116
 11
458.0291317628
 21
123.8369811846
  0
LINE
  5
2FC
100
AcDbEntity
  8
0
100
AcDbLine
 62
7
  6
CONTINUOUS
 10
454.3016633656
 20
121.7157814357
 11
454.3023342997
 21
121.6937429789
  0
LINE
  5
2FD
100
AcDbEntity
  8
0
100
AcDbLine
 62
7
  6
CONTINUOUS
 10
454.3024617745
 20
121.6887259314
 11
454.3023342997
 21
121.6937429789
  0
LINE
  5
2FE
100
AcDbEntity
  8
0
100
AcDbLine
 62
7
  6
CONTINUOUS
 10
448.7301640715
 20
123.3182347754
 11
448.7301640715
 21
123.618222074
  0
LINE
  5
2FF
100
AcDbEntity
  8
0
100
AcDbLine
 62
7
  6
CONTINUOUS
 10
448.7301640715
 20
926.818222074
 11
448.7301640715
 21
927.1182093726
  0
LINE
  5
300
100
AcDbEntity
  8
0
100
AcDbLine
 62
7
  6
CONTINUOUS
 10
452.9651640715
 20
928.7423229635
 11
452.9651640715
 21
928.3746013129
  0
LINE
  5
301
100
AcDbEntity
  8
0
100
AcDbLine
 62
7
  6
CONTINUOUS
 10
452.9651640715
 20
122.0618428246
 11
452.9651640715
 21
121.6941211845
  0
LINE
  5
302
100
AcDbEntity
  8
0
100
AcDbLine
 62
7
  6
CONTINUOUS
 10
453.9951640715
 20
928.7423229635
 11
453.9951640715
 21
928.3746013821
  0
LINE
  5
303
100
AcDbEntity
  8
0
100
AcDbLine
 62
7
  6
CONTINUOUS
 10
453.9951640715
 20
122.0618427752
 11
453.9951640715
 21
121.6941211845
  0
LINE
  5
304
100
AcDbEntity
  8
0
100
AcDbLine
 62
7
  6
CONTINUOUS
 10
454.3024434701
 20
928.7469919787
 11
454.3024617745
 21
928.7477182166
  0
LINE
  5
305
100
AcDbEntity
  8
0
100
AcDbLine
 62
7
  6
CONTINUOUS
 10
454.3014773639
 20
928.7152578783
 11
454.3024434701
 21
928.7469919787
  0
LINE
  5
306
100
AcDbEntity
  8
0
100
AcDbLine
 62
7
  6
CONTINUOUS
 10
86.0313707596
 20
127.7915988236
 11
85.6801640715
 21
127.418222074
  0
LINE
  5
307
100
AcDbEntity
  8
0
100
AcDbLine
 62
7
  6
CONTINUOUS
 10
146.4128418913
 20
535.1659692692
 11
149.0992810737
 21
535.6486473373
  0
LINE
  5
308
100
AcDbEntity
  8
0
100
AcDbLine
 62
7
  6
CONTINUOUS
 10
85.6801640715
 20
923.018222074
 11
86.0313707596
 21
922.6448453244
  0
LINE
  5
309
100
AcDbEntity
  8
0
100
AcDbLine
 62
7
  6
CONTINUOUS
 10
452.6586647774
 20
928.7206627123
 11
452.6579938434
 21
928.7427011691
  0
LINE
  5
30A
100
AcDbEntity
  8
0
100
AcDbLine
 62
7
  6
CONTINUOUS
 10
452.6578663686
 20
928.7477182166
 11
452.6579938434
 21
928.7427011691
  0
LINE
  5
30B
100
AcDbEntity
  8
0
100
AcDbLine
 62
7
  6
CONTINUOUS
 10
458.2301640715
 20
927.1182093726
 11
458.2301640715
 21
926.818222074
  0
LINE
  5
30C
100
AcDbEntity
  8
0
100
AcDbLine
 62
7
  6
CONTINUOUS
 10
458.2301640715
 20
123.618222074
 11
458.2301640715
 21
123.3182347754
  0
LINE
  5
30D
100
AcDbEntity
  8
0
100
AcDbLine
 62
7
  6
CONTINUOUS
 10
480.9801640715
 20
926.418222074
 11
480.9801640715
 21
925.218222074
  0
LINE
  5
30E
100
AcDbEntity
  8
0
100
AcDbLine
 62
7
  6
CONTINUOUS
 10
480.9801640715
 20
125.218222074
 11
480.9801640715
 21
124.018222074
  0
LINE
  5
30F
100
AcDbEntity
  8
0
100
AcDbLine
 62
7
  6
CONTINUOUS
 10
452.657884673
 20
121.6894521693
 11
452.6578663686
 21
121.6887259314
  0
LINE
  5
310
100
AcDbEntity
  8
0
100
AcDbLine
 62
7
  6
CONTINUOUS
 10
452.6588507792
 20
121.7211862697
 11
452.657884673
 21
121.6894521693
  0
LINE
  5
311
100
AcDbEntity
  8
0
100
AcDbLine
 62
7
  6
CONTINUOUS
 10
505.9801640715
 20
124.018222074
 11
505.9801640715
 21
125.218222074
  0
LINE
  5
312
100
AcDbEntity
  8
0
100
AcDbLine
 62
7
  6
CONTINUOUS
 10
505.9801640715
 20
925.218222074
 11
505.9801640715
 21
926.418222074
  0
LINE
  5
313
100
AcDbEntity
  8
0
100
AcDbLine
 62
7
  6
CONTINUOUS
 10
448.919866266
 20
123.7558285052
 11
448.9311964515
 21
123.8369812077
  0
LINE
  5
314
100
AcDbEntity
  8
0
100
AcDbLine
 62
7
  6
CONTINUOUS
 10
448.9198666
 20
926.6806155362
 11
448.9311963803
 21
926.5994629638
  0
LINE
  5
315
100
AcDbEntity
  8
0
100
AcDbLine
 62
7
  6
CONTINUOUS
 10
593.0313707596
 20
825.218222074
 11
593.0313707596
 21
225.218222074
  0
LINE
  5
316
100
AcDbEntity
  8
0
100
AcDbLine
 62
7
  6
CONTINUOUS
 10
314.195847635
 20
928.7361955551
 11
314.1901844354
 21
928.7427011691
  0
LINE
  5
317
100
AcDbEntity
  8
0
100
AcDbLine
 62
7
  6
CONTINUOUS
 10
661.9801640715
 20
125.018222074
 11
661.9801640715
 21
125.218222074
  0
LINE
  5
318
100
AcDbEntity
  8
0
100
AcDbLine
 62
7
  6
CONTINUOUS
 10
670.585474393
 20
920.718222074
 11
670.585474393
 21
129.718222074
  0
LINE
  5
319
100
AcDbEntity
  8
0
100
AcDbLine
 62
7
  6
CONTINUOUS
 10
671.3742008402
 20
128.8578574195
 11
671.3742008402
 21
127.997492765
  0
LINE
  5
31A
100
AcDbEntity
  8
0
100
AcDbLine
 62
7
  6
CONTINUOUS
 10
671.3742008402
 20
921.5785867286
 11
671.3742008402
 21
922.4389513831
  0
LINE
  5
31B
100
AcDbEntity
  8
0
100
AcDbLine
 62
7
  6
CONTINUOUS
 10
672.306203702
 20
128.5373126192
 11
672.306203702
 21
921.8991315288
  0
LINE
  5
31C
100
AcDbEntity
  8
0
100
AcDbLine
 62
7
  6
CONTINUOUS
 10
673.2006445864
 20
126.718222074
 11
673.2006445864
 21
128.218222074
  0
LINE
  5
31D
100
AcDbEntity
  8
0
100
AcDbLine
 62
7
  6
CONTINUOUS
 10
673.2006445864
 20
922.218222074
 11
673.2006445864
 21
923.718222074
  0
LINE
  5
31E
100
AcDbEntity
  8
0
100
AcDbLine
 62
7
  6
CONTINUOUS
 10
674.9801640715
 20
125.218222074
 11
674.9801640715
 21
125.018222074
  0
LINE
  5
31F
100
AcDbEntity
  8
0
100
AcDbLine
 62
7
  6
CONTINUOUS
 10
679.3917354142
 20
128.218222074
 11
679.3917354142
 21
126.718222074
  0
LINE
  5
320
100
AcDbEntity
  8
0
100
AcDbLine
 62
7
  6
CONTINUOUS
 10
679.3917354141
 20
922.218222074
 11
679.3917354141
 21
923.718222074
  0
LINE
  5
321
100
AcDbEntity
  8
0
100
AcDbLine
 62
7
  6
CONTINUOUS
 10
679.7307674156
 20
925.218222074
 11
679.7307674156
 21
923.718222074
  0
LINE
  5
322
100
AcDbEntity
  8
0
100
AcDbLine
 62
7
  6
CONTINUOUS
 10
679.7307674156
 20
126.718222074
 11
679.7307674156
 21
125.218222074
  0
LINE
  5
323
100
AcDbEntity
  8
0
100
AcDbLine
 62
7
  6
CONTINUOUS
 10
680.0313707596
 20
128.218222074
 11
680.0313707596
 21
126.718222074
  0
LINE
  5
324
100
AcDbEntity
  8
0
100
AcDbLine
 62
7
  6
CONTINUOUS
 10
680.0313707596
 20
922.218222074
 11
680.0313707596
 21
923.718222074
  0
LINE
  5
325
100
AcDbEntity
  8
0
100
AcDbLine
 62
7
  6
CONTINUOUS
 10
680.2521000687
 20
922.218222074
 11
680.2521000687
 21
128.218222074
  0
LINE
  5
326
100
AcDbEntity
  8
0
100
AcDbLine
 62
7
  6
CONTINUOUS
 10
680.4807674156
 20
128.218222074
 11
680.4807674156
 21
126.718222074
  0
LINE
  5
327
100
AcDbEntity
  8
0
100
AcDbLine
 62
7
  6
CONTINUOUS
 10
680.4807674156
 20
922.218222074
 11
680.4807674156
 21
923.718222074
  0
LINE
  5
328
100
AcDbEntity
  8
0
100
AcDbLine
 62
7
  6
CONTINUOUS
 10
681.2801640715
 20
923.018222074
 11
681.2801640715
 21
922.218222074
  0
LINE
  5
329
100
AcDbEntity
  8
0
100
AcDbLine
 62
7
  6
CONTINUOUS
 10
681.2801640715
 20
128.218222074
 11
681.2801640715
 21
127.418222074
  0
LINE
  5
32A
100
AcDbEntity
  8
0
100
AcDbLine
 62
7
  6
CONTINUOUS
 10
681.5313707596
 20
128.218222074
 11
681.5313707596
 21
922.218222074
  0
LINE
  5
32B
100
AcDbEntity
  8
0
100
AcDbLine
 62
7
  6
CONTINUOUS
 10
681.7307674156
 20
125.218222074
 11
681.7307674156
 21
128.718222074
  0
LINE
  5
32C
100
AcDbEntity
  8
0
100
AcDbLine
 62
7
  6
CONTINUOUS
 10
681.7307674156
 20
921.718222074
 11
681.7307674156
 21
925.218222074
  0
LINE
  5
32D
100
AcDbEntity
  8
0
100
AcDbLine
 62
7
  6
CONTINUOUS
 10
683.2307674156
 20
126.718222074
 11
683.2307674156
 21
923.718222074
  0
LINE
  5
32E
100
AcDbEntity
  8
0
100
AcDbLine
 62
7
  6
CONTINUOUS
 10
683.4801640715
 20
125.218222074
 11
683.4801640715
 21
925.218222074
  0
LINE
  5
32F
100
AcDbEntity
  8
0
100
AcDbLine
 62
7
  6
CONTINUOUS
 10
173.0313707596
 20
825.218222074
 11
593.0313707596
 21
825.218222074
  0
LINE
  5
330
100
AcDbEntity
  8
0
100
AcDbLine
 62
7
  6
CONTINUOUS
 10
308.4801640715
 20
123.2861712665
 11
308.7301640715
 21
123.4305088338
  0
LINE
  5
331
100
AcDbEntity
  8
0
100
AcDbLine
 62
7
  6
CONTINUOUS
 10
333.4801640715
 20
123.2861712665
 11
334.748113264
 21
124.018222074
  0
LINE
  5
332
100
AcDbEntity
  8
0
100
AcDbLine
 62
7
  6
CONTINUOUS
 10
358.4801640715
 20
123.2861712665
 11
359.748113264
 21
124.018222074
  0
LINE
  5
333
100
AcDbEntity
  8
0
100
AcDbLine
 62
7
  6
CONTINUOUS
 10
308.4801640715
 20
927.1502728816
 11
308.7301640715
 21
927.0059353143
  0
LINE
  5
334
100
AcDbEntity
  8
0
100
AcDbLine
 62
7
  6
CONTINUOUS
 10
333.4801640715
 20
927.1502728816
 11
334.748113264
 21
926.418222074
  0
LINE
  5
335
100
AcDbEntity
  8
0
100
AcDbLine
 62
7
  6
CONTINUOUS
 10
358.4801640715
 20
927.1502728816
 11
359.748113264
 21
926.418222074
  0
LINE
  5
336
100
AcDbEntity
  8
0
100
AcDbLine
 62
7
  6
CONTINUOUS
 10
454.195847635
 20
928.7361955551
 11
454.1901844354
 21
928.7427011691
  0
LINE
  5
337
100
AcDbEntity
  8
0
100
AcDbLine
 62
7
  6
CONTINUOUS
 10
383.4801640715
 20
123.2861712665
 11
384.748113264
 21
124.018222074
  0
LINE
  5
338
100
AcDbEntity
  8
0
100
AcDbLine
 62
7
  6
CONTINUOUS
 10
408.4801640715
 20
123.2861712665
 11
409.748113264
 21
124.018222074
  0
LINE
  5
339
100
AcDbEntity
  8
0
100
AcDbLine
 62
7
  6
CONTINUOUS
 10
433.4801640715
 20
123.2861712665
 11
434.748113264
 21
124.018222074
  0
LINE
  5
33A
100
AcDbEntity
  8
0
100
AcDbLine
 62
7
  6
CONTINUOUS
 10
675.8158147804
 20
922.218222074
 11
672.306203702
 21
921.8991315288
  0
LINE
  5
33B
100
AcDbEntity
  8
0
100
AcDbLine
 62
7
  6
CONTINUOUS
 10
93.7565378172
 20
921.8991315288
 11
90.2469267389
 21
922.218222074
  0
LINE
  5
33C
100
AcDbEntity
  8
0
100
AcDbLine
 62
7
  6
CONTINUOUS
 10
383.4801640715
 20
927.1502728816
 11
384.748113264
 21
926.418222074
  0
LINE
  5
33D
100
AcDbEntity
  8
0
100
AcDbLine
 62
7
  6
CONTINUOUS
 10
408.4801640715
 20
927.1502728816
 11
409.748113264
 21
926.418222074
  0
LINE
  5
33E
100
AcDbEntity
  8
0
100
AcDbLine
 62
7
  6
CONTINUOUS
 10
433.4801640715
 20
927.1502728816
 11
434.748113264
 21
926.418222074
  0
LINE
  5
33F
100
AcDbEntity
  8
0
100
AcDbLine
 62
7
  6
CONTINUOUS
 10
458.4801640715
 20
123.2861712665
 11
459.748113264
 21
124.018222074
  0
LINE
  5
340
100
AcDbEntity
  8
0
100
AcDbLine
 62
7
  6
CONTINUOUS
 10
452.6589280943
 20
928.7214409424
 11
452.6624438919
 21
928.7221510383
  0
LINE
  5
341
100
AcDbEntity
  8
0
100
AcDbLine
 62
7
  6
CONTINUOUS
 10
452.6587014281
 20
928.7206699578
 11
452.6622120292
 21
928.7213639745
  0
LINE
  5
342
100
AcDbEntity
  8
0
100
AcDbLine
 62
7
  6
CONTINUOUS
 10
452.818896358
 20
928.746981737
 11
452.8275719961
 21
928.7477182166
  0
LINE
  5
343
100
AcDbEntity
  8
0
100
AcDbLine
 62
7
  6
CONTINUOUS
 10
450.8739213484
 20
928.3729971909
 11
450.9299677127
 21
928.3746022079
  0
LINE
  5
344
100
AcDbEntity
  8
0
100
AcDbLine
 62
7
  6
CONTINUOUS
 10
450.9643238213
 20
928.3851087163
 11
450.9346006546
 21
928.3842576508
  0
LINE
  5
345
100
AcDbEntity
  8
0
100
AcDbLine
 62
7
  6
CONTINUOUS
 10
310.8739213484
 20
928.3729971909
 11
310.9299677127
 21
928.3746022079
  0
LINE
  5
346
100
AcDbEntity
  8
0
100
AcDbLine
 62
7
  6
CONTINUOUS
 10
310.9643230062
 20
928.3851084671
 11
310.9346006545
 21
928.3842576508
  0
LINE
  5
347
100
AcDbEntity
  8
0
100
AcDbLine
 62
7
  6
CONTINUOUS
 10
453.9951640715
 20
928.385990534
 11
453.6784240741
 21
928.3845846682
  0
LINE
  5
348
100
AcDbEntity
  8
0
100
AcDbLine
 62
7
  6
CONTINUOUS
 10
313.9951640715
 20
928.385990534
 11
313.6784240741
 21
928.3845846682
  0
LINE
  5
349
100
AcDbEntity
  8
0
100
AcDbLine
 62
7
  6
CONTINUOUS
 10
95.4772671262
 20
920.718222074
 11
670.585474393
 21
920.718222074
  0
LINE
  5
34A
100
AcDbEntity
  8
0
100
AcDbLine
 62
7
  6
CONTINUOUS
 10
83.2307674156
 20
921.718222074
 11
84.5313707596
 21
921.718222074
  0
LINE
  5
34B
100
AcDbEntity
  8
0
100
AcDbLine
 62
7
  6
CONTINUOUS
 10
681.5313707596
 20
921.718222074
 11
683.2307674156
 21
921.718222074
  0
LINE
  5
34C
100
AcDbEntity
  8
0
100
AcDbLine
 62
7
  6
CONTINUOUS
 10
94.6169024717
 20
921.8991315288
 11
93.7565378172
 21
921.8991315288
  0
LINE
  5
34D
100
AcDbEntity
  8
0
100
AcDbLine
 62
7
  6
CONTINUOUS
 10
671.4458390475
 20
921.8991315288
 11
672.306203702
 21
921.8991315288
  0
LINE
  5
34E
100
AcDbEntity
  8
0
100
AcDbLine
 62
7
  6
CONTINUOUS
 10
674.9554501253
 20
922.218222074
 11
673.2006445864
 21
922.218222074
  0
LINE
  5
34F
100
AcDbEntity
  8
0
100
AcDbLine
 62
7
  6
CONTINUOUS
 10
92.8620969328
 20
922.218222074
 11
91.1072913934
 21
922.218222074
  0
LINE
  5
350
100
AcDbEntity
  8
0
100
AcDbLine
 62
7
  6
CONTINUOUS
 10
84.5313707596
 20
922.218222074
 11
90.2469267394
 21
922.218222074
  0
LINE
  5
351
100
AcDbEntity
  8
0
100
AcDbLine
 62
7
  6
CONTINUOUS
 10
675.8158147798
 20
922.218222074
 11
681.5313707596
 21
922.218222074
  0
LINE
  5
352
100
AcDbEntity
  8
0
100
AcDbLine
 62
7
  6
CONTINUOUS
 10
85.6801640715
 20
923.018222074
 11
86.0313707596
 21
923.018222074
  0
LINE
  5
353
100
AcDbEntity
  8
0
100
AcDbLine
 62
7
  6
CONTINUOUS
 10
680.4807674156
 20
923.018222074
 11
681.2801640715
 21
923.018222074
  0
LINE
  5
354
100
AcDbEntity
  8
0
100
AcDbLine
 62
7
  6
CONTINUOUS
 10
83.2307674156
 20
923.718222074
 11
683.2307674156
 21
923.718222074
  0
LINE
  5
355
100
AcDbEntity
  8
0
100
AcDbLine
 62
7
  6
CONTINUOUS
 10
683.4801640715
 20
925.218222074
 11
83.4801640715
 21
925.218222074
  0
LINE
  5
356
100
AcDbEntity
  8
0
100
AcDbLine
 62
7
  6
CONTINUOUS
 10
260.9801640715
 20
926.418222074
 11
505.9801640715
 21
926.418222074
  0
LINE
  5
357
100
AcDbEntity
  8
0
100
AcDbLine
 62
7
  6
CONTINUOUS
 10
458.0175309816
 20
926.518222074
 11
457.6822473948
 21
926.518222074
  0
LINE
  5
358
100
AcDbEntity
  8
0
100
AcDbLine
 62
7
  6
CONTINUOUS
 10
455.6948865701
 20
926.518222074
 11
454.8854403873
 21
926.518222074
  0
LINE
  5
359
100
AcDbEntity
  8
0
100
AcDbLine
 62
7
  6
CONTINUOUS
 10
452.0748877558
 20
926.518222074
 11
451.265441573
 21
926.518222074
  0
LINE
  5
35A
100
AcDbEntity
  8
0
100
AcDbLine
 62
7
  6
CONTINUOUS
 10
449.2780807483
 20
926.518222074
 11
448.9427971615
 21
926.518222074
  0
LINE
  5
35B
100
AcDbEntity
  8
0
100
AcDbLine
 62
7
  6
CONTINUOUS
 10
318.0175309816
 20
926.518222074
 11
317.6822473948
 21
926.518222074
  0
LINE
  5
35C
100
AcDbEntity
  8
0
100
AcDbLine
 62
7
  6
CONTINUOUS
 10
315.6948865701
 20
926.518222074
 11
314.8854403873
 21
926.518222074
  0
LINE
  5
35D
100
AcDbEntity
  8
0
100
AcDbLine
 62
7
  6
CONTINUOUS
 10
312.0748877558
 20
926.518222074
 11
311.265441573
 21
926.518222074
  0
LINE
  5
35E
100
AcDbEntity
  8
0
100
AcDbLine
 62
7
  6
CONTINUOUS
 10
309.2780807483
 20
926.518222074
 11
308.9427971615
 21
926.518222074
  0
LINE
  5
35F
100
AcDbEntity
  8
0
100
AcDbLine
 62
7
  6
CONTINUOUS
 10
309.3349650066
 20
926.7604839002
 11
311.1607224368
 21
926.7604839002
  0
LINE
  5
360
100
AcDbEntity
  8
0
100
AcDbLine
 62
7
  6
CONTINUOUS
 10
312.1891600506
 20
926.7604839002
 11
314.7711680925
 21
926.7604839002
  0
LINE
  5
361
100
AcDbEntity
  8
0
100
AcDbLine
 62
7
  6
CONTINUOUS
 10
315.7996056948
 20
926.7604839002
 11
317.6253631365
 21
926.7604839002
  0
LINE
  5
362
100
AcDbEntity
  8
0
100
AcDbLine
 62
7
  6
CONTINUOUS
 10
449.3349650066
 20
926.7604839002
 11
451.1607224368
 21
926.7604839002
  0
LINE
  5
363
100
AcDbEntity
  8
0
100
AcDbLine
 62
7
  6
CONTINUOUS
 10
452.1891600506
 20
926.7604839002
 11
454.7711680925
 21
926.7604839002
  0
LINE
  5
364
100
AcDbEntity
  8
0
100
AcDbLine
 62
7
  6
CONTINUOUS
 10
455.7996056948
 20
926.7604839002
 11
457.6253631365
 21
926.7604839002
  0
LINE
  5
365
100
AcDbEntity
  8
0
100
AcDbLine
 62
7
  6
CONTINUOUS
 10
458.2301640715
 20
926.818222074
 11
458.0768177341
 21
926.818222074
  0
LINE
  5
366
100
AcDbEntity
  8
0
100
AcDbLine
 62
7
  6
CONTINUOUS
 10
457.5770335341
 20
926.818222074
 11
455.883944538
 21
926.818222074
  0
LINE
  5
367
100
AcDbEntity
  8
0
100
AcDbLine
 62
7
  6
CONTINUOUS
 10
454.6773587143
 20
926.818222074
 11
452.2829693537
 21
926.818222074
  0
LINE
  5
368
100
AcDbEntity
  8
0
100
AcDbLine
 62
7
  6
CONTINUOUS
 10
451.0763835922
 20
926.818222074
 11
449.3832945799
 21
926.818222074
  0
LINE
  5
369
100
AcDbEntity
  8
0
100
AcDbLine
 62
7
  6
CONTINUOUS
 10
448.8835104152
 20
926.818222074
 11
448.7301640715
 21
926.818222074
  0
LINE
  5
36A
100
AcDbEntity
  8
0
100
AcDbLine
 62
7
  6
CONTINUOUS
 10
318.2301640715
 20
926.818222074
 11
318.0768177341
 21
926.818222074
  0
LINE
  5
36B
100
AcDbEntity
  8
0
100
AcDbLine
 62
7
  6
CONTINUOUS
 10
317.5770335341
 20
926.818222074
 11
315.883944538
 21
926.818222074
  0
LINE
  5
36C
100
AcDbEntity
  8
0
100
AcDbLine
 62
7
  6
CONTINUOUS
 10
314.6773587143
 20
926.818222074
 11
312.2829693537
 21
926.818222074
  0
LINE
  5
36D
100
AcDbEntity
  8
0
100
AcDbLine
 62
7
  6
CONTINUOUS
 10
308.8835104152
 20
926.818222074
 11
308.7301640715
 21
926.818222074
  0
LINE
  5
36E
100
AcDbEntity
  8
0
100
AcDbLine
 62
7
  6
CONTINUOUS
 10
311.0763835922
 20
926.818222074
 11
309.3832945799
 21
926.818222074
  0
LINE
  5
36F
100
AcDbEntity
  8
0
100
AcDbLine
 62
7
  6
CONTINUOUS
 10
308.7302357737
 20
927.1182093726
 11
318.2301640715
 21
927.1182093726
  0
LINE
  5
370
100
AcDbEntity
  8
0
100
AcDbLine
 62
7
  6
CONTINUOUS
 10
448.7302357737
 20
927.1182093726
 11
458.2301640715
 21
927.1182093726
  0
LINE
  5
371
100
AcDbEntity
  8
0
100
AcDbLine
 62
7
  6
CONTINUOUS
 10
448.811284601
 20
927.2789915533
 11
458.1491061767
 21
927.2789973558
  0
LINE
  5
372
100
AcDbEntity
  8
0
100
AcDbLine
 62
7
  6
CONTINUOUS
 10
308.811284601
 20
927.2789915533
 11
318.1491061767
 21
927.2789973558
  0
LWPOLYLINE
  5
373
100
AcDbEntity
  8
0
100
AcDbPolyline
 62
7
  6
CONTINUOUS
 90
3
 70
0
 10
453.6796984943
 20
928.3845846904
 10
453.2834518353
 20
928.3845777983
 10
452.9651640715
 20
928.3859905201
  0
LINE
  5
374
100
AcDbEntity
  8
0
100
AcDbLine
 62
7
  6
CONTINUOUS
 10
313.4801741014
 20
928.38458122
 11
313.2819039981
 21
928.3845846684
  0
LINE
  5
375
100
AcDbEntity
  8
0
100
AcDbLine
 62
7
  6
CONTINUOUS
 10
453.4801741014
 20
928.38458122
 11
453.2819039981
 21
928.3845846684
  0
LWPOLYLINE
  5
376
100
AcDbEntity
  8
0
100
AcDbPolyline
 62
7
  6
CONTINUOUS
 90
3
 70
0
 10
313.6796984943
 20
928.3845846904
 10
313.2834518353
 20
928.3845777983
 10
312.9651640715
 20
928.3859905201
  0
LINE
  5
377
100
AcDbEntity
  8
0
100
AcDbLine
 62
7
  6
CONTINUOUS
 10
316.0303631986
 20
928.3746012548
 11
316.0864067953
 21
928.3729971905
  0
LINE
  5
378
100
AcDbEntity
  8
0
100
AcDbLine
 62
7
  6
CONTINUOUS
 10
316.0257963987
 20
928.3842555722
 11
315.9978631906
 21
928.3850552901
  0
LINE
  5
379
100
AcDbEntity
  8
0
100
AcDbLine
 62
7
  6
CONTINUOUS
 10
456.0303631986
 20
928.3746012548
 11
456.0864067947
 21
928.3729971909
  0
LINE
  5
37A
100
AcDbEntity
  8
0
100
AcDbLine
 62
7
  6
CONTINUOUS
 10
456.0257963987
 20
928.3842555722
 11
455.9978631902
 21
928.3850552903
  0
LINE
  5
37B
100
AcDbEntity
  8
0
100
AcDbLine
 62
7
  6
CONTINUOUS
 10
314.1414313363
 20
928.746981826
 11
314.1709555453
 21
928.7444284727
  0
LINE
  5
37C
100
AcDbEntity
  8
0
100
AcDbLine
 62
7
  6
CONTINUOUS
 10
314.1709555453
 20
928.7444284727
 11
314.1901844354
 21
928.7427011691
  0
LINE
  5
37D
100
AcDbEntity
  8
0
100
AcDbLine
 62
7
  6
CONTINUOUS
 10
314.301626715
 20
928.7206699578
 11
314.2972842702
 21
928.721528423
  0
LINE
  5
37E
100
AcDbEntity
  8
0
100
AcDbLine
 62
7
  6
CONTINUOUS
 10
314.2963544902
 20
928.7162733223
 11
314.301459736
 21
928.7152613725
  0
LINE
  5
37F
100
AcDbEntity
  8
0
100
AcDbLine
 62
7
  6
CONTINUOUS
 10
314.3014000488
 20
928.7214409424
 11
314.2970512864
 21
928.7223189135
  0
LINE
  5
380
100
AcDbEntity
  8
0
100
AcDbLine
 62
7
  6
CONTINUOUS
 10
314.2959492316
 20
928.717663433
 11
314.3010676052
 21
928.7166104598
  0
LINE
  5
381
100
AcDbEntity
  8
0
100
AcDbLine
 62
7
  6
CONTINUOUS
 10
458.4801640715
 20
927.1502728816
 11
459.748113264
 21
926.418222074
  0
LINE
  5
382
100
AcDbEntity
  8
0
100
AcDbLine
 62
7
  6
CONTINUOUS
 10
312.6589280943
 20
928.7214409424
 11
312.6624438919
 21
928.7221510383
  0
LINE
  5
383
100
AcDbEntity
  8
0
100
AcDbLine
 62
7
  6
CONTINUOUS
 10
312.6587014281
 20
928.7206699578
 11
312.6622120292
 21
928.7213639745
  0
LINE
  5
384
100
AcDbEntity
  8
0
100
AcDbLine
 62
7
  6
CONTINUOUS
 10
312.818896358
 20
928.746981737
 11
312.8275719961
 21
928.7477182166
  0
LINE
  5
385
100
AcDbEntity
  8
0
100
AcDbLine
 62
7
  6
CONTINUOUS
 10
454.1414313363
 20
928.746981826
 11
454.1709555453
 21
928.7444284727
  0
LINE
  5
386
100
AcDbEntity
  8
0
100
AcDbLine
 62
7
  6
CONTINUOUS
 10
454.1709555453
 20
928.7444284727
 11
454.1901844354
 21
928.7427011691
  0
LINE
  5
387
100
AcDbEntity
  8
0
100
AcDbLine
 62
7
  6
CONTINUOUS
 10
454.301626715
 20
928.7206699578
 11
454.2972842702
 21
928.721528423
  0
LINE
  5
388
100
AcDbEntity
  8
0
100
AcDbLine
 62
7
  6
CONTINUOUS
 10
454.2963544902
 20
928.7162733223
 11
454.301459736
 21
928.7152613725
  0
LINE
  5
389
100
AcDbEntity
  8
0
100
AcDbLine
 62
7
  6
CONTINUOUS
 10
454.3014000488
 20
928.7214409424
 11
454.2970512864
 21
928.7223189135
  0
LINE
  5
38A
100
AcDbEntity
  8
0
100
AcDbLine
 62
7
  6
CONTINUOUS
 10
454.2959492316
 20
928.717663433
 11
454.3010676052
 21
928.7166104598
  0
ARC
  5
38B
100
AcDbEntity
  8
0
100
AcDbCircle
 62
7
  6
CONTINUOUS
 10
24.3517534285
 20
166.3871803155
 40
72.6619133964
100
AcDbArc
 50
327.2556817889
 51
327.5675332803
  0
ARC
  5
38C
100
AcDbEntity
  8
0
100
AcDbCircle
 62
7
  6
CONTINUOUS
 10
98.2307674155
 20
145.643222074
 40
21.625
100
AcDbArc
 50
252.5076754749
 51
287.4923245251
  0
ARC
  5
38D
100
AcDbEntity
  8
0
100
AcDbCircle
 62
7
  6
CONTINUOUS
 10
79.6432593681
 20
135.7036426045
 40
16.9056817641
100
AcDbArc
 50
334.3967154019
 51
334.891470123
  0
ARC
  5
38E
100
AcDbEntity
  8
0
100
AcDbCircle
 62
7
  6
CONTINUOUS
 10
101.6156974641
 20
124.0799791948
 40
8.2976474137
100
AcDbArc
 50
145.4099917841
 51
147.5080991354
  0
ARC
  5
38F
100
AcDbEntity
  8
0
100
AcDbCircle
 62
7
  6
CONTINUOUS
 10
88.5192854001
 20
122.3248055998
 40
5.8185608965
100
AcDbArc
 50
124.2724861889
 51
126.2321216881
  0
ARC
  5
390
100
AcDbEntity
  8
0
100
AcDbCircle
 62
7
  6
CONTINUOUS
 10
64.3313707596
 20
520.418222074
 40
86.1252835857
100
AcDbArc
 50
349.8142310224
 51
10.1857689777
  0
ARC
  5
391
100
AcDbEntity
  8
0
100
AcDbCircle
 62
7
  6
CONTINUOUS
 10
139.6288838958
 20
511.1291662524
 40
20.2147004811
100
AcDbArc
 50
129.1027846817
 51
129.2599498105
  0
ARC
  5
392
100
AcDbEntity
  8
0
100
AcDbCircle
 62
7
  6
CONTINUOUS
 10
129.4338576606
 20
511.1291662979
 40
20.2147004225
100
AcDbArc
 50
50.7400501893
 51
50.8972153185
  0
ARC
  5
393
100
AcDbEntity
  8
0
100
AcDbCircle
 62
7
  6
CONTINUOUS
 10
130.0187471654
 20
511.8577088549
 40
19.2804430185
100
AcDbArc
 50
50.8805197671
 51
52.8042902511
  0
ARC
  5
394
100
AcDbEntity
  8
0
100
AcDbCircle
 62
7
  6
CONTINUOUS
 10
139.0395097364
 20
511.8634164744
 40
19.2731853425
100
AcDbArc
 50
127.1953474991
 51
129.1198424827
  0
ARC
  5
395
100
AcDbEntity
  8
0
100
AcDbCircle
 62
7
  6
CONTINUOUS
 10
139.0089694201
 20
513.058649089
 40
17.4190713167
100
AcDbArc
 50
128.3193266522
 51
130.393889278
  0
ARC
  5
396
100
AcDbEntity
  8
0
100
AcDbCircle
 62
7
  6
CONTINUOUS
 10
130.2371585143
 20
513.2822524102
 40
17.1299326766
100
AcDbArc
 50
49.5886003372
 51
51.6981837327
  0
ARC
  5
397
100
AcDbEntity
  8
0
100
AcDbCircle
 62
7
  6
CONTINUOUS
 10
123.6825847996
 20
513.9326483964
 40
12.627610839
100
AcDbArc
 50
76.2926524511
 51
76.4281257015
  0
ARC
  5
398
100
AcDbEntity
  8
0
100
AcDbCircle
 62
7
  6
CONTINUOUS
 10
147.1950444448
 20
513.6278663999
 40
7.9957418574
100
AcDbArc
 50
263.617091576
 51
264.385925966
  0
ARC
  5
399
100
AcDbEntity
  8
0
100
AcDbCircle
 62
7
  6
CONTINUOUS
 10
121.8676236409
 20
513.6247823928
 40
7.9926816935
100
AcDbArc
 50
275.6166980572
 51
276.3858730249
  0
ARC
  5
39A
100
AcDbEntity
  8
0
100
AcDbCircle
 62
7
  6
CONTINUOUS
 10
142.6293369227
 20
507.8364728049
 40
4.2550328939
100
AcDbArc
 50
261.092432681
 51
261.9808327724
  0
ARC
  5
39B
100
AcDbEntity
  8
0
100
AcDbCircle
 62
7
  6
CONTINUOUS
 10
131.4344302815
 20
505.9081497403
 40
3.7619419304
100
AcDbArc
 50
279.1069545412
 51
280.0706626519
  0
ARC
  5
39C
100
AcDbEntity
  8
0
100
AcDbCircle
 62
7
  6
CONTINUOUS
 10
137.6282695854
 20
505.9079458799
 40
3.7617450033
100
AcDbArc
 50
259.9294342819
 51
260.8924781735
  0
ARC
  5
39D
100
AcDbEntity
  8
0
100
AcDbCircle
 62
7
  6
CONTINUOUS
 10
141.4373774687
 20
507.2791471837
 40
3.7047399886
100
AcDbArc
 50
279.294327229
 51
280.1819858079
  0
ARC
  5
39E
100
AcDbEntity
  8
0
100
AcDbCircle
 62
7
  6
CONTINUOUS
 10
136.4358591457
 20
505.7359136995
 40
3.5922390918
100
AcDbArc
 50
279.5660179678
 51
280.5295584708
  0
ARC
  5
39F
100
AcDbEntity
  8
0
100
AcDbCircle
 62
7
  6
CONTINUOUS
 10
132.6268180334
 20
505.7353640122
 40
3.591687555
100
AcDbArc
 50
259.4691329693
 51
260.4327847086
  0
ARC
  5
3A0
100
AcDbEntity
  8
0
100
AcDbCircle
 62
7
  6
CONTINUOUS
 10
147.1064663374
 20
505.2294985942
 40
2.3768484236
100
AcDbArc
 50
227.4288954958
 51
229.2712791521
  0
ARC
  5
3A1
100
AcDbEntity
  8
0
100
AcDbCircle
 62
7
  6
CONTINUOUS
 10
121.957450047
 20
505.2277091052
 40
2.374728357
100
AcDbArc
 50
310.7350937442
 51
312.5794545423
  0
ARC
  5
3A2
100
AcDbEntity
  8
0
100
AcDbCircle
 62
7
  6
CONTINUOUS
 10
134.533511429
 20
502.7095786161
 40
0.8691463314
100
AcDbArc
 50
107.4334799329
 51
125.7056284377
  0
ARC
  5
3A3
100
AcDbEntity
  8
0
100
AcDbCircle
 62
7
  6
CONTINUOUS
 10
134.5292313174
 20
502.726862538
 40
0.8691431764
100
AcDbArc
 50
287.4379110311
 51
305.7062487753
  0
ARC
  5
3A4
100
AcDbEntity
  8
0
100
AcDbCircle
 62
7
  6
CONTINUOUS
 10
134.5292578965
 20
502.7096598925
 40
0.8690630296
100
AcDbArc
 50
54.2365256875
 51
72.3991295577
  0
ARC
  5
3A5
100
AcDbEntity
  8
0
100
AcDbCircle
 62
7
  6
CONTINUOUS
 10
134.5334829615
 20
502.7267813099
 40
0.8690601539
100
AcDbArc
 50
234.2299939957
 51
252.3906432283
  0
ARC
  5
3A6
100
AcDbEntity
  8
0
100
AcDbCircle
 62
7
  6
CONTINUOUS
 10
134.5313667654
 20
502.7102121007
 40
0.8680515177
100
AcDbArc
 50
87.8081007536
 51
92.1706708751
  0
ARC
  5
3A7
100
AcDbEntity
  8
0
100
AcDbCircle
 62
7
  6
CONTINUOUS
 10
134.531374772
 20
502.7262320404
 40
0.8680515105
100
AcDbArc
 50
267.8087901039
 51
272.1703241707
  0
ARC
  5
3A8
100
AcDbEntity
  8
0
100
AcDbCircle
 62
7
  6
CONTINUOUS
 10
134.5309274989
 20
502.7244579182
 40
0.8663412343
100
AcDbArc
 50
278.0980658582
 51
287.3785458633
  0
ARC
  5
3A9
100
AcDbEntity
  8
0
100
AcDbCircle
 62
7
  6
CONTINUOUS
 10
134.5318134725
 20
502.7119885834
 40
0.8663388253
100
AcDbArc
 50
98.0980267222
 51
107.3740942192
  0
ARC
  5
3AA
100
AcDbEntity
  8
0
100
AcDbCircle
 62
7
  6
CONTINUOUS
 10
134.5318169311
 20
502.7244497029
 40
0.8663342359
100
AcDbArc
 50
252.4490142198
 51
261.7389212247
  0
ARC
  5
3AB
100
AcDbEntity
  8
0
100
AcDbCircle
 62
7
  6
CONTINUOUS
 10
134.5309256456
 20
502.7119991377
 40
0.8663294417
100
AcDbArc
 50
72.4574831707
 51
81.7389770388
  0
ARC
  5
3AC
100
AcDbEntity
  8
0
100
AcDbCircle
 62
7
  6
CONTINUOUS
 10
134.5332093104
 20
502.7144629116
 40
0.8652800194
100
AcDbArc
 50
139.268081926
 51
157.2782516392
  0
ARC
  5
3AD
100
AcDbEntity
  8
0
100
AcDbCircle
 62
7
  6
CONTINUOUS
 10
134.5295339302
 20
502.7219795548
 40
0.8652776987
100
AcDbArc
 50
319.2743424335
 51
337.2834350546
  0
ARC
  5
3AE
100
AcDbEntity
  8
0
100
AcDbCircle
 62
7
  6
CONTINUOUS
 10
134.5331108552
 20
502.7219142858
 40
0.8651637946
100
AcDbArc
 50
202.7352053531
 51
220.5800577984
  0
ARC
  5
3AF
100
AcDbEntity
  8
0
100
AcDbCircle
 62
7
  6
CONTINUOUS
 10
134.5296321105
 20
502.7145292449
 40
0.8651629668
100
AcDbArc
 50
22.7517990115
 51
40.5902118934
  0
ARC
  5
3B0
100
AcDbEntity
  8
0
100
AcDbCircle
 62
7
  6
CONTINUOUS
 10
134.5312021156
 20
502.7225926863
 40
0.8644082168
100
AcDbArc
 50
261.7615644054
 51
267.811002724
  0
ARC
  5
3B1
100
AcDbEntity
  8
0
100
AcDbCircle
 62
7
  6
CONTINUOUS
 10
134.5315394842
 20
502.7138522214
 40
0.8644074551
100
AcDbArc
 50
81.7615937369
 51
87.810312652
  0
ARC
  5
3B2
100
AcDbEntity
  8
0
100
AcDbCircle
 62
7
  6
CONTINUOUS
 10
134.531548806
 20
502.7224811833
 40
0.8642967539
100
AcDbArc
 50
272.168211895
 51
278.0757485014
  0
ARC
  5
3B3
100
AcDbEntity
  8
0
100
AcDbCircle
 62
7
  6
CONTINUOUS
 10
134.5311927153
 20
502.7139630422
 40
0.864296676
100
AcDbArc
 50
92.1685592519
 51
98.0757241126
  0
ARC
  5
3B4
100
AcDbEntity
  8
0
100
AcDbCircle
 62
7
  6
CONTINUOUS
 10
134.5315851751
 20
502.7219315711
 40
0.8640168735
100
AcDbArc
 50
220.6467423138
 51
234.1441165949
  0
ARC
  5
3B5
100
AcDbEntity
  8
0
100
AcDbCircle
 62
7
  6
CONTINUOUS
 10
134.5311584826
 20
502.7145143151
 40
0.8640141644
100
AcDbArc
 50
40.6568213397
 51
54.1506552708
  0
ARC
  5
3B6
100
AcDbEntity
  8
0
100
AcDbCircle
 62
7
  6
CONTINUOUS
 10
134.5311875538
 20
502.7219027875
 40
0.86397503
100
AcDbArc
 50
305.7928684218
 51
319.2066525895
  0
ARC
  5
3B7
100
AcDbEntity
  8
0
100
AcDbCircle
 62
7
  6
CONTINUOUS
 10
134.5315511892
 20
502.7145441622
 40
0.8639711282
100
AcDbArc
 50
125.7922534853
 51
139.2004130004
  0
ARC
  5
3B8
100
AcDbEntity
  8
0
100
AcDbCircle
 62
7
  6
CONTINUOUS
 10
126.5313707596
 20
525.218222074
 40
1.0
100
AcDbArc
 50
284.0980898366
 51
75.9019101634
  0
ARC
  5
3B9
100
AcDbEntity
  8
0
100
AcDbCircle
 62
7
  6
CONTINUOUS
 10
126.5313707596
 20
525.218222074
 40
0.9
100
AcDbArc
 50
284.0980908363
 51
77.7156572335
  0
ARC
  5
3BA
100
AcDbEntity
  8
0
100
AcDbCircle
 62
7
  6
CONTINUOUS
 10
129.7938787715
 20
523.3113722217
 40
0.7999331663
100
AcDbArc
 50
21.9262182621
 51
89.9981182299
  0
ARC
  5
3BB
100
AcDbEntity
  8
0
100
AcDbCircle
 62
7
  6
CONTINUOUS
 10
134.5313707596
 20
520.418222074
 40
24.970714909
100
AcDbArc
 50
62.2652678234
 51
117.7347329575
  0
ARC
  5
3BC
100
AcDbEntity
  8
0
100
AcDbCircle
 62
7
  6
CONTINUOUS
 10
134.5313707596
 20
520.418222074
 40
24.970714909
100
AcDbArc
 50
242.2652678226
 51
297.7347329543
  0
ARC
  5
3BD
100
AcDbEntity
  8
0
100
AcDbCircle
 62
7
  6
CONTINUOUS
 10
134.5313707596
 20
520.418222074
 40
24.7995674796
100
AcDbArc
 50
62.2650132426
 51
117.7350084943
  0
ARC
  5
3BE
100
AcDbEntity
  8
0
100
AcDbCircle
 62
7
  6
CONTINUOUS
 10
134.5313707596
 20
520.418222074
 40
24.7995674796
100
AcDbArc
 50
242.2650132428
 51
297.7350048841
  0
ARC
  5
3BF
100
AcDbEntity
  8
0
100
AcDbCircle
 62
7
  6
CONTINUOUS
 10
134.5313707596
 20
520.318222074
 40
6.0034300864
100
AcDbArc
 50
188.8709388081
 51
351.1290611917
  0
ARC
  5
3C0
100
AcDbEntity
  8
0
100
AcDbCircle
 62
7
  6
CONTINUOUS
 10
134.5313707596
 20
520.318222074
 40
5.8034605474
100
AcDbArc
 50
194.3133472252
 51
345.686652784
  0
ARC
  5
3C1
100
AcDbEntity
  8
0
100
AcDbCircle
 62
7
  6
CONTINUOUS
 10
133.7400182816
 20
518.5628088786
 40
4.1580671825
100
AcDbArc
 50
244.813508744
 51
246.6540837545
  0
ARC
  5
3C2
100
AcDbEntity
  8
0
100
AcDbCircle
 62
7
  6
CONTINUOUS
 10
135.3227356746
 20
518.56278177
 40
4.1580373647
100
AcDbArc
 50
293.3459069293
 51
295.1864750705
  0
ARC
  5
3C3
100
AcDbEntity
  8
0
100
AcDbCircle
 62
7
  6
CONTINUOUS
 10
133.5596622222
 20
524.7408027516
 40
7.2749970255
100
AcDbArc
 50
205.0784197333
 51
207.2532403837
  0
ARC
  5
3C4
100
AcDbEntity
  8
0
100
AcDbCircle
 62
7
  6
CONTINUOUS
 10
134.4923045844
 20
525.2182223843
 40
8.392790556
100
AcDbArc
 50
334.8943782608
 51
25.1056421721
  0
ARC
  5
3C5
100
AcDbEntity
  8
0
100
AcDbCircle
 62
7
  6
CONTINUOUS
 10
134.5166124657
 20
525.1844193709
 40
8.3860587847
100
AcDbArc
 50
27.271994113
 51
43.6386662747
  0
ARC
  5
3C6
100
AcDbEntity
  8
0
100
AcDbCircle
 62
7
  6
CONTINUOUS
 10
135.5030171362
 20
524.7408330019
 40
7.2750661384
100
AcDbArc
 50
332.746772003
 51
334.921595752
  0
ARC
  5
3C7
100
AcDbEntity
  8
0
100
AcDbCircle
 62
7
  6
CONTINUOUS
 10
134.5313707596
 20
525.218222074
 40
8.470583972
100
AcDbArc
 50
228.4048141735
 51
311.5951858231
  0
ARC
  5
3C8
100
AcDbEntity
  8
0
100
AcDbCircle
 62
7
  6
CONTINUOUS
 10
134.5313707596
 20
525.218222074
 40
8.470583972
100
AcDbArc
 50
48.4048141735
 51
131.5951858231
  0
ARC
  5
3C9
100
AcDbEntity
  8
0
100
AcDbCircle
 62
7
  6
CONTINUOUS
 10
134.5704366472
 20
525.2182217637
 40
8.392790556
100
AcDbArc
 50
154.8943774275
 51
205.1056430054
  0
ARC
  5
3CA
100
AcDbEntity
  8
0
100
AcDbCircle
 62
7
  6
CONTINUOUS
 10
134.5461538431
 20
525.184396803
 40
8.3860922994
100
AcDbArc
 50
136.36133902
 51
152.7281178931
  0
ARC
  5
3CB
100
AcDbEntity
  8
0
100
AcDbCircle
 62
7
  6
CONTINUOUS
 10
134.5313707596
 20
525.218222074
 40
8.270614433
100
AcDbArc
 50
228.4048138721
 51
311.5951861307
  0
ARC
  5
3CC
100
AcDbEntity
  8
0
100
AcDbCircle
 62
7
  6
CONTINUOUS
 10
134.5313707596
 20
525.218222074
 40
8.2706144331
100
AcDbArc
 50
48.404813526
 51
131.5951864785
  0
CIRCLE
  5
3CD
100
AcDbEntity
  8
0
100
AcDbCircle
 62
7
  6
CONTINUOUS
 10
134.5313707596
 20
525.218222074
 40
8.0384011428
  0
ARC
  5
3CE
100
AcDbEntity
  8
0
100
AcDbCircle
 62
7
  6
CONTINUOUS
 10
134.5313707596
 20
525.218222074
 40
7.9482849568
100
AcDbArc
 50
0.0
 51
172.84818545
  0
ARC
  5
3CF
100
AcDbEntity
  8
0
100
AcDbCircle
 62
7
  6
CONTINUOUS
 10
134.5313707596
 20
525.218222074
 40
7.9482849568
100
AcDbArc
 50
187.15181455
 51
359.6915368076
  0
ARC
  5
3D0
100
AcDbEntity
  8
0
100
AcDbCircle
 62
7
  6
CONTINUOUS
 10
134.5313707596
 20
525.218222074
 40
7.9168049133
100
AcDbArc
 50
187.1274017508
 51
172.8725982492
  0
ARC
  5
3D1
100
AcDbEntity
  8
0
100
AcDbCircle
 62
7
  6
CONTINUOUS
 10
134.5313707596
 20
525.218222074
 40
7.8522516364
100
AcDbArc
 50
11.4802759913
 51
168.5197240087
  0
ARC
  5
3D2
100
AcDbEntity
  8
0
100
AcDbCircle
 62
7
  6
CONTINUOUS
 10
134.5313707596
 20
525.218222074
 40
7.8504756666
100
AcDbArc
 50
191.4961352035
 51
348.5038647965
  0
ARC
  5
3D3
100
AcDbEntity
  8
0
100
AcDbCircle
 62
7
  6
CONTINUOUS
 10
134.5313707596
 20
525.218222074
 40
7.8172196534
100
AcDbArc
 50
191.7946063972
 51
348.2053936028
  0
ARC
  5
3D4
100
AcDbEntity
  8
0
100
AcDbCircle
 62
7
  6
CONTINUOUS
 10
134.5313707596
 20
525.218222074
 40
7.8172196534
100
AcDbArc
 50
11.7946063972
 51
168.2053936028
  0
ARC
  5
3D5
100
AcDbEntity
  8
0
100
AcDbCircle
 62
7
  6
CONTINUOUS
 10
134.5313707596
 20
525.218222074
 40
7.8168201438
100
AcDbArc
 50
168.5576307466
 51
172.8725982492
  0
ARC
  5
3D6
100
AcDbEntity
  8
0
100
AcDbCircle
 62
7
  6
CONTINUOUS
 10
134.5313707596
 20
525.218222074
 40
7.8168201438
100
AcDbArc
 50
187.1274017508
 51
191.4593070529
  0
ARC
  5
3D7
100
AcDbEntity
  8
0
100
AcDbCircle
 62
7
  6
CONTINUOUS
 10
134.5313707596
 20
525.218222074
 40
7.8168201438
100
AcDbArc
 50
348.9024197876
 51
11.4373741274
  0
ARC
  5
3D8
100
AcDbEntity
  8
0
100
AcDbCircle
 62
7
  6
CONTINUOUS
 10
134.5313707596
 20
525.218222074
 40
7.4172805753
100
AcDbArc
 50
15.6253091674
 51
164.3746908326
  0
ARC
  5
3D9
100
AcDbEntity
  8
0
100
AcDbCircle
 62
7
  6
CONTINUOUS
 10
134.5313707596
 20
525.218222074
 40
7.4172805753
100
AcDbArc
 50
195.6253091674
 51
344.3746908326
  0
ARC
  5
3DA
100
AcDbEntity
  8
0
100
AcDbCircle
 62
7
  6
CONTINUOUS
 10
134.5313707596
 20
525.218222074
 40
7.4
100
AcDbArc
 50
183.269825219
 51
184.6602275564
  0
ARC
  5
3DB
100
AcDbEntity
  8
0
100
AcDbCircle
 62
7
  6
CONTINUOUS
 10
134.5313707596
 20
525.218222074
 40
7.4
100
AcDbArc
 50
175.3028540097
 51
176.4132290941
  0
ARC
  5
3DC
100
AcDbEntity
  8
0
100
AcDbCircle
 62
7
  6
CONTINUOUS
 10
134.5313707596
 20
525.218222074
 40
7.3938907273
100
AcDbArc
 50
182.831518734
 51
185.7206380315
  0
ARC
  5
3DD
100
AcDbEntity
  8
0
100
AcDbCircle
 62
7
  6
CONTINUOUS
 10
134.5313707596
 20
525.218222074
 40
7.3938907273
100
AcDbArc
 50
174.4404377747
 51
176.8515355791
  0
ARC
  5
3DE
100
AcDbEntity
  8
0
100
AcDbCircle
 62
7
  6
CONTINUOUS
 10
134.5313707596
 20
525.218222074
 40
7.1061092727
100
AcDbArc
 50
179.871943523
 51
180.1278422938
  0
ARC
  5
3DF
100
AcDbEntity
  8
0
100
AcDbCircle
 62
7
  6
CONTINUOUS
 10
134.5313707596
 20
525.218222074
 40
6.9
100
AcDbArc
 50
166.9109766123
 51
170.7685303556
  0
ARC
  5
3E0
100
AcDbEntity
  8
0
100
AcDbCircle
 62
7
  6
CONTINUOUS
 10
134.5313707596
 20
525.218222074
 40
6.9
100
AcDbArc
 50
9.2314696444
 51
13.0908155314
  0
ARC
  5
3E1
100
AcDbEntity
  8
0
100
AcDbCircle
 62
7
  6
CONTINUOUS
 10
134.5313707596
 20
525.218222074
 40
6.9
100
AcDbArc
 50
346.9109766123
 51
350.7685303556
  0
ARC
  5
3E2
100
AcDbEntity
  8
0
100
AcDbCircle
 62
7
  6
CONTINUOUS
 10
134.5313707596
 20
525.218222074
 40
6.9
100
AcDbArc
 50
189.2314696444
 51
193.0908155314
  0
ARC
  5
3E3
100
AcDbEntity
  8
0
100
AcDbCircle
 62
7
  6
CONTINUOUS
 10
134.5313707596
 20
525.218222074
 40
6.5
100
AcDbArc
 50
13.4056240685
 51
13.8489172788
  0
ARC
  5
3E4
100
AcDbEntity
  8
0
100
AcDbCircle
 62
7
  6
CONTINUOUS
 10
134.5313707596
 20
525.218222074
 40
6.5
100
AcDbArc
 50
166.1510827212
 51
166.5943759315
  0
ARC
  5
3E5
100
AcDbEntity
  8
0
100
AcDbCircle
 62
7
  6
CONTINUOUS
 10
134.5313707596
 20
525.218222074
 40
6.5
100
AcDbArc
 50
193.4056240685
 51
193.8489172788
  0
ARC
  5
3E6
100
AcDbEntity
  8
0
100
AcDbCircle
 62
7
  6
CONTINUOUS
 10
134.5313707596
 20
525.218222074
 40
6.5
100
AcDbArc
 50
346.1510827212
 51
346.5943759315
  0
ARC
  5
3E7
100
AcDbEntity
  8
0
100
AcDbCircle
 62
7
  6
CONTINUOUS
 10
134.5313707596
 20
525.218222074
 40
5.1978092948
100
AcDbArc
 50
22.6037670359
 51
157.396232964
  0
ARC
  5
3E8
100
AcDbEntity
  8
0
100
AcDbCircle
 62
7
  6
CONTINUOUS
 10
134.5313707596
 20
525.218222074
 40
5.1978092948
100
AcDbArc
 50
202.6037670359
 51
337.396232964
  0
ARC
  5
3E9
100
AcDbEntity
  8
0
100
AcDbCircle
 62
7
  6
CONTINUOUS
 10
134.5313707596
 20
525.218222074
 40
4.7978702168
100
AcDbArc
 50
202.6037670358
 51
337.3962329642
  0
ARC
  5
3EA
100
AcDbEntity
  8
0
100
AcDbCircle
 62
7
  6
CONTINUOUS
 10
134.5313707596
 20
525.218222074
 40
4.7978702168
100
AcDbArc
 50
22.6037670358
 51
157.3962329642
  0
ARC
  5
3EB
100
AcDbEntity
  8
0
100
AcDbCircle
 62
7
  6
CONTINUOUS
 10
134.5313707596
 20
525.218222074
 40
4.7068601728
100
AcDbArc
 50
21.9244949664
 51
158.0755050342
  0
ARC
  5
3EC
100
AcDbEntity
  8
0
100
AcDbCircle
 62
7
  6
CONTINUOUS
 10
134.5313707596
 20
525.218222074
 40
4.7068601728
100
AcDbArc
 50
201.9244949664
 51
338.0755050342
  0
ARC
  5
3ED
100
AcDbEntity
  8
0
100
AcDbCircle
 62
7
  6
CONTINUOUS
 10
134.5313707596
 20
525.218222074
 40
4.3069210727
100
AcDbArc
 50
21.9246316827
 51
158.0752216772
  0
ARC
  5
3EE
100
AcDbEntity
  8
0
100
AcDbCircle
 62
7
  6
CONTINUOUS
 10
134.5313707596
 20
525.218222074
 40
4.3069210727
100
AcDbArc
 50
201.9246341666
 51
338.0752191282
  0
CIRCLE
  5
3EF
100
AcDbEntity
  8
0
100
AcDbCircle
 62
7
  6
CONTINUOUS
 10
134.5313707596
 20
525.218222074
 40
2.4826964218
  0
CIRCLE
  5
3F0
100
AcDbEntity
  8
0
100
AcDbCircle
 62
7
  6
CONTINUOUS
 10
134.5313707596
 20
525.218222074
 40
1.4828495677
  0
CIRCLE
  5
3F1
100
AcDbEntity
  8
0
100
AcDbCircle
 62
7
  6
CONTINUOUS
 10
134.5313707596
 20
525.218222074
 40
1.4021297831
  0
CIRCLE
  5
3F2
100
AcDbEntity
  8
0
100
AcDbCircle
 62
7
  6
CONTINUOUS
 10
134.5313707596
 20
525.218222074
 40
1.0021904046
  0
ARC
  5
3F3
100
AcDbEntity
  8
0
100
AcDbCircle
 62
7
  6
CONTINUOUS
 10
139.2688634837
 20
523.3113697311
 40
0.7999356052
100
AcDbArc
 50
90.0021901569
 51
158.0744258159
  0
ARC
  5
3F4
100
AcDbEntity
  8
0
100
AcDbCircle
 62
7
  6
CONTINUOUS
 10
313.4801621599
 20
39.6769514713
 40
82.3864995375
100
AcDbArc
 50
89.6418390354
 51
90.3581583057
  0
ARC
  5
3F5
100
AcDbEntity
  8
0
100
AcDbCircle
 62
7
  6
CONTINUOUS
 10
288.2501393805
 20
136.3335930377
 40
29.38674354
100
AcDbArc
 50
334.486367914
 51
335.0086123387
  0
ARC
  5
3F6
100
AcDbEntity
  8
0
100
AcDbCircle
 62
7
  6
CONTINUOUS
 10
292.2137436307
 20
120.1921252361
 40
26.0714257243
100
AcDbArc
 50
8.0364300428
 51
8.2167799302
  0
ARC
  5
3F7
100
AcDbEntity
  8
0
100
AcDbCircle
 62
7
  6
CONTINUOUS
 10
292.3392464149
 20
120.2092526062
 40
25.9447624118
100
AcDbArc
 50
7.6787656619
 51
7.8567708506
  0
ARC
  5
3F8
100
AcDbEntity
  8
0
100
AcDbCircle
 62
7
  6
CONTINUOUS
 10
300.2077280845
 20
127.8934389749
 40
17.9209702454
100
AcDbArc
 50
346.3884846718
 51
347.1840888312
  0
ARC
  5
3F9
100
AcDbEntity
  8
0
100
AcDbCircle
 62
7
  6
CONTINUOUS
 10
313.4801640715
 20
129.469003324
 40
7.85078125
100
AcDbArc
 50
289.3885361716
 51
306.49199762
  0
ARC
  5
3FA
100
AcDbEntity
  8
0
100
AcDbCircle
 62
7
  6
CONTINUOUS
 10
313.4801640715
 20
129.469003324
 40
7.85078125
100
AcDbArc
 50
233.50800238
 51
250.6114638284
  0
ARC
  5
3FB
100
AcDbEntity
  8
0
100
AcDbCircle
 62
7
  6
CONTINUOUS
 10
313.4801640715
 20
129.469003324
 40
7.8338714079
100
AcDbArc
 50
251.0020052255
 51
262.964275686
  0
ARC
  5
3FC
100
AcDbEntity
  8
0
100
AcDbCircle
 62
7
  6
CONTINUOUS
 10
313.4801640715
 20
129.469003324
 40
7.8338714079
100
AcDbArc
 50
277.035724314
 51
288.9979859361
  0
ARC
  5
3FD
100
AcDbEntity
  8
0
100
AcDbCircle
 62
7
  6
CONTINUOUS
 10
313.4797743165
 20
129.4943561913
 40
7.8328953156
100
AcDbArc
 50
274.8456460972
 51
275.203632888
  0
ARC
  5
3FE
100
AcDbEntity
  8
0
100
AcDbCircle
 62
7
  6
CONTINUOUS
 10
313.158228349
 20
127.3305696714
 40
5.7307441734
100
AcDbArc
 50
281.5069561451
 51
285.8687970095
  0
ARC
  5
3FF
100
AcDbEntity
  8
0
100
AcDbCircle
 62
7
  6
CONTINUOUS
 10
313.2626870239
 20
126.8470960396
 40
5.2361530933
100
AcDbArc
 50
280.202830677
 51
281.402602375
  0
ARC
  5
400
100
AcDbEntity
  8
0
100
AcDbCircle
 62
7
  6
CONTINUOUS
 10
312.7419622203
 20
125.6273323651
 40
3.9395392189
100
AcDbArc
 50
272.5799537912
 51
273.2479371575
  0
ARC
  5
401
100
AcDbEntity
  8
0
100
AcDbCircle
 62
7
  6
CONTINUOUS
 10
312.7422946841
 20
125.6199789149
 40
3.932178257
100
AcDbArc
 50
271.9111198325
 51
272.5799374354
  0
ARC
  5
402
100
AcDbEntity
  8
0
100
AcDbCircle
 62
7
  6
CONTINUOUS
 10
312.7425135756
 20
125.6134527999
 40
3.9256484722
100
AcDbArc
 50
271.2415451737
 51
271.9111033494
  0
ARC
  5
403
100
AcDbEntity
  8
0
100
AcDbCircle
 62
7
  6
CONTINUOUS
 10
312.7425973707
 20
125.5934939986
 40
3.9056872637
100
AcDbArc
 50
268.0850753043
 51
268.7569128362
  0
ARC
  5
404
100
AcDbEntity
  8
0
100
AcDbCircle
 62
7
  6
CONTINUOUS
 10
312.7425331485
 20
125.5915386257
 40
3.9037308367
100
AcDbArc
 50
267.4129955206
 51
268.0850583755
  0
ARC
  5
405
100
AcDbEntity
  8
0
100
AcDbCircle
 62
7
  6
CONTINUOUS
 10
312.7424835937
 20
125.5904162654
 40
3.9026073836
100
AcDbArc
 50
266.7407876123
 51
267.412978563
  0
ARC
  5
406
100
AcDbEntity
  8
0
100
AcDbCircle
 62
7
  6
CONTINUOUS
 10
313.2755090402
 20
124.6826069244
 40
3.0562125657
100
AcDbArc
 50
255.8091204358
 51
258.3409045559
  0
ARC
  5
407
100
AcDbEntity
  8
0
100
AcDbCircle
 62
7
  6
CONTINUOUS
 10
310.9405553334
 20
122.2532695599
 40
0.2011775954
100
AcDbArc
 50
250.6572469302
 51
266.5160034392
  0
ARC
  5
408
100
AcDbEntity
  8
0
100
AcDbCircle
 62
7
  6
CONTINUOUS
 10
308.9301640715
 20
123.3182347757
 40
0.2
100
AcDbArc
 50
180.0
 51
233.5080011209
  0
ARC
  5
409
100
AcDbEntity
  8
0
100
AcDbCircle
 62
7
  6
CONTINUOUS
 10
310.9402739717
 20
122.249609836
 40
0.1975075457
100
AcDbArc
 50
266.5329568887
 51
268.3290818209
  0
ARC
  5
40A
100
AcDbEntity
  8
0
100
AcDbCircle
 62
7
  6
CONTINUOUS
 10
338.7101966284
 20
136.3335967564
 40
29.3867522405
100
AcDbArc
 50
204.9913877538
 51
205.5136320811
  0
ARC
  5
40B
100
AcDbEntity
  8
0
100
AcDbCircle
 62
7
  6
CONTINUOUS
 10
334.7313793443
 20
120.1940140183
 40
26.0561067053
100
AcDbArc
 50
171.7825522264
 51
171.9630090244
  0
ARC
  5
40C
100
AcDbEntity
  8
0
100
AcDbCircle
 62
7
  6
CONTINUOUS
 10
334.6804517601
 20
120.2010299481
 40
26.0046987635
100
AcDbArc
 50
172.1431631812
 51
172.3207584469
  0
ARC
  5
40D
100
AcDbEntity
  8
0
100
AcDbCircle
 62
7
  6
CONTINUOUS
 10
326.7526019227
 20
127.8934394155
 40
17.9209721608
100
AcDbArc
 50
192.8159112202
 51
193.6115153815
  0
ARC
  5
40E
100
AcDbEntity
  8
0
100
AcDbCircle
 62
7
  6
CONTINUOUS
 10
313.7184948638
 20
126.8522736737
 40
5.2406021026
100
AcDbArc
 50
258.3961318339
 51
260.1162604875
  0
ARC
  5
40F
100
AcDbEntity
  8
0
100
AcDbCircle
 62
7
  6
CONTINUOUS
 10
313.69751804
 20
126.8464383827
 40
5.2354840346
100
AcDbArc
 50
258.6065941211
 51
259.7972201016
  0
ARC
  5
410
100
AcDbEntity
  8
0
100
AcDbCircle
 62
7
  6
CONTINUOUS
 10
314.2183659228
 20
125.6273323655
 40
3.9395392193
100
AcDbArc
 50
266.7520628425
 51
267.4200462087
  0
ARC
  5
411
100
AcDbEntity
  8
0
100
AcDbCircle
 62
7
  6
CONTINUOUS
 10
314.218033459
 20
125.619978915
 40
3.9321782571
100
AcDbArc
 50
267.4200625646
 51
268.0888801675
  0
ARC
  5
412
100
AcDbEntity
  8
0
100
AcDbCircle
 62
7
  6
CONTINUOUS
 10
314.2178145675
 20
125.6134527999
 40
3.9256484722
100
AcDbArc
 50
268.0888966506
 51
268.7584548263
  0
ARC
  5
413
100
AcDbEntity
  8
0
100
AcDbCircle
 62
7
  6
CONTINUOUS
 10
314.2177307723
 20
125.5934939996
 40
3.9056872646
100
AcDbArc
 50
271.2430871639
 51
271.9149246954
  0
ARC
  5
414
100
AcDbEntity
  8
0
100
AcDbCircle
 62
7
  6
CONTINUOUS
 10
314.2177949946
 20
125.5915386269
 40
3.9037308379
100
AcDbArc
 50
271.9149416243
 51
272.587004479
  0
ARC
  5
415
100
AcDbEntity
  8
0
100
AcDbCircle
 62
7
  6
CONTINUOUS
 10
314.2178445494
 20
125.5904162655
 40
3.9026073836
100
AcDbArc
 50
272.5870214369
 51
273.2592123877
  0
ARC
  5
416
100
AcDbEntity
  8
0
100
AcDbCircle
 62
7
  6
CONTINUOUS
 10
316.0197738937
 20
122.253269487
 40
0.2011775721
100
AcDbArc
 50
273.4826391238
 51
289.3424687558
  0
ARC
  5
417
100
AcDbEntity
  8
0
100
AcDbCircle
 62
7
  6
CONTINUOUS
 10
318.0301640715
 20
123.3182347757
 40
0.2
100
AcDbArc
 50
306.4919988791
 51
360.0
  0
ARC
  5
418
100
AcDbEntity
  8
0
100
AcDbCircle
 62
7
  6
CONTINUOUS
 10
316.0200556396
 20
122.249601042
 40
0.1974987955
100
AcDbArc
 50
271.652323324
 51
273.465702115
  0
ARC
  5
419
100
AcDbEntity
  8
0
100
AcDbCircle
 62
7
  6
CONTINUOUS
 10
316.02013231
 20
122.2488951731
 40
0.1967910234
100
AcDbArc
 50
265.4301666763
 51
271.6292808218
  0
ARC
  5
41A
100
AcDbEntity
  8
0
100
AcDbCircle
 62
7
  6
CONTINUOUS
 10
317.8963543264
 20
123.9027838577
 40
0.1214707196
100
AcDbArc
 50
38.496356959
 51
45.311685746
  0
ARC
  5
41B
100
AcDbEntity
  8
0
100
AcDbCircle
 62
7
  6
CONTINUOUS
 10
315.8839891188
 20
123.7051643177
 40
0.0869422551
100
AcDbArc
 50
260.687556329
 51
269.9706030477
  0
ARC
  5
41C
100
AcDbEntity
  8
0
100
AcDbCircle
 62
7
  6
CONTINUOUS
 10
204.7313707596
 20
520.418222074
 40
86.1252835857
100
AcDbArc
 50
169.8142310223
 51
190.1857689777
  0
ARC
  5
41D
100
AcDbEntity
  8
0
100
AcDbCircle
 62
7
  6
CONTINUOUS
 10
139.6379295518
 20
539.3183888494
 40
20.2290279739
100
AcDbArc
 50
230.7479465252
 51
230.8971820586
  0
ARC
  5
41E
100
AcDbEntity
  8
0
100
AcDbCircle
 62
7
  6
CONTINUOUS
 10
129.4248120899
 20
539.318388699
 40
20.22902778
100
AcDbArc
 50
309.1028179409
 51
309.2520534745
  0
ARC
  5
41F
100
AcDbEntity
  8
0
100
AcDbCircle
 62
7
  6
CONTINUOUS
 10
139.0439943537
 20
538.5787352929
 40
19.2804430181
100
AcDbArc
 50
230.8805197671
 51
232.8042902511
  0
ARC
  5
420
100
AcDbEntity
  8
0
100
AcDbCircle
 62
7
  6
CONTINUOUS
 10
130.0232317824
 20
538.5730276743
 40
19.2731853433
100
AcDbArc
 50
307.1953474992
 51
309.1198424827
  0
ARC
  5
421
100
AcDbEntity
  8
0
100
AcDbCircle
 62
7
  6
CONTINUOUS
 10
130.0537721005
 20
537.3777950575
 40
17.4190713146
100
AcDbArc
 50
308.3193266521
 51
310.3938892781
  0
ARC
  5
422
100
AcDbEntity
  8
0
100
AcDbCircle
 62
7
  6
CONTINUOUS
 10
138.8255830047
 20
537.1541917376
 40
17.1299326763
100
AcDbArc
 50
229.5886003371
 51
231.6981837327
  0
ARC
  5
423
100
AcDbEntity
  8
0
100
AcDbCircle
 62
7
  6
CONTINUOUS
 10
123.6236136798
 20
536.7498730475
 40
12.8806530157
100
AcDbArc
 50
283.569897847
 51
283.702793926
  0
ARC
  5
424
100
AcDbEntity
  8
0
100
AcDbCircle
 62
7
  6
CONTINUOUS
 10
134.5165876762
 20
525.252047345
 40
8.3860922993
100
AcDbArc
 50
316.36133902
 51
332.7281178931
  0
ARC
  5
425
100
AcDbEntity
  8
0
100
AcDbCircle
 62
7
  6
CONTINUOUS
 10
134.5461290535
 20
525.2520247771
 40
8.3860587847
100
AcDbArc
 50
207.271994113
 51
223.6386662747
  0
ARC
  5
426
100
AcDbEntity
  8
0
100
AcDbCircle
 62
7
  6
CONTINUOUS
 10
118.9146458195
 20
525.2717698693
 40
8.2425062537
100
AcDbArc
 50
356.6919052735
 51
357.0874543807
  0
ARC
  5
427
100
AcDbEntity
  8
0
100
AcDbCircle
 62
7
  6
CONTINUOUS
 10
119.1333903373
 20
525.2614290286
 40
8.0234625266
100
AcDbArc
 50
2.5924070687
 51
2.9987542317
  0
ARC
  5
428
100
AcDbEntity
  8
0
100
AcDbCircle
 62
7
  6
CONTINUOUS
 10
121.8676970744
 20
527.208577748
 40
7.9957418575
100
AcDbArc
 50
83.617091576
 51
84.385925966
  0
ARC
  5
429
100
AcDbEntity
  8
0
100
AcDbCircle
 62
7
  6
CONTINUOUS
 10
147.1951178772
 20
527.2116617662
 40
7.9926816825
100
AcDbArc
 50
95.6166980566
 51
96.3858730255
  0
ARC
  5
42A
100
AcDbEntity
  8
0
100
AcDbCircle
 62
7
  6
CONTINUOUS
 10
133.5597243834
 20
525.6956111461
 40
7.2750661387
100
AcDbArc
 50
152.7467720031
 51
154.921595752
  0
ARC
  5
42B
100
AcDbEntity
  8
0
100
AcDbCircle
 62
7
  6
CONTINUOUS
 10
135.5030792975
 20
525.6956413966
 40
7.2749970251
100
AcDbArc
 50
25.0784197332
 51
27.2532403838
  0
ARC
  5
42C
100
AcDbEntity
  8
0
100
AcDbCircle
 62
7
  6
CONTINUOUS
 10
134.5313707596
 20
530.118222074
 40
6.0034300864
100
AcDbArc
 50
8.8709388081
 51
171.1290611917
  0
ARC
  5
42D
100
AcDbEntity
  8
0
100
AcDbCircle
 62
7
  6
CONTINUOUS
 10
134.5313707596
 20
530.118222074
 40
5.8034605474
100
AcDbArc
 50
14.3133472252
 51
165.686652784
  0
ARC
  5
42E
100
AcDbEntity
  8
0
100
AcDbCircle
 62
7
  6
CONTINUOUS
 10
126.4334046032
 20
532.9999713871
 40
4.2550328495
100
AcDbArc
 50
81.0924326777
 51
81.9808327783
  0
ARC
  5
42F
100
AcDbEntity
  8
0
100
AcDbCircle
 62
7
  6
CONTINUOUS
 10
135.3227232378
 20
531.8736352698
 40
4.158067182
100
AcDbArc
 50
64.813508744
 51
66.6540837547
  0
ARC
  5
430
100
AcDbEntity
  8
0
100
AcDbCircle
 62
7
  6
CONTINUOUS
 10
133.7400058453
 20
531.8736623767
 40
4.1580373662
100
AcDbArc
 50
113.3459069298
 51
115.1864750707
  0
ARC
  5
431
100
AcDbEntity
  8
0
100
AcDbCircle
 62
7
  6
CONTINUOUS
 10
131.4344778761
 20
534.9285974438
 40
3.7616516175
100
AcDbArc
 50
79.9292603435
 51
80.8927415166
  0
ARC
  5
432
100
AcDbEntity
  8
0
100
AcDbCircle
 62
7
  6
CONTINUOUS
 10
137.6282090502
 20
534.928946865
 40
3.7612986515
100
AcDbArc
 50
99.1041595903
 51
100.0719922114
  0
ARC
  5
433
100
AcDbEntity
  8
0
100
AcDbCircle
 62
7
  6
CONTINUOUS
 10
127.6253640496
 20
533.5572969688
 40
3.7047399841
100
AcDbArc
 50
99.2943272245
 51
100.1819858045
  0
ARC
  5
434
100
AcDbEntity
  8
0
100
AcDbCircle
 62
7
  6
CONTINUOUS
 10
136.4358504391
 20
535.1006492959
 40
3.5921246383
100
AcDbArc
 50
79.4707866511
 51
80.4296309167
  0
ARC
  5
435
100
AcDbEntity
  8
0
100
AcDbCircle
 62
7
  6
CONTINUOUS
 10
132.6268583826
 20
535.1006666233
 40
3.5921010115
100
AcDbArc
 50
99.5664618958
 51
100.5297914594
  0
ARC
  5
436
100
AcDbEntity
  8
0
100
AcDbCircle
 62
7
  6
CONTINUOUS
 10
124.5652464612
 20
525.2457871774
 40
2.6170884416
100
AcDbArc
 50
9.5762636657
 51
15.001243339
  0
ARC
  5
437
100
AcDbEntity
  8
0
100
AcDbCircle
 62
7
  6
CONTINUOUS
 10
124.5652464612
 20
525.2457871774
 40
2.6170884416
100
AcDbArc
 50
343.4731088633
 51
350.1067906473
  0
ARC
  5
438
100
AcDbEntity
  8
0
100
AcDbCircle
 62
7
  6
CONTINUOUS
 10
124.5652464612
 20
525.2457871774
 40
2.6109791689
100
AcDbArc
 50
351.3470907735
 51
8.3359635396
  0
ARC
  5
439
100
AcDbEntity
  8
0
100
AcDbCircle
 62
7
  6
CONTINUOUS
 10
121.9562751815
 20
535.6069455535
 40
2.3768484241
100
AcDbArc
 50
47.428895496
 51
49.2712791519
  0
ARC
  5
43A
100
AcDbEntity
  8
0
100
AcDbCircle
 62
7
  6
CONTINUOUS
 10
147.1052914697
 20
535.6087350458
 40
2.3747283532
100
AcDbArc
 50
130.7350937436
 51
132.5794545447
  0
ARC
  5
43B
100
AcDbEntity
  8
0
100
AcDbCircle
 62
7
  6
CONTINUOUS
 10
129.793878129
 20
527.1250742543
 40
0.7999355179
100
AcDbArc
 50
270.0021880084
 51
338.0744203973
  0
ARC
  5
43C
100
AcDbEntity
  8
0
100
AcDbCircle
 62
7
  6
CONTINUOUS
 10
139.2688626553
 20
527.1250717657
 40
0.7999330808
100
AcDbArc
 50
201.9262234352
 51
269.9981203218
  0
ARC
  5
43D
100
AcDbEntity
  8
0
100
AcDbCircle
 62
7
  6
CONTINUOUS
 10
15.8413491557
 20
886.5662291889
 40
86.6500897232
100
AcDbArc
 50
23.2121520946
 51
23.6493412634
  0
ARC
  5
43E
100
AcDbEntity
  8
0
100
AcDbCircle
 62
7
  6
CONTINUOUS
 10
24.3515799394
 20
884.0491538944
 40
72.6621187859
100
AcDbArc
 50
32.4324665205
 51
32.7443175033
  0
ARC
  5
43F
100
AcDbEntity
  8
0
100
AcDbCircle
 62
7
  6
CONTINUOUS
 10
88.5192389387
 20
928.1115721018
 40
5.8184798195
100
AcDbArc
 50
233.7677440164
 51
235.7275271233
  0
ARC
  5
440
100
AcDbEntity
  8
0
100
AcDbCircle
 62
7
  6
CONTINUOUS
 10
82.8054796453
 20
923.1301674341
 40
2.2800256823
100
AcDbArc
 50
49.0643616499
 51
51.2842226461
  0
ARC
  5
441
100
AcDbEntity
  8
0
100
AcDbCircle
 62
7
  6
CONTINUOUS
 10
288.2501315014
 20
914.1028473905
 40
29.386752253
100
AcDbArc
 50
24.9913877449
 51
25.5136320717
  0
ARC
  5
442
100
AcDbEntity
  8
0
100
AcDbCircle
 62
7
  6
CONTINUOUS
 10
292.2289492935
 20
930.2424300573
 40
26.0561062054
100
AcDbArc
 50
351.7825522287
 51
351.9630090311
  0
ARC
  5
443
100
AcDbEntity
  8
0
100
AcDbCircle
 62
7
  6
CONTINUOUS
 10
292.2798758806
 20
930.2354142667
 40
26.0046992704
100
AcDbArc
 50
352.1431631859
 51
352.3207584488
  0
ARC
  5
444
100
AcDbEntity
  8
0
100
AcDbCircle
 62
7
  6
CONTINUOUS
 10
300.2077261329
 20
922.5430047291
 40
17.9209722468
100
AcDbArc
 50
12.815911169
 51
13.6115153233
  0
ARC
  5
445
100
AcDbEntity
  8
0
100
AcDbCircle
 62
7
  6
CONTINUOUS
 10
313.2418332794
 20
923.584170475
 40
5.2406021019
100
AcDbArc
 50
78.3961318338
 51
80.1162604877
  0
ARC
  5
446
100
AcDbEntity
  8
0
100
AcDbCircle
 62
7
  6
CONTINUOUS
 10
313.2628101029
 20
923.5900057642
 40
5.2354840357
100
AcDbArc
 50
78.6065941212
 51
79.7972201015
  0
ARC
  5
447
100
AcDbEntity
  8
0
100
AcDbCircle
 62
7
  6
CONTINUOUS
 10
312.7419622199
 20
924.8091117745
 40
3.9395392274
100
AcDbArc
 50
86.7520628431
 51
87.4200462079
  0
ARC
  5
448
100
AcDbEntity
  8
0
100
AcDbCircle
 62
7
  6
CONTINUOUS
 10
312.7422946843
 20
924.8164652372
 40
3.9321782529
100
AcDbArc
 50
87.4200625643
 51
88.0888801679
  0
ARC
  5
449
100
AcDbEntity
  8
0
100
AcDbCircle
 62
7
  6
CONTINUOUS
 10
312.7425135756
 20
924.8229913471
 40
3.9256484733
100
AcDbArc
 50
88.0888966507
 51
88.7584548262
  0
ARC
  5
44A
100
AcDbEntity
  8
0
100
AcDbCircle
 62
7
  6
CONTINUOUS
 10
312.7425973707
 20
924.8429501515
 40
3.9056872616
100
AcDbArc
 50
91.2430871636
 51
91.9149246958
  0
ARC
  5
44B
100
AcDbEntity
  8
0
100
AcDbCircle
 62
7
  6
CONTINUOUS
 10
312.7425331483
 20
924.8449055255
 40
3.9037308336
100
AcDbArc
 50
91.9149416242
 51
92.5870044796
  0
ARC
  5
44C
100
AcDbEntity
  8
0
100
AcDbCircle
 62
7
  6
CONTINUOUS
 10
312.7424835938
 20
924.8460278817
 40
3.9026073845
100
AcDbArc
 50
92.5870214372
 51
93.2592123877
  0
ARC
  5
44D
100
AcDbEntity
  8
0
100
AcDbCircle
 62
7
  6
CONTINUOUS
 10
310.9405542554
 20
928.1831746347
 40
0.2011775989
100
AcDbArc
 50
93.4828053421
 51
109.3424678834
  0
ARC
  5
44E
100
AcDbEntity
  8
0
100
AcDbCircle
 62
7
  6
CONTINUOUS
 10
308.9301640715
 20
927.1182093724
 40
0.2
100
AcDbArc
 50
126.4919988791
 51
180.0
  0
ARC
  5
44F
100
AcDbEntity
  8
0
100
AcDbCircle
 62
7
  6
CONTINUOUS
 10
310.9402725066
 20
928.1868430275
 40
0.197498874
100
AcDbArc
 50
91.6523235665
 51
93.4658696824
  0
ARC
  5
450
100
AcDbEntity
  8
0
100
AcDbCircle
 62
7
  6
CONTINUOUS
 10
310.940200242
 20
928.1878357057
 40
0.1965045343
100
AcDbArc
 50
85.8808135122
 51
91.6329428702
  0
ARC
  5
451
100
AcDbEntity
  8
0
100
AcDbCircle
 62
7
  6
CONTINUOUS
 10
309.0639738167
 20
926.5336602904
 40
0.1214707197
100
AcDbArc
 50
218.4963569621
 51
225.3116857492
  0
ARC
  5
452
100
AcDbEntity
  8
0
100
AcDbCircle
 62
7
  6
CONTINUOUS
 10
311.0763390243
 20
926.7312798303
 40
0.0869422552
100
AcDbArc
 50
80.6875563315
 51
89.9706030461
  0
ARC
  5
453
100
AcDbEntity
  8
0
100
AcDbCircle
 62
7
  6
CONTINUOUS
 10
338.7101887807
 20
914.102851107
 40
29.3867435579
100
AcDbArc
 50
154.4863679235
 51
155.0086123476
  0
ARC
  5
454
100
AcDbEntity
  8
0
100
AcDbCircle
 62
7
  6
CONTINUOUS
 10
334.7465839554
 20
930.2443188309
 40
26.0714251614
100
AcDbArc
 50
188.0364300368
 51
188.2167799289
  0
ARC
  5
455
100
AcDbEntity
  8
0
100
AcDbCircle
 62
7
  6
CONTINUOUS
 10
334.6210822797
 20
930.2271916157
 40
25.9447629682
100
AcDbArc
 50
187.6787656611
 51
187.8567708463
  0
ARC
  5
456
100
AcDbEntity
  8
0
100
AcDbCircle
 62
7
  6
CONTINUOUS
 10
326.7526001485
 20
922.5430051691
 40
17.9209703339
100
AcDbArc
 50
166.3884847303
 51
167.1840888824
  0
ARC
  5
457
100
AcDbEntity
  8
0
100
AcDbCircle
 62
7
  6
CONTINUOUS
 10
313.4801640715
 20
920.967440824
 40
7.85078125
100
AcDbArc
 50
53.50800238
 51
70.6114638284
  0
ARC
  5
458
100
AcDbEntity
  8
0
100
AcDbCircle
 62
7
  6
CONTINUOUS
 10
313.4801640715
 20
920.967440824
 40
7.85078125
100
AcDbArc
 50
109.3885361716
 51
126.49199762
  0
ARC
  5
459
100
AcDbEntity
  8
0
100
AcDbCircle
 62
7
  6
CONTINUOUS
 10
313.4801640715
 20
920.967440824
 40
7.8338714079
100
AcDbArc
 50
97.035724314
 51
108.9979899111
  0
ARC
  5
45A
100
AcDbEntity
  8
0
100
AcDbCircle
 62
7
  6
CONTINUOUS
 10
313.4801640715
 20
920.967440824
 40
7.8338714079
100
AcDbArc
 50
71.0020062025
 51
82.964275686
  0
ARC
  5
45B
100
AcDbEntity
  8
0
100
AcDbCircle
 62
7
  6
CONTINUOUS
 10
313.4805538254
 20
920.9420879702
 40
7.8328953022
100
AcDbArc
 50
94.8456460968
 51
95.2036328881
  0
ARC
  5
45C
100
AcDbEntity
  8
0
100
AcDbCircle
 62
7
  6
CONTINUOUS
 10
313.8020930914
 20
923.1058995048
 40
5.7307182663
100
AcDbArc
 50
101.5065659444
 51
105.868800972
  0
ARC
  5
45D
100
AcDbEntity
  8
0
100
AcDbCircle
 62
7
  6
CONTINUOUS
 10
313.6976411189
 20
923.5893481101
 40
5.2361530916
100
AcDbArc
 50
100.2028306769
 51
101.4026023753
  0
ARC
  5
45E
100
AcDbEntity
  8
0
100
AcDbCircle
 62
7
  6
CONTINUOUS
 10
314.2183659232
 20
924.8091117745
 40
3.9395392274
100
AcDbArc
 50
92.5799537921
 51
93.2479371569
  0
ARC
  5
45F
100
AcDbEntity
  8
0
100
AcDbCircle
 62
7
  6
CONTINUOUS
 10
314.2180334588
 20
924.8164652371
 40
3.932178253
100
AcDbArc
 50
91.9111198321
 51
92.5799374357
  0
ARC
  5
460
100
AcDbEntity
  8
0
100
AcDbCircle
 62
7
  6
CONTINUOUS
 10
314.2178145675
 20
924.8229913471
 40
3.9256484733
100
AcDbArc
 50
91.2415451738
 51
91.9111033493
  0
ARC
  5
461
100
AcDbEntity
  8
0
100
AcDbCircle
 62
7
  6
CONTINUOUS
 10
314.2177307724
 20
924.8429501513
 40
3.9056872618
100
AcDbArc
 50
88.0850753042
 51
88.7569128364
  0
ARC
  5
462
100
AcDbEntity
  8
0
100
AcDbCircle
 62
7
  6
CONTINUOUS
 10
314.2177949947
 20
924.8449055254
 40
3.9037308336
100
AcDbArc
 50
87.4129955204
 51
88.0850583758
  0
ARC
  5
463
100
AcDbEntity
  8
0
100
AcDbCircle
 62
7
  6
CONTINUOUS
 10
314.2178445493
 20
924.8460278819
 40
3.9026073843
100
AcDbArc
 50
86.7407876123
 51
87.4129785628
  0
ARC
  5
464
100
AcDbEntity
  8
0
100
AcDbCircle
 62
7
  6
CONTINUOUS
 10
313.6849361372
 20
925.754297253
 40
3.0557383768
100
AcDbArc
 50
75.8050008448
 51
78.3413105561
  0
ARC
  5
465
100
AcDbEntity
  8
0
100
AcDbCircle
 62
7
  6
CONTINUOUS
 10
316.0197728111
 20
928.1831745943
 40
0.2011775892
100
AcDbArc
 50
70.6572467274
 51
86.5160420395
  0
ARC
  5
466
100
AcDbEntity
  8
0
100
AcDbCircle
 62
7
  6
CONTINUOUS
 10
318.0301640715
 20
927.1182093724
 40
0.2
100
AcDbArc
 50
0.0
 51
53.5080011209
  0
ARC
  5
467
100
AcDbEntity
  8
0
100
AcDbCircle
 62
7
  6
CONTINUOUS
 10
316.0200541721
 20
928.1868343298
 40
0.197507528
100
AcDbArc
 50
86.5329958042
 51
88.3290818741
  0
ARC
  5
468
100
AcDbEntity
  8
0
100
AcDbCircle
 62
7
  6
CONTINUOUS
 10
313.4801659831
 20
1010.7595845462
 40
82.3865914052
100
AcDbArc
 50
269.6418394347
 51
270.3581579064
  0
ARC
  5
469
100
AcDbEntity
  8
0
100
AcDbCircle
 62
7
  6
CONTINUOUS
 10
453.4801621599
 20
39.6769514689
 40
82.38649954
100
AcDbArc
 50
89.6418390354
 51
90.3581583057
  0
ARC
  5
46A
100
AcDbEntity
  8
0
100
AcDbCircle
 62
7
  6
CONTINUOUS
 10
432.2137436738
 20
120.1921252423
 40
26.0714256807
100
AcDbArc
 50
8.0364300427
 51
8.2167799304
  0
ARC
  5
46B
100
AcDbEntity
  8
0
100
AcDbCircle
 62
7
  6
CONTINUOUS
 10
432.3392465195
 20
120.2092526204
 40
25.9447623063
100
AcDbArc
 50
7.6787656617
 51
7.8567708512
  0
ARC
  5
46C
100
AcDbEntity
  8
0
100
AcDbCircle
 62
7
  6
CONTINUOUS
 10
440.2077280858
 20
127.8934389746
 40
17.9209702441
100
AcDbArc
 50
346.3884846718
 51
347.1840888313
  0
ARC
  5
46D
100
AcDbEntity
  8
0
100
AcDbCircle
 62
7
  6
CONTINUOUS
 10
453.158228349
 20
127.3305696714
 40
5.7307441734
100
AcDbArc
 50
281.5069561451
 51
285.8687970095
  0
ARC
  5
46E
100
AcDbEntity
  8
0
100
AcDbCircle
 62
7
  6
CONTINUOUS
 10
453.2626870239
 20
126.8470960396
 40
5.2361530933
100
AcDbArc
 50
280.202830677
 51
281.402602375
  0
ARC
  5
46F
100
AcDbEntity
  8
0
100
AcDbCircle
 62
7
  6
CONTINUOUS
 10
452.7419622203
 20
125.627332365
 40
3.9395392188
100
AcDbArc
 50
272.5799537912
 51
273.2479371575
  0
ARC
  5
470
100
AcDbEntity
  8
0
100
AcDbCircle
 62
7
  6
CONTINUOUS
 10
452.7422946841
 20
125.6199789145
 40
3.9321782566
100
AcDbArc
 50
271.9111198324
 51
272.5799374354
  0
ARC
  5
471
100
AcDbEntity
  8
0
100
AcDbCircle
 62
7
  6
CONTINUOUS
 10
452.7425135756
 20
125.6134527998
 40
3.9256484721
100
AcDbArc
 50
271.2415451737
 51
271.9111033494
  0
ARC
  5
472
100
AcDbEntity
  8
0
100
AcDbCircle
 62
7
  6
CONTINUOUS
 10
452.7425973707
 20
125.5934939987
 40
3.9056872637
100
AcDbArc
 50
268.0850753043
 51
268.7569128362
  0
ARC
  5
473
100
AcDbEntity
  8
0
100
AcDbCircle
 62
7
  6
CONTINUOUS
 10
452.7425331485
 20
125.5915386258
 40
3.9037308368
100
AcDbArc
 50
267.4129955206
 51
268.0850583755
  0
ARC
  5
474
100
AcDbEntity
  8
0
100
AcDbCircle
 62
7
  6
CONTINUOUS
 10
452.7424835937
 20
125.5904162653
 40
3.9026073834
100
AcDbArc
 50
266.7407876123
 51
267.412978563
  0
ARC
  5
475
100
AcDbEntity
  8
0
100
AcDbCircle
 62
7
  6
CONTINUOUS
 10
453.2755090403
 20
124.6826069246
 40
3.0562125659
100
AcDbArc
 50
255.8091204359
 51
258.3409045558
  0
ARC
  5
476
100
AcDbEntity
  8
0
100
AcDbCircle
 62
7
  6
CONTINUOUS
 10
450.9405553334
 20
122.2532695599
 40
0.2011775954
100
AcDbArc
 50
250.6572469302
 51
266.5160034396
  0
ARC
  5
477
100
AcDbEntity
  8
0
100
AcDbCircle
 62
7
  6
CONTINUOUS
 10
448.9301640715
 20
123.3182347757
 40
0.2
100
AcDbArc
 50
180.0
 51
233.5080011209
  0
ARC
  5
478
100
AcDbEntity
  8
0
100
AcDbCircle
 62
7
  6
CONTINUOUS
 10
450.9402739717
 20
122.2496098359
 40
0.1975075456
100
AcDbArc
 50
266.5329568883
 51
268.3290818259
  0
ARC
  5
479
100
AcDbEntity
  8
0
100
AcDbCircle
 62
7
  6
CONTINUOUS
 10
428.2501393699
 20
136.3335930427
 40
29.3867435517
100
AcDbArc
 50
334.4863679141
 51
335.0086123386
  0
ARC
  5
47A
100
AcDbEntity
  8
0
100
AcDbCircle
 62
7
  6
CONTINUOUS
 10
453.4801640715
 20
129.469003324
 40
7.85078125
100
AcDbArc
 50
289.3885361716
 51
306.49199762
  0
ARC
  5
47B
100
AcDbEntity
  8
0
100
AcDbCircle
 62
7
  6
CONTINUOUS
 10
453.4801640715
 20
129.469003324
 40
7.85078125
100
AcDbArc
 50
233.50800238
 51
250.6114638284
  0
ARC
  5
47C
100
AcDbEntity
  8
0
100
AcDbCircle
 62
7
  6
CONTINUOUS
 10
453.4801640715
 20
129.469003324
 40
7.8338714079
100
AcDbArc
 50
251.0020052255
 51
262.964275686
  0
ARC
  5
47D
100
AcDbEntity
  8
0
100
AcDbCircle
 62
7
  6
CONTINUOUS
 10
453.4801640715
 20
129.469003324
 40
7.8338714079
100
AcDbArc
 50
277.035724314
 51
288.9979859361
  0
ARC
  5
47E
100
AcDbEntity
  8
0
100
AcDbCircle
 62
7
  6
CONTINUOUS
 10
453.4797743159
 20
129.4943561981
 40
7.8328953225
100
AcDbArc
 50
274.8456460974
 51
275.2036328878
  0
ARC
  5
47F
100
AcDbEntity
  8
0
100
AcDbCircle
 62
7
  6
CONTINUOUS
 10
474.7313793708
 20
120.1940140144
 40
26.0561067321
100
AcDbArc
 50
171.7825522265
 51
171.9630090244
  0
ARC
  5
480
100
AcDbEntity
  8
0
100
AcDbCircle
 62
7
  6
CONTINUOUS
 10
474.6804517152
 20
120.2010299543
 40
26.0046987183
100
AcDbArc
 50
172.1431631811
 51
172.3207584472
  0
ARC
  5
481
100
AcDbEntity
  8
0
100
AcDbCircle
 62
7
  6
CONTINUOUS
 10
466.7526019213
 20
127.8934394151
 40
17.9209721594
100
AcDbArc
 50
192.8159112202
 51
193.6115153815
  0
ARC
  5
482
100
AcDbEntity
  8
0
100
AcDbCircle
 62
7
  6
CONTINUOUS
 10
453.7184948639
 20
126.852273674
 40
5.2406021029
100
AcDbArc
 50
258.3961318339
 51
260.1162604875
  0
ARC
  5
483
100
AcDbEntity
  8
0
100
AcDbCircle
 62
7
  6
CONTINUOUS
 10
453.69751804
 20
126.8464383831
 40
5.235484035
100
AcDbArc
 50
258.6065941212
 51
259.7972201016
  0
ARC
  5
484
100
AcDbEntity
  8
0
100
AcDbCircle
 62
7
  6
CONTINUOUS
 10
454.2183659228
 20
125.6273323652
 40
3.939539219
100
AcDbArc
 50
266.7520628425
 51
267.4200462088
  0
ARC
  5
485
100
AcDbEntity
  8
0
100
AcDbCircle
 62
7
  6
CONTINUOUS
 10
454.2180334589
 20
125.6199789145
 40
3.9321782566
100
AcDbArc
 50
267.4200625646
 51
268.0888801676
  0
ARC
  5
486
100
AcDbEntity
  8
0
100
AcDbCircle
 62
7
  6
CONTINUOUS
 10
454.2178145675
 20
125.6134528
 40
3.9256484723
100
AcDbArc
 50
268.0888966506
 51
268.7584548263
  0
ARC
  5
487
100
AcDbEntity
  8
0
100
AcDbCircle
 62
7
  6
CONTINUOUS
 10
454.2177307723
 20
125.5934939996
 40
3.9056872646
100
AcDbArc
 50
271.2430871639
 51
271.9149246954
  0
ARC
  5
488
100
AcDbEntity
  8
0
100
AcDbCircle
 62
7
  6
CONTINUOUS
 10
454.2177949946
 20
125.5915386258
 40
3.9037308368
100
AcDbArc
 50
271.9149416242
 51
272.5870044791
  0
ARC
  5
489
100
AcDbEntity
  8
0
100
AcDbCircle
 62
7
  6
CONTINUOUS
 10
454.2178445494
 20
125.5904162655
 40
3.9026073836
100
AcDbArc
 50
272.5870214369
 51
273.2592123877
  0
ARC
  5
48A
100
AcDbEntity
  8
0
100
AcDbCircle
 62
7
  6
CONTINUOUS
 10
456.0197738937
 20
122.253269487
 40
0.2011775721
100
AcDbArc
 50
273.4826391237
 51
289.3424687559
  0
ARC
  5
48B
100
AcDbEntity
  8
0
100
AcDbCircle
 62
7
  6
CONTINUOUS
 10
458.0301640715
 20
123.3182347757
 40
0.2
100
AcDbArc
 50
306.4919988791
 51
360.0
  0
ARC
  5
48C
100
AcDbEntity
  8
0
100
AcDbCircle
 62
7
  6
CONTINUOUS
 10
456.0200556396
 20
122.2496010419
 40
0.1974987954
100
AcDbArc
 50
271.6523233208
 51
273.4657021151
  0
ARC
  5
48D
100
AcDbEntity
  8
0
100
AcDbCircle
 62
7
  6
CONTINUOUS
 10
456.02013231
 20
122.2488951731
 40
0.1967910234
100
AcDbArc
 50
265.4301666757
 51
271.6292808181
  0
ARC
  5
48E
100
AcDbEntity
  8
0
100
AcDbCircle
 62
7
  6
CONTINUOUS
 10
457.8963543263
 20
123.9027838577
 40
0.1214707197
100
AcDbArc
 50
38.4963569617
 51
45.3116857457
  0
ARC
  5
48F
100
AcDbEntity
  8
0
100
AcDbCircle
 62
7
  6
CONTINUOUS
 10
455.8839891188
 20
123.7051643177
 40
0.0869422551
100
AcDbArc
 50
260.6875563288
 51
269.9706030476
  0
ARC
  5
490
100
AcDbEntity
  8
0
100
AcDbCircle
 62
7
  6
CONTINUOUS
 10
478.7101966172
 20
136.3335967512
 40
29.3867522281
100
AcDbArc
 50
204.9913877537
 51
205.5136320812
  0
ARC
  5
491
100
AcDbEntity
  8
0
100
AcDbCircle
 62
7
  6
CONTINUOUS
 10
659.5670335023
 20
64.624582596
 40
66.4417127865
100
AcDbArc
 50
70.4847842075
 51
70.9253561518
  0
ARC
  5
492
100
AcDbEntity
  8
0
100
AcDbCircle
 62
7
  6
CONTINUOUS
 10
750.2213914465
 20
163.8702145618
 40
86.6500887237
100
AcDbArc
 50
203.2121520921
 51
203.6493412659
  0
ARC
  5
493
100
AcDbEntity
  8
0
100
AcDbCircle
 62
7
  6
CONTINUOUS
 10
668.4801640715
 20
145.643222074
 40
21.625
100
AcDbArc
 50
252.5076754749
 51
287.4923245251
  0
ARC
  5
494
100
AcDbEntity
  8
0
100
AcDbCircle
 62
7
  6
CONTINUOUS
 10
688.274223254
 20
130.9165949903
 40
7.7680078308
100
AcDbArc
 50
216.2954651661
 51
217.3931661937
  0
ARC
  5
495
100
AcDbEntity
  8
0
100
AcDbCircle
 62
7
  6
CONTINUOUS
 10
428.2501315126
 20
914.1028473958
 40
29.3867522406
100
AcDbArc
 50
24.9913877447
 51
25.5136320718
  0
ARC
  5
496
100
AcDbEntity
  8
0
100
AcDbCircle
 62
7
  6
CONTINUOUS
 10
432.228949359
 20
930.2424300479
 40
26.0561061392
100
AcDbArc
 50
351.7825522285
 51
351.9630090313
  0
ARC
  5
497
100
AcDbEntity
  8
0
100
AcDbCircle
 62
7
  6
CONTINUOUS
 10
432.2798757164
 20
930.2354142892
 40
26.0046994361
100
AcDbArc
 50
352.1431631864
 51
352.3207584481
  0
ARC
  5
498
100
AcDbEntity
  8
0
100
AcDbCircle
 62
7
  6
CONTINUOUS
 10
440.2077261287
 20
922.5430047281
 40
17.9209722511
100
AcDbArc
 50
12.8159111691
 51
13.6115153232
  0
ARC
  5
499
100
AcDbEntity
  8
0
100
AcDbCircle
 62
7
  6
CONTINUOUS
 10
453.2418332793
 20
923.5841704749
 40
5.240602102
100
AcDbArc
 50
78.3961318339
 51
80.1162604876
  0
ARC
  5
49A
100
AcDbEntity
  8
0
100
AcDbCircle
 62
7
  6
CONTINUOUS
 10
453.2628101029
 20
923.590005764
 40
5.235484036
100
AcDbArc
 50
78.6065941213
 51
79.7972201015
  0
ARC
  5
49B
100
AcDbEntity
  8
0
100
AcDbCircle
 62
7
  6
CONTINUOUS
 10
452.7419622199
 20
924.8091117743
 40
3.9395392275
100
AcDbArc
 50
86.7520628431
 51
87.4200462079
  0
ARC
  5
49C
100
AcDbEntity
  8
0
100
AcDbCircle
 62
7
  6
CONTINUOUS
 10
452.7422946843
 20
924.8164652377
 40
3.9321782524
100
AcDbArc
 50
87.4200625642
 51
88.0888801679
  0
ARC
  5
49D
100
AcDbEntity
  8
0
100
AcDbCircle
 62
7
  6
CONTINUOUS
 10
452.7425135756
 20
924.8229913471
 40
3.9256484733
100
AcDbArc
 50
88.0888966507
 51
88.7584548262
  0
ARC
  5
49E
100
AcDbEntity
  8
0
100
AcDbCircle
 62
7
  6
CONTINUOUS
 10
452.7425973707
 20
924.8429501515
 40
3.9056872616
100
AcDbArc
 50
91.2430871636
 51
91.9149246958
  0
ARC
  5
49F
100
AcDbEntity
  8
0
100
AcDbCircle
 62
7
  6
CONTINUOUS
 10
452.7425331483
 20
924.8449055256
 40
3.9037308335
100
AcDbArc
 50
91.9149416242
 51
92.5870044796
  0
ARC
  5
4A0
100
AcDbEntity
  8
0
100
AcDbCircle
 62
7
  6
CONTINUOUS
 10
452.7424835937
 20
924.8460278818
 40
3.9026073844
100
AcDbArc
 50
92.5870214372
 51
93.2592123877
  0
ARC
  5
4A1
100
AcDbEntity
  8
0
100
AcDbCircle
 62
7
  6
CONTINUOUS
 10
450.9405542554
 20
928.1831746347
 40
0.2011775989
100
AcDbArc
 50
93.4828053422
 51
109.3424678829
  0
ARC
  5
4A2
100
AcDbEntity
  8
0
100
AcDbCircle
 62
7
  6
CONTINUOUS
 10
448.9301640715
 20
927.1182093724
 40
0.2
100
AcDbArc
 50
126.4919988791
 51
180.0
  0
ARC
  5
4A3
100
AcDbEntity
  8
0
100
AcDbCircle
 62
7
  6
CONTINUOUS
 10
450.9402725065
 20
928.1868430289
 40
0.1974988726
100
AcDbArc
 50
91.6523235565
 51
93.465869692
  0
ARC
  5
4A4
100
AcDbEntity
  8
0
100
AcDbCircle
 62
7
  6
CONTINUOUS
 10
450.940200242
 20
928.1878357058
 40
0.1965045341
100
AcDbArc
 50
85.8808135096
 51
91.632942869
  0
ARC
  5
4A5
100
AcDbEntity
  8
0
100
AcDbCircle
 62
7
  6
CONTINUOUS
 10
449.0639738168
 20
926.5336602904
 40
0.1214707197
100
AcDbArc
 50
218.4963569633
 51
225.3116857466
  0
ARC
  5
4A6
100
AcDbEntity
  8
0
100
AcDbCircle
 62
7
  6
CONTINUOUS
 10
451.0763390243
 20
926.7312798303
 40
0.0869422552
100
AcDbArc
 50
80.6875563316
 51
89.970603046
  0
ARC
  5
4A7
100
AcDbEntity
  8
0
100
AcDbCircle
 62
7
  6
CONTINUOUS
 10
478.7101887751
 20
914.1028511097
 40
29.3867435516
100
AcDbArc
 50
154.4863679234
 51
155.0086123477
  0
ARC
  5
4A8
100
AcDbEntity
  8
0
100
AcDbCircle
 62
7
  6
CONTINUOUS
 10
453.4801640715
 20
920.967440824
 40
7.85078125
100
AcDbArc
 50
53.50800238
 51
70.6114638284
  0
ARC
  5
4A9
100
AcDbEntity
  8
0
100
AcDbCircle
 62
7
  6
CONTINUOUS
 10
453.4801640715
 20
920.967440824
 40
7.85078125
100
AcDbArc
 50
109.3885361716
 51
126.49199762
  0
ARC
  5
4AA
100
AcDbEntity
  8
0
100
AcDbCircle
 62
7
  6
CONTINUOUS
 10
453.4801640715
 20
920.967440824
 40
7.8338714079
100
AcDbArc
 50
97.035724314
 51
108.9979899111
  0
ARC
  5
4AB
100
AcDbEntity
  8
0
100
AcDbCircle
 62
7
  6
CONTINUOUS
 10
453.4801640715
 20
920.967440824
 40
7.8338714079
100
AcDbArc
 50
71.0020062025
 51
82.964275686
  0
ARC
  5
4AC
100
AcDbEntity
  8
0
100
AcDbCircle
 62
7
  6
CONTINUOUS
 10
453.4805538253
 20
920.9420879716
 40
7.8328953008
100
AcDbArc
 50
94.8456460968
 51
95.2036328882
  0
ARC
  5
4AD
100
AcDbEntity
  8
0
100
AcDbCircle
 62
7
  6
CONTINUOUS
 10
474.7465839899
 20
930.2443188358
 40
26.0714251962
100
AcDbArc
 50
188.0364300369
 51
188.2167799288
  0
ARC
  5
4AE
100
AcDbEntity
  8
0
100
AcDbCircle
 62
7
  6
CONTINUOUS
 10
474.6210823167
 20
930.2271916208
 40
25.9447630055
100
AcDbArc
 50
187.6787656611
 51
187.8567708461
  0
ARC
  5
4AF
100
AcDbEntity
  8
0
100
AcDbCircle
 62
7
  6
CONTINUOUS
 10
466.7526001485
 20
922.5430051691
 40
17.9209703339
100
AcDbArc
 50
166.3884847303
 51
167.1840888824
  0
ARC
  5
4B0
100
AcDbEntity
  8
0
100
AcDbCircle
 62
7
  6
CONTINUOUS
 10
453.8020930914
 20
923.105899505
 40
5.7307182661
100
AcDbArc
 50
101.5065659444
 51
105.8688009721
  0
ARC
  5
4B1
100
AcDbEntity
  8
0
100
AcDbCircle
 62
7
  6
CONTINUOUS
 10
453.6976411189
 20
923.5893481101
 40
5.2361530916
100
AcDbArc
 50
100.2028306769
 51
101.4026023753
  0
ARC
  5
4B2
100
AcDbEntity
  8
0
100
AcDbCircle
 62
7
  6
CONTINUOUS
 10
454.2183659232
 20
924.8091117745
 40
3.9395392274
100
AcDbArc
 50
92.5799537921
 51
93.2479371569
  0
ARC
  5
4B3
100
AcDbEntity
  8
0
100
AcDbCircle
 62
7
  6
CONTINUOUS
 10
454.2180334588
 20
924.8164652377
 40
3.9321782524
100
AcDbArc
 50
91.9111198321
 51
92.5799374358
  0
ARC
  5
4B4
100
AcDbEntity
  8
0
100
AcDbCircle
 62
7
  6
CONTINUOUS
 10
454.2178145675
 20
924.8229913471
 40
3.9256484733
100
AcDbArc
 50
91.2415451738
 51
91.9111033493
  0
ARC
  5
4B5
100
AcDbEntity
  8
0
100
AcDbCircle
 62
7
  6
CONTINUOUS
 10
454.2177307724
 20
924.8429501512
 40
3.9056872618
100
AcDbArc
 50
88.0850753042
 51
88.7569128364
  0
ARC
  5
4B6
100
AcDbEntity
  8
0
100
AcDbCircle
 62
7
  6
CONTINUOUS
 10
454.2177949947
 20
924.8449055254
 40
3.9037308337
100
AcDbArc
 50
87.4129955204
 51
88.0850583758
  0
ARC
  5
4B7
100
AcDbEntity
  8
0
100
AcDbCircle
 62
7
  6
CONTINUOUS
 10
454.2178445493
 20
924.846027882
 40
3.9026073842
100
AcDbArc
 50
86.7407876123
 51
87.4129785628
  0
ARC
  5
4B8
100
AcDbEntity
  8
0
100
AcDbCircle
 62
7
  6
CONTINUOUS
 10
453.6849361371
 20
925.7542972529
 40
3.0557383769
100
AcDbArc
 50
75.8050008449
 51
78.341310556
  0
ARC
  5
4B9
100
AcDbEntity
  8
0
100
AcDbCircle
 62
7
  6
CONTINUOUS
 10
456.0197728111
 20
928.1831745943
 40
0.2011775892
100
AcDbArc
 50
70.6572467275
 51
86.5160420396
  0
ARC
  5
4BA
100
AcDbEntity
  8
0
100
AcDbCircle
 62
7
  6
CONTINUOUS
 10
458.0301640715
 20
927.1182093724
 40
0.2
100
AcDbArc
 50
0.0
 51
53.5080011209
  0
ARC
  5
4BB
100
AcDbEntity
  8
0
100
AcDbCircle
 62
7
  6
CONTINUOUS
 10
456.0200541721
 20
928.1868343297
 40
0.1975075281
100
AcDbArc
 50
86.5329958036
 51
88.3290818759
  0
ARC
  5
4BC
100
AcDbEntity
  8
0
100
AcDbCircle
 62
7
  6
CONTINUOUS
 10
453.4801659831
 20
1010.7595845462
 40
82.3865914051
100
AcDbArc
 50
269.6418394347
 51
270.3581579064
  0
ARC
  5
4BD
100
AcDbEntity
  8
0
100
AcDbCircle
 62
7
  6
CONTINUOUS
 10
686.4194821683
 20
914.7328015357
 40
16.905681783
100
AcDbArc
 50
154.3967154031
 51
154.8914701237
  0
ARC
  5
4BE
100
AcDbEntity
  8
0
100
AcDbCircle
 62
7
  6
CONTINUOUS
 10
664.4470440667
 20
926.3564649454
 40
8.2976473997
100
AcDbArc
 50
325.4099917829
 51
327.5080991376
  0
ARC
  5
4BF
100
AcDbEntity
  8
0
100
AcDbCircle
 62
7
  6
CONTINUOUS
 10
688.274115267
 20
919.5199308688
 40
7.7678724081
100
AcDbArc
 50
142.6068647628
 51
143.704319742
  0
ARC
  5
4C0
100
AcDbEntity
  8
0
100
AcDbCircle
 62
7
  6
CONTINUOUS
 10
659.5670859617
 20
985.8117103656
 40
66.4415527575
100
AcDbArc
 50
289.0746437005
 51
289.5152175169
  0
SPLINE
  5
4C1
100
AcDbEntity
  8
0
100
AcDbSpline
 62
7
  6
CONTINUOUS
 70
0
 71
3
 72
9
 73
5
 74
0
 42
0.0000001
 43
0.0000001
 44
0.0000000001
 40
0.0
 40
0.0
 40
0.0
 40
0.0
 40
0.2449548199
 40
1.0
 40
1.0
 40
1.0
 40
1.0
 10
312.6592605378
 20
121.7198336882
 30
0.0
 10
312.6122358859
 20
121.729531639
 30
0.0
 10
312.4207987437
 20
121.7716942369
 30
0.0
 10
312.2316019686
 20
121.8238889908
 30
0.0
 10
312.0903995906
 20
121.868222074
 30
0.0
  0
LINE
  5
4C2
100
AcDbEntity
  8
0
100
AcDbLine
 62
7
  6
CONTINUOUS
 10
315.7996057064
 20
123.6759634492
 11
315.69488657
 21
123.918222074
  0
SPLINE
  5
4C3
100
AcDbEntity
  8
0
100
AcDbSpline
 62
7
  6
CONTINUOUS
 70
0
 71
3
 72
9
 73
5
 74
0
 42
0.0000001
 43
0.0000001
 44
0.0000000001
 40
0.0
 40
0.0
 40
0.0
 40
0.0
 40
0.2724378854
 40
1.0
 40
1.0
 40
1.0
 40
1.0
 10
318.051356646
 20
123.6759634492
 30
0.0
 10
318.0517291285
 20
123.6732010353
 30
0.0
 10
318.0532630593
 20
123.6630869434
 30
0.0
 10
318.0554220514
 20
123.6530504486
 30
0.0
 10
318.0575473478
 20
123.6459163305
 30
0.0
  0
SPLINE
  5
4C4
100
AcDbEntity
  8
0
100
AcDbSpline
 62
7
  6
CONTINUOUS
 70
0
 71
3
 72
9
 73
5
 74
0
 42
0.0000001
 43
0.0000001
 44
0.0000000001
 40
0.0
 40
0.0
 40
0.0
 40
0.0
 40
0.2959410343
 40
1.0
 40
1.0
 40
1.0
 40
1.0
 10
318.0575473478
 20
123.6459163305
 30
0.0
 10
318.0581786195
 20
123.6437973005
 30
0.0
 10
318.0604978801
 20
123.6367098177
 30
0.0
 10
318.0635201129
 20
123.629743447
 30
0.0
 10
318.0665279546
 20
123.6254280217
 30
0.0
  0
SPLINE
  5
4C5
100
AcDbEntity
  8
0
100
AcDbSpline
 62
7
  6
CONTINUOUS
 70
0
 71
3
 72
9
 73
5
 74
0
 42
0.0000001
 43
0.0000001
 44
0.0000000001
 40
0.0
 40
0.0
 40
0.0
 40
0.0
 40
0.3157592213
 40
1.0
 40
1.0
 40
1.0
 40
1.0
 10
318.0665279546
 20
123.6254280217
 30
0.0
 10
318.0672979508
 20
123.6243232889
 30
0.0
 10
318.0698566015
 20
123.6210062636
 30
0.0
 10
318.0738996775
 20
123.618222074
 30
0.0
 10
318.0768177171
 20
123.618222074
 30
0.0
  0
SPLINE
  5
4C6
100
AcDbEntity
  8
0
100
AcDbSpline
 62
7
  6
CONTINUOUS
 70
0
 71
3
 72
9
 73
5
 74
0
 42
0.0000001
 43
0.0000001
 44
0.0000000001
 40
0.0
 40
0.0
 40
0.0
 40
0.0
 40
0.2403923027
 40
1.0
 40
1.0
 40
1.0
 40
1.0
 10
318.0175283199
 20
123.91823035
 30
0.0
 10
318.0167723969
 20
123.9234646533
 30
0.0
 10
318.0121782165
 20
123.9450043859
 30
0.0
 10
318.0018268286
 20
123.9653172748
 30
0.0
 10
317.9914231102
 20
123.978395114
 30
0.0
  0
SPLINE
  5
4C7
100
AcDbEntity
  8
0
100
AcDbSpline
 62
7
  6
CONTINUOUS
 70
0
 71
3
 72
8
 73
4
 74
0
 42
0.0000001
 43
0.0000001
 44
0.0000000001
 40
0.0
 40
0.0
 40
0.0
 40
0.0
 40
1.0
 40
1.0
 40
1.0
 40
1.0
 10
317.9817785756
 20
123.9891426058
 30
0.0
 10
317.9779092505
 20
123.9929683603
 30
0.0
 10
317.973768842
 20
123.9965418331
 30
0.0
 10
317.9693930769
 20
123.999776142
 30
0.0
  0
SPLINE
  5
4C8
100
AcDbEntity
  8
0
100
AcDbSpline
 62
7
  6
CONTINUOUS
 70
0
 71
3
 72
9
 73
5
 74
0
 42
0.0000001
 43
0.0000001
 44
0.0000000001
 40
0.0
 40
0.0
 40
0.0
 40
0.0
 40
0.2707499791
 40
1.0
 40
1.0
 40
1.0
 40
1.0
 10
317.9693930769
 20
123.999776142
 30
0.0
 10
317.9653555713
 20
124.0027604293
 30
0.0
 10
317.9497361093
 20
124.0127369191
 30
0.0
 10
317.9309739834
 20
124.018222074
 30
0.0
 10
317.9174510087
 20
124.018222074
 30
0.0
  0
SPLINE
  5
4C9
100
AcDbEntity
  8
0
100
AcDbSpline
 62
7
  6
CONTINUOUS
 70
0
 71
3
 72
9
 73
5
 74
0
 42
0.0000001
 43
0.0000001
 44
0.0000000001
 40
0.0
 40
0.0
 40
0.0
 40
0.0
 40
0.5162242644
 40
1.0
 40
1.0
 40
1.0
 40
1.0
 10
315.7996057064
 20
123.6759634492
 30
0.0
 10
315.8059759973
 20
123.6612496415
 30
0.0
 10
315.825329749
 20
123.6351171216
 30
0.0
 10
315.8550919353
 20
123.6217957006
 30
0.0
 10
315.8699202843
 20
123.6193679097
 30
0.0
  0
SPLINE
  5
4CA
100
AcDbEntity
  8
0
100
AcDbSpline
 62
7
  6
CONTINUOUS
 70
0
 71
3
 72
13
 73
9
 74
0
 42
0.0000001
 43
0.0000001
 44
0.0000000001
 40
0.0
 40
0.0
 40
0.0
 40
0.0
 40
0.3430313725
 40
0.6628028969
 40
0.7945298169
 40
0.8967414283
 40
0.9649950975
 40
1.0
 40
1.0
 40
1.0
 40
1.0
 10
315.6948819751
 20
123.918230351
 30
0.0
 10
315.6895400953
 20
123.9306004367
 30
0.0
 10
315.678512496
 20
123.9541869112
 30
0.0
 10
315.6635448883
 20
123.9816612215
 30
0.0
 10
315.6518844932
 20
123.9999471301
 30
0.0
 10
315.6448118154
 20
124.0096670702
 30
0.0
 10
315.6395668627
 20
124.0154478224
 30
0.0
 10
315.636040737
 20
124.018222074
 30
0.0
 10
315.6346657494
 20
124.018222074
 30
0.0
  0
LINE
  5
4CB
100
AcDbEntity
  8
0
100
AcDbLine
 62
7
  6
CONTINUOUS
 10
311.1607224482
 20
123.6759634757
 11
311.265441573
 21
123.918222074
  0
SPLINE
  5
4CC
100
AcDbEntity
  8
0
100
AcDbSpline
 62
7
  6
CONTINUOUS
 70
0
 71
3
 72
8
 73
4
 74
0
 42
0.0000001
 43
0.0000001
 44
0.0000000001
 40
0.0
 40
0.0
 40
0.0
 40
0.0
 40
1.0
 40
1.0
 40
1.0
 40
1.0
 10
311.0763835631
 20
123.618222074
 30
0.0
 10
311.0881557516
 20
123.618222074
 30
0.0
 10
311.1001506053
 20
123.6207254627
 30
0.0
 10
311.1109704763
 20
123.6253638691
 30
0.0
  0
SPLINE
  5
4CD
100
AcDbEntity
  8
0
100
AcDbSpline
 62
7
  6
CONTINUOUS
 70
0
 71
3
 72
9
 73
5
 74
0
 42
0.0000001
 43
0.0000001
 44
0.0000000001
 40
0.0
 40
0.0
 40
0.0
 40
0.0
 40
0.242614299
 40
1.0
 40
1.0
 40
1.0
 40
1.0
 10
311.1109704763
 20
123.6253638691
 30
0.0
 10
311.1163169744
 20
123.6276558771
 30
0.0
 10
311.1374331849
 20
123.6392111939
 30
0.0
 10
311.1535075015
 20
123.6592987207
 30
0.0
 10
311.1607224482
 20
123.6759634757
 30
0.0
  0
SPLINE
  5
4CE
100
AcDbEntity
  8
0
100
AcDbSpline
 62
7
  6
CONTINUOUS
 70
0
 71
3
 72
9
 73
5
 74
0
 42
0.0000001
 43
0.0000001
 44
0.0000000001
 40
0.0
 40
0.0
 40
0.0
 40
0.0
 40
0.2039019337
 40
1.0
 40
1.0
 40
1.0
 40
1.0
 10
308.8835104055
 20
123.618222074
 30
0.0
 10
308.8843851657
 20
123.618222074
 30
0.0
 10
308.8886975002
 20
123.619050757
 30
0.0
 10
308.89184794
 20
123.6226258445
 30
0.0
 10
308.8938003948
 20
123.6254280726
 30
0.0
  0
SPLINE
  5
4CF
100
AcDbEntity
  8
0
100
AcDbSpline
 62
7
  6
CONTINUOUS
 70
0
 71
3
 72
9
 73
5
 74
0
 42
0.0000001
 43
0.0000001
 44
0.0000000001
 40
0.0
 40
0.0
 40
0.0
 40
0.0
 40
0.2049035787
 40
1.0
 40
1.0
 40
1.0
 40
1.0
 10
308.8938003948
 20
123.6254280726
 30
0.0
 10
308.8946759342
 20
123.6266846758
 30
0.0
 10
308.8985330829
 20
123.6331058257
 30
0.0
 10
308.9010836153
 20
123.6402202621
 30
0.0
 10
308.9027807225
 20
123.6459156993
 30
0.0
  0
SPLINE
  5
4D0
100
AcDbEntity
  8
0
100
AcDbSpline
 62
7
  6
CONTINUOUS
 70
0
 71
3
 72
9
 73
5
 74
0
 42
0.0000001
 43
0.0000001
 44
0.0000000001
 40
0.0
 40
0.0
 40
0.0
 40
0.0
 40
0.2256027298
 40
1.0
 40
1.0
 40
1.0
 40
1.0
 10
308.9027807225
 20
123.6459156993
 30
0.0
 10
308.903439927
 20
123.6481279687
 30
0.0
 10
308.9061064375
 20
123.6580097425
 30
0.0
 10
308.9079126517
 20
123.6681108135
 30
0.0
 10
308.9089715007
 20
123.6759634757
 30
0.0
  0
SPLINE
  5
4D1
100
AcDbEntity
  8
0
100
AcDbSpline
 62
7
  6
CONTINUOUS
 70
0
 71
3
 72
10
 73
6
 74
0
 42
0.0000001
 43
0.0000001
 44
0.0000000001
 40
0.0
 40
0.0
 40
0.0
 40
0.0
 40
0.4050842387
 40
0.6775361313
 40
1.0
 40
1.0
 40
1.0
 40
1.0
 10
317.5770335187
 20
123.618222074
 30
0.0
 10
317.5877791722
 20
123.618222074
 30
0.0
 10
317.6051629626
 20
123.6296059641
 30
0.0
 10
317.6182341174
 20
123.6525316035
 30
0.0
 10
317.6233509901
 20
123.6676499587
 30
0.0
 10
317.6253649775
 20
123.6759634739
 30
0.0
  0
SPLINE
  5
4D2
100
AcDbEntity
  8
0
100
AcDbSpline
 62
7
  6
CONTINUOUS
 70
0
 71
3
 72
9
 73
5
 74
0
 42
0.0000001
 43
0.0000001
 44
0.0000000001
 40
0.0
 40
0.0
 40
0.0
 40
0.0
 40
0.4968650104
 40
1.0
 40
1.0
 40
1.0
 40
1.0
 10
314.6773587622
 20
123.618222074
 30
0.0
 10
314.6963524676
 20
123.618222074
 30
0.0
 10
314.7354070002
 20
123.6284734918
 30
0.0
 10
314.762884098
 20
123.658606831
 30
0.0
 10
314.7711708416
 20
123.6759634757
 30
0.0
  0
SPLINE
  5
4D3
100
AcDbEntity
  8
0
100
AcDbSpline
 62
7
  6
CONTINUOUS
 70
0
 71
3
 72
9
 73
5
 74
0
 42
0.0000001
 43
0.0000001
 44
0.0000000001
 40
0.0
 40
0.0
 40
0.0
 40
0.0
 40
0.5031323156
 40
1.0
 40
1.0
 40
1.0
 40
1.0
 10
312.1891573142
 20
123.6759634492
 30
0.0
 10
312.1974440304
 20
123.658606862
 30
0.0
 10
312.2249196655
 20
123.6284717654
 30
0.0
 10
312.2639751149
 20
123.618222074
 30
0.0
 10
312.2829689606
 20
123.618222074
 30
0.0
  0
SPLINE
  5
4D4
100
AcDbEntity
  8
0
100
AcDbSpline
 62
7
  6
CONTINUOUS
 70
0
 71
3
 72
9
 73
5
 74
0
 42
0.0000001
 43
0.0000001
 44
0.0000000001
 40
0.0
 40
0.0
 40
0.0
 40
0.0
 40
0.2462187459
 40
1.0
 40
1.0
 40
1.0
 40
1.0
 10
312.0903995906
 20
121.868222074
 30
0.0
 10
312.1250431994
 20
121.8530546545
 30
0.0
 10
312.267060951
 20
121.7944851915
 30
0.0
 10
312.4140283927
 20
121.7480577232
 30
0.0
 10
312.5262691628
 20
121.7196565615
 30
0.0
  0
SPLINE
  5
4D5
100
AcDbEntity
  8
0
100
AcDbSpline
 62
7
  6
CONTINUOUS
 70
0
 71
3
 72
11
 73
7
 74
0
 42
0.0000001
 43
0.0000001
 44
0.0000000001
 40
0.0
 40
0.0
 40
0.0
 40
0.0
 40
0.3270639015
 40
0.6056900776
 40
0.8137441769
 40
1.0
 40
1.0
 40
1.0
 40
1.0
 10
312.0748839004
 20
123.9182303913
 30
0.0
 10
312.0694101334
 20
123.9299692461
 30
0.0
 10
312.0611487764
 20
123.9527360634
 30
0.0
 10
312.0567021281
 20
123.9847446216
 30
0.0
 10
312.0655094646
 20
124.0126499264
 30
0.0
 10
312.0824569023
 20
124.018222074
 30
0.0
 10
312.089832974
 20
124.018222074
 30
0.0
  0
SPLINE
  5
4D6
100
AcDbEntity
  8
0
100
AcDbSpline
 62
7
  6
CONTINUOUS
 70
0
 71
3
 72
10
 73
6
 74
0
 42
0.0000001
 43
0.0000001
 44
0.0000000001
 40
0.0
 40
0.0
 40
0.0
 40
0.0
 40
0.32248158
 40
0.5949171113
 40
1.0
 40
1.0
 40
1.0
 40
1.0
 10
309.334963172
 20
123.6759634475
 30
0.0
 10
309.3369772779
 20
123.6676494432
 30
0.0
 10
309.3420956035
 20
123.6525316672
 30
0.0
 10
309.3551641242
 20
123.6296041334
 30
0.0
 10
309.372548925
 20
123.618222074
 30
0.0
 10
309.3832945847
 20
123.618222074
 30
0.0
  0
SPLINE
  5
4D7
100
AcDbEntity
  8
0
100
AcDbSpline
 62
7
  6
CONTINUOUS
 70
0
 71
3
 72
11
 73
7
 74
0
 42
0.0000001
 43
0.0000001
 44
0.0000000001
 40
0.0
 40
0.0
 40
0.0
 40
0.0
 40
0.245657149
 40
0.487195879
 40
0.7365032864
 40
1.0
 40
1.0
 40
1.0
 40
1.0
 10
309.2780799087
 20
123.918230387
 30
0.0
 10
309.2753689437
 20
123.9301413822
 30
0.0
 10
309.2740965631
 20
123.9550900304
 30
0.0
 10
309.2890486983
 20
123.9901776025
 30
0.0
 10
309.3203589473
 20
124.0136960373
 30
0.0
 10
309.3463247312
 20
124.018222074
 30
0.0
 10
309.3594274364
 20
124.018222074
 30
0.0
  0
SPLINE
  5
4D8
100
AcDbEntity
  8
0
100
AcDbSpline
 62
7
  6
CONTINUOUS
 70
0
 71
3
 72
9
 73
5
 74
0
 42
0.0000001
 43
0.0000001
 44
0.0000000001
 40
0.0
 40
0.0
 40
0.0
 40
0.0
 40
0.2542764768
 40
1.0
 40
1.0
 40
1.0
 40
1.0
 10
314.3023342997
 20
121.6937429789
 30
0.0
 10
314.3388850422
 20
121.7015913698
 30
0.0
 10
314.4820532812
 20
121.7350572849
 30
0.0
 10
314.6227775097
 20
121.7791528815
 30
0.0
 10
314.7252167813
 20
121.818222074
 30
0.0
  0
LINE
  5
4D9
100
AcDbEntity
  8
0
100
AcDbLine
 62
7
  6
CONTINUOUS
 10
314.1413801161
 20
928.7469919787
 11
314.137026352
 21
928.7473546179
  0
LINE
  5
4DA
100
AcDbEntity
  8
0
100
AcDbLine
 62
7
  6
CONTINUOUS
 10
314.137026352
 20
928.7473546179
 11
314.132756147
 21
928.7477182166
  0
LINE
  5
4DB
100
AcDbEntity
  8
0
100
AcDbLine
 62
7
  6
CONTINUOUS
 10
311.1607224368
 20
926.7604806987
 11
311.265441573
 21
926.518222074
  0
SPLINE
  5
4DC
100
AcDbEntity
  8
0
100
AcDbSpline
 62
7
  6
CONTINUOUS
 70
0
 71
3
 72
9
 73
5
 74
0
 42
0.0000001
 43
0.0000001
 44
0.0000000001
 40
0.0
 40
0.0
 40
0.0
 40
0.0
 40
0.2724378854
 40
1.0
 40
1.0
 40
1.0
 40
1.0
 10
308.9089714971
 20
926.7604806987
 30
0.0
 10
308.9085990146
 20
926.7632431126
 30
0.0
 10
308.9070650838
 20
926.7733572046
 30
0.0
 10
308.9049060916
 20
926.7833936995
 30
0.0
 10
308.9027807953
 20
926.7905278175
 30
0.0
  0
SPLINE
  5
4DD
100
AcDbEntity
  8
0
100
AcDbSpline
 62
7
  6
CONTINUOUS
 70
0
 71
3
 72
9
 73
5
 74
0
 42
0.0000001
 43
0.0000001
 44
0.0000000001
 40
0.0
 40
0.0
 40
0.0
 40
0.0
 40
0.2959410343
 40
1.0
 40
1.0
 40
1.0
 40
1.0
 10
308.9027807953
 20
926.7905278175
 30
0.0
 10
308.9021495236
 20
926.7926468475
 30
0.0
 10
308.899830263
 20
926.7997343304
 30
0.0
 10
308.8968080302
 20
926.806700701
 30
0.0
 10
308.8938001885
 20
926.8110161263
 30
0.0
  0
SPLINE
  5
4DE
100
AcDbEntity
  8
0
100
AcDbSpline
 62
7
  6
CONTINUOUS
 70
0
 71
3
 72
9
 73
5
 74
0
 42
0.0000001
 43
0.0000001
 44
0.0000000001
 40
0.0
 40
0.0
 40
0.0
 40
0.0
 40
0.3157592213
 40
1.0
 40
1.0
 40
1.0
 40
1.0
 10
308.8938001885
 20
926.8110161263
 30
0.0
 10
308.8930301923
 20
926.8121208591
 30
0.0
 10
308.8904715415
 20
926.8154378845
 30
0.0
 10
308.8864284656
 20
926.818222074
 30
0.0
 10
308.883510426
 20
926.818222074
 30
0.0
  0
SPLINE
  5
4DF
100
AcDbEntity
  8
0
100
AcDbSpline
 62
7
  6
CONTINUOUS
 70
0
 71
3
 72
9
 73
5
 74
0
 42
0.0000001
 43
0.0000001
 44
0.0000000001
 40
0.0
 40
0.0
 40
0.0
 40
0.0
 40
0.2403923027
 40
1.0
 40
1.0
 40
1.0
 40
1.0
 10
308.9427998232
 20
926.5182137978
 30
0.0
 10
308.9435557462
 20
926.5129794945
 30
0.0
 10
308.9481499266
 20
926.491439762
 30
0.0
 10
308.9585013145
 20
926.4711268733
 30
0.0
 10
308.9689050329
 20
926.458049034
 30
0.0
  0
SPLINE
  5
4E0
100
AcDbEntity
  8
0
100
AcDbSpline
 62
7
  6
CONTINUOUS
 70
0
 71
3
 72
8
 73
4
 74
0
 42
0.0000001
 43
0.0000001
 44
0.0000000001
 40
0.0
 40
0.0
 40
0.0
 40
0.0
 40
1.0
 40
1.0
 40
1.0
 40
1.0
 10
308.9785495675
 20
926.4473015422
 30
0.0
 10
308.9824188926
 20
926.4434757877
 30
0.0
 10
308.9865593011
 20
926.439902315
 30
0.0
 10
308.9909350662
 20
926.4366680061
 30
0.0
  0
SPLINE
  5
4E1
100
AcDbEntity
  8
0
100
AcDbSpline
 62
7
  6
CONTINUOUS
 70
0
 71
3
 72
9
 73
5
 74
0
 42
0.0000001
 43
0.0000001
 44
0.0000000001
 40
0.0
 40
0.0
 40
0.0
 40
0.0
 40
0.2707499791
 40
1.0
 40
1.0
 40
1.0
 40
1.0
 10
308.9909350662
 20
926.4366680061
 30
0.0
 10
308.9949725718
 20
926.4336837187
 30
0.0
 10
309.0105920337
 20
926.423707229
 30
0.0
 10
309.0293541597
 20
926.418222074
 30
0.0
 10
309.0428771343
 20
926.418222074
 30
0.0
  0
SPLINE
  5
4E2
100
AcDbEntity
  8
0
100
AcDbSpline
 62
7
  6
CONTINUOUS
 70
0
 71
3
 72
9
 73
5
 74
0
 42
0.0000001
 43
0.0000001
 44
0.0000000001
 40
0.0
 40
0.0
 40
0.0
 40
0.0
 40
0.5162242645
 40
1.0
 40
1.0
 40
1.0
 40
1.0
 10
311.1607224368
 20
926.7604806987
 30
0.0
 10
311.1543521458
 20
926.7751945065
 30
0.0
 10
311.1349983941
 20
926.8013270264
 30
0.0
 10
311.1052362078
 20
926.8146484474
 30
0.0
 10
311.0904078588
 20
926.8170762383
 30
0.0
  0
SPLINE
  5
4E3
100
AcDbEntity
  8
0
100
AcDbSpline
 62
7
  6
CONTINUOUS
 70
0
 71
3
 72
13
 73
9
 74
0
 42
0.0000001
 43
0.0000001
 44
0.0000000001
 40
0.0
 40
0.0
 40
0.0
 40
0.0
 40
0.3430313727
 40
0.6628028971
 40
0.794529817
 40
0.8967414284
 40
0.9649950975
 40
1.0
 40
1.0
 40
1.0
 40
1.0
 10
311.2654461681
 20
926.5182137968
 30
0.0
 10
311.2707880479
 20
926.5058437111
 30
0.0
 10
311.2818156471
 20
926.4822572367
 30
0.0
 10
311.2967832549
 20
926.4547829265
 30
0.0
 10
311.3084436499
 20
926.4364970179
 30
0.0
 10
311.3155163277
 20
926.4267770778
 30
0.0
 10
311.3207612804
 20
926.4209963257
 30
0.0
 10
311.3242874061
 20
926.418222074
 30
0.0
 10
311.3256623937
 20
926.418222074
 30
0.0
  0
LINE
  5
4E4
100
AcDbEntity
  8
0
100
AcDbLine
 62
7
  6
CONTINUOUS
 10
315.7996056948
 20
926.7604806723
 11
315.6948865701
 21
926.518222074
  0
SPLINE
  5
4E5
100
AcDbEntity
  8
0
100
AcDbSpline
 62
7
  6
CONTINUOUS
 70
0
 71
3
 72
8
 73
4
 74
0
 42
0.0000001
 43
0.0000001
 44
0.0000000001
 40
0.0
 40
0.0
 40
0.0
 40
0.0
 40
1.0
 40
1.0
 40
1.0
 40
1.0
 10
315.88394458
 20
926.818222074
 30
0.0
 10
315.8721723915
 20
926.818222074
 30
0.0
 10
315.8601775377
 20
926.8157186854
 30
0.0
 10
315.8493576668
 20
926.811080279
 30
0.0
  0
SPLINE
  5
4E6
100
AcDbEntity
  8
0
100
AcDbSpline
 62
7
  6
CONTINUOUS
 70
0
 71
3
 72
9
 73
5
 74
0
 42
0.0000001
 43
0.0000001
 44
0.0000000001
 40
0.0
 40
0.0
 40
0.0
 40
0.0
 40
0.242614299
 40
1.0
 40
1.0
 40
1.0
 40
1.0
 10
315.8493576668
 20
926.811080279
 30
0.0
 10
315.8440111686
 20
926.8087882709
 30
0.0
 10
315.8228949582
 20
926.7972329541
 30
0.0
 10
315.8068206415
 20
926.7771454273
 30
0.0
 10
315.7996056948
 20
926.7604806723
 30
0.0
  0
SPLINE
  5
4E7
100
AcDbEntity
  8
0
100
AcDbSpline
 62
7
  6
CONTINUOUS
 70
0
 71
3
 72
9
 73
5
 74
0
 42
0.0000001
 43
0.0000001
 44
0.0000000001
 40
0.0
 40
0.0
 40
0.0
 40
0.0
 40
0.2039019337
 40
1.0
 40
1.0
 40
1.0
 40
1.0
 10
318.0768177376
 20
926.818222074
 30
0.0
 10
318.0759429774
 20
926.818222074
 30
0.0
 10
318.0716306429
 20
926.817393391
 30
0.0
 10
318.0684802031
 20
926.8138183035
 30
0.0
 10
318.0665277482
 20
926.8110160754
 30
0.0
  0
SPLINE
  5
4E8
100
AcDbEntity
  8
0
100
AcDbSpline
 62
7
  6
CONTINUOUS
 70
0
 71
3
 72
9
 73
5
 74
0
 42
0.0000001
 43
0.0000001
 44
0.0000000001
 40
0.0
 40
0.0
 40
0.0
 40
0.0
 40
0.2049035787
 40
1.0
 40
1.0
 40
1.0
 40
1.0
 10
318.0665277482
 20
926.8110160754
 30
0.0
 10
318.0656522089
 20
926.8097594723
 30
0.0
 10
318.0617950602
 20
926.8033383223
 30
0.0
 10
318.0592445278
 20
926.796223886
 30
0.0
 10
318.0575474206
 20
926.7905284487
 30
0.0
  0
SPLINE
  5
4E9
100
AcDbEntity
  8
0
100
AcDbSpline
 62
7
  6
CONTINUOUS
 70
0
 71
3
 72
9
 73
5
 74
0
 42
0.0000001
 43
0.0000001
 44
0.0000000001
 40
0.0
 40
0.0
 40
0.0
 40
0.0
 40
0.2256027298
 40
1.0
 40
1.0
 40
1.0
 40
1.0
 10
318.0575474206
 20
926.7905284487
 30
0.0
 10
318.0568882161
 20
926.7883161793
 30
0.0
 10
318.0542217055
 20
926.7784344056
 30
0.0
 10
318.0524154914
 20
926.7683333344
 30
0.0
 10
318.0513566424
 20
926.7604806723
 30
0.0
  0
SPLINE
  5
4EA
100
AcDbEntity
  8
0
100
AcDbSpline
 62
7
  6
CONTINUOUS
 70
0
 71
3
 72
9
 73
5
 74
0
 42
0.0000001
 43
0.0000001
 44
0.0000000001
 40
0.0
 40
0.0
 40
0.0
 40
0.0
 40
0.2449548199
 40
1.0
 40
1.0
 40
1.0
 40
1.0
 10
314.3010676052
 20
928.7166104598
 30
0.0
 10
314.3480922572
 20
928.7069125091
 30
0.0
 10
314.5395293993
 20
928.6647499111
 30
0.0
 10
314.7287261744
 20
928.6125551573
 30
0.0
 10
314.8699285525
 20
928.568222074
 30
0.0
  0
SPLINE
  5
4EB
100
AcDbEntity
  8
0
100
AcDbSpline
 62
7
  6
CONTINUOUS
 70
0
 71
3
 72
11
 73
7
 74
0
 42
0.0000001
 43
0.0000001
 44
0.0000000001
 40
0.0
 40
0.0
 40
0.0
 40
0.0
 40
0.2456571486
 40
0.4871958786
 40
0.7365032863
 40
1.0
 40
1.0
 40
1.0
 40
1.0
 10
317.6822482345
 20
926.5182137587
 30
0.0
 10
317.6849591995
 20
926.5063027637
 30
0.0
 10
317.6862315796
 20
926.4813541158
 30
0.0
 10
317.6712794439
 20
926.4462665446
 30
0.0
 10
317.6399691952
 20
926.4227481106
 30
0.0
 10
317.6140034117
 20
926.418222074
 30
0.0
 10
317.6009007066
 20
926.418222074
 30
0.0
  0
SPLINE
  5
4EC
100
AcDbEntity
  8
0
100
AcDbSpline
 62
7
  6
CONTINUOUS
 70
0
 71
3
 72
9
 73
5
 74
0
 42
0.0000001
 43
0.0000001
 44
0.0000000001
 40
0.0
 40
0.0
 40
0.0
 40
0.0
 40
0.2542764768
 40
1.0
 40
1.0
 40
1.0
 40
1.0
 10
312.6579938434
 20
928.7427011691
 30
0.0
 10
312.6214431009
 20
928.7348527783
 30
0.0
 10
312.4782748618
 20
928.7013868632
 30
0.0
 10
312.3375506334
 20
928.6572912665
 30
0.0
 10
312.2351113618
 20
928.618222074
 30
0.0
  0
SPLINE
  5
4ED
100
AcDbEntity
  8
0
100
AcDbSpline
 62
7
  6
CONTINUOUS
 70
0
 71
3
 72
9
 73
5
 74
0
 42
0.0000001
 43
0.0000001
 44
0.0000000001
 40
0.0
 40
0.0
 40
0.0
 40
0.0
 40
0.2542237338
 40
1.0
 40
1.0
 40
1.0
 40
1.0
 10
314.4342727681
 20
928.7167340272
 30
0.0
 10
314.4721082477
 20
928.7071570382
 30
0.0
 10
314.6201789933
 20
928.666580027
 30
0.0
 10
314.765047485
 20
928.6141403603
 30
0.0
 10
314.8699285525
 20
928.568222074
 30
0.0
  0
SPLINE
  5
4EE
100
AcDbEntity
  8
0
100
AcDbSpline
 62
7
  6
CONTINUOUS
 70
0
 71
3
 72
10
 73
6
 74
0
 42
0.0000001
 43
0.0000001
 44
0.0000000001
 40
0.0
 40
0.0
 40
0.0
 40
0.0
 40
0.4050842383
 40
0.6775361315
 40
1.0
 40
1.0
 40
1.0
 40
1.0
 10
309.3832946244
 20
926.818222074
 30
0.0
 10
309.3725489707
 20
926.818222074
 30
0.0
 10
309.3551651802
 20
926.8068381836
 30
0.0
 10
309.3420940254
 20
926.7839125439
 30
0.0
 10
309.3369771527
 20
926.7687941885
 30
0.0
 10
309.3349631652
 20
926.7604806732
 30
0.0
  0
SPLINE
  5
4EF
100
AcDbEntity
  8
0
100
AcDbSpline
 62
7
  6
CONTINUOUS
 70
0
 71
3
 72
9
 73
5
 74
0
 42
0.0000001
 43
0.0000001
 44
0.0000000001
 40
0.0
 40
0.0
 40
0.0
 40
0.0
 40
0.4968650104
 40
1.0
 40
1.0
 40
1.0
 40
1.0
 10
312.2829693809
 20
926.818222074
 30
0.0
 10
312.2639756755
 20
926.818222074
 30
0.0
 10
312.2249211428
 20
926.8079706562
 30
0.0
 10
312.197444045
 20
926.7778373169
 30
0.0
 10
312.1891573014
 20
926.7604806723
 30
0.0
  0
SPLINE
  5
4F0
100
AcDbEntity
  8
0
100
AcDbSpline
 62
7
  6
CONTINUOUS
 70
0
 71
3
 72
9
 73
5
 74
0
 42
0.0000001
 43
0.0000001
 44
0.0000000001
 40
0.0
 40
0.0
 40
0.0
 40
0.0
 40
0.5031323156
 40
1.0
 40
1.0
 40
1.0
 40
1.0
 10
314.7711708289
 20
926.7604806987
 30
0.0
 10
314.7628841128
 20
926.777837286
 30
0.0
 10
314.7354084777
 20
926.8079723827
 30
0.0
 10
314.6963530282
 20
926.818222074
 30
0.0
 10
314.6773591825
 20
926.818222074
 30
0.0
  0
SPLINE
  5
4F1
100
AcDbEntity
  8
0
100
AcDbSpline
 62
7
  6
CONTINUOUS
 70
0
 71
3
 72
11
 73
7
 74
0
 42
0.0000001
 43
0.0000001
 44
0.0000000001
 40
0.0
 40
0.0
 40
0.0
 40
0.0
 40
0.3270639016
 40
0.6056900776
 40
0.8137441768
 40
1.0
 40
1.0
 40
1.0
 40
1.0
 10
314.8854442427
 20
926.5182137565
 30
0.0
 10
314.8909180097
 20
926.5064749017
 30
0.0
 10
314.8991793667
 20
926.4837080844
 30
0.0
 10
314.903626015
 20
926.4516995264
 30
0.0
 10
314.8948186785
 20
926.4237942216
 30
0.0
 10
314.8778712408
 20
926.418222074
 30
0.0
 10
314.8704951691
 20
926.418222074
 30
0.0
  0
SPLINE
  5
4F2
100
AcDbEntity
  8
0
100
AcDbSpline
 62
7
  6
CONTINUOUS
 70
0
 71
3
 72
10
 73
6
 74
0
 42
0.0000001
 43
0.0000001
 44
0.0000000001
 40
0.0
 40
0.0
 40
0.0
 40
0.0
 40
0.3224815798
 40
0.5949171116
 40
1.0
 40
1.0
 40
1.0
 40
1.0
 10
317.6253649714
 20
926.7604806996
 30
0.0
 10
317.6233508655
 20
926.768794704
 30
0.0
 10
317.6182325399
 20
926.7839124803
 30
0.0
 10
317.6051640192
 20
926.8068400143
 30
0.0
 10
317.5877792182
 20
926.818222074
 30
0.0
 10
317.5770335584
 20
926.818222074
 30
0.0
  0
SPLINE
  5
4F3
100
AcDbEntity
  8
0
100
AcDbSpline
 62
7
  6
CONTINUOUS
 70
0
 71
3
 72
9
 73
5
 74
0
 42
0.0000001
 43
0.0000001
 44
0.0000000001
 40
0.0
 40
0.0
 40
0.0
 40
0.0
 40
0.2449548199
 40
1.0
 40
1.0
 40
1.0
 40
1.0
 10
452.6592605378
 20
121.7198336882
 30
0.0
 10
452.6122358859
 20
121.729531639
 30
0.0
 10
452.4207987437
 20
121.7716942369
 30
0.0
 10
452.2316019686
 20
121.8238889908
 30
0.0
 10
452.0903995906
 20
121.868222074
 30
0.0
  0
LINE
  5
4F4
100
AcDbEntity
  8
0
100
AcDbLine
 62
7
  6
CONTINUOUS
 10
455.7996057064
 20
123.6759634492
 11
455.69488657
 21
123.918222074
  0
SPLINE
  5
4F5
100
AcDbEntity
  8
0
100
AcDbSpline
 62
7
  6
CONTINUOUS
 70
0
 71
3
 72
9
 73
5
 74
0
 42
0.0000001
 43
0.0000001
 44
0.0000000001
 40
0.0
 40
0.0
 40
0.0
 40
0.0
 40
0.2724378854
 40
1.0
 40
1.0
 40
1.0
 40
1.0
 10
458.051356646
 20
123.6759634492
 30
0.0
 10
458.0517291285
 20
123.6732010353
 30
0.0
 10
458.0532630593
 20
123.6630869434
 30
0.0
 10
458.0554220514
 20
123.6530504486
 30
0.0
 10
458.0575473478
 20
123.6459163305
 30
0.0
  0
SPLINE
  5
4F6
100
AcDbEntity
  8
0
100
AcDbSpline
 62
7
  6
CONTINUOUS
 70
0
 71
3
 72
9
 73
5
 74
0
 42
0.0000001
 43
0.0000001
 44
0.0000000001
 40
0.0
 40
0.0
 40
0.0
 40
0.0
 40
0.2959410343
 40
1.0
 40
1.0
 40
1.0
 40
1.0
 10
458.0575473478
 20
123.6459163305
 30
0.0
 10
458.0581786195
 20
123.6437973005
 30
0.0
 10
458.0604978801
 20
123.6367098177
 30
0.0
 10
458.0635201129
 20
123.629743447
 30
0.0
 10
458.0665279546
 20
123.6254280217
 30
0.0
  0
SPLINE
  5
4F7
100
AcDbEntity
  8
0
100
AcDbSpline
 62
7
  6
CONTINUOUS
 70
0
 71
3
 72
9
 73
5
 74
0
 42
0.0000001
 43
0.0000001
 44
0.0000000001
 40
0.0
 40
0.0
 40
0.0
 40
0.0
 40
0.3157592213
 40
1.0
 40
1.0
 40
1.0
 40
1.0
 10
458.0665279546
 20
123.6254280217
 30
0.0
 10
458.0672979508
 20
123.6243232889
 30
0.0
 10
458.0698566015
 20
123.6210062636
 30
0.0
 10
458.0738996775
 20
123.618222074
 30
0.0
 10
458.0768177171
 20
123.618222074
 30
0.0
  0
SPLINE
  5
4F8
100
AcDbEntity
  8
0
100
AcDbSpline
 62
7
  6
CONTINUOUS
 70
0
 71
3
 72
9
 73
5
 74
0
 42
0.0000001
 43
0.0000001
 44
0.0000000001
 40
0.0
 40
0.0
 40
0.0
 40
0.0
 40
0.2403923027
 40
1.0
 40
1.0
 40
1.0
 40
1.0
 10
458.0175283199
 20
123.91823035
 30
0.0
 10
458.0167723969
 20
123.9234646533
 30
0.0
 10
458.0121782165
 20
123.9450043859
 30
0.0
 10
458.0018268286
 20
123.9653172748
 30
0.0
 10
457.9914231102
 20
123.978395114
 30
0.0
  0
SPLINE
  5
4F9
100
AcDbEntity
  8
0
100
AcDbSpline
 62
7
  6
CONTINUOUS
 70
0
 71
3
 72
8
 73
4
 74
0
 42
0.0000001
 43
0.0000001
 44
0.0000000001
 40
0.0
 40
0.0
 40
0.0
 40
0.0
 40
1.0
 40
1.0
 40
1.0
 40
1.0
 10
457.9817785756
 20
123.9891426058
 30
0.0
 10
457.9779092505
 20
123.9929683603
 30
0.0
 10
457.973768842
 20
123.9965418331
 30
0.0
 10
457.9693930769
 20
123.999776142
 30
0.0
  0
SPLINE
  5
4FA
100
AcDbEntity
  8
0
100
AcDbSpline
 62
7
  6
CONTINUOUS
 70
0
 71
3
 72
9
 73
5
 74
0
 42
0.0000001
 43
0.0000001
 44
0.0000000001
 40
0.0
 40
0.0
 40
0.0
 40
0.0
 40
0.2707499791
 40
1.0
 40
1.0
 40
1.0
 40
1.0
 10
457.9693930769
 20
123.999776142
 30
0.0
 10
457.9653555713
 20
124.0027604293
 30
0.0
 10
457.9497361093
 20
124.0127369191
 30
0.0
 10
457.9309739834
 20
124.018222074
 30
0.0
 10
457.9174510087
 20
124.018222074
 30
0.0
  0
SPLINE
  5
4FB
100
AcDbEntity
  8
0
100
AcDbSpline
 62
7
  6
CONTINUOUS
 70
0
 71
3
 72
9
 73
5
 74
0
 42
0.0000001
 43
0.0000001
 44
0.0000000001
 40
0.0
 40
0.0
 40
0.0
 40
0.0
 40
0.5162242644
 40
1.0
 40
1.0
 40
1.0
 40
1.0
 10
455.7996057064
 20
123.6759634492
 30
0.0
 10
455.8059759973
 20
123.6612496415
 30
0.0
 10
455.825329749
 20
123.6351171216
 30
0.0
 10
455.8550919353
 20
123.6217957006
 30
0.0
 10
455.8699202843
 20
123.6193679097
 30
0.0
  0
SPLINE
  5
4FC
100
AcDbEntity
  8
0
100
AcDbSpline
 62
7
  6
CONTINUOUS
 70
0
 71
3
 72
13
 73
9
 74
0
 42
0.0000001
 43
0.0000001
 44
0.0000000001
 40
0.0
 40
0.0
 40
0.0
 40
0.0
 40
0.3430313725
 40
0.6628028969
 40
0.7945298169
 40
0.8967414283
 40
0.9649950975
 40
1.0
 40
1.0
 40
1.0
 40
1.0
 10
455.6948819751
 20
123.918230351
 30
0.0
 10
455.6895400953
 20
123.9306004367
 30
0.0
 10
455.678512496
 20
123.9541869112
 30
0.0
 10
455.6635448883
 20
123.9816612215
 30
0.0
 10
455.6518844932
 20
123.9999471301
 30
0.0
 10
455.6448118154
 20
124.0096670702
 30
0.0
 10
455.6395668627
 20
124.0154478224
 30
0.0
 10
455.636040737
 20
124.018222074
 30
0.0
 10
455.6346657494
 20
124.018222074
 30
0.0
  0
LINE
  5
4FD
100
AcDbEntity
  8
0
100
AcDbLine
 62
7
  6
CONTINUOUS
 10
451.1607224482
 20
123.6759634757
 11
451.265441573
 21
123.918222074
  0
SPLINE
  5
4FE
100
AcDbEntity
  8
0
100
AcDbSpline
 62
7
  6
CONTINUOUS
 70
0
 71
3
 72
8
 73
4
 74
0
 42
0.0000001
 43
0.0000001
 44
0.0000000001
 40
0.0
 40
0.0
 40
0.0
 40
0.0
 40
1.0
 40
1.0
 40
1.0
 40
1.0
 10
451.0763835631
 20
123.618222074
 30
0.0
 10
451.0881557516
 20
123.618222074
 30
0.0
 10
451.1001506053
 20
123.6207254627
 30
0.0
 10
451.1109704763
 20
123.6253638691
 30
0.0
  0
SPLINE
  5
4FF
100
AcDbEntity
  8
0
100
AcDbSpline
 62
7
  6
CONTINUOUS
 70
0
 71
3
 72
9
 73
5
 74
0
 42
0.0000001
 43
0.0000001
 44
0.0000000001
 40
0.0
 40
0.0
 40
0.0
 40
0.0
 40
0.242614299
 40
1.0
 40
1.0
 40
1.0
 40
1.0
 10
451.1109704763
 20
123.6253638691
 30
0.0
 10
451.1163169744
 20
123.6276558771
 30
0.0
 10
451.1374331849
 20
123.6392111939
 30
0.0
 10
451.1535075015
 20
123.6592987207
 30
0.0
 10
451.1607224482
 20
123.6759634757
 30
0.0
  0
SPLINE
  5
500
100
AcDbEntity
  8
0
100
AcDbSpline
 62
7
  6
CONTINUOUS
 70
0
 71
3
 72
9
 73
5
 74
0
 42
0.0000001
 43
0.0000001
 44
0.0000000001
 40
0.0
 40
0.0
 40
0.0
 40
0.0
 40
0.2039019337
 40
1.0
 40
1.0
 40
1.0
 40
1.0
 10
448.8835104055
 20
123.618222074
 30
0.0
 10
448.8843851657
 20
123.618222074
 30
0.0
 10
448.8886975002
 20
123.619050757
 30
0.0
 10
448.89184794
 20
123.6226258445
 30
0.0
 10
448.8938003948
 20
123.6254280726
 30
0.0
  0
SPLINE
  5
501
100
AcDbEntity
  8
0
100
AcDbSpline
 62
7
  6
CONTINUOUS
 70
0
 71
3
 72
9
 73
5
 74
0
 42
0.0000001
 43
0.0000001
 44
0.0000000001
 40
0.0
 40
0.0
 40
0.0
 40
0.0
 40
0.2049035787
 40
1.0
 40
1.0
 40
1.0
 40
1.0
 10
448.8938003948
 20
123.6254280726
 30
0.0
 10
448.8946759342
 20
123.6266846758
 30
0.0
 10
448.8985330829
 20
123.6331058257
 30
0.0
 10
448.9010836153
 20
123.6402202621
 30
0.0
 10
448.9027807225
 20
123.6459156993
 30
0.0
  0
SPLINE
  5
502
100
AcDbEntity
  8
0
100
AcDbSpline
 62
7
  6
CONTINUOUS
 70
0
 71
3
 72
9
 73
5
 74
0
 42
0.0000001
 43
0.0000001
 44
0.0000000001
 40
0.0
 40
0.0
 40
0.0
 40
0.0
 40
0.2256027298
 40
1.0
 40
1.0
 40
1.0
 40
1.0
 10
448.9027807225
 20
123.6459156993
 30
0.0
 10
448.903439927
 20
123.6481279687
 30
0.0
 10
448.9061064375
 20
123.6580097425
 30
0.0
 10
448.9079126517
 20
123.6681108135
 30
0.0
 10
448.9089715007
 20
123.6759634757
 30
0.0
  0
SPLINE
  5
503
100
AcDbEntity
  8
0
100
AcDbSpline
 62
7
  6
CONTINUOUS
 70
0
 71
3
 72
10
 73
6
 74
0
 42
0.0000001
 43
0.0000001
 44
0.0000000001
 40
0.0
 40
0.0
 40
0.0
 40
0.0
 40
0.4050842387
 40
0.6775361313
 40
1.0
 40
1.0
 40
1.0
 40
1.0
 10
457.5770335187
 20
123.618222074
 30
0.0
 10
457.5877791722
 20
123.618222074
 30
0.0
 10
457.6051629626
 20
123.6296059641
 30
0.0
 10
457.6182341174
 20
123.6525316035
 30
0.0
 10
457.6233509901
 20
123.6676499587
 30
0.0
 10
457.6253649775
 20
123.6759634739
 30
0.0
  0
SPLINE
  5
504
100
AcDbEntity
  8
0
100
AcDbSpline
 62
7
  6
CONTINUOUS
 70
0
 71
3
 72
9
 73
5
 74
0
 42
0.0000001
 43
0.0000001
 44
0.0000000001
 40
0.0
 40
0.0
 40
0.0
 40
0.0
 40
0.4968650104
 40
1.0
 40
1.0
 40
1.0
 40
1.0
 10
454.6773587622
 20
123.618222074
 30
0.0
 10
454.6963524676
 20
123.618222074
 30
0.0
 10
454.7354070002
 20
123.6284734918
 30
0.0
 10
454.762884098
 20
123.658606831
 30
0.0
 10
454.7711708416
 20
123.6759634757
 30
0.0
  0
SPLINE
  5
505
100
AcDbEntity
  8
0
100
AcDbSpline
 62
7
  6
CONTINUOUS
 70
0
 71
3
 72
9
 73
5
 74
0
 42
0.0000001
 43
0.0000001
 44
0.0000000001
 40
0.0
 40
0.0
 40
0.0
 40
0.0
 40
0.5031323156
 40
1.0
 40
1.0
 40
1.0
 40
1.0
 10
452.1891573142
 20
123.6759634492
 30
0.0
 10
452.1974440304
 20
123.658606862
 30
0.0
 10
452.2249196655
 20
123.6284717654
 30
0.0
 10
452.2639751149
 20
123.618222074
 30
0.0
 10
452.2829689606
 20
123.618222074
 30
0.0
  0
SPLINE
  5
506
100
AcDbEntity
  8
0
100
AcDbSpline
 62
7
  6
CONTINUOUS
 70
0
 71
3
 72
9
 73
5
 74
0
 42
0.0000001
 43
0.0000001
 44
0.0000000001
 40
0.0
 40
0.0
 40
0.0
 40
0.0
 40
0.2462187459
 40
1.0
 40
1.0
 40
1.0
 40
1.0
 10
452.0903995906
 20
121.868222074
 30
0.0
 10
452.1250431994
 20
121.8530546545
 30
0.0
 10
452.267060951
 20
121.7944851915
 30
0.0
 10
452.4140283927
 20
121.7480577232
 30
0.0
 10
452.5262691628
 20
121.7196565615
 30
0.0
  0
SPLINE
  5
507
100
AcDbEntity
  8
0
100
AcDbSpline
 62
7
  6
CONTINUOUS
 70
0
 71
3
 72
11
 73
7
 74
0
 42
0.0000001
 43
0.0000001
 44
0.0000000001
 40
0.0
 40
0.0
 40
0.0
 40
0.0
 40
0.3270639015
 40
0.6056900776
 40
0.8137441769
 40
1.0
 40
1.0
 40
1.0
 40
1.0
 10
452.0748839004
 20
123.9182303913
 30
0.0
 10
452.0694101334
 20
123.9299692461
 30
0.0
 10
452.0611487764
 20
123.9527360634
 30
0.0
 10
452.0567021281
 20
123.9847446216
 30
0.0
 10
452.0655094646
 20
124.0126499264
 30
0.0
 10
452.0824569023
 20
124.018222074
 30
0.0
 10
452.089832974
 20
124.018222074
 30
0.0
  0
SPLINE
  5
508
100
AcDbEntity
  8
0
100
AcDbSpline
 62
7
  6
CONTINUOUS
 70
0
 71
3
 72
10
 73
6
 74
0
 42
0.0000001
 43
0.0000001
 44
0.0000000001
 40
0.0
 40
0.0
 40
0.0
 40
0.0
 40
0.32248158
 40
0.5949171113
 40
1.0
 40
1.0
 40
1.0
 40
1.0
 10
449.334963172
 20
123.6759634475
 30
0.0
 10
449.3369772779
 20
123.6676494432
 30
0.0
 10
449.3420956035
 20
123.6525316672
 30
0.0
 10
449.3551641242
 20
123.6296041334
 30
0.0
 10
449.372548925
 20
123.618222074
 30
0.0
 10
449.3832945847
 20
123.618222074
 30
0.0
  0
SPLINE
  5
509
100
AcDbEntity
  8
0
100
AcDbSpline
 62
7
  6
CONTINUOUS
 70
0
 71
3
 72
11
 73
7
 74
0
 42
0.0000001
 43
0.0000001
 44
0.0000000001
 40
0.0
 40
0.0
 40
0.0
 40
0.0
 40
0.245657149
 40
0.487195879
 40
0.7365032864
 40
1.0
 40
1.0
 40
1.0
 40
1.0
 10
449.2780799087
 20
123.918230387
 30
0.0
 10
449.2753689437
 20
123.9301413822
 30
0.0
 10
449.2740965631
 20
123.9550900304
 30
0.0
 10
449.2890486983
 20
123.9901776025
 30
0.0
 10
449.3203589473
 20
124.0136960373
 30
0.0
 10
449.3463247312
 20
124.018222074
 30
0.0
 10
449.3594274364
 20
124.018222074
 30
0.0
  0
SPLINE
  5
50A
100
AcDbEntity
  8
0
100
AcDbSpline
 62
7
  6
CONTINUOUS
 70
0
 71
3
 72
9
 73
5
 74
0
 42
0.0000001
 43
0.0000001
 44
0.0000000001
 40
0.0
 40
0.0
 40
0.0
 40
0.0
 40
0.2542764768
 40
1.0
 40
1.0
 40
1.0
 40
1.0
 10
454.3023342997
 20
121.6937429789
 30
0.0
 10
454.3388850422
 20
121.7015913698
 30
0.0
 10
454.4820532812
 20
121.7350572849
 30
0.0
 10
454.6227775097
 20
121.7791528815
 30
0.0
 10
454.7252167813
 20
121.818222074
 30
0.0
  0
LINE
  5
50B
100
AcDbEntity
  8
0
100
AcDbLine
 62
7
  6
CONTINUOUS
 10
454.1413801161
 20
928.7469919787
 11
454.137026352
 21
928.7473546179
  0
LINE
  5
50C
100
AcDbEntity
  8
0
100
AcDbLine
 62
7
  6
CONTINUOUS
 10
454.137026352
 20
928.7473546179
 11
454.132756147
 21
928.7477182166
  0
LINE
  5
50D
100
AcDbEntity
  8
0
100
AcDbLine
 62
7
  6
CONTINUOUS
 10
451.1607224368
 20
926.7604806987
 11
451.265441573
 21
926.518222074
  0
SPLINE
  5
50E
100
AcDbEntity
  8
0
100
AcDbSpline
 62
7
  6
CONTINUOUS
 70
0
 71
3
 72
9
 73
5
 74
0
 42
0.0000001
 43
0.0000001
 44
0.0000000001
 40
0.0
 40
0.0
 40
0.0
 40
0.0
 40
0.2724378855
 40
1.0
 40
1.0
 40
1.0
 40
1.0
 10
448.9089714971
 20
926.7604806987
 30
0.0
 10
448.9085990146
 20
926.7632431126
 30
0.0
 10
448.9070650838
 20
926.7733572046
 30
0.0
 10
448.9049060916
 20
926.7833936995
 30
0.0
 10
448.9027807953
 20
926.7905278175
 30
0.0
  0
SPLINE
  5
50F
100
AcDbEntity
  8
0
100
AcDbSpline
 62
7
  6
CONTINUOUS
 70
0
 71
3
 72
9
 73
5
 74
0
 42
0.0000001
 43
0.0000001
 44
0.0000000001
 40
0.0
 40
0.0
 40
0.0
 40
0.0
 40
0.2959410343
 40
1.0
 40
1.0
 40
1.0
 40
1.0
 10
448.9027807953
 20
926.7905278175
 30
0.0
 10
448.9021495236
 20
926.7926468475
 30
0.0
 10
448.899830263
 20
926.7997343304
 30
0.0
 10
448.8968080302
 20
926.806700701
 30
0.0
 10
448.8938001885
 20
926.8110161263
 30
0.0
  0
SPLINE
  5
510
100
AcDbEntity
  8
0
100
AcDbSpline
 62
7
  6
CONTINUOUS
 70
0
 71
3
 72
9
 73
5
 74
0
 42
0.0000001
 43
0.0000001
 44
0.0000000001
 40
0.0
 40
0.0
 40
0.0
 40
0.0
 40
0.3157592213
 40
1.0
 40
1.0
 40
1.0
 40
1.0
 10
448.8938001885
 20
926.8110161263
 30
0.0
 10
448.8930301923
 20
926.8121208591
 30
0.0
 10
448.8904715415
 20
926.8154378845
 30
0.0
 10
448.8864284656
 20
926.818222074
 30
0.0
 10
448.883510426
 20
926.818222074
 30
0.0
  0
SPLINE
  5
511
100
AcDbEntity
  8
0
100
AcDbSpline
 62
7
  6
CONTINUOUS
 70
0
 71
3
 72
9
 73
5
 74
0
 42
0.0000001
 43
0.0000001
 44
0.0000000001
 40
0.0
 40
0.0
 40
0.0
 40
0.0
 40
0.2403923027
 40
1.0
 40
1.0
 40
1.0
 40
1.0
 10
448.9427998232
 20
926.5182137978
 30
0.0
 10
448.9435557462
 20
926.5129794945
 30
0.0
 10
448.9481499266
 20
926.491439762
 30
0.0
 10
448.9585013145
 20
926.4711268733
 30
0.0
 10
448.9689050329
 20
926.458049034
 30
0.0
  0
SPLINE
  5
512
100
AcDbEntity
  8
0
100
AcDbSpline
 62
7
  6
CONTINUOUS
 70
0
 71
3
 72
8
 73
4
 74
0
 42
0.0000001
 43
0.0000001
 44
0.0000000001
 40
0.0
 40
0.0
 40
0.0
 40
0.0
 40
1.0
 40
1.0
 40
1.0
 40
1.0
 10
448.9785495675
 20
926.4473015423
 30
0.0
 10
448.9824188926
 20
926.4434757877
 30
0.0
 10
448.9865593011
 20
926.439902315
 30
0.0
 10
448.9909350662
 20
926.4366680061
 30
0.0
  0
SPLINE
  5
513
100
AcDbEntity
  8
0
100
AcDbSpline
 62
7
  6
CONTINUOUS
 70
0
 71
3
 72
9
 73
5
 74
0
 42
0.0000001
 43
0.0000001
 44
0.0000000001
 40
0.0
 40
0.0
 40
0.0
 40
0.0
 40
0.2707499791
 40
1.0
 40
1.0
 40
1.0
 40
1.0
 10
448.9909350662
 20
926.4366680061
 30
0.0
 10
448.9949725718
 20
926.4336837187
 30
0.0
 10
449.0105920337
 20
926.423707229
 30
0.0
 10
449.0293541597
 20
926.418222074
 30
0.0
 10
449.0428771344
 20
926.418222074
 30
0.0
  0
SPLINE
  5
514
100
AcDbEntity
  8
0
100
AcDbSpline
 62
7
  6
CONTINUOUS
 70
0
 71
3
 72
9
 73
5
 74
0
 42
0.0000001
 43
0.0000001
 44
0.0000000001
 40
0.0
 40
0.0
 40
0.0
 40
0.0
 40
0.5162242645
 40
1.0
 40
1.0
 40
1.0
 40
1.0
 10
451.1607224368
 20
926.7604806987
 30
0.0
 10
451.1543521458
 20
926.7751945065
 30
0.0
 10
451.1349983941
 20
926.8013270264
 30
0.0
 10
451.1052362078
 20
926.8146484474
 30
0.0
 10
451.0904078588
 20
926.8170762383
 30
0.0
  0
SPLINE
  5
515
100
AcDbEntity
  8
0
100
AcDbSpline
 62
7
  6
CONTINUOUS
 70
0
 71
3
 72
13
 73
9
 74
0
 42
0.0000001
 43
0.0000001
 44
0.0000000001
 40
0.0
 40
0.0
 40
0.0
 40
0.0
 40
0.3430313727
 40
0.6628028971
 40
0.794529817
 40
0.8967414284
 40
0.9649950975
 40
1.0
 40
1.0
 40
1.0
 40
1.0
 10
451.2654461681
 20
926.5182137968
 30
0.0
 10
451.2707880479
 20
926.5058437111
 30
0.0
 10
451.2818156471
 20
926.4822572367
 30
0.0
 10
451.2967832549
 20
926.4547829265
 30
0.0
 10
451.3084436499
 20
926.4364970179
 30
0.0
 10
451.3155163277
 20
926.4267770778
 30
0.0
 10
451.3207612804
 20
926.4209963257
 30
0.0
 10
451.3242874061
 20
926.418222074
 30
0.0
 10
451.3256623937
 20
926.418222074
 30
0.0
  0
LINE
  5
516
100
AcDbEntity
  8
0
100
AcDbLine
 62
7
  6
CONTINUOUS
 10
455.7996056948
 20
926.7604806723
 11
455.6948865701
 21
926.518222074
  0
SPLINE
  5
517
100
AcDbEntity
  8
0
100
AcDbSpline
 62
7
  6
CONTINUOUS
 70
0
 71
3
 72
8
 73
4
 74
0
 42
0.0000001
 43
0.0000001
 44
0.0000000001
 40
0.0
 40
0.0
 40
0.0
 40
0.0
 40
1.0
 40
1.0
 40
1.0
 40
1.0
 10
455.88394458
 20
926.818222074
 30
0.0
 10
455.8721723915
 20
926.818222074
 30
0.0
 10
455.8601775377
 20
926.8157186854
 30
0.0
 10
455.8493576668
 20
926.811080279
 30
0.0
  0
SPLINE
  5
518
100
AcDbEntity
  8
0
100
AcDbSpline
 62
7
  6
CONTINUOUS
 70
0
 71
3
 72
9
 73
5
 74
0
 42
0.0000001
 43
0.0000001
 44
0.0000000001
 40
0.0
 40
0.0
 40
0.0
 40
0.0
 40
0.242614299
 40
1.0
 40
1.0
 40
1.0
 40
1.0
 10
455.8493576668
 20
926.811080279
 30
0.0
 10
455.8440111686
 20
926.8087882709
 30
0.0
 10
455.8228949582
 20
926.7972329541
 30
0.0
 10
455.8068206415
 20
926.7771454273
 30
0.0
 10
455.7996056948
 20
926.7604806723
 30
0.0
  0
SPLINE
  5
519
100
AcDbEntity
  8
0
100
AcDbSpline
 62
7
  6
CONTINUOUS
 70
0
 71
3
 72
9
 73
5
 74
0
 42
0.0000001
 43
0.0000001
 44
0.0000000001
 40
0.0
 40
0.0
 40
0.0
 40
0.0
 40
0.2039019337
 40
1.0
 40
1.0
 40
1.0
 40
1.0
 10
458.0768177376
 20
926.818222074
 30
0.0
 10
458.0759429774
 20
926.818222074
 30
0.0
 10
458.0716306429
 20
926.817393391
 30
0.0
 10
458.0684802031
 20
926.8138183035
 30
0.0
 10
458.0665277482
 20
926.8110160754
 30
0.0
  0
SPLINE
  5
51A
100
AcDbEntity
  8
0
100
AcDbSpline
 62
7
  6
CONTINUOUS
 70
0
 71
3
 72
9
 73
5
 74
0
 42
0.0000001
 43
0.0000001
 44
0.0000000001
 40
0.0
 40
0.0
 40
0.0
 40
0.0
 40
0.2049035787
 40
1.0
 40
1.0
 40
1.0
 40
1.0
 10
458.0665277482
 20
926.8110160754
 30
0.0
 10
458.0656522089
 20
926.8097594723
 30
0.0
 10
458.0617950602
 20
926.8033383223
 30
0.0
 10
458.0592445278
 20
926.796223886
 30
0.0
 10
458.0575474206
 20
926.7905284487
 30
0.0
  0
SPLINE
  5
51B
100
AcDbEntity
  8
0
100
AcDbSpline
 62
7
  6
CONTINUOUS
 70
0
 71
3
 72
9
 73
5
 74
0
 42
0.0000001
 43
0.0000001
 44
0.0000000001
 40
0.0
 40
0.0
 40
0.0
 40
0.0
 40
0.2256027298
 40
1.0
 40
1.0
 40
1.0
 40
1.0
 10
458.0575474206
 20
926.7905284487
 30
0.0
 10
458.0568882161
 20
926.7883161793
 30
0.0
 10
458.0542217055
 20
926.7784344056
 30
0.0
 10
458.0524154914
 20
926.7683333344
 30
0.0
 10
458.0513566424
 20
926.7604806723
 30
0.0
  0
SPLINE
  5
51C
100
AcDbEntity
  8
0
100
AcDbSpline
 62
7
  6
CONTINUOUS
 70
0
 71
3
 72
9
 73
5
 74
0
 42
0.0000001
 43
0.0000001
 44
0.0000000001
 40
0.0
 40
0.0
 40
0.0
 40
0.0
 40
0.2449548199
 40
1.0
 40
1.0
 40
1.0
 40
1.0
 10
454.3010676052
 20
928.7166104598
 30
0.0
 10
454.3480922572
 20
928.7069125091
 30
0.0
 10
454.5395293993
 20
928.6647499111
 30
0.0
 10
454.7287261744
 20
928.6125551573
 30
0.0
 10
454.8699285525
 20
928.568222074
 30
0.0
  0
SPLINE
  5
51D
100
AcDbEntity
  8
0
100
AcDbSpline
 62
7
  6
CONTINUOUS
 70
0
 71
3
 72
11
 73
7
 74
0
 42
0.0000001
 43
0.0000001
 44
0.0000000001
 40
0.0
 40
0.0
 40
0.0
 40
0.0
 40
0.2456571486
 40
0.4871958786
 40
0.7365032863
 40
1.0
 40
1.0
 40
1.0
 40
1.0
 10
457.6822482345
 20
926.5182137587
 30
0.0
 10
457.6849591995
 20
926.5063027637
 30
0.0
 10
457.6862315796
 20
926.4813541158
 30
0.0
 10
457.6712794439
 20
926.4462665446
 30
0.0
 10
457.6399691952
 20
926.4227481106
 30
0.0
 10
457.6140034117
 20
926.418222074
 30
0.0
 10
457.6009007066
 20
926.418222074
 30
0.0
  0
SPLINE
  5
51E
100
AcDbEntity
  8
0
100
AcDbSpline
 62
7
  6
CONTINUOUS
 70
0
 71
3
 72
9
 73
5
 74
0
 42
0.0000001
 43
0.0000001
 44
0.0000000001
 40
0.0
 40
0.0
 40
0.0
 40
0.0
 40
0.2542764768
 40
1.0
 40
1.0
 40
1.0
 40
1.0
 10
452.6579938434
 20
928.7427011691
 30
0.0
 10
452.6214431009
 20
928.7348527783
 30
0.0
 10
452.4782748618
 20
928.7013868632
 30
0.0
 10
452.3375506334
 20
928.6572912665
 30
0.0
 10
452.2351113618
 20
928.618222074
 30
0.0
  0
SPLINE
  5
51F
100
AcDbEntity
  8
0
100
AcDbSpline
 62
7
  6
CONTINUOUS
 70
0
 71
3
 72
9
 73
5
 74
0
 42
0.0000001
 43
0.0000001
 44
0.0000000001
 40
0.0
 40
0.0
 40
0.0
 40
0.0
 40
0.2542237338
 40
1.0
 40
1.0
 40
1.0
 40
1.0
 10
454.4342727681
 20
928.7167340272
 30
0.0
 10
454.4721082477
 20
928.7071570382
 30
0.0
 10
454.6201789933
 20
928.666580027
 30
0.0
 10
454.765047485
 20
928.6141403603
 30
0.0
 10
454.8699285525
 20
928.568222074
 30
0.0
  0
SPLINE
  5
520
100
AcDbEntity
  8
0
100
AcDbSpline
 62
7
  6
CONTINUOUS
 70
0
 71
3
 72
10
 73
6
 74
0
 42
0.0000001
 43
0.0000001
 44
0.0000000001
 40
0.0
 40
0.0
 40
0.0
 40
0.0
 40
0.4050842383
 40
0.6775361315
 40
1.0
 40
1.0
 40
1.0
 40
1.0
 10
449.3832946244
 20
926.818222074
 30
0.0
 10
449.3725489707
 20
926.818222074
 30
0.0
 10
449.3551651802
 20
926.8068381836
 30
0.0
 10
449.3420940254
 20
926.7839125439
 30
0.0
 10
449.3369771527
 20
926.7687941885
 30
0.0
 10
449.3349631652
 20
926.7604806732
 30
0.0
  0
SPLINE
  5
521
100
AcDbEntity
  8
0
100
AcDbSpline
 62
7
  6
CONTINUOUS
 70
0
 71
3
 72
9
 73
5
 74
0
 42
0.0000001
 43
0.0000001
 44
0.0000000001
 40
0.0
 40
0.0
 40
0.0
 40
0.0
 40
0.4968650104
 40
1.0
 40
1.0
 40
1.0
 40
1.0
 10
452.2829693809
 20
926.818222074
 30
0.0
 10
452.2639756755
 20
926.818222074
 30
0.0
 10
452.2249211428
 20
926.8079706562
 30
0.0
 10
452.197444045
 20
926.7778373169
 30
0.0
 10
452.1891573014
 20
926.7604806723
 30
0.0
  0
SPLINE
  5
522
100
AcDbEntity
  8
0
100
AcDbSpline
 62
7
  6
CONTINUOUS
 70
0
 71
3
 72
9
 73
5
 74
0
 42
0.0000001
 43
0.0000001
 44
0.0000000001
 40
0.0
 40
0.0
 40
0.0
 40
0.0
 40
0.5031323156
 40
1.0
 40
1.0
 40
1.0
 40
1.0
 10
454.7711708289
 20
926.7604806987
 30
0.0
 10
454.7628841128
 20
926.777837286
 30
0.0
 10
454.7354084777
 20
926.8079723827
 30
0.0
 10
454.6963530282
 20
926.818222074
 30
0.0
 10
454.6773591825
 20
926.818222074
 30
0.0
  0
SPLINE
  5
523
100
AcDbEntity
  8
0
100
AcDbSpline
 62
7
  6
CONTINUOUS
 70
0
 71
3
 72
11
 73
7
 74
0
 42
0.0000001
 43
0.0000001
 44
0.0000000001
 40
0.0
 40
0.0
 40
0.0
 40
0.0
 40
0.3270639016
 40
0.6056900776
 40
0.8137441768
 40
1.0
 40
1.0
 40
1.0
 40
1.0
 10
454.8854442427
 20
926.5182137565
 30
0.0
 10
454.8909180097
 20
926.5064749017
 30
0.0
 10
454.8991793667
 20
926.4837080844
 30
0.0
 10
454.903626015
 20
926.4516995264
 30
0.0
 10
454.8948186785
 20
926.4237942216
 30
0.0
 10
454.8778712408
 20
926.418222074
 30
0.0
 10
454.8704951691
 20
926.418222074
 30
0.0
  0
SPLINE
  5
524
100
AcDbEntity
  8
0
100
AcDbSpline
 62
7
  6
CONTINUOUS
 70
0
 71
3
 72
10
 73
6
 74
0
 42
0.0000001
 43
0.0000001
 44
0.0000000001
 40
0.0
 40
0.0
 40
0.0
 40
0.0
 40
0.3224815798
 40
0.5949171116
 40
1.0
 40
1.0
 40
1.0
 40
1.0
 10
457.6253649714
 20
926.7604806996
 30
0.0
 10
457.6233508655
 20
926.768794704
 30
0.0
 10
457.6182325399
 20
926.7839124803
 30
0.0
 10
457.6051640192
 20
926.8068400143
 30
0.0
 10
457.5877792182
 20
926.818222074
 30
0.0
 10
457.5770335584
 20
926.818222074
 30
0.0
  0
SPLINE
  5
525
100
AcDbEntity
  8
0
100
AcDbSpline
 62
7
  6
CONTINUOUS
 70
0
 71
3
 72
9
 73
5
 74
0
 42
0.0000001
 43
0.0000001
 44
0.0000000001
 40
0.0
 40
0.0
 40
0.0
 40
0.0
 40
0.4999540173
 40
1.0
 40
1.0
 40
1.0
 40
1.0
 10
126.7226547707
 20
524.3397108437
 30
0.0
 10
126.6991109691
 20
524.3344622675
 30
0.0
 10
126.6545126289
 20
524.3047461863
 30
0.0
 10
126.6426976971
 20
524.252714434
 30
0.0
 10
126.6458197183
 20
524.2287911145
 30
0.0
  0
SPLINE
  5
526
100
AcDbEntity
  8
0
100
AcDbSpline
 62
7
  6
CONTINUOUS
 70
0
 71
3
 72
18
 73
14
 74
0
 42
0.0000001
 43
0.0000001
 44
0.0000000001
 40
0.0
 40
0.0
 40
0.0
 40
0.0
 40
0.0048642344
 40
0.0193850733
 40
0.043582735
 40
0.0772097452
 40
0.1198466737
 40
0.1710420339
 40
0.2966872571
 40
0.4487576895
 40
0.6210467786
 40
0.8071614162
 40
1.0
 40
1.0
 40
1.0
 40
1.0
 10
128.2203239795
 20
526.7740782818
 30
0.0
 10
128.2204830541
 20
526.7747235388
 30
0.0
 10
128.2161316704
 20
526.774765704
 30
0.0
 10
128.2118822546
 20
526.7757810638
 30
0.0
 10
128.2010624238
 20
526.7761579421
 30
0.0
 10
128.1877682605
 20
526.7768882676
 30
0.0
 10
128.1702056377
 20
526.7774531153
 30
0.0
 10
128.1403037149
 20
526.7782977994
 30
0.0
 10
128.095328571
 20
526.7791631121
 30
0.0
 10
128.0338704729
 20
526.7799910279
 30
0.0
 10
127.9641233643
 20
526.7806003668
 30
0.0
 10
127.8888125249
 20
526.7809762566
 30
0.0
 10
127.8370375573
 20
526.7810603078
 30
0.0
 10
127.8106909834
 20
526.7810603078
 30
0.0
  0
SPLINE
  5
527
100
AcDbEntity
  8
0
100
AcDbSpline
 62
7
  6
CONTINUOUS
 70
0
 71
3
 72
18
 73
14
 74
0
 42
0.0000001
 43
0.0000001
 44
0.0000000001
 40
0.0
 40
0.0
 40
0.0
 40
0.0
 40
0.192838901
 40
0.3789539668
 40
0.5512429129
 40
0.7033131269
 40
0.828958438
 40
0.8801538743
 40
0.9227906964
 40
0.9564175325
 40
0.9806151288
 40
0.9951358394
 40
1.0
 40
1.0
 40
1.0
 40
1.0
 10
141.2520505359
 20
526.7810603078
 30
0.0
 10
141.2257039185
 20
526.7810603078
 30
0.0
 10
141.1739288489
 20
526.7809762555
 30
0.0
 10
141.0986179269
 20
526.7806003655
 30
0.0
 10
141.0288708089
 20
526.7799910255
 30
0.0
 10
140.9674127479
 20
526.7791631097
 30
0.0
 10
140.9224376113
 20
526.7782977936
 30
0.0
 10
140.8925356805
 20
526.7774531098
 30
0.0
 10
140.8749730861
 20
526.7768882599
 30
0.0
 10
140.8616789678
 20
526.7761579358
 30
0.0
 10
140.8508591923
 20
526.7757810543
 30
0.0
 10
140.846609796
 20
526.7747657165
 30
0.0
 10
140.8422584676
 20
526.774723529
 30
0.0
 10
140.8424175398
 20
526.7740782818
 30
0.0
  0
SPLINE
  5
528
100
AcDbEntity
  8
0
100
AcDbSpline
 62
7
  6
CONTINUOUS
 70
0
 71
3
 72
13
 73
9
 74
0
 42
0.0000001
 43
0.0000001
 44
0.0000000001
 40
0.0
 40
0.0
 40
0.0
 40
0.0
 40
0.0182367309
 40
0.0766918224
 40
0.170364272
 40
0.2952505451
 40
0.6198569101
 40
1.0
 40
1.0
 40
1.0
 40
1.0
 10
126.8383543298
 20
523.6536371149
 30
0.0
 10
126.8378752189
 20
523.6540285955
 30
0.0
 10
126.8431828905
 20
523.6538735001
 30
0.0
 10
126.8462917249
 20
523.6545264269
 30
0.0
 10
126.8571401995
 20
523.6545970344
 30
0.0
 10
126.8747615042
 20
523.6550771891
 30
0.0
 10
126.9034451616
 20
523.6552828134
 30
0.0
 10
126.9271862726
 20
523.6553838403
 30
0.0
 10
126.9400832666
 20
523.6553838403
 30
0.0
  0
SPLINE
  5
529
100
AcDbEntity
  8
0
100
AcDbSpline
 62
7
  6
CONTINUOUS
 70
0
 71
3
 72
13
 73
9
 74
0
 42
0.0000001
 43
0.0000001
 44
0.0000000001
 40
0.0
 40
0.0
 40
0.0
 40
0.0
 40
0.3801433716
 40
0.7047498137
 40
0.8296360748
 40
0.9233082665
 40
0.9817632028
 40
1.0
 40
1.0
 40
1.0
 40
1.0
 10
142.1226582526
 20
523.6553838403
 30
0.0
 10
142.1355552562
 20
523.6553838403
 30
0.0
 10
142.159296379
 20
523.6552828124
 30
0.0
 10
142.1879800483
 20
523.6550771903
 30
0.0
 10
142.2056013466
 20
523.6545970322
 30
0.0
 10
142.2164498024
 20
523.6545264249
 30
0.0
 10
142.2195586331
 20
523.653873496
 30
0.0
 10
142.2248663018
 20
523.6540285966
 30
0.0
 10
142.2243871892
 20
523.6536371146
 30
0.0
  0
SPLINE
  5
52A
100
AcDbEntity
  8
0
100
AcDbSpline
 62
7
  6
CONTINUOUS
 70
0
 71
3
 72
18
 73
14
 74
0
 42
0.0000001
 43
0.0000001
 44
0.0000000001
 40
0.0
 40
0.0
 40
0.0
 40
0.0
 40
0.0048642344
 40
0.0193850733
 40
0.0435827349
 40
0.0772097452
 40
0.1198466737
 40
0.1710420339
 40
0.2966872571
 40
0.4487576895
 40
0.6210467786
 40
0.8071614162
 40
1.0
 40
1.0
 40
1.0
 40
1.0
 10
140.8424175398
 20
523.6623658663
 30
0.0
 10
140.8422584652
 20
523.6617206092
 30
0.0
 10
140.8466098489
 20
523.661678444
 30
0.0
 10
140.8508592646
 20
523.6606630843
 30
0.0
 10
140.8616790954
 20
523.660286206
 30
0.0
 10
140.8749732588
 20
523.6595558804
 30
0.0
 10
140.8925358815
 20
523.6589910327
 30
0.0
 10
140.9224378044
 20
523.6581463486
 30
0.0
 10
140.9674129483
 20
523.6572810359
 30
0.0
 10
141.0288710464
 20
523.6564531202
 30
0.0
 10
141.098618155
 20
523.6558437813
 30
0.0
 10
141.1739289944
 20
523.6554678914
 30
0.0
 10
141.225703962
 20
523.6553838403
 30
0.0
 10
141.2520505359
 20
523.6553838403
 30
0.0
  0
SPLINE
  5
52B
100
AcDbEntity
  8
0
100
AcDbSpline
 62
7
  6
CONTINUOUS
 70
0
 71
3
 72
18
 73
14
 74
0
 42
0.0000001
 43
0.0000001
 44
0.0000000001
 40
0.0
 40
0.0
 40
0.0
 40
0.0
 40
0.192838901
 40
0.3789539668
 40
0.5512429129
 40
0.7033131269
 40
0.828958438
 40
0.8801538743
 40
0.9227906964
 40
0.9564175325
 40
0.9806151288
 40
0.9951358394
 40
1.0
 40
1.0
 40
1.0
 40
1.0
 10
127.8106909834
 20
523.6553838403
 30
0.0
 10
127.8370376008
 20
523.6553838403
 30
0.0
 10
127.8888126704
 20
523.6554678925
 30
0.0
 10
127.9641235924
 20
523.6558437826
 30
0.0
 10
128.0338707104
 20
523.6564531226
 30
0.0
 10
128.0953287714
 20
523.6572810384
 30
0.0
 10
128.140303908
 20
523.6581463544
 30
0.0
 10
128.1702058387
 20
523.6589910382
 30
0.0
 10
128.1877684332
 20
523.6595558881
 30
0.0
 10
128.2010625515
 20
523.6602862123
 30
0.0
 10
128.211882327
 20
523.6606630937
 30
0.0
 10
128.2161317233
 20
523.6616784316
 30
0.0
 10
128.2204830517
 20
523.661720619
 30
0.0
 10
128.2203239795
 20
523.6623658663
 30
0.0
  0
SPLINE
  5
52C
100
AcDbEntity
  8
0
100
AcDbSpline
 62
7
  6
CONTINUOUS
 70
0
 71
3
 72
9
 73
5
 74
0
 42
0.0000001
 43
0.0000001
 44
0.0000000001
 40
0.0
 40
0.0
 40
0.0
 40
0.0
 40
0.500001724
 40
1.0
 40
1.0
 40
1.0
 40
1.0
 10
126.7226503012
 20
526.0967148848
 30
0.0
 10
126.6991330148
 20
526.1020874733
 30
0.0
 10
126.6545009963
 20
526.1316417663
 30
0.0
 10
126.6427262375
 20
526.1837289029
 30
0.0
 10
126.6458426255
 20
526.2076497634
 30
0.0
  0
SPLINE
  5
52D
100
AcDbEntity
  8
0
100
AcDbSpline
 62
7
  6
CONTINUOUS
 70
0
 71
3
 72
9
 73
5
 74
0
 42
0.0000001
 43
0.0000001
 44
0.0000000001
 40
0.0
 40
0.0
 40
0.0
 40
0.0
 40
0.500005669
 40
1.0
 40
1.0
 40
1.0
 40
1.0
 10
129.7328369297
 20
526.8148998953
 30
0.0
 10
129.8101208362
 20
526.8150938411
 30
0.0
 10
129.9680784921
 20
526.8630332894
 30
0.0
 10
130.0713894171
 20
526.9914116152
 30
0.0
 10
130.1009442122
 20
527.0628194792
 30
0.0
  0
SPLINE
  5
52E
100
AcDbEntity
  8
0
100
AcDbSpline
 62
7
  6
CONTINUOUS
 70
0
 71
3
 72
9
 73
5
 74
0
 42
0.0000001
 43
0.0000001
 44
0.0000000001
 40
0.0
 40
0.0
 40
0.0
 40
0.0
 40
0.4999585552
 40
1.0
 40
1.0
 40
1.0
 40
1.0
 10
126.6748538884
 20
524.2358347184
 30
0.0
 10
126.6720464169
 20
524.2592844179
 30
0.0
 10
126.6845714795
 20
524.3099441437
 30
0.0
 10
126.7278461033
 20
524.3389033693
 30
0.0
 10
126.7508126617
 20
524.3444253668
 30
0.0
  0
SPLINE
  5
52F
100
AcDbEntity
  8
0
100
AcDbSpline
 62
7
  6
CONTINUOUS
 70
0
 71
3
 72
9
 73
5
 74
0
 42
0.0000001
 43
0.0000001
 44
0.0000000001
 40
0.0
 40
0.0
 40
0.0
 40
0.0
 40
0.4999916758
 40
1.0
 40
1.0
 40
1.0
 40
1.0
 10
129.7939173498
 20
526.7250822711
 30
0.0
 10
129.8719632613
 20
526.7250677783
 30
0.0
 10
130.0317286712
 20
526.7729869808
 30
0.0
 10
130.1358235227
 20
526.9033176113
 30
0.0
 10
130.1649423791
 20
526.9757307479
 30
0.0
  0
SPLINE
  5
530
100
AcDbEntity
  8
0
100
AcDbSpline
 62
7
  6
CONTINUOUS
 70
0
 71
3
 72
8
 73
4
 74
0
 42
0.0000001
 43
0.0000001
 44
0.0000000001
 40
0.0
 40
0.0
 40
0.0
 40
0.0
 40
1.0
 40
1.0
 40
1.0
 40
1.0
 10
130.1009442122
 20
527.0628194792
 30
0.0
 10
130.1232153008
 20
527.0340691996
 30
0.0
 10
130.1437194844
 20
527.0039763705
 30
0.0
 10
130.1660608998
 20
526.9752807065
 30
0.0
  0
SPLINE
  5
531
100
AcDbEntity
  8
0
100
AcDbSpline
 62
7
  6
CONTINUOUS
 70
0
 71
3
 72
8
 73
4
 74
0
 42
0.0000001
 43
0.0000001
 44
0.0000000001
 40
0.0
 40
0.0
 40
0.0
 40
0.0
 40
1.0
 40
1.0
 40
1.0
 40
1.0
 10
138.8966991943
 20
526.9752352077
 30
0.0
 10
138.9190457634
 20
527.0039376043
 30
0.0
 10
138.9395210366
 20
527.0340624981
 30
0.0
 10
138.9617973149
 20
527.0628194825
 30
0.0
  0
SPLINE
  5
532
100
AcDbEntity
  8
0
100
AcDbSpline
 62
7
  6
CONTINUOUS
 70
0
 71
3
 72
9
 73
5
 74
0
 42
0.0000001
 43
0.0000001
 44
0.0000000001
 40
0.0
 40
0.0
 40
0.0
 40
0.0
 40
0.4999914226
 40
1.0
 40
1.0
 40
1.0
 40
1.0
 10
138.89781736
 20
526.9756852973
 30
0.0
 10
138.9269421249
 20
526.9032857902
 30
0.0
 10
139.0310339652
 20
526.772979098
 30
0.0
 10
139.190783434
 20
526.7250670778
 30
0.0
 10
139.2688241812
 20
526.7250823237
 30
0.0
  0
SPLINE
  5
533
100
AcDbEntity
  8
0
100
AcDbSpline
 62
7
  6
CONTINUOUS
 70
0
 71
3
 72
9
 73
5
 74
0
 42
0.0000001
 43
0.0000001
 44
0.0000000001
 40
0.0
 40
0.0
 40
0.0
 40
0.0
 40
0.4999943311
 40
1.0
 40
1.0
 40
1.0
 40
1.0
 10
138.9617973149
 20
527.0628194825
 30
0.0
 10
138.9913521088
 20
526.991411618
 30
0.0
 10
139.0946630278
 20
526.8630332884
 30
0.0
 10
139.2526206831
 20
526.8150938344
 30
0.0
 10
139.3299045896
 20
526.8148998875
 30
0.0
  0
SPLINE
  5
534
100
AcDbEntity
  8
0
100
AcDbSpline
 62
7
  6
CONTINUOUS
 70
0
 71
3
 72
9
 73
5
 74
0
 42
0.0000001
 43
0.0000001
 44
0.0000000001
 40
0.0
 40
0.0
 40
0.0
 40
0.0
 40
0.4998529623
 40
1.0
 40
1.0
 40
1.0
 40
1.0
 10
126.7508118825
 20
526.0920152388
 30
0.0
 10
126.7278546742
 20
526.0975368377
 30
0.0
 10
126.6845827986
 20
526.1264897771
 30
0.0
 10
126.6720493738
 20
526.1771507235
 30
0.0
 10
126.6748579946
 20
526.2006089697
 30
0.0
  0
SPLINE
  5
535
100
AcDbEntity
  8
0
100
AcDbSpline
 62
7
  6
CONTINUOUS
 70
0
 71
3
 72
9
 73
5
 74
0
 42
0.0000001
 43
0.0000001
 44
0.0000000001
 40
0.0
 40
0.0
 40
0.0
 40
0.0
 40
0.500005669
 40
1.0
 40
1.0
 40
1.0
 40
1.0
 10
139.3299045896
 20
523.6215442528
 30
0.0
 10
139.2526206831
 20
523.621350307
 30
0.0
 10
139.0946630272
 20
523.5734108586
 30
0.0
 10
138.9913521022
 20
523.4450325328
 30
0.0
 10
138.9617973071
 20
523.3736246688
 30
0.0
  0
SPLINE
  5
536
100
AcDbEntity
  8
0
100
AcDbSpline
 62
7
  6
CONTINUOUS
 70
0
 71
3
 72
9
 73
5
 74
0
 42
0.0000001
 43
0.0000001
 44
0.0000000001
 40
0.0
 40
0.0
 40
0.0
 40
0.0
 40
0.4999916758
 40
1.0
 40
1.0
 40
1.0
 40
1.0
 10
139.2688241695
 20
523.7113618769
 30
0.0
 10
139.190778258
 20
523.7113763698
 30
0.0
 10
139.0310128481
 20
523.6634571673
 30
0.0
 10
138.9269179966
 20
523.5331265368
 30
0.0
 10
138.8977991402
 20
523.4607134001
 30
0.0
  0
SPLINE
  5
537
100
AcDbEntity
  8
0
100
AcDbSpline
 62
7
  6
CONTINUOUS
 70
0
 71
3
 72
8
 73
4
 74
0
 42
0.0000001
 43
0.0000001
 44
0.0000000001
 40
0.0
 40
0.0
 40
0.0
 40
0.0
 40
1.0
 40
1.0
 40
1.0
 40
1.0
 10
138.9617973071
 20
523.3736246688
 30
0.0
 10
138.9395262185
 20
523.4023749485
 30
0.0
 10
138.9190220349
 20
523.4324677776
 30
0.0
 10
138.8966806195
 20
523.4611634415
 30
0.0
  0
SPLINE
  5
538
100
AcDbEntity
  8
0
100
AcDbSpline
 62
7
  6
CONTINUOUS
 70
0
 71
3
 72
8
 73
4
 74
0
 42
0.0000001
 43
0.0000001
 44
0.0000000001
 40
0.0
 40
0.0
 40
0.0
 40
0.0
 40
1.0
 40
1.0
 40
1.0
 40
1.0
 10
130.166042325
 20
523.4612089403
 30
0.0
 10
130.1436957558
 20
523.4325065438
 30
0.0
 10
130.1232204827
 20
523.4023816499
 30
0.0
 10
130.1009442044
 20
523.3736246656
 30
0.0
  0
SPLINE
  5
539
100
AcDbEntity
  8
0
100
AcDbSpline
 62
7
  6
CONTINUOUS
 70
0
 71
3
 72
9
 73
5
 74
0
 42
0.0000001
 43
0.0000001
 44
0.0000000001
 40
0.0
 40
0.0
 40
0.0
 40
0.0
 40
0.4999914226
 40
1.0
 40
1.0
 40
1.0
 40
1.0
 10
130.1649241593
 20
523.4607588508
 30
0.0
 10
130.1357993944
 20
523.5331583579
 30
0.0
 10
130.0317075541
 20
523.66346505
 30
0.0
 10
129.8719580853
 20
523.7113770703
 30
0.0
 10
129.7939173381
 20
523.7113618243
 30
0.0
  0
SPLINE
  5
53A
100
AcDbEntity
  8
0
100
AcDbSpline
 62
7
  6
CONTINUOUS
 70
0
 71
3
 72
9
 73
5
 74
0
 42
0.0000001
 43
0.0000001
 44
0.0000000001
 40
0.0
 40
0.0
 40
0.0
 40
0.0
 40
0.4999943311
 40
1.0
 40
1.0
 40
1.0
 40
1.0
 10
130.1009442044
 20
523.3736246656
 30
0.0
 10
130.0713894105
 20
523.4450325301
 30
0.0
 10
129.9680784915
 20
523.5734108596
 30
0.0
 10
129.8101208362
 20
523.6213503137
 30
0.0
 10
129.7328369297
 20
523.6215442605
 30
0.0
  0
SPLINE
  5
53B
100
AcDbEntity
  8
0
100
AcDbSpline
 62
7
  6
CONTINUOUS
 70
0
 71
3
 72
11
 73
7
 74
0
 42
0.0000001
 43
0.0000001
 44
0.0000000001
 40
0.0
 40
0.0
 40
0.0
 40
0.0
 40
0.2500649777
 40
0.4999839457
 40
0.7498980878
 40
1.0
 40
1.0
 40
1.0
 40
1.0
 10
133.6690417953
 20
502.7182220645
 30
0.0
 10
133.6690417953
 20
502.6061756939
 30
0.0
 10
133.7139806271
 20
502.379711449
 30
0.0
 10
133.9059804322
 20
502.0935776786
 30
0.0
 10
134.192925014
 20
501.9030260921
 30
0.0
 10
134.4193078398
 20
501.8581657375
 30
0.0
 10
134.5313707596
 20
501.8581657375
 30
0.0
  0
SPLINE
  5
53C
100
AcDbEntity
  8
0
100
AcDbSpline
 62
7
  6
CONTINUOUS
 70
0
 71
3
 72
9
 73
5
 74
0
 42
0.0000001
 43
0.0000001
 44
0.0000000001
 40
0.0
 40
0.0
 40
0.0
 40
0.0
 40
0.5002545775
 40
1.0
 40
1.0
 40
1.0
 40
1.0
 10
134.5313707596
 20
503.5782784105
 30
0.0
 10
134.3806349547
 20
503.5782784105
 30
0.0
 10
134.0737392549
 20
503.4964366993
 30
0.0
 10
133.8521198887
 20
503.268895993
 30
0.0
 10
133.7784549479
 20
503.137562327
 30
0.0
  0
SPLINE
  5
53D
100
AcDbEntity
  8
0
100
AcDbSpline
 62
7
  6
CONTINUOUS
 70
0
 71
3
 72
8
 73
4
 74
0
 42
0.0000001
 43
0.0000001
 44
0.0000000001
 40
0.0
 40
0.0
 40
0.0
 40
0.0
 40
1.0
 40
1.0
 40
1.0
 40
1.0
 10
133.7784549479
 20
503.137562327
 30
0.0
 10
133.7077852178
 20
503.0115686777
 30
0.0
 10
133.6690417953
 20
502.8626817835
 30
0.0
 10
133.6690417953
 20
502.7182220645
 30
0.0
  0
SPLINE
  5
53E
100
AcDbEntity
  8
0
100
AcDbSpline
 62
7
  6
CONTINUOUS
 70
0
 71
3
 72
9
 73
5
 74
0
 42
0.0000001
 43
0.0000001
 44
0.0000000001
 40
0.0
 40
0.0
 40
0.0
 40
0.0
 40
0.5001605689
 40
1.0
 40
1.0
 40
1.0
 40
1.0
 10
135.3936973782
 20
502.7182220877
 30
0.0
 10
135.3936973782
 20
502.7909924532
 30
0.0
 10
135.37566132
 20
502.937209016
 30
0.0
 10
135.3199764159
 20
503.0736050939
 30
0.0
 10
135.2844460108
 20
503.1370583713
 30
0.0
  0
SPLINE
  5
53F
100
AcDbEntity
  8
0
100
AcDbSpline
 62
7
  6
CONTINUOUS
 70
0
 71
3
 72
11
 73
7
 74
0
 42
0.0000001
 43
0.0000001
 44
0.0000000001
 40
0.0
 40
0.0
 40
0.0
 40
0.0
 40
0.2498990897
 40
0.4997653517
 40
0.7498084314
 40
1.0
 40
1.0
 40
1.0
 40
1.0
 10
135.2844460108
 20
503.1370583713
 30
0.0
 10
135.247308239
 20
503.2033822234
 30
0.0
 10
135.1555395887
 20
503.3272896591
 30
0.0
 10
134.972889656
 20
503.4682229676
 30
0.0
 10
134.7604912904
 20
503.5582361146
 30
0.0
 10
134.6074733255
 20
503.5782784105
 30
0.0
 10
134.5313707596
 20
503.5782784105
 30
0.0
  0
SPLINE
  5
540
100
AcDbEntity
  8
0
100
AcDbSpline
 62
7
  6
CONTINUOUS
 70
0
 71
3
 72
11
 73
7
 74
0
 42
0.0000001
 43
0.0000001
 44
0.0000000001
 40
0.0
 40
0.0
 40
0.0
 40
0.0
 40
0.2501242431
 40
0.5000144597
 40
0.7499104779
 40
1.0
 40
1.0
 40
1.0
 40
1.0
 10
134.5313707596
 20
501.8581657375
 30
0.0
 10
134.6434427985
 20
501.8581657375
 30
0.0
 10
134.8698927364
 20
501.9028854416
 30
0.0
 10
135.1565743108
 20
502.0937614374
 30
0.0
 10
135.3488874643
 20
502.379634892
 30
0.0
 10
135.3936973782
 20
502.6061656061
 30
0.0
 10
135.3936973782
 20
502.7182220877
 30
0.0
  0
SPLINE
  5
541
100
AcDbEntity
  8
0
100
AcDbSpline
 62
7
  6
CONTINUOUS
 70
0
 71
3
 72
9
 73
5
 74
0
 42
0.0000001
 43
0.0000001
 44
0.0000000001
 40
0.0
 40
0.0
 40
0.0
 40
0.0
 40
0.4074311247
 40
1.0
 40
1.0
 40
1.0
 40
1.0
 10
121.2840870193
 20
541.3180545566
 30
0.0
 10
121.3891871398
 20
541.4179759535
 30
0.0
 10
121.6715122636
 20
541.6368967992
 30
0.0
 10
121.9726643096
 20
541.8272308437
 30
0.0
 10
122.1553233166
 20
541.9326862755
 30
0.0
  0
SPLINE
  5
542
100
AcDbEntity
  8
0
100
AcDbSpline
 62
7
  6
CONTINUOUS
 70
0
 71
3
 72
9
 73
5
 74
0
 42
0.0000001
 43
0.0000001
 44
0.0000000001
 40
0.0
 40
0.0
 40
0.0
 40
0.0
 40
0.2342809623
 40
1.0
 40
1.0
 40
1.0
 40
1.0
 10
122.1553233166
 20
541.9326862755
 30
0.0
 10
122.2190192162
 20
541.9694601455
 30
0.0
 10
122.4929975119
 20
542.1227473606
 30
0.0
 10
122.7726329468
 20
542.2660134459
 30
0.0
 10
122.9900818822
 20
542.3684913443
 30
0.0
  0
SPLINE
  5
543
100
AcDbEntity
  8
0
100
AcDbSpline
 62
7
  6
CONTINUOUS
 70
0
 71
3
 72
9
 73
5
 74
0
 42
0.0000001
 43
0.0000001
 44
0.0000000001
 40
0.0
 40
0.0
 40
0.0
 40
0.0
 40
0.3660694203
 40
1.0
 40
1.0
 40
1.0
 40
1.0
 10
122.047312391
 20
542.0780532893
 30
0.0
 10
122.155956738
 20
542.1249917594
 30
0.0
 10
122.4431783961
 20
542.2742452535
 30
0.0
 10
122.7291296644
 20
542.4247118234
 30
0.0
 10
122.9105320098
 20
542.5200936537
 30
0.0
  0
SPLINE
  5
544
100
AcDbEntity
  8
0
100
AcDbSpline
 62
7
  6
CONTINUOUS
 70
0
 71
3
 72
9
 73
5
 74
0
 42
0.0000001
 43
0.0000001
 44
0.0000000001
 40
0.0
 40
0.0
 40
0.0
 40
0.0
 40
0.6339306089
 40
1.0
 40
1.0
 40
1.0
 40
1.0
 10
146.1522092071
 20
542.5200938099
 30
0.0
 10
146.3336116258
 20
542.4247119281
 30
0.0
 10
146.619563019
 20
542.2742453317
 30
0.0
 10
146.9067847655
 20
542.1249917261
 30
0.0
 10
147.0154291597
 20
542.0780532736
 30
0.0
  0
SPLINE
  5
545
100
AcDbEntity
  8
0
100
AcDbSpline
 62
7
  6
CONTINUOUS
 70
0
 71
3
 72
10
 73
6
 74
0
 42
0.0000001
 43
0.0000001
 44
0.0000000001
 40
0.0
 40
0.0
 40
0.0
 40
0.0
 40
0.2486475136
 40
0.498607571
 40
1.0
 40
1.0
 40
1.0
 40
1.0
 10
123.5641772537
 20
537.3573830032
 30
0.0
 10
123.4338964886
 20
537.2097426905
 30
0.0
 10
123.2178356173
 20
536.8736150026
 30
0.0
 10
122.9160813328
 20
536.1396682141
 30
0.0
 10
122.7975101072
 20
535.5496902463
 30
0.0
 10
122.7565719792
 20
535.1547559089
 30
0.0
  0
SPLINE
  5
546
100
AcDbEntity
  8
0
100
AcDbSpline
 62
7
  6
CONTINUOUS
 70
0
 71
3
 72
13
 73
9
 74
0
 42
0.0000001
 43
0.0000001
 44
0.0000000001
 40
0.0
 40
0.0
 40
0.0
 40
0.0
 40
0.249946894
 40
0.3749683432
 40
0.4999999425
 40
0.6250315785
 40
0.750053063
 40
1.0
 40
1.0
 40
1.0
 40
1.0
 10
122.7566032885
 20
535.1547525649
 30
0.0
 10
122.503033675
 20
532.709489613
 30
0.0
 10
122.287203246
 20
529.0238767274
 30
0.0
 10
122.1786552294
 20
524.107506933
 30
0.0
 10
122.1540818972
 20
520.4182227692
 30
0.0
 10
122.1786551294
 20
516.7289382648
 30
0.0
 10
122.2872007582
 20
511.8125672882
 30
0.0
 10
122.5030324632
 20
508.1269536163
 30
0.0
 10
122.7566034468
 20
505.6816903818
 30
0.0
  0
SPLINE
  5
547
100
AcDbEntity
  8
0
100
AcDbSpline
 62
7
  6
CONTINUOUS
 70
0
 71
3
 72
10
 73
6
 74
0
 42
0.0000001
 43
0.0000001
 44
0.0000000001
 40
0.0
 40
0.0
 40
0.0
 40
0.0
 40
0.5013918729
 40
0.7513513705
 40
1.0
 40
1.0
 40
1.0
 40
1.0
 10
122.7565725883
 20
505.6816870807
 30
0.0
 10
122.7975112329
 20
505.2867534782
 30
0.0
 10
122.9160810139
 20
504.6967765828
 30
0.0
 10
123.2178355991
 20
503.9628302581
 30
0.0
 10
123.4338967693
 20
503.6267027146
 30
0.0
 10
123.5641774752
 20
503.4790613281
 30
0.0
  0
SPLINE
  5
548
100
AcDbEntity
  8
0
100
AcDbSpline
 62
7
  6
CONTINUOUS
 70
0
 71
3
 72
15
 73
11
 74
0
 42
0.0000001
 43
0.0000001
 44
0.0000000001
 40
0.0
 40
0.0
 40
0.0
 40
0.0
 40
0.1264474128
 40
0.2527110151
 40
0.3787850131
 40
0.5039993186
 40
0.6276386452
 40
0.7502439747
 40
0.874142826
 40
1.0
 40
1.0
 40
1.0
 40
1.0
 10
123.5642335111
 20
503.4791106614
 30
0.0
 10
123.6884150841
 20
503.3384468739
 30
0.0
 10
123.9528461999
 20
503.0709370945
 30
0.0
 10
124.4012238063
 20
502.7285855731
 30
0.0
 10
124.900149382
 20
502.4662586867
 30
0.0
 10
125.4437924884
 20
502.3217678997
 30
0.0
 10
126.007713799
 20
502.3530836394
 30
0.0
 10
126.5090865558
 20
502.6236823331
 30
0.0
 10
126.8386181602
 20
503.0863327242
 30
0.0
 10
126.9411333612
 20
503.4482823732
 30
0.0
 10
126.9705012851
 20
503.6327192738
 30
0.0
  0
SPLINE
  5
549
100
AcDbEntity
  8
0
100
AcDbSpline
 62
7
  6
CONTINUOUS
 70
0
 71
3
 72
15
 73
11
 74
0
 42
0.0000001
 43
0.0000001
 44
0.0000000001
 40
0.0
 40
0.0
 40
0.0
 40
0.0
 40
0.1258795041
 40
0.2497795692
 40
0.3723809259
 40
0.4960104928
 40
0.6212138966
 40
0.7472725838
 40
0.8735347089
 40
1.0
 40
1.0
 40
1.0
 40
1.0
 10
126.9704919112
 20
537.2037005182
 30
0.0
 10
126.9410982837
 20
537.3881669774
 30
0.0
 10
126.8385767955
 20
537.7501446775
 30
0.0
 10
126.5090375575
 20
538.2128395195
 30
0.0
 10
126.0076381456
 20
538.4833569045
 30
0.0
 10
125.4437627991
 20
538.5146551428
 30
0.0
 10
124.9001700256
 20
538.3701766778
 30
0.0
 10
124.4012832333
 20
538.1078681888
 30
0.0
 10
123.95288516
 20
537.7655421784
 30
0.0
 10
123.6884264295
 20
537.4980226791
 30
0.0
 10
123.5642315309
 20
537.3573351355
 30
0.0
  0
SPLINE
  5
54A
100
AcDbEntity
  8
0
100
AcDbSpline
 62
7
  6
CONTINUOUS
 70
0
 71
3
 72
14
 73
10
 74
0
 42
0.0000001
 43
0.0000001
 44
0.0000000001
 40
0.0
 40
0.0
 40
0.0
 40
0.0
 40
0.1254208594
 40
0.2493722091
 40
0.3725089959
 40
0.4967321669
 40
0.6223093986
 40
0.7484698823
 40
1.0
 40
1.0
 40
1.0
 40
1.0
 10
127.0270125182
 20
537.2134822054
 30
0.0
 10
126.9949568538
 20
537.4019944606
 30
0.0
 10
126.8860209979
 20
537.7721123002
 30
0.0
 10
126.5459213959
 20
538.2455913841
 30
0.0
 10
126.0327236134
 20
538.5287606487
 30
0.0
 10
125.4519722301
 20
538.5714297462
 30
0.0
 10
124.8891591667
 20
538.432080722
 30
0.0
 10
124.2010922071
 20
538.0829626407
 30
0.0
 10
123.7624827202
 20
537.6938462127
 30
0.0
 10
123.5069276517
 20
537.4079210145
 30
0.0
  0
SPLINE
  5
54B
100
AcDbEntity
  8
0
100
AcDbSpline
 62
7
  6
CONTINUOUS
 70
0
 71
3
 72
10
 73
6
 74
0
 42
0.0000001
 43
0.0000001
 44
0.0000000001
 40
0.0
 40
0.0
 40
0.0
 40
0.0
 40
0.2497651371
 40
0.499859872
 40
1.0
 40
1.0
 40
1.0
 40
1.0
 10
123.5071216364
 20
537.4081435469
 30
0.0
 10
123.3687945356
 20
537.2600854548
 30
0.0
 10
123.1388203354
 20
536.9197995818
 30
0.0
 10
122.8168572819
 20
536.173112269
 30
0.0
 10
122.6922011887
 20
535.5694972273
 30
0.0
 10
122.6498909751
 20
535.1659710007
 30
0.0
  0
SPLINE
  5
54C
100
AcDbEntity
  8
0
100
AcDbSpline
 62
7
  6
CONTINUOUS
 70
0
 71
3
 72
13
 73
9
 74
0
 42
0.0000001
 43
0.0000001
 44
0.0000000001
 40
0.0
 40
0.0
 40
0.0
 40
0.0
 40
0.2499604034
 40
0.3749786686
 40
0.4999999998
 40
0.6250213309
 40
0.7500395958
 40
1.0
 40
1.0
 40
1.0
 40
1.0
 10
122.6498994586
 20
535.1659675829
 30
0.0
 10
122.3989547092
 20
532.7185898998
 30
0.0
 10
122.1917435214
 20
529.0297247874
 30
0.0
 10
122.0915421374
 20
524.1098243822
 30
0.0
 10
122.0695174147
 20
520.4182211965
 30
0.0
 10
122.0915415127
 20
516.7266180052
 30
0.0
 10
122.1917415741
 20
511.806717593
 30
0.0
 10
122.3989526616
 20
508.1178523419
 30
0.0
 10
122.649899628
 20
505.6704748789
 30
0.0
  0
SPLINE
  5
54D
100
AcDbEntity
  8
0
100
AcDbSpline
 62
7
  6
CONTINUOUS
 70
0
 71
3
 72
10
 73
6
 74
0
 42
0.0000001
 43
0.0000001
 44
0.0000000001
 40
0.0
 40
0.0
 40
0.0
 40
0.0
 40
0.5001355929
 40
0.7502293062
 40
1.0
 40
1.0
 40
1.0
 40
1.0
 10
122.6498906721
 20
505.6704763863
 30
0.0
 10
122.6921910432
 20
505.2669535286
 30
0.0
 10
122.8168661267
 20
504.66334999
 30
0.0
 10
123.1388051243
 20
503.9166514103
 30
0.0
 10
123.3687940679
 20
503.5763748073
 30
0.0
 10
123.5071131512
 20
503.4283035332
 30
0.0
  0
SPLINE
  5
54E
100
AcDbEntity
  8
0
100
AcDbSpline
 62
7
  6
CONTINUOUS
 70
0
 71
3
 72
8
 73
4
 74
0
 42
0.0000001
 43
0.0000001
 44
0.0000000001
 40
0.0
 40
0.0
 40
0.0
 40
0.0
 40
1.0
 40
1.0
 40
1.0
 40
1.0
 10
126.9704920813
 20
503.6327302995
 30
0.0
 10
126.9890649625
 20
503.6297031966
 30
0.0
 10
127.0092334225
 20
503.6290837179
 30
0.0
 10
127.0253366686
 20
503.619347151
 30
0.0
  0
SPLINE
  5
54F
100
AcDbEntity
  8
0
100
AcDbSpline
 62
7
  6
CONTINUOUS
 70
0
 71
3
 72
19
 73
15
 74
0
 42
0.0000001
 43
0.0000001
 44
0.0000000001
 40
0.0
 40
0.0
 40
0.0
 40
0.0
 40
0.0627599569
 40
0.1251496249
 40
0.1872238568
 40
0.2492655277
 40
0.3115719338
 40
0.3742337793
 40
0.499543008
 40
0.6247575021
 40
0.7494930562
 40
0.8119955572
 40
0.8745773408
 40
1.0
 40
1.0
 40
1.0
 40
1.0
 10
131.9704864843
 20
502.2042355978
 30
0.0
 10
131.9438618057
 20
502.053159007
 30
0.0
 10
131.8652267924
 20
501.755039848
 30
0.0
 10
131.6484561729
 20
501.3469592877
 30
0.0
 10
131.3389187203
 20
501.0055945836
 30
0.0
 10
130.9521994943
 20
500.7547439759
 30
0.0
 10
130.5128224964
 20
500.6119358232
 30
0.0
 10
129.8981373644
 20
500.5639377063
 30
0.0
 10
129.1348506743
 20
500.7501738413
 30
0.0
 10
128.3509121975
 20
501.2495558651
 30
0.0
 10
127.8339386835
 20
501.8236193942
 30
0.0
 10
127.511394988
 20
502.3432213682
 30
0.0
 10
127.2489144805
 20
502.8983033343
 30
0.0
 10
127.1402103454
 20
503.3498076388
 30
0.0
 10
127.0900580254
 20
503.6522493203
 30
0.0
  0
SPLINE
  5
550
100
AcDbEntity
  8
0
100
AcDbSpline
 62
7
  6
CONTINUOUS
 70
0
 71
3
 72
8
 73
4
 74
0
 42
0.0000001
 43
0.0000001
 44
0.0000000001
 40
0.0
 40
0.0
 40
0.0
 40
0.0
 40
1.0
 40
1.0
 40
1.0
 40
1.0
 10
127.0785731486
 20
503.6327570155
 30
0.0
 10
127.0614964723
 20
503.6261790101
 30
0.0
 10
127.0429522873
 20
503.6243042677
 30
0.0
 10
127.0253366686
 20
503.619347151
 30
0.0
  0
SPLINE
  5
551
100
AcDbEntity
  8
0
100
AcDbSpline
 62
7
  6
CONTINUOUS
 70
0
 71
3
 72
17
 73
13
 74
0
 42
0.0000001
 43
0.0000001
 44
0.0000000001
 40
0.0
 40
0.0
 40
0.0
 40
0.0
 40
0.3134547501
 40
0.4665296334
 40
0.6142260774
 40
0.7524958375
 40
0.8161026613
 40
0.8740832361
 40
0.9242516291
 40
0.9641119671
 40
0.9907570856
 40
1.0
 40
1.0
 40
1.0
 40
1.0
 10
129.040812692
 20
519.0330110667
 30
0.0
 10
128.9876873912
 20
519.0801541135
 30
0.0
 10
128.9094402822
 20
519.1512452972
 30
0.0
 10
128.8079601864
 20
519.2465161312
 30
0.0
 10
128.7361469856
 20
519.3153138147
 30
0.0
 10
128.6793886523
 20
519.3707137298
 30
0.0
 10
128.637536289
 20
519.4118629304
 30
0.0
 10
128.6096095537
 20
519.4396618816
 30
0.0
 10
128.5864983468
 20
519.4619193932
 30
0.0
 10
128.5656677316
 20
519.4838532577
 30
0.0
 10
128.5571292052
 20
519.4889569425
 30
0.0
 10
128.5468269982
 20
519.5018419449
 30
0.0
 10
128.5467529641
 20
519.4997488785
 30
0.0
  0
SPLINE
  5
552
100
AcDbEntity
  8
0
100
AcDbSpline
 62
7
  6
CONTINUOUS
 70
0
 71
3
 72
9
 73
5
 74
0
 42
0.0000001
 43
0.0000001
 44
0.0000000001
 40
0.0
 40
0.0
 40
0.0
 40
0.0
 40
0.2633392811
 40
1.0
 40
1.0
 40
1.0
 40
1.0
 10
128.5467426063
 20
519.4997386868
 30
0.0
 10
128.5540649077
 20
519.4920768356
 30
0.0
 10
128.5793872404
 20
519.4606913763
 30
0.0
 10
128.5951790366
 20
519.4217263254
 30
0.0
 10
128.599755329
 20
519.3924346666
 30
0.0
  0
SPLINE
  5
553
100
AcDbEntity
  8
0
100
AcDbSpline
 62
7
  6
CONTINUOUS
 70
0
 71
3
 72
15
 73
11
 74
0
 42
0.0000001
 43
0.0000001
 44
0.0000000001
 40
0.0
 40
0.0
 40
0.0
 40
0.0
 40
0.1252988508
 40
0.249762022
 40
0.3744352133
 40
0.4999998306
 40
0.6255649583
 40
0.7502379857
 40
0.8747010464
 40
1.0
 40
1.0
 40
1.0
 40
1.0
 10
132.0299200918
 20
502.1936622095
 30
0.0
 10
132.0758643315
 20
501.8948273086
 30
0.0
 10
132.2707097724
 20
501.3103069823
 30
0.0
 10
132.8343070946
 20
500.5822259275
 30
0.0
 10
133.6193470619
 20
500.0937804443
 30
0.0
 10
134.5313577689
 20
499.9219502665
 30
0.0
 10
135.4433743698
 20
500.0937637421
 30
0.0
 10
136.2284118838
 20
500.5822105328
 30
0.0
 10
136.7920276536
 20
501.310282143
 30
0.0
 10
136.9868517977
 20
501.8948052391
 30
0.0
 10
137.0328168381
 20
502.1936371922
 30
0.0
  0
SPLINE
  5
554
100
AcDbEntity
  8
0
100
AcDbSpline
 62
7
  6
CONTINUOUS
 70
0
 71
3
 72
19
 73
15
 74
0
 42
0.0000001
 43
0.0000001
 44
0.0000000001
 40
0.0
 40
0.0
 40
0.0
 40
0.0
 40
0.0026440993
 40
0.0103833858
 40
0.022715802
 40
0.0391181309
 40
0.0820384225
 40
0.1349772604
 40
0.1942883617
 40
0.2583815102
 40
0.3966089719
 40
0.5422038753
 40
0.6923055702
 40
1.0
 40
1.0
 40
1.0
 40
1.0
 10
140.4629880343
 20
519.3924346773
 30
0.0
 10
140.4626137943
 20
519.3928022442
 30
0.0
 10
140.4613684999
 20
519.3893814924
 30
0.0
 10
140.4590808833
 20
519.387155325
 30
0.0
 10
140.4553389223
 20
519.3800715839
 30
0.0
 10
140.4481966445
 20
519.3682707486
 30
0.0
 10
140.4370797379
 20
519.3486444259
 30
0.0
 10
140.4217680875
 20
519.3220743824
 30
0.0
 10
140.4043007174
 20
519.2917190023
 30
0.0
 10
140.3782721481
 20
519.2468288732
 30
0.0
 10
140.3433620078
 20
519.1872761741
 30
0.0
 10
140.2991211956
 20
519.1134299636
 30
0.0
 10
140.2365937687
 20
519.0113502025
 30
0.0
 10
140.1879376444
 20
518.9346514278
 30
0.0
 10
140.1546822706
 20
518.8834623789
 30
0.0
  0
SPLINE
  5
555
100
AcDbEntity
  8
0
100
AcDbSpline
 62
7
  6
CONTINUOUS
 70
0
 71
3
 72
19
 73
15
 74
0
 42
0.0000001
 43
0.0000001
 44
0.0000000001
 40
0.0
 40
0.0
 40
0.0
 40
0.0
 40
0.3076907013
 40
0.4577913317
 40
0.6033889215
 40
0.7416225788
 40
0.8057173827
 40
0.8650273298
 40
0.9179630146
 40
0.9608896713
 40
0.9773016417
 40
0.9896414308
 40
0.9973775295
 40
1.0
 40
1.0
 40
1.0
 40
1.0
 10
128.9080584845
 20
518.8834619205
 30
0.0
 10
128.8748040428
 20
518.9346498778
 30
0.0
 10
128.8261488631
 20
519.011346896
 30
0.0
 10
128.7636223116
 20
519.1134251889
 30
0.0
 10
128.7193814049
 20
519.1872718705
 30
0.0
 10
128.6844704307
 20
519.2468260632
 30
0.0
 10
128.658442105
 20
519.2917163515
 30
0.0
 10
128.6409736223
 20
519.3220722577
 30
0.0
 10
128.6256666489
 20
519.3486381405
 30
0.0
 10
128.6145370101
 20
519.3682765879
 30
0.0
 10
128.6074101504
 20
519.3800661691
 30
0.0
 10
128.6036356406
 20
519.3871801571
 30
0.0
 10
128.6014082282
 20
519.3893544077
 30
0.0
 10
128.6001039348
 20
519.3928155816
 30
0.0
 10
128.5997564511
 20
519.3924283778
 30
0.0
  0
SPLINE
  5
556
100
AcDbEntity
  8
0
100
AcDbSpline
 62
7
  6
CONTINUOUS
 70
0
 71
3
 72
11
 73
7
 74
0
 42
0.0000001
 43
0.0000001
 44
0.0000000001
 40
0.0
 40
0.0
 40
0.0
 40
0.0
 40
0.1691442809
 40
0.409370273
 40
0.6932384323
 40
1.0
 40
1.0
 40
1.0
 40
1.0
 10
148.2551677522
 20
540.0965424234
 30
0.0
 10
148.2971193597
 20
539.8447556111
 30
0.0
 10
148.4148712806
 20
539.2381883859
 30
0.0
 10
148.6169109933
 20
538.2117663845
 30
0.0
 10
148.8554150627
 20
536.9807769725
 30
0.0
 10
149.0174153197
 20
536.1042830649
 30
0.0
 10
149.0992797156
 20
535.6486410902
 30
0.0
  0
SPLINE
  5
557
100
AcDbEntity
  8
0
100
AcDbSpline
 62
7
  6
CONTINUOUS
 70
0
 71
3
 72
16
 73
12
 74
0
 42
0.0000001
 43
0.0000001
 44
0.0000000001
 40
0.0
 40
0.0
 40
0.0
 40
0.0
 40
0.1246977144
 40
0.186904958
 40
0.2490673715
 40
0.3115065772
 40
0.3743411961
 40
0.5000775529
 40
0.6256961281
 40
0.7508504877
 40
1.0
 40
1.0
 40
1.0
 40
1.0
 10
137.0328168381
 20
502.1936371922
 30
0.0
 10
137.084254476
 20
501.8872761566
 30
0.0
 10
137.2586318339
 20
501.4336364495
 30
0.0
 10
137.6770540005
 20
500.9681493904
 30
0.0
 10
138.0699269249
 20
500.708792607
 30
0.0
 10
138.5164518857
 20
500.5566254912
 30
0.0
 10
139.1439197011
 20
500.4980480151
 30
0.0
 10
139.9274199401
 20
500.6744103884
 30
0.0
 10
140.7372379249
 20
501.1747490385
 30
0.0
 10
141.5875120964
 20
502.0974910008
 30
0.0
 10
141.9555853406
 20
503.0074720778
 30
0.0
 10
142.0357290011
 20
503.6229619427
 30
0.0
  0
SPLINE
  5
558
100
AcDbEntity
  8
0
100
AcDbSpline
 62
7
  6
CONTINUOUS
 70
0
 71
3
 72
17
 73
13
 74
0
 42
0.0000001
 43
0.0000001
 44
0.0000000001
 40
0.0
 40
0.0
 40
0.0
 40
0.0
 40
0.0092153391
 40
0.0358787389
 40
0.0757166877
 40
0.125871985
 40
0.1838700188
 40
0.2474936177
 40
0.3857697036
 40
0.5334626778
 40
0.6865392891
 40
1.0
 40
1.0
 40
1.0
 40
1.0
 10
140.5159885556
 20
519.4997488788
 30
0.0
 10
140.5160142142
 20
519.5018368487
 30
0.0
 10
140.5054754304
 20
519.488961637
 30
0.0
 10
140.4971652125
 20
519.4838632541
 30
0.0
 10
140.4762249263
 20
519.4619338945
 30
0.0
 10
140.4531593078
 20
519.4396792207
 30
0.0
 10
140.4252150894
 20
519.4118763113
 30
0.0
 10
140.3833620782
 20
519.3707204414
 30
0.0
 10
140.326597523
 20
519.3153173524
 30
0.0
 10
140.2547845203
 20
519.2465190343
 30
0.0
 10
140.1533037514
 20
519.1512470372
 30
0.0
 10
140.0750537688
 20
519.0801565842
 30
0.0
 10
140.0219288276
 20
519.0330110669
 30
0.0
  0
SPLINE
  5
559
100
AcDbEntity
  8
0
100
AcDbSpline
 62
7
  6
CONTINUOUS
 70
0
 71
3
 72
14
 73
10
 74
0
 42
0.0000001
 43
0.0000001
 44
0.0000000001
 40
0.0
 40
0.0
 40
0.0
 40
0.0
 40
0.1254208594
 40
0.2493722091
 40
0.3725089959
 40
0.4967321669
 40
0.6223093986
 40
0.7484698823
 40
1.0
 40
1.0
 40
1.0
 40
1.0
 10
142.0357290011
 20
503.6229619427
 30
0.0
 10
142.0677846655
 20
503.4344496874
 30
0.0
 10
142.1767205214
 20
503.0643318479
 30
0.0
 10
142.5168201234
 20
502.5908527639
 30
0.0
 10
143.0300179059
 20
502.3076834994
 30
0.0
 10
143.6107692892
 20
502.2650144019
 30
0.0
 10
144.1735823526
 20
502.4043634261
 30
0.0
 10
144.8616493122
 20
502.7534815074
 30
0.0
 10
145.3002587991
 20
503.1425979354
 30
0.0
 10
145.5558138676
 20
503.4285231336
 30
0.0
  0
SPLINE
  5
55A
100
AcDbEntity
  8
0
100
AcDbSpline
 62
7
  6
CONTINUOUS
 70
0
 71
3
 72
10
 73
6
 74
0
 42
0.0000001
 43
0.0000001
 44
0.0000000001
 40
0.0
 40
0.0
 40
0.0
 40
0.0
 40
0.2497651371
 40
0.499859872
 40
1.0
 40
1.0
 40
1.0
 40
1.0
 10
145.5556198829
 20
503.4283006012
 30
0.0
 10
145.6939469837
 20
503.5763586932
 30
0.0
 10
145.9239211839
 20
503.9166445662
 30
0.0
 10
146.2458842374
 20
504.663331879
 30
0.0
 10
146.3705403306
 20
505.2669469208
 30
0.0
 10
146.4128505442
 20
505.6704731473
 30
0.0
  0
SPLINE
  5
55B
100
AcDbEntity
  8
0
100
AcDbSpline
 62
7
  6
CONTINUOUS
 70
0
 71
3
 72
13
 73
9
 74
0
 42
0.0000001
 43
0.0000001
 44
0.0000000001
 40
0.0
 40
0.0
 40
0.0
 40
0.0
 40
0.2499604034
 40
0.3749786686
 40
0.4999999998
 40
0.6250213309
 40
0.7500395958
 40
1.0
 40
1.0
 40
1.0
 40
1.0
 10
146.4128420607
 20
505.6704765652
 30
0.0
 10
146.6637868101
 20
508.1178542482
 30
0.0
 10
146.8709979979
 20
511.8067193607
 30
0.0
 10
146.9711993819
 20
516.7266197658
 30
0.0
 10
146.9932241046
 20
520.4182229515
 30
0.0
 10
146.9712000066
 20
524.1098261428
 30
0.0
 10
146.8709999452
 20
529.0297265551
 30
0.0
 10
146.6637888577
 20
532.7185918062
 30
0.0
 10
146.4128418913
 20
535.1659692692
 30
0.0
  0
SPLINE
  5
55C
100
AcDbEntity
  8
0
100
AcDbSpline
 62
7
  6
CONTINUOUS
 70
0
 71
3
 72
9
 73
5
 74
0
 42
0.0000001
 43
0.0000001
 44
0.0000000001
 40
0.0
 40
0.0
 40
0.0
 40
0.0
 40
0.2633359447
 40
1.0
 40
1.0
 40
1.0
 40
1.0
 10
140.5159923205
 20
519.4997450894
 30
0.0
 10
140.508670956
 20
519.4920822901
 30
0.0
 10
140.4833519132
 20
519.460693335
 30
0.0
 10
140.4675633309
 20
519.4217268176
 30
0.0
 10
140.4629881404
 20
519.3924343626
 30
0.0
  0
SPLINE
  5
55D
100
AcDbEntity
  8
0
100
AcDbSpline
 62
7
  6
CONTINUOUS
 70
0
 71
3
 72
11
 73
7
 74
0
 42
0.0000001
 43
0.0000001
 44
0.0000000001
 40
0.0
 40
0.0
 40
0.0
 40
0.0
 40
0.3067615725
 40
0.5906297294
 40
0.8308557195
 40
1.0
 40
1.0
 40
1.0
 40
1.0
 10
149.0992797153
 20
505.187803058
 30
0.0
 10
149.0174153182
 20
504.7321610762
 30
0.0
 10
148.8554150608
 20
503.8556671649
 30
0.0
 10
148.6169109911
 20
502.6246777522
 30
0.0
 10
148.4148712799
 20
501.5982557579
 30
0.0
 10
148.2971193594
 20
500.9916885363
 30
0.0
 10
148.2551677522
 20
500.7399017246
 30
0.0
  0
SPLINE
  5
55E
100
AcDbEntity
  8
0
100
AcDbSpline
 62
7
  6
CONTINUOUS
 70
0
 71
3
 72
10
 73
6
 74
0
 42
0.0000001
 43
0.0000001
 44
0.0000000001
 40
0.0
 40
0.0
 40
0.0
 40
0.0
 40
0.5001355929
 40
0.7502293062
 40
1.0
 40
1.0
 40
1.0
 40
1.0
 10
146.4128508471
 20
535.1659677617
 30
0.0
 10
146.3705504761
 20
535.5694906194
 30
0.0
 10
146.2458753926
 20
536.1730941581
 30
0.0
 10
145.923936395
 20
536.9197927378
 30
0.0
 10
145.6939474514
 20
537.2600693407
 30
0.0
 10
145.5556283681
 20
537.4081406149
 30
0.0
  0
SPLINE
  5
55F
100
AcDbEntity
  8
0
100
AcDbSpline
 62
7
  6
CONTINUOUS
 70
0
 71
3
 72
9
 73
5
 74
0
 42
0.0000001
 43
0.0000001
 44
0.0000000001
 40
0.0
 40
0.0
 40
0.0
 40
0.0
 40
0.6339306117
 40
1.0
 40
1.0
 40
1.0
 40
1.0
 10
122.9105323108
 20
498.3163503362
 30
0.0
 10
122.7291298911
 20
498.4117322039
 30
0.0
 10
122.4431785217
 20
498.5621988274
 30
0.0
 10
122.1559567643
 20
498.7114523803
 30
0.0
 10
122.0473123872
 20
498.7583908605
 30
0.0
  0
SPLINE
  5
560
100
AcDbEntity
  8
0
100
AcDbSpline
 62
7
  6
CONTINUOUS
 70
0
 71
3
 72
9
 73
5
 74
0
 42
0.0000001
 43
0.0000001
 44
0.0000000001
 40
0.0
 40
0.0
 40
0.0
 40
0.0
 40
0.3660694171
 40
1.0
 40
1.0
 40
1.0
 40
1.0
 10
147.0154291005
 20
498.7583908447
 30
0.0
 10
146.9067847705
 20
498.7114523469
 30
0.0
 10
146.619563101
 20
498.5621989052
 30
0.0
 10
146.3336118561
 20
498.4117323081
 30
0.0
 10
146.1522095094
 20
498.3163504916
 30
0.0
  0
SPLINE
  5
561
100
AcDbEntity
  8
0
100
AcDbSpline
 62
7
  6
CONTINUOUS
 70
0
 71
3
 72
8
 73
4
 74
0
 42
0.0000001
 43
0.0000001
 44
0.0000000001
 40
0.0
 40
0.0
 40
0.0
 40
0.0
 40
1.0
 40
1.0
 40
1.0
 40
1.0
 10
142.092249438
 20
537.2037138486
 30
0.0
 10
142.0736765568
 20
537.2067409515
 30
0.0
 10
142.0535080968
 20
537.2073604301
 30
0.0
 10
142.0374048507
 20
537.217096997
 30
0.0
  0
SPLINE
  5
562
100
AcDbEntity
  8
0
100
AcDbSpline
 62
7
  6
CONTINUOUS
 70
0
 71
3
 72
19
 73
15
 74
0
 42
0.0000001
 43
0.0000001
 44
0.0000000001
 40
0.0
 40
0.0
 40
0.0
 40
0.0
 40
0.0627599568
 40
0.1251496248
 40
0.1872238566
 40
0.2492655275
 40
0.3115719334
 40
0.3742337788
 40
0.4995430074
 40
0.6247575014
 40
0.7494930549
 40
0.8119955564
 40
0.8745773402
 40
1.0
 40
1.0
 40
1.0
 40
1.0
 10
137.092255035
 20
538.6322085502
 30
0.0
 10
137.1188797126
 20
538.7832851358
 30
0.0
 10
137.1975147223
 20
539.0814042846
 30
0.0
 10
137.414285329
 20
539.4894848332
 30
0.0
 10
137.7238227631
 20
539.830849532
 30
0.0
 10
138.1105419672
 20
540.0817001431
 30
0.0
 10
138.5499189436
 20
540.2245083082
 30
0.0
 10
139.1646040519
 20
540.2725064502
 30
0.0
 10
139.9278907226
 20
540.0862703553
 30
0.0
 10
140.7118292006
 20
539.5868883922
 30
0.0
 10
141.2288027068
 20
539.0128248899
 30
0.0
 10
141.5513464309
 20
538.4932229648
 30
0.0
 10
141.8138270745
 20
537.9381410725
 30
0.0
 10
141.9225308225
 20
537.4866366317
 30
0.0
 10
141.9726827694
 20
537.1841948972
 30
0.0
  0
SPLINE
  5
563
100
AcDbEntity
  8
0
100
AcDbSpline
 62
7
  6
CONTINUOUS
 70
0
 71
3
 72
8
 73
4
 74
0
 42
0.0000001
 43
0.0000001
 44
0.0000000001
 40
0.0
 40
0.0
 40
0.0
 40
0.0
 40
1.0
 40
1.0
 40
1.0
 40
1.0
 10
141.9841683707
 20
537.2036871325
 30
0.0
 10
142.001245047
 20
537.2102651379
 30
0.0
 10
142.019789232
 20
537.2121398804
 30
0.0
 10
142.0374048507
 20
537.217096997
 30
0.0
  0
SPLINE
  5
564
100
AcDbEntity
  8
0
100
AcDbSpline
 62
7
  6
CONTINUOUS
 70
0
 71
3
 72
8
 73
4
 74
0
 42
0.0000001
 43
0.0000001
 44
0.0000000001
 40
0.0
 40
0.0
 40
0.0
 40
0.0
 40
1.0
 40
1.0
 40
1.0
 40
1.0
 10
133.7350823403
 20
503.0486826769
 30
0.0
 10
133.6918025851
 20
502.9450114804
 30
0.0
 10
133.6688745024
 20
502.8305646493
 30
0.0
 10
133.6688745024
 20
502.718222074
 30
0.0
  0
SPLINE
  5
565
100
AcDbEntity
  8
0
100
AcDbSpline
 62
7
  6
CONTINUOUS
 70
0
 71
3
 72
9
 73
5
 74
0
 42
0.0000001
 43
0.0000001
 44
0.0000000001
 40
0.0
 40
0.0
 40
0.0
 40
0.0
 40
0.4074300409
 40
1.0
 40
1.0
 40
1.0
 40
1.0
 10
147.7786546273
 20
499.5183897616
 30
0.0
 10
147.6735536765
 20
499.4184680533
 30
0.0
 10
147.3912261445
 20
499.1995456083
 30
0.0
 10
147.0900720701
 20
499.0092091722
 30
0.0
 10
146.9074110396
 20
498.903752977
 30
0.0
  0
SPLINE
  5
566
100
AcDbEntity
  8
0
100
AcDbSpline
 62
7
  6
CONTINUOUS
 70
0
 71
3
 72
9
 73
5
 74
0
 42
0.0000001
 43
0.0000001
 44
0.0000000001
 40
0.0
 40
0.0
 40
0.0
 40
0.0
 40
0.2342809339
 40
1.0
 40
1.0
 40
1.0
 40
1.0
 10
146.9074110396
 20
498.903752977
 30
0.0
 10
146.8437155297
 20
498.8669794731
 30
0.0
 10
146.5697385931
 20
498.7136942965
 30
0.0
 10
146.2901051496
 20
498.5704291953
 30
0.0
 10
146.0726578077
 20
498.4679518176
 30
0.0
  0
SPLINE
  5
567
100
AcDbEntity
  8
0
100
AcDbSpline
 62
7
  6
CONTINUOUS
 70
0
 71
3
 72
8
 73
4
 74
0
 42
0.0000001
 43
0.0000001
 44
0.0000000001
 40
0.0
 40
0.0
 40
0.0
 40
0.0
 40
1.0
 40
1.0
 40
1.0
 40
1.0
 10
133.6688745024
 20
502.718222074
 30
0.0
 10
133.6688745024
 20
502.6058053183
 30
0.0
 10
133.6918341277
 20
502.49128031
 30
0.0
 10
133.7351695991
 20
502.3875519923
 30
0.0
  0
SPLINE
  5
568
100
AcDbEntity
  8
0
100
AcDbSpline
 62
7
  6
CONTINUOUS
 70
0
 71
3
 72
8
 73
4
 74
0
 42
0.0000001
 43
0.0000001
 44
0.0000000001
 40
0.0
 40
0.0
 40
0.0
 40
0.0
 40
1.0
 40
1.0
 40
1.0
 40
1.0
 10
135.3276889925
 20
502.3878328918
 30
0.0
 10
135.3709496676
 20
502.4914846423
 30
0.0
 10
135.3938670169
 20
502.6059047939
 30
0.0
 10
135.3938670169
 20
502.718222074
 30
0.0
  0
SPLINE
  5
569
100
AcDbEntity
  8
0
100
AcDbSpline
 62
7
  6
CONTINUOUS
 70
0
 71
3
 72
9
 73
5
 74
0
 42
0.0000001
 43
0.0000001
 44
0.0000000001
 40
0.0
 40
0.0
 40
0.0
 40
0.0
 40
0.499999957
 40
1.0
 40
1.0
 40
1.0
 40
1.0
 10
136.9704875816
 20
514.7451662687
 30
0.0
 10
136.2082438149
 20
514.4162022332
 30
0.0
 10
134.5313715807
 20
514.0665400828
 30
0.0
 10
132.8544991271
 20
514.4162017348
 30
0.0
 10
132.0922552303
 20
514.7451658292
 30
0.0
  0
SPLINE
  5
56A
100
AcDbEntity
  8
0
100
AcDbSpline
 62
7
  6
CONTINUOUS
 70
0
 71
3
 72
15
 73
11
 74
0
 42
0.0000001
 43
0.0000001
 44
0.0000000001
 40
0.0
 40
0.0
 40
0.0
 40
0.0
 40
0.1256235979
 40
0.2502471105
 40
0.374768729
 40
0.4998838131
 40
0.6250005297
 40
0.7495132121
 40
0.8741872856
 40
1.0
 40
1.0
 40
1.0
 40
1.0
 10
132.0922492208
 20
502.2041960872
 30
0.0
 10
132.1381524877
 20
501.9123610574
 30
0.0
 10
132.3302758262
 20
501.342329442
 30
0.0
 10
132.8805663951
 20
500.6328575489
 30
0.0
 10
133.6442378444
 20
500.1567599253
 30
0.0
 10
134.5305115277
 20
499.9890164081
 30
0.0
 10
135.4168886904
 20
500.1561223304
 30
0.0
 10
136.1809739528
 20
500.6317470307
 30
0.0
 10
136.7320570126
 20
501.3413309575
 30
0.0
 10
136.9244879482
 20
501.9119040108
 30
0.0
 10
136.970494567
 20
502.2041729863
 30
0.0
  0
SPLINE
  5
56B
100
AcDbEntity
  8
0
100
AcDbSpline
 62
7
  6
CONTINUOUS
 70
0
 71
3
 72
15
 73
11
 74
0
 42
0.0000001
 43
0.0000001
 44
0.0000000001
 40
0.0
 40
0.0
 40
0.0
 40
0.0
 40
0.125296524
 40
0.2497539728
 40
0.3744371337
 40
0.5000198437
 40
0.6255925275
 40
0.7502574673
 40
0.8747045703
 40
1.0
 40
1.0
 40
1.0
 40
1.0
 10
137.0328207332
 20
538.6427687674
 30
0.0
 10
136.9869175449
 20
538.9416036145
 30
0.0
 10
136.7920462774
 20
539.526103309
 30
0.0
 10
136.2284672673
 20
540.2541904799
 30
0.0
 10
135.4433671497
 20
540.7426561425
 30
0.0
 10
134.5312600504
 20
540.9144483497
 30
0.0
 10
133.6192126837
 20
540.7425928479
 30
0.0
 10
132.8342253656
 20
540.2541339096
 30
0.0
 10
132.2707081838
 20
539.526098303
 30
0.0
 10
132.0758315192
 20
538.9416296792
 30
0.0
 10
132.0299290984
 20
538.6427973856
 30
0.0
  0
SPLINE
  5
56C
100
AcDbEntity
  8
0
100
AcDbSpline
 62
7
  6
CONTINUOUS
 70
0
 71
3
 72
9
 73
5
 74
0
 42
0.0000001
 43
0.0000001
 44
0.0000000001
 40
0.0
 40
0.0
 40
0.0
 40
0.0
 40
0.5000001079
 40
1.0
 40
1.0
 40
1.0
 40
1.0
 10
132.092254939
 20
535.6912782198
 30
0.0
 10
132.8544988225
 20
536.0202423079
 30
0.0
 10
134.5313709705
 20
536.3699040257
 30
0.0
 10
136.2082430282
 20
536.020242165
 30
0.0
 10
136.9704865828
 20
535.6912782189
 30
0.0
  0
SPLINE
  5
56D
100
AcDbEntity
  8
0
100
AcDbSpline
 62
7
  6
CONTINUOUS
 70
0
 71
3
 72
15
 73
11
 74
0
 42
0.0000001
 43
0.0000001
 44
0.0000000001
 40
0.0
 40
0.0
 40
0.0
 40
0.0
 40
0.1257738315
 40
0.2504594606
 40
0.3749523941
 40
0.5000000648
 40
0.6250476031
 40
0.7495404816
 40
0.8742262008
 40
1.0
 40
1.0
 40
1.0
 40
1.0
 10
136.9704650209
 20
538.632249853
 30
0.0
 10
136.9245300263
 20
538.9244346695
 30
0.0
 10
136.7320707509
 20
539.494922395
 30
0.0
 10
136.1811848541
 20
540.2045031364
 30
0.0
 10
135.4172857242
 20
540.6800418632
 30
0.0
 10
134.5313705871
 20
540.8473957633
 30
0.0
 10
133.6454556831
 20
540.6800417483
 30
0.0
 10
132.8815566403
 20
540.204503252
 30
0.0
 10
132.3306710292
 20
539.4949223331
 30
0.0
 10
132.138211303
 20
538.9244345888
 30
0.0
 10
132.0922765164
 20
538.6322498166
 30
0.0
  0
LINE
  5
56E
100
AcDbEntity
  8
0
100
AcDbLine
 62
7
  6
CONTINUOUS
 10
128.5295964446
 20
531.0778489858
 11
128.599860257
 21
531.0439930527
  0
LINE
  5
56F
100
AcDbEntity
  8
0
100
AcDbLine
 62
7
  6
CONTINUOUS
 10
140.4628812256
 20
531.0439930479
 11
140.5331449856
 21
531.0778524554
  0
SPLINE
  5
570
100
AcDbEntity
  8
0
100
AcDbSpline
 62
7
  6
CONTINUOUS
 70
0
 71
3
 72
9
 73
5
 74
0
 42
0.0000001
 43
0.0000001
 44
0.0000000001
 40
0.0
 40
0.0
 40
0.0
 40
0.0
 40
0.2633359447
 40
1.0
 40
1.0
 40
1.0
 40
1.0
 10
128.5467491988
 20
530.9366990586
 30
0.0
 10
128.5540705633
 20
530.9443618579
 30
0.0
 10
128.5793896061
 20
530.975750813
 30
0.0
 10
128.5951781884
 20
531.0147173305
 30
0.0
 10
128.5997533789
 20
531.0440097855
 30
0.0
  0
SPLINE
  5
571
100
AcDbEntity
  8
0
100
AcDbSpline
 62
7
  6
CONTINUOUS
 70
0
 71
3
 72
17
 73
13
 74
0
 42
0.0000001
 43
0.0000001
 44
0.0000000001
 40
0.0
 40
0.0
 40
0.0
 40
0.0
 40
0.0092153387
 40
0.0358787376
 40
0.0757166853
 40
0.1258719815
 40
0.1838700144
 40
0.2474936128
 40
0.3857696983
 40
0.5334626729
 40
0.6865392852
 40
1.0
 40
1.0
 40
1.0
 40
1.0
 10
128.5467529637
 20
530.9366952693
 30
0.0
 10
128.5467273051
 20
530.9346072996
 30
0.0
 10
128.5572660878
 20
530.9474825098
 30
0.0
 10
128.5655763048
 20
530.9525808921
 30
0.0
 10
128.5865165889
 20
530.9745102495
 30
0.0
 10
128.6095822053
 20
530.9967649212
 30
0.0
 10
128.6375264212
 20
531.0245678282
 30
0.0
 10
128.679379429
 20
531.0657236948
 30
0.0
 10
128.7361439798
 20
531.1211267796
 30
0.0
 10
128.8079569771
 20
531.189925093
 30
0.0
 10
128.9094377391
 20
531.2851970842
 30
0.0
 10
128.9876877165
 20
531.3562875331
 30
0.0
 10
129.0408126541
 20
531.4034330478
 30
0.0
  0
SPLINE
  5
572
100
AcDbEntity
  8
0
100
AcDbSpline
 62
7
  6
CONTINUOUS
 70
0
 71
3
 72
19
 73
15
 74
0
 42
0.0000001
 43
0.0000001
 44
0.0000000001
 40
0.0
 40
0.0
 40
0.0
 40
0.0
 40
0.0026440993
 40
0.0103833858
 40
0.022715802
 40
0.0391181309
 40
0.0820384225
 40
0.1349772603
 40
0.1942883617
 40
0.2583815102
 40
0.3966089719
 40
0.5422038753
 40
0.6923055702
 40
1.0
 40
1.0
 40
1.0
 40
1.0
 10
128.599753485
 20
531.0440094708
 30
0.0
 10
128.600127725
 20
531.0436419039
 30
0.0
 10
128.6013730193
 20
531.0470626556
 30
0.0
 10
128.6036606359
 20
531.049288823
 30
0.0
 10
128.607402597
 20
531.0563725642
 30
0.0
 10
128.6145448748
 20
531.0681733995
 30
0.0
 10
128.6256617814
 20
531.0877997221
 30
0.0
 10
128.6409734318
 20
531.1143697656
 30
0.0
 10
128.6584408018
 20
531.1447251457
 30
0.0
 10
128.6844693712
 20
531.1896152749
 30
0.0
 10
128.7193795114
 20
531.2491679739
 30
0.0
 10
128.7636203237
 20
531.3230141845
 30
0.0
 10
128.8261477506
 20
531.4250939455
 30
0.0
 10
128.8748038749
 20
531.5017927202
 30
0.0
 10
128.9080592487
 20
531.5529817691
 30
0.0
  0
SPLINE
  5
573
100
AcDbEntity
  8
0
100
AcDbSpline
 62
7
  6
CONTINUOUS
 70
0
 71
3
 72
19
 73
15
 74
0
 42
0.0000001
 43
0.0000001
 44
0.0000000001
 40
0.0
 40
0.0
 40
0.0
 40
0.0
 40
0.3076907013
 40
0.4577913317
 40
0.6033889215
 40
0.7416225788
 40
0.8057173827
 40
0.8650273298
 40
0.9179630146
 40
0.9608896713
 40
0.9773016417
 40
0.9896414308
 40
0.9973775295
 40
1.0
 40
1.0
 40
1.0
 40
1.0
 10
140.1546830348
 20
531.5529822276
 30
0.0
 10
140.1879374765
 20
531.5017942703
 30
0.0
 10
140.2365926562
 20
531.425097252
 30
0.0
 10
140.2991192077
 20
531.3230189591
 30
0.0
 10
140.3433601144
 20
531.2491722776
 30
0.0
 10
140.3782710886
 20
531.1896180848
 30
0.0
 10
140.4042994143
 20
531.1447277965
 30
0.0
 10
140.421767897
 20
531.1143718904
 30
0.0
 10
140.4370748704
 20
531.0878060075
 30
0.0
 10
140.4482045092
 20
531.0681675601
 30
0.0
 10
140.4553313689
 20
531.0563779789
 30
0.0
 10
140.4591058787
 20
531.0492639909
 30
0.0
 10
140.4613332911
 20
531.0470897404
 30
0.0
 10
140.4626375844
 20
531.0436285664
 30
0.0
 10
140.4629850682
 20
531.0440157702
 30
0.0
  0
SPLINE
  5
574
100
AcDbEntity
  8
0
100
AcDbSpline
 62
7
  6
CONTINUOUS
 70
0
 71
3
 72
17
 73
13
 74
0
 42
0.0000001
 43
0.0000001
 44
0.0000000001
 40
0.0
 40
0.0
 40
0.0
 40
0.0
 40
0.313454754
 40
0.4665296383
 40
0.6142260826
 40
0.7524958424
 40
0.8161026656
 40
0.8740832396
 40
0.9242516315
 40
0.9641119684
 40
0.990757086
 40
1.0
 40
1.0
 40
1.0
 40
1.0
 10
140.0219288647
 20
531.4034330483
 30
0.0
 10
140.0750541619
 20
531.356290004
 30
0.0
 10
140.1533012657
 20
531.2851988244
 30
0.0
 10
140.2547813546
 20
531.1899279962
 30
0.0
 10
140.3265945501
 20
531.1211303175
 30
0.0
 10
140.3833528791
 20
531.0657304064
 30
0.0
 10
140.425205239
 20
531.0245812091
 30
0.0
 10
140.4531319717
 20
530.9967822604
 30
0.0
 10
140.4762431765
 20
530.9745247508
 30
0.0
 10
140.4970737897
 20
530.9525908885
 30
0.0
 10
140.5056123151
 20
530.9474872043
 30
0.0
 10
140.5159145211
 20
530.9346022034
 30
0.0
 10
140.5159885552
 20
530.9366952696
 30
0.0
  0
SPLINE
  5
575
100
AcDbEntity
  8
0
100
AcDbSpline
 62
7
  6
CONTINUOUS
 70
0
 71
3
 72
9
 73
5
 74
0
 42
0.0000001
 43
0.0000001
 44
0.0000000001
 40
0.0
 40
0.0
 40
0.0
 40
0.0
 40
0.2633392811
 40
1.0
 40
1.0
 40
1.0
 40
1.0
 10
140.515998913
 20
530.9367054612
 30
0.0
 10
140.5086766116
 20
530.9443673125
 30
0.0
 10
140.4833542789
 20
530.9757527718
 30
0.0
 10
140.4675624827
 20
531.0147178226
 30
0.0
 10
140.4629861903
 20
531.0440094814
 30
0.0
  0
SPLINE
  5
576
100
AcDbEntity
  8
0
100
AcDbSpline
 62
7
  6
CONTINUOUS
 70
0
 71
3
 72
11
 73
7
 74
0
 42
0.0000001
 43
0.0000001
 44
0.0000000001
 40
0.0
 40
0.0
 40
0.0
 40
0.0
 40
0.2464321028
 40
0.4972986235
 40
0.7486610002
 40
1.0
 40
1.0
 40
1.0
 40
1.0
 10
137.092255035
 20
535.6363841111
 30
0.0
 10
137.5329302787
 20
535.4291644021
 30
0.0
 10
138.3757996986
 20
534.9030593408
 30
0.0
 10
139.4176191206
 20
533.8327296388
 30
0.0
 10
140.1749033172
 20
532.5337972686
 30
0.0
 10
140.4544520035
 20
531.5682364562
 30
0.0
 10
140.5330380744
 20
531.0778320677
 30
0.0
  0
SPLINE
  5
577
100
AcDbEntity
  8
0
100
AcDbSpline
 62
7
  6
CONTINUOUS
 70
0
 71
3
 72
8
 73
4
 74
0
 42
0.0000001
 43
0.0000001
 44
0.0000000001
 40
0.0
 40
0.0
 40
0.0
 40
0.0
 40
1.0
 40
1.0
 40
1.0
 40
1.0
 10
140.5330380744
 20
531.0778320677
 30
0.0
 10
140.5392171799
 20
531.0388339607
 30
0.0
 10
140.5584606932
 20
531.000332386
 30
0.0
 10
140.5856560756
 20
530.9717064384
 30
0.0
  0
SPLINE
  5
578
100
AcDbEntity
  8
0
100
AcDbSpline
 62
7
  6
CONTINUOUS
 70
0
 71
3
 72
10
 73
6
 74
0
 42
0.0000001
 43
0.0000001
 44
0.0000000001
 40
0.0
 40
0.0
 40
0.0
 40
0.0
 40
0.2486475136
 40
0.498607571
 40
1.0
 40
1.0
 40
1.0
 40
1.0
 10
145.4985642655
 20
503.4790611448
 30
0.0
 10
145.6288450307
 20
503.6267014575
 30
0.0
 10
145.844905902
 20
503.9628291454
 30
0.0
 10
146.1466601865
 20
504.696775934
 30
0.0
 10
146.2652314121
 20
505.2867539017
 30
0.0
 10
146.3061695401
 20
505.6816882391
 30
0.0
  0
SPLINE
  5
579
100
AcDbEntity
  8
0
100
AcDbSpline
 62
7
  6
CONTINUOUS
 70
0
 71
3
 72
13
 73
9
 74
0
 42
0.0000001
 43
0.0000001
 44
0.0000000001
 40
0.0
 40
0.0
 40
0.0
 40
0.0
 40
0.249946894
 40
0.3749683432
 40
0.4999999425
 40
0.6250315785
 40
0.750053063
 40
1.0
 40
1.0
 40
1.0
 40
1.0
 10
146.3061382308
 20
505.6816915831
 30
0.0
 10
146.5597078443
 20
508.126954535
 30
0.0
 10
146.7755382733
 20
511.8125674206
 30
0.0
 10
146.8840862899
 20
516.7289372151
 30
0.0
 10
146.9086596221
 20
520.4182213789
 30
0.0
 10
146.8840863899
 20
524.1075058833
 30
0.0
 10
146.775540761
 20
529.0238768598
 30
0.0
 10
146.5597090561
 20
532.7094905318
 30
0.0
 10
146.3061380725
 20
535.1547537662
 30
0.0
  0
SPLINE
  5
57A
100
AcDbEntity
  8
0
100
AcDbSpline
 62
7
  6
CONTINUOUS
 70
0
 71
3
 72
10
 73
6
 74
0
 42
0.0000001
 43
0.0000001
 44
0.0000000001
 40
0.0
 40
0.0
 40
0.0
 40
0.0
 40
0.5013918729
 40
0.7513513705
 40
1.0
 40
1.0
 40
1.0
 40
1.0
 10
146.306168931
 20
535.1547570674
 30
0.0
 10
146.2652302864
 20
535.5496906699
 30
0.0
 10
146.1466605054
 20
536.1396675652
 30
0.0
 10
145.8449059202
 20
536.8736138899
 30
0.0
 10
145.62884475
 20
537.2097414335
 30
0.0
 10
145.4985640441
 20
537.3573828199
 30
0.0
  0
SPLINE
  5
57B
100
AcDbEntity
  8
0
100
AcDbSpline
 62
7
  6
CONTINUOUS
 70
0
 71
3
 72
15
 73
11
 74
0
 42
0.0000001
 43
0.0000001
 44
0.0000000001
 40
0.0
 40
0.0
 40
0.0
 40
0.0
 40
0.1264474128
 40
0.2527110151
 40
0.3787850131
 40
0.5039993186
 40
0.6276386452
 40
0.7502439747
 40
0.874142826
 40
1.0
 40
1.0
 40
1.0
 40
1.0
 10
145.4985080082
 20
537.3573334867
 30
0.0
 10
145.3743264351
 20
537.4979972741
 30
0.0
 10
145.1098953194
 20
537.7655070535
 30
0.0
 10
144.6615177129
 20
538.1078585749
 30
0.0
 10
144.1625921373
 20
538.3701854614
 30
0.0
 10
143.6189490309
 20
538.5146762484
 30
0.0
 10
143.0550277203
 20
538.4833605086
 30
0.0
 10
142.5536549635
 20
538.2127618149
 30
0.0
 10
142.2241233591
 20
537.7501114239
 30
0.0
 10
142.1216081581
 20
537.3881617749
 30
0.0
 10
142.0922402342
 20
537.2037248743
 30
0.0
  0
SPLINE
  5
57C
100
AcDbEntity
  8
0
100
AcDbSpline
 62
7
  6
CONTINUOUS
 70
0
 71
3
 72
15
 73
11
 74
0
 42
0.0000001
 43
0.0000001
 44
0.0000000001
 40
0.0
 40
0.0
 40
0.0
 40
0.0
 40
0.1258795041
 40
0.2497795692
 40
0.3723809259
 40
0.4960104928
 40
0.6212138966
 40
0.7472725838
 40
0.8735347089
 40
1.0
 40
1.0
 40
1.0
 40
1.0
 10
142.0922496081
 20
503.6327436299
 30
0.0
 10
142.1216432356
 20
503.4482771707
 30
0.0
 10
142.2241647237
 20
503.0862994706
 30
0.0
 10
142.5537039618
 20
502.6236046286
 30
0.0
 10
143.0551033737
 20
502.3530872435
 30
0.0
 10
143.6189787202
 20
502.3217890052
 30
0.0
 10
144.1625714937
 20
502.4662674702
 30
0.0
 10
144.661458286
 20
502.7285759592
 30
0.0
 10
145.1098563593
 20
503.0709019697
 30
0.0
 10
145.3743150898
 20
503.3384214689
 30
0.0
 10
145.4985099884
 20
503.4791090125
 30
0.0
  0
SPLINE
  5
57D
100
AcDbEntity
  8
0
100
AcDbSpline
 62
7
  6
CONTINUOUS
 70
0
 71
3
 72
8
 73
4
 74
0
 42
0.0000001
 43
0.0000001
 44
0.0000000001
 40
0.0
 40
0.0
 40
0.0
 40
0.0
 40
1.0
 40
1.0
 40
1.0
 40
1.0
 10
140.5856560756
 20
519.4647377096
 30
0.0
 10
140.5584605937
 20
519.4361118566
 30
0.0
 10
140.5392179571
 20
519.3976100642
 30
0.0
 10
140.5330380744
 20
519.3586120803
 30
0.0
  0
SPLINE
  5
57E
100
AcDbEntity
  8
0
100
AcDbSpline
 62
7
  6
CONTINUOUS
 70
0
 71
3
 72
11
 73
7
 74
0
 42
0.0000001
 43
0.0000001
 44
0.0000000001
 40
0.0
 40
0.0
 40
0.0
 40
0.0
 40
0.2513397841
 40
0.5027022547
 40
0.753568575
 40
1.0
 40
1.0
 40
1.0
 40
1.0
 10
140.5330380744
 20
519.3586120803
 30
0.0
 10
140.4544517397
 20
518.8682060457
 30
0.0
 10
140.1749030564
 20
517.9026428465
 30
0.0
 10
139.4176140477
 20
516.6037114736
 30
0.0
 10
138.3757970078
 20
515.5333813253
 30
0.0
 10
137.5329278547
 20
515.0072784742
 30
0.0
 10
137.0922537196
 20
514.8000592849
 30
0.0
  0
SPLINE
  5
57F
100
AcDbEntity
  8
0
100
AcDbSpline
 62
7
  6
CONTINUOUS
 70
0
 71
3
 72
16
 73
12
 74
0
 42
0.0000001
 43
0.0000001
 44
0.0000000001
 40
0.0
 40
0.0
 40
0.0
 40
0.0
 40
0.1249334758
 40
0.1870906576
 40
0.249077184
 40
0.3112487335
 40
0.373781548
 40
0.4990284052
 40
0.6244884354
 40
0.7498206404
 40
1.0
 40
1.0
 40
1.0
 40
1.0
 10
137.0922540399
 20
502.2041699469
 30
0.0
 10
137.1415850146
 20
501.9044859303
 30
0.0
 10
137.3114325199
 20
501.4606690855
 30
0.0
 10
137.7213949799
 20
501.0076743109
 30
0.0
 10
138.1055085177
 20
500.7576970571
 30
0.0
 10
138.5409121375
 20
500.613737318
 30
0.0
 10
139.1512502816
 20
500.563233423
 30
0.0
 10
139.9114725348
 20
500.7431567797
 30
0.0
 10
140.6963437211
 20
501.2371463219
 30
0.0
 10
141.5238589082
 20
502.1425947313
 30
0.0
 10
141.8868046628
 20
503.0303480271
 30
0.0
 10
141.9704881673
 20
503.6327569642
 30
0.0
  0
LINE
  5
580
100
AcDbEntity
  8
0
100
AcDbLine
 62
7
  6
CONTINUOUS
 10
140.5331450747
 20
519.3585951622
 11
140.4628812623
 21
519.3924510954
  0
LINE
  5
581
100
AcDbEntity
  8
0
100
AcDbLine
 62
7
  6
CONTINUOUS
 10
128.5998602937
 20
519.3924511002
 11
128.5295965337
 21
519.3585916927
  0
SPLINE
  5
582
100
AcDbEntity
  8
0
100
AcDbSpline
 62
7
  6
CONTINUOUS
 70
0
 71
3
 72
10
 73
6
 74
0
 42
0.0000001
 43
0.0000001
 44
0.0000000001
 40
0.0
 40
0.0
 40
0.0
 40
0.0
 40
0.1774014111
 40
0.4125251865
 40
1.0
 40
1.0
 40
1.0
 40
1.0
 10
146.0726436039
 20
542.368565313
 30
0.0
 10
146.0455023343
 20
542.0748707484
 30
0.0
 10
145.9881734142
 20
541.3913970858
 30
0.0
 10
145.8402272703
 20
539.7354296307
 30
0.0
 10
145.6877583535
 20
538.3758070475
 30
0.0
 10
145.5557217295
 20
537.4080423123
 30
0.0
  0
SPLINE
  5
583
100
AcDbEntity
  8
0
100
AcDbSpline
 62
7
  6
CONTINUOUS
 70
0
 71
3
 72
9
 73
5
 74
0
 42
0.0000001
 43
0.0000001
 44
0.0000000001
 40
0.0
 40
0.0
 40
0.0
 40
0.0
 40
0.3915450767
 40
1.0
 40
1.0
 40
1.0
 40
1.0
 10
147.7786495354
 20
541.3180269113
 30
0.0
 10
147.5864292405
 20
541.4962722164
 30
0.0
 10
147.0353118563
 20
541.884589396
 30
0.0
 10
146.4396507144
 20
542.1917263961
 30
0.0
 10
146.0726406729
 20
542.3685126772
 30
0.0
  0
SPLINE
  5
584
100
AcDbEntity
  8
0
100
AcDbSpline
 62
7
  6
CONTINUOUS
 70
0
 71
3
 72
10
 73
6
 74
0
 42
0.0000001
 43
0.0000001
 44
0.0000000001
 40
0.0
 40
0.0
 40
0.0
 40
0.0
 40
0.5874767149
 40
0.8226000437
 40
1.0
 40
1.0
 40
1.0
 40
1.0
 10
145.5558138676
 20
503.4285231336
 30
0.0
 10
145.6878515083
 20
502.4607337876
 30
0.0
 10
145.8402111695
 20
501.1010660596
 30
0.0
 10
145.9881713351
 20
499.4450638612
 30
0.0
 10
146.0455042497
 20
498.7615786048
 30
0.0
 10
146.0726458631
 20
498.4678800229
 30
0.0
  0
SPLINE
  5
585
100
AcDbEntity
  8
0
100
AcDbSpline
 62
7
  6
CONTINUOUS
 70
0
 71
3
 72
14
 73
10
 74
0
 42
0.0000001
 43
0.0000001
 44
0.0000000001
 40
0.0
 40
0.0
 40
0.0
 40
0.0
 40
0.1253969576
 40
0.2493219537
 40
0.3724683803
 40
0.4967151773
 40
0.6223046192
 40
0.7484668337
 40
1.0
 40
1.0
 40
1.0
 40
1.0
 10
127.0246071658
 20
503.6088680142
 30
0.0
 10
126.992363665
 20
503.4210294507
 30
0.0
 10
126.880106898
 20
503.0530148998
 30
0.0
 10
126.5377128014
 20
502.5836976782
 30
0.0
 10
126.0238905141
 20
502.3055695601
 30
0.0
 10
125.4449276876
 20
502.2659249833
 30
0.0
 10
124.8842733968
 20
502.4064028837
 30
0.0
 10
124.1988568675
 20
502.7553713996
 30
0.0
 10
123.7617913101
 20
503.1433735051
 30
0.0
 10
123.5070197898
 20
503.4284018357
 30
0.0
  0
SPLINE
  5
586
100
AcDbEntity
  8
0
100
AcDbSpline
 62
7
  6
CONTINUOUS
 70
0
 71
3
 72
19
 73
15
 74
0
 42
0.0000001
 43
0.0000001
 44
0.0000000001
 40
0.0
 40
0.0
 40
0.0
 40
0.0
 40
0.0627859503
 40
0.1251701927
 40
0.1872390879
 40
0.249257168
 40
0.3115437392
 40
0.3742037516
 40
0.4995565013
 40
0.6247973981
 40
0.7495216211
 40
0.8120081134
 40
0.8745728693
 40
1.0
 40
1.0
 40
1.0
 40
1.0
 10
132.0299200918
 20
502.1936622095
 30
0.0
 10
132.0009659575
 20
502.0397773028
 30
0.0
 10
131.9214526628
 20
501.7356125757
 30
0.0
 10
131.7006215542
 20
501.3189375678
 30
0.0
 10
131.386651966
 20
500.9694004689
 30
0.0
 10
130.9949670182
 20
500.7096505828
 30
0.0
 10
130.5490791495
 20
500.5574996747
 30
0.0
 10
129.9229029732
 20
500.4976870809
 30
0.0
 10
129.1404470203
 20
500.6727847157
 30
0.0
 10
128.3317887909
 20
501.1691996771
 30
0.0
 10
127.7968395868
 20
501.7486277573
 30
0.0
 10
127.4639202147
 20
502.2763686597
 30
0.0
 10
127.1929976033
 20
502.8410416435
 30
0.0
 10
127.076965103
 20
503.3004717389
 30
0.0
 10
127.0246071658
 20
503.6088680142
 30
0.0
  0
SPLINE
  5
587
100
AcDbEntity
  8
0
100
AcDbSpline
 62
7
  6
CONTINUOUS
 70
0
 71
3
 72
10
 73
6
 74
0
 42
0.0000001
 43
0.0000001
 44
0.0000000001
 40
0.0
 40
0.0
 40
0.0
 40
0.0
 40
0.1774014111
 40
0.4125251865
 40
1.0
 40
1.0
 40
1.0
 40
1.0
 10
122.9900979154
 20
498.467878835
 30
0.0
 10
123.017239185
 20
498.7615733997
 30
0.0
 10
123.074568105
 20
499.4450470623
 30
0.0
 10
123.222514249
 20
501.1010145174
 30
0.0
 10
123.3749831658
 20
502.4606371005
 30
0.0
 10
123.5070197898
 20
503.4284018357
 30
0.0
  0
SPLINE
  5
588
100
AcDbEntity
  8
0
100
AcDbSpline
 62
7
  6
CONTINUOUS
 70
0
 71
3
 72
9
 73
5
 74
0
 42
0.0000001
 43
0.0000001
 44
0.0000000001
 40
0.0
 40
0.0
 40
0.0
 40
0.0
 40
0.3915453797
 40
1.0
 40
1.0
 40
1.0
 40
1.0
 10
121.2840918619
 20
499.5184174478
 30
0.0
 10
121.4763195768
 20
499.3401797934
 30
0.0
 10
122.0274234488
 20
498.9518475381
 30
0.0
 10
122.6230915561
 20
498.6447189731
 30
0.0
 10
122.9901008464
 20
498.4679314708
 30
0.0
  0
SPLINE
  5
589
100
AcDbEntity
  8
0
100
AcDbSpline
 62
7
  6
CONTINUOUS
 70
0
 71
3
 72
11
 73
7
 74
0
 42
0.0000001
 43
0.0000001
 44
0.0000000001
 40
0.0
 40
0.0
 40
0.0
 40
0.0
 40
0.1691442809
 40
0.409370273
 40
0.6932384323
 40
1.0
 40
1.0
 40
1.0
 40
1.0
 10
120.8075737671
 20
500.7399017246
 30
0.0
 10
120.7656221596
 20
500.991688537
 30
0.0
 10
120.6478702386
 20
501.5982557622
 30
0.0
 10
120.445830526
 20
502.6246777635
 30
0.0
 10
120.2073264566
 20
503.8556671755
 30
0.0
 10
120.0453261996
 20
504.7321610832
 30
0.0
 10
119.9634618037
 20
505.1878030579
 30
0.0
  0
SPLINE
  5
58A
100
AcDbEntity
  8
0
100
AcDbSpline
 62
7
  6
CONTINUOUS
 70
0
 71
3
 72
10
 73
6
 74
0
 42
0.0000001
 43
0.0000001
 44
0.0000000001
 40
0.0
 40
0.0
 40
0.0
 40
0.0
 40
0.5874767149
 40
0.8226000437
 40
1.0
 40
1.0
 40
1.0
 40
1.0
 10
123.5069276517
 20
537.4079210145
 30
0.0
 10
123.374890011
 20
538.3757103605
 30
0.0
 10
123.2225303491
 20
539.7353780884
 30
0.0
 10
123.0745701849
 20
541.3913802867
 30
0.0
 10
123.0172372688
 20
542.0748655429
 30
0.0
 10
122.9900956554
 20
542.3685641247
 30
0.0
  0
SPLINE
  5
58B
100
AcDbEntity
  8
0
100
AcDbSpline
 62
7
  6
CONTINUOUS
 70
0
 71
3
 72
11
 73
7
 74
0
 42
0.0000001
 43
0.0000001
 44
0.0000000001
 40
0.0
 40
0.0
 40
0.0
 40
0.0
 40
0.3067615725
 40
0.5906297294
 40
0.8308557195
 40
1.0
 40
1.0
 40
1.0
 40
1.0
 10
119.963461804
 20
535.6486410901
 30
0.0
 10
120.0453262011
 20
536.1042830719
 30
0.0
 10
120.2073264585
 20
536.9807769832
 30
0.0
 10
120.4458305282
 20
538.2117663958
 30
0.0
 10
120.6478702394
 20
539.2381883901
 30
0.0
 10
120.7656221598
 20
539.8447556117
 30
0.0
 10
120.8075737671
 20
540.0965424234
 30
0.0
  0
SPLINE
  5
58C
100
AcDbEntity
  8
0
100
AcDbSpline
 62
7
  6
CONTINUOUS
 70
0
 71
3
 72
14
 73
10
 74
0
 42
0.0000001
 43
0.0000001
 44
0.0000000001
 40
0.0
 40
0.0
 40
0.0
 40
0.0
 40
0.1253969576
 40
0.2493219537
 40
0.3724683803
 40
0.4967151773
 40
0.6223046192
 40
0.7484668337
 40
1.0
 40
1.0
 40
1.0
 40
1.0
 10
142.0381343535
 20
537.2275761338
 30
0.0
 10
142.0703778543
 20
537.4154146973
 30
0.0
 10
142.1826346212
 20
537.7834292482
 30
0.0
 10
142.5250287179
 20
538.2527464698
 30
0.0
 10
143.0388510052
 20
538.5308745879
 30
0.0
 10
143.6178138316
 20
538.5705191648
 30
0.0
 10
144.1784681225
 20
538.4300412644
 30
0.0
 10
144.8638846518
 20
538.0810727484
 30
0.0
 10
145.3009502092
 20
537.6930706429
 30
0.0
 10
145.5557217295
 20
537.4080423123
 30
0.0
  0
SPLINE
  5
58D
100
AcDbEntity
  8
0
100
AcDbSpline
 62
7
  6
CONTINUOUS
 70
0
 71
3
 72
19
 73
15
 74
0
 42
0.0000001
 43
0.0000001
 44
0.0000000001
 40
0.0
 40
0.0
 40
0.0
 40
0.0
 40
0.0627859658
 40
0.1251702207
 40
0.1872391262
 40
0.2492571986
 40
0.3115437564
 40
0.3742037602
 40
0.4995565061
 40
0.6247974016
 40
0.7495216318
 40
0.8120081206
 40
0.8745728769
 40
1.0
 40
1.0
 40
1.0
 40
1.0
 10
137.0328207332
 20
538.6427687674
 30
0.0
 10
137.0617734595
 20
538.7966542511
 30
0.0
 10
137.1412841574
 20
539.1008203613
 30
0.0
 10
137.3621134663
 20
539.5174974364
 30
0.0
 10
137.6760816879
 20
539.8670368512
 30
0.0
 10
138.0677658109
 20
540.1267894205
 30
0.0
 10
138.5136536832
 20
540.2789427057
 30
0.0
 10
139.1398306612
 20
540.3387578873
 30
0.0
 10
139.9222885615
 20
540.163662138
 30
0.0
 10
140.7309490839
 20
539.6672476723
 30
0.0
 10
141.2658999089
 20
539.087819185
 30
0.0
 10
141.5988201584
 20
538.5600775436
 30
0.0
 10
141.869743476
 20
537.9954037818
 30
0.0
 10
141.9857768827
 20
537.5359730123
 30
0.0
 10
142.0381343535
 20
537.2275761338
 30
0.0
  0
SPLINE
  5
58E
100
AcDbEntity
  8
0
100
AcDbSpline
 62
7
  6
CONTINUOUS
 70
0
 71
3
 72
16
 73
12
 74
0
 42
0.0000001
 43
0.0000001
 44
0.0000000001
 40
0.0
 40
0.0
 40
0.0
 40
0.0
 40
0.1246977851
 40
0.1869050281
 40
0.2490674355
 40
0.3115066313
 40
0.3743412413
 40
0.5000775858
 40
0.6256961556
 40
0.7508505086
 40
1.0
 40
1.0
 40
1.0
 40
1.0
 10
132.0299290984
 20
538.6427973856
 30
0.0
 10
131.978491293
 20
538.9491590176
 30
0.0
 10
131.8041143073
 20
539.4027993551
 30
0.0
 10
131.3856939275
 20
539.8682893694
 30
0.0
 10
130.9928215455
 20
540.1276481921
 30
0.0
 10
130.5462965942
 20
540.2798172498
 30
0.0
 10
129.9188281187
 20
540.338396806
 30
0.0
 10
129.1353263302
 20
540.1620359273
 30
0.0
 10
128.3255065044
 20
539.6616976945
 30
0.0
 10
127.4752303577
 20
538.7389551983
 30
0.0
 10
127.1071562854
 20
537.8289728902
 30
0.0
 10
127.0270125182
 20
537.2134822054
 30
0.0
  0
SPLINE
  5
58F
100
AcDbEntity
  8
0
100
AcDbSpline
 62
7
  6
CONTINUOUS
 70
0
 71
3
 72
16
 73
12
 74
0
 42
0.0000001
 43
0.0000001
 44
0.0000000001
 40
0.0
 40
0.0
 40
0.0
 40
0.0
 40
0.1249334758
 40
0.1870906576
 40
0.249077184
 40
0.3112487335
 40
0.3737815481
 40
0.4990284052
 40
0.6244884354
 40
0.7498206404
 40
1.0
 40
1.0
 40
1.0
 40
1.0
 10
131.9704874792
 20
538.632274201
 30
0.0
 10
131.921156505
 20
538.9319582177
 30
0.0
 10
131.7513089991
 20
539.3757750623
 30
0.0
 10
131.3413465394
 20
539.8287698371
 30
0.0
 10
130.9572330016
 20
540.0787470908
 30
0.0
 10
130.5218293818
 20
540.22270683
 30
0.0
 10
129.9114912377
 20
540.273210725
 30
0.0
 10
129.1512689846
 20
540.0932873681
 30
0.0
 10
128.3663977983
 20
539.5992978261
 30
0.0
 10
127.5388826113
 20
538.6938494166
 30
0.0
 10
127.1759368566
 20
537.8060961209
 30
0.0
 10
127.0922533521
 20
537.2036871838
 30
0.0
  0
SPLINE
  5
590
100
AcDbEntity
  8
0
100
AcDbSpline
 62
7
  6
CONTINUOUS
 70
0
 71
3
 72
11
 73
7
 74
0
 42
0.0000001
 43
0.0000001
 44
0.0000000001
 40
0.0
 40
0.0
 40
0.0
 40
0.0
 40
0.2513397841
 40
0.5027022547
 40
0.753568575
 40
1.0
 40
1.0
 40
1.0
 40
1.0
 10
128.5297034449
 20
531.0778320677
 30
0.0
 10
128.6082897796
 20
531.5682381023
 30
0.0
 10
128.8878384628
 20
532.5338013015
 30
0.0
 10
129.6451274715
 20
533.8327326744
 30
0.0
 10
130.6869445114
 20
534.9030628227
 30
0.0
 10
131.5298136646
 20
535.4291656739
 30
0.0
 10
131.9704877997
 20
535.6363848631
 30
0.0
  0
SPLINE
  5
591
100
AcDbEntity
  8
0
100
AcDbSpline
 62
7
  6
CONTINUOUS
 70
0
 71
3
 72
8
 73
4
 74
0
 42
0.0000001
 43
0.0000001
 44
0.0000000001
 40
0.0
 40
0.0
 40
0.0
 40
0.0
 40
1.0
 40
1.0
 40
1.0
 40
1.0
 10
128.4770854437
 20
530.9717064384
 30
0.0
 10
128.5042809256
 20
531.0003322914
 30
0.0
 10
128.5235235622
 20
531.0388340839
 30
0.0
 10
128.5297034449
 20
531.0778320677
 30
0.0
  0
LINE
  5
592
100
AcDbEntity
  8
0
100
AcDbLine
 62
7
  6
CONTINUOUS
 10
128.4771631061
 20
519.4648112558
 11
128.546674728
 21
519.4996738622
  0
LINE
  5
593
100
AcDbEntity
  8
0
100
AcDbLine
 62
7
  6
CONTINUOUS
 10
128.5466742528
 20
530.9367707415
 11
128.4771631588
 21
530.9716328417
  0
SPLINE
  5
594
100
AcDbEntity
  8
0
100
AcDbSpline
 62
7
  6
CONTINUOUS
 70
0
 71
3
 72
11
 73
7
 74
0
 42
0.0000001
 43
0.0000001
 44
0.0000000001
 40
0.0
 40
0.0
 40
0.0
 40
0.0
 40
0.2464321028
 40
0.4972986235
 40
0.7486610002
 40
1.0
 40
1.0
 40
1.0
 40
1.0
 10
131.9704864843
 20
514.800060037
 30
0.0
 10
131.5298112405
 20
515.0072797459
 30
0.0
 10
130.6869418206
 20
515.5333848072
 30
0.0
 10
129.6451223987
 20
516.6037145093
 30
0.0
 10
128.8878382021
 20
517.9026468794
 30
0.0
 10
128.6082895158
 20
518.8682076919
 30
0.0
 10
128.5297034449
 20
519.3586120803
 30
0.0
  0
SPLINE
  5
595
100
AcDbEntity
  8
0
100
AcDbSpline
 62
7
  6
CONTINUOUS
 70
0
 71
3
 72
8
 73
4
 74
0
 42
0.0000001
 43
0.0000001
 44
0.0000000001
 40
0.0
 40
0.0
 40
0.0
 40
0.0
 40
1.0
 40
1.0
 40
1.0
 40
1.0
 10
128.5297034449
 20
519.3586120803
 30
0.0
 10
128.5235243394
 20
519.3976101873
 30
0.0
 10
128.504280826
 20
519.4361117621
 30
0.0
 10
128.4770854437
 20
519.4647377096
 30
0.0
  0
LINE
  5
596
100
AcDbEntity
  8
0
100
AcDbLine
 62
7
  6
CONTINUOUS
 10
140.5855784132
 20
530.9716328922
 11
140.5160667913
 21
530.9367702858
  0
LINE
  5
597
100
AcDbEntity
  8
0
100
AcDbLine
 62
7
  6
CONTINUOUS
 10
140.5160672665
 20
519.4996734066
 11
140.5855783605
 21
519.4648113063
  0
SPLINE
  5
598
100
AcDbEntity
  8
0
100
AcDbSpline
 62
7
  6
CONTINUOUS
 70
0
 71
3
 72
8
 73
4
 74
0
 42
0.0000001
 43
0.0000001
 44
0.0000000001
 40
0.0
 40
0.0
 40
0.0
 40
0.0
 40
1.0
 40
1.0
 40
1.0
 40
1.0
 10
85.0801785483
 20
127.018225991
 30
0.0
 10
84.9371259703
 20
126.9131012237
 30
0.0
 10
84.7969604519
 20
126.8002122956
 30
0.0
 10
84.6805498039
 20
126.666183128
 30
0.0
  0
SPLINE
  5
599
100
AcDbEntity
  8
0
100
AcDbSpline
 62
7
  6
CONTINUOUS
 70
0
 71
3
 72
9
 73
5
 74
0
 42
0.0000001
 43
0.0000001
 44
0.0000000001
 40
0.0
 40
0.0
 40
0.0
 40
0.0
 40
0.2850388589
 40
1.0
 40
1.0
 40
1.0
 40
1.0
 10
84.6805498039
 20
126.666183128
 30
0.0
 10
84.6496399321
 20
126.6305951088
 30
0.0
 10
84.5479871478
 20
126.5013346768
 30
0.0
 10
84.4801640715
 20
126.3364563207
 30
0.0
 10
84.4801640715
 20
126.218222074
 30
0.0
  0
SPLINE
  5
59A
100
AcDbEntity
  8
0
100
AcDbSpline
 62
7
  6
CONTINUOUS
 70
0
 71
3
 72
9
 73
5
 74
0
 42
0.0000001
 43
0.0000001
 44
0.0000000001
 40
0.0
 40
0.0
 40
0.0
 40
0.0
 40
0.7149608278
 40
1.0
 40
1.0
 40
1.0
 40
1.0
 10
84.4801640715
 20
924.218222074
 30
0.0
 10
84.4801640715
 20
924.0999869953
 30
0.0
 10
84.5479880709
 20
923.9351074369
 30
0.0
 10
84.6496420432
 20
923.8058463952
 30
0.0
 10
84.680552287
 20
923.7702581638
 30
0.0
  0
SPLINE
  5
59B
100
AcDbEntity
  8
0
100
AcDbSpline
 62
7
  6
CONTINUOUS
 70
0
 71
3
 72
8
 73
4
 74
0
 42
0.0000001
 43
0.0000001
 44
0.0000000001
 40
0.0
 40
0.0
 40
0.0
 40
0.0
 40
1.0
 40
1.0
 40
1.0
 40
1.0
 10
84.680552287
 20
923.7702581638
 30
0.0
 10
84.7969599398
 20
923.6362332586
 30
0.0
 10
84.9371208712
 20
923.5233472309
 30
0.0
 10
85.0801690074
 20
923.4182251706
 30
0.0
  0
SPLINE
  5
59C
100
AcDbEntity
  8
0
100
AcDbSpline
 62
7
  6
CONTINUOUS
 70
0
 71
3
 72
8
 73
4
 74
0
 42
0.0000001
 43
0.0000001
 44
0.0000000001
 40
0.0
 40
0.0
 40
0.0
 40
0.0
 40
1.0
 40
1.0
 40
1.0
 40
1.0
 10
682.4801640715
 20
126.218222074
 30
0.0
 10
682.4801640715
 20
126.2758655613
 30
0.0
 10
682.4690245105
 20
126.334082376
 30
0.0
 10
682.450031921
 20
126.3885071238
 30
0.0
  0
SPLINE
  5
59D
100
AcDbEntity
  8
0
100
AcDbSpline
 62
7
  6
CONTINUOUS
 70
0
 71
3
 72
8
 73
4
 74
0
 42
0.0000001
 43
0.0000001
 44
0.0000000001
 40
0.0
 40
0.0
 40
0.0
 40
0.0
 40
1.0
 40
1.0
 40
1.0
 40
1.0
 10
682.450031921
 20
126.3885071238
 30
0.0
 10
682.4142589192
 20
126.491017453
 30
0.0
 10
682.3509717972
 20
126.5842151772
 30
0.0
 10
682.2797758561
 20
126.6661859843
 30
0.0
  0
SPLINE
  5
59E
100
AcDbEntity
  8
0
100
AcDbSpline
 62
7
  6
CONTINUOUS
 70
0
 71
3
 72
8
 73
4
 74
0
 42
0.0000001
 43
0.0000001
 44
0.0000000001
 40
0.0
 40
0.0
 40
0.0
 40
0.0
 40
1.0
 40
1.0
 40
1.0
 40
1.0
 10
681.7416026265
 20
127.1166386904
 30
0.0
 10
681.5903169209
 20
127.2209309053
 30
0.0
 10
681.4351692709
 20
127.3195426993
 30
0.0
 10
681.2801640715
 20
127.418222074
 30
0.0
  0
SPLINE
  5
59F
100
AcDbEntity
  8
0
100
AcDbSpline
 62
7
  6
CONTINUOUS
 70
0
 71
3
 72
8
 73
4
 74
0
 42
0.0000001
 43
0.0000001
 44
0.0000000001
 40
0.0
 40
0.0
 40
0.0
 40
0.0
 40
1.0
 40
1.0
 40
1.0
 40
1.0
 10
681.2801640715
 20
923.018222074
 30
0.0
 10
681.43516901
 20
923.1169012827
 30
0.0
 10
681.5903164002
 20
923.2155129076
 30
0.0
 10
681.7416018648
 20
923.3198049271
 30
0.0
  0
SPLINE
  5
5A0
100
AcDbEntity
  8
0
100
AcDbSpline
 62
7
  6
CONTINUOUS
 70
0
 71
3
 72
8
 73
4
 74
0
 42
0.0000001
 43
0.0000001
 44
0.0000000001
 40
0.0
 40
0.0
 40
0.0
 40
0.0
 40
1.0
 40
1.0
 40
1.0
 40
1.0
 10
682.2797783392
 20
923.77026102
 30
0.0
 10
682.35097441
 20
923.8522324742
 30
0.0
 10
682.4142614752
 20
923.9454311133
 30
0.0
 10
682.4500337357
 20
924.0479423086
 30
0.0
  0
SPLINE
  5
5A1
100
AcDbEntity
  8
0
100
AcDbSpline
 62
7
  6
CONTINUOUS
 70
0
 71
3
 72
8
 73
4
 74
0
 42
0.0000001
 43
0.0000001
 44
0.0000000001
 40
0.0
 40
0.0
 40
0.0
 40
0.0
 40
1.0
 40
1.0
 40
1.0
 40
1.0
 10
682.4500337357
 20
924.0479423086
 30
0.0
 10
682.4690252252
 20
924.1023654916
 30
0.0
 10
682.4801640715
 20
924.1605804266
 30
0.0
 10
682.4801640715
 20
924.218222074
 30
0.0
  0
SPLINE
  5
5A2
100
AcDbEntity
  8
0
100
AcDbSpline
 62
7
  6
CONTINUOUS
 70
0
 71
3
 72
8
 73
4
 74
0
 42
0.0000001
 43
0.0000001
 44
0.0000000001
 40
0.0
 40
0.0
 40
0.0
 40
0.0
 40
1.0
 40
1.0
 40
1.0
 40
1.0
 10
85.3847695233
 20
923.2693941745
 30
0.0
 10
85.2417012401
 20
923.3892383727
 30
0.0
 10
85.0967116507
 20
923.5070288063
 30
0.0
 10
84.9468307382
 20
923.6182352701
 30
0.0
  0
SPLINE
  5
5A3
100
AcDbEntity
  8
0
100
AcDbSpline
 62
7
  6
CONTINUOUS
 70
0
 71
3
 72
8
 73
4
 74
0
 42
0.0000001
 43
0.0000001
 44
0.0000000001
 40
0.0
 40
0.0
 40
0.0
 40
0.0
 40
1.0
 40
1.0
 40
1.0
 40
1.0
 10
84.6957226954
 20
923.7938723747
 30
0.0
 10
84.6250273996
 20
923.8400738463
 30
0.0
 10
84.55293996
 20
923.8842574294
 30
0.0
 10
84.4792875423
 20
923.9255820251
 30
0.0
  0
SPLINE
  5
5A4
100
AcDbEntity
  8
0
100
AcDbSpline
 62
7
  6
CONTINUOUS
 70
0
 71
3
 72
8
 73
4
 74
0
 42
0.0000001
 43
0.0000001
 44
0.0000000001
 40
0.0
 40
0.0
 40
0.0
 40
0.0
 40
1.0
 40
1.0
 40
1.0
 40
1.0
 10
84.4792875423
 20
923.9255820251
 30
0.0
 10
84.3930356322
 20
923.9739758923
 30
0.0
 10
84.3044352117
 20
924.018564692
 30
0.0
 10
84.2134974048
 20
924.0574449397
 30
0.0
  0
SPLINE
  5
5A5
100
AcDbEntity
  8
0
100
AcDbSpline
 62
7
  6
CONTINUOUS
 70
0
 71
3
 72
8
 73
4
 74
0
 42
0.0000001
 43
0.0000001
 44
0.0000000001
 40
0.0
 40
0.0
 40
0.0
 40
0.0
 40
1.0
 40
1.0
 40
1.0
 40
1.0
 10
84.2134974048
 20
924.0574449397
 30
0.0
 10
83.9833958489
 20
924.1558243246
 30
0.0
 10
83.730414405
 20
924.218222074
 30
0.0
 10
83.4801640715
 20
924.218222074
 30
0.0
  0
SPLINE
  5
5A6
100
AcDbEntity
  8
0
100
AcDbSpline
 62
7
  6
CONTINUOUS
 70
0
 71
3
 72
8
 73
4
 74
0
 42
0.0000001
 43
0.0000001
 44
0.0000000001
 40
0.0
 40
0.0
 40
0.0
 40
0.0
 40
1.0
 40
1.0
 40
1.0
 40
1.0
 10
683.4801640715
 20
924.218222074
 30
0.0
 10
683.2299137381
 20
924.218222074
 30
0.0
 10
682.9769322941
 20
924.1558243246
 30
0.0
 10
682.7468307382
 20
924.0574449397
 30
0.0
  0
SPLINE
  5
5A7
100
AcDbEntity
  8
0
100
AcDbSpline
 62
7
  6
CONTINUOUS
 70
0
 71
3
 72
8
 73
4
 74
0
 42
0.0000001
 43
0.0000001
 44
0.0000000001
 40
0.0
 40
0.0
 40
0.0
 40
0.0
 40
1.0
 40
1.0
 40
1.0
 40
1.0
 10
682.7468307382
 20
924.0574449397
 30
0.0
 10
682.6558929314
 20
924.018564692
 30
0.0
 10
682.5672925109
 20
923.9739758923
 30
0.0
 10
682.4810406008
 20
923.9255820251
 30
0.0
  0
SPLINE
  5
5A8
100
AcDbEntity
  8
0
100
AcDbSpline
 62
7
  6
CONTINUOUS
 70
0
 71
3
 72
8
 73
4
 74
0
 42
0.0000001
 43
0.0000001
 44
0.0000000001
 40
0.0
 40
0.0
 40
0.0
 40
0.0
 40
1.0
 40
1.0
 40
1.0
 40
1.0
 10
682.4810406008
 20
923.9255820251
 30
0.0
 10
682.4073899177
 20
923.8842584027
 30
0.0
 10
682.3353041394
 20
923.8400759269
 30
0.0
 10
682.264610445
 20
923.7938756406
 30
0.0
  0
SPLINE
  5
5A9
100
AcDbEntity
  8
0
100
AcDbSpline
 62
7
  6
CONTINUOUS
 70
0
 71
3
 72
8
 73
4
 74
0
 42
0.0000001
 43
0.0000001
 44
0.0000000001
 40
0.0
 40
0.0
 40
0.0
 40
0.0
 40
1.0
 40
1.0
 40
1.0
 40
1.0
 10
681.7314968623
 20
923.3982150455
 30
0.0
 10
681.5788873681
 20
923.2741679993
 30
0.0
 10
681.429509113
 20
923.1461806063
 30
0.0
 10
681.2801640715
 20
923.018222074
 30
0.0
  0
SPLINE
  5
5AA
100
AcDbEntity
  8
0
100
AcDbSpline
 62
7
  6
CONTINUOUS
 70
0
 71
3
 72
8
 73
4
 74
0
 42
0.0000001
 43
0.0000001
 44
0.0000000001
 40
0.0
 40
0.0
 40
0.0
 40
0.0
 40
1.0
 40
1.0
 40
1.0
 40
1.0
 10
681.2801640715
 20
127.418222074
 30
0.0
 10
681.429509113
 20
127.2902635417
 30
0.0
 10
681.5788873681
 20
127.1622761487
 30
0.0
 10
681.7314968623
 20
127.0382291025
 30
0.0
  0
SPLINE
  5
5AB
100
AcDbEntity
  8
0
100
AcDbSpline
 62
7
  6
CONTINUOUS
 70
0
 71
3
 72
8
 73
4
 74
0
 42
0.0000001
 43
0.0000001
 44
0.0000000001
 40
0.0
 40
0.0
 40
0.0
 40
0.0
 40
1.0
 40
1.0
 40
1.0
 40
1.0
 10
682.2646054476
 20
126.6425717734
 30
0.0
 10
682.3353007435
 20
126.5963703017
 30
0.0
 10
682.4073881831
 20
126.5521867186
 30
0.0
 10
682.4810406008
 20
126.5108621229
 30
0.0
  0
SPLINE
  5
5AC
100
AcDbEntity
  8
0
100
AcDbSpline
 62
7
  6
CONTINUOUS
 70
0
 71
3
 72
8
 73
4
 74
0
 42
0.0000001
 43
0.0000001
 44
0.0000000001
 40
0.0
 40
0.0
 40
0.0
 40
0.0
 40
1.0
 40
1.0
 40
1.0
 40
1.0
 10
682.4810406008
 20
126.5108621229
 30
0.0
 10
682.5672925109
 20
126.4624682558
 30
0.0
 10
682.6558929314
 20
126.4178794561
 30
0.0
 10
682.7468307382
 20
126.3789992083
 30
0.0
  0
SPLINE
  5
5AD
100
AcDbEntity
  8
0
100
AcDbSpline
 62
7
  6
CONTINUOUS
 70
0
 71
3
 72
8
 73
4
 74
0
 42
0.0000001
 43
0.0000001
 44
0.0000000001
 40
0.0
 40
0.0
 40
0.0
 40
0.0
 40
1.0
 40
1.0
 40
1.0
 40
1.0
 10
682.7468307382
 20
126.3789992083
 30
0.0
 10
682.8726267165
 20
126.3252154305
 30
0.0
 10
683.003901315
 20
126.2820978652
 30
0.0
 10
683.1378514136
 20
126.25426454
 30
0.0
  0
SPLINE
  5
5AE
100
AcDbEntity
  8
0
100
AcDbSpline
 62
7
  6
CONTINUOUS
 70
0
 71
3
 72
8
 73
4
 74
0
 42
0.0000001
 43
0.0000001
 44
0.0000000001
 40
0.0
 40
0.0
 40
0.0
 40
0.0
 40
1.0
 40
1.0
 40
1.0
 40
1.0
 10
683.1378514136
 20
126.25426454
 30
0.0
 10
683.2501868996
 20
126.2309224883
 30
0.0
 10
683.3654291039
 20
126.218222074
 30
0.0
 10
683.4801640715
 20
126.218222074
 30
0.0
  0
SPLINE
  5
5AF
100
AcDbEntity
  8
0
100
AcDbSpline
 62
7
  6
CONTINUOUS
 70
0
 71
3
 72
9
 73
5
 74
0
 42
0.0000001
 43
0.0000001
 44
0.0000000001
 40
0.0
 40
0.0
 40
0.0
 40
0.0
 40
0.733264826
 40
1.0
 40
1.0
 40
1.0
 40
1.0
 10
83.4801640715
 20
126.218222074
 30
0.0
 10
83.7361142667
 20
126.218222074
 30
0.0
 10
84.0874628117
 20
126.3072620409
 30
0.0
 10
84.3980897844
 20
126.4653040187
 30
0.0
 10
84.4792875423
 20
126.5108621229
 30
0.0
  0
SPLINE
  5
5B0
100
AcDbEntity
  8
0
100
AcDbSpline
 62
7
  6
CONTINUOUS
 70
0
 71
3
 72
8
 73
4
 74
0
 42
0.0000001
 43
0.0000001
 44
0.0000000001
 40
0.0
 40
0.0
 40
0.0
 40
0.0
 40
1.0
 40
1.0
 40
1.0
 40
1.0
 10
84.4792875423
 20
126.5108621229
 30
0.0
 10
84.5529382254
 20
126.5521857454
 30
0.0
 10
84.6250240036
 20
126.5963682211
 30
0.0
 10
84.6957176981
 20
126.6425685075
 30
0.0
  0
SPLINE
  5
5B1
100
AcDbEntity
  8
0
100
AcDbSpline
 62
7
  6
CONTINUOUS
 70
0
 71
3
 72
8
 73
4
 74
0
 42
0.0000001
 43
0.0000001
 44
0.0000000001
 40
0.0
 40
0.0
 40
0.0
 40
0.0
 40
1.0
 40
1.0
 40
1.0
 40
1.0
 10
84.9468307382
 20
126.818208878
 30
0.0
 10
85.0967116507
 20
126.9294153418
 30
0.0
 10
85.2417012401
 20
127.0472057754
 30
0.0
 10
85.3847695233
 20
127.1670499736
 30
0.0
  0
SPLINE
  5
5B2
100
AcDbEntity
  8
0
100
AcDbSpline
 62
7
  6
CONTINUOUS
 70
0
 71
3
 72
9
 73
5
 74
0
 42
0.0000001
 43
0.0000001
 44
0.0000000001
 40
0.0
 40
0.0
 40
0.0
 40
0.0
 40
0.1835779683
 40
1.0
 40
1.0
 40
1.0
 40
1.0
 10
683.4801640715
 20
924.218222074
 30
0.0
 10
683.4801640715
 20
924.1750443869
 30
0.0
 10
683.4130645039
 20
923.940109043
 30
0.0
 10
683.1835352122
 20
923.807564904
 30
0.0
 10
683.0163885871
 20
923.7130403781
 30
0.0
  0
SPLINE
  5
5B3
100
AcDbEntity
  8
0
100
AcDbSpline
 62
7
  6
CONTINUOUS
 70
0
 71
3
 72
8
 73
4
 74
0
 42
0.0000001
 43
0.0000001
 44
0.0000000001
 40
0.0
 40
0.0
 40
0.0
 40
0.0
 40
1.0
 40
1.0
 40
1.0
 40
1.0
 10
683.018591927
 20
126.7221564381
 30
0.0
 10
683.0956350142
 20
126.6784957353
 30
0.0
 10
683.1710989084
 20
126.6313188743
 30
0.0
 10
683.2413938287
 20
126.5774624128
 30
0.0
  0
SPLINE
  5
5B4
100
AcDbEntity
  8
0
100
AcDbSpline
 62
7
  6
CONTINUOUS
 70
0
 71
3
 72
9
 73
5
 74
0
 42
0.0000001
 43
0.0000001
 44
0.0000000001
 40
0.0
 40
0.0
 40
0.0
 40
0.0
 40
0.312517527
 40
1.0
 40
1.0
 40
1.0
 40
1.0
 10
683.2413938287
 20
126.5774624128
 30
0.0
 10
683.2776508648
 20
126.5496840803
 30
0.0
 10
683.3878632397
 20
126.4575701507
 30
0.0
 10
683.4801640715
 20
126.3186989443
 30
0.0
 10
683.4801640715
 20
126.218222074
 30
0.0
  0
SPLINE
  5
5B5
100
AcDbEntity
  8
0
100
AcDbSpline
 62
7
  6
CONTINUOUS
 70
0
 71
3
 72
8
 73
4
 74
0
 42
0.0000001
 43
0.0000001
 44
0.0000000001
 40
0.0
 40
0.0
 40
0.0
 40
0.0
 40
1.0
 40
1.0
 40
1.0
 40
1.0
 10
681.2801640715
 20
923.018222074
 30
0.0
 10
681.434122706
 20
923.2600597316
 30
0.0
 10
681.5880631022
 20
923.5019861969
 30
0.0
 10
681.7482555854
 20
923.7397404442
 30
0.0
  0
SPLINE
  5
5B6
100
AcDbEntity
  8
0
100
AcDbSpline
 62
7
  6
CONTINUOUS
 70
0
 71
3
 72
8
 73
4
 74
0
 42
0.0000001
 43
0.0000001
 44
0.0000000001
 40
0.0
 40
0.0
 40
0.0
 40
0.0
 40
1.0
 40
1.0
 40
1.0
 40
1.0
 10
681.7482555854
 20
923.7397404442
 30
0.0
 10
681.8343180288
 20
923.8674724768
 30
0.0
 10
681.9222146208
 20
923.9940300472
 30
0.0
 10
682.0134205064
 20
924.1181417016
 30
0.0
  0
SPLINE
  5
5B7
100
AcDbEntity
  8
0
100
AcDbSpline
 62
7
  6
CONTINUOUS
 70
0
 71
3
 72
8
 73
4
 74
0
 42
0.0000001
 43
0.0000001
 44
0.0000000001
 40
0.0
 40
0.0
 40
0.0
 40
0.0
 40
1.0
 40
1.0
 40
1.0
 40
1.0
 10
682.1026386213
 20
924.237209508
 30
0.0
 10
682.18670863
 20
924.3471346471
 30
0.0
 10
682.2739683593
 20
924.4548007183
 30
0.0
 10
682.3660344915
 20
924.5581212384
 30
0.0
  0
SPLINE
  5
5B8
100
AcDbEntity
  8
0
100
AcDbSpline
 62
7
  6
CONTINUOUS
 70
0
 71
3
 72
8
 73
4
 74
0
 42
0.0000001
 43
0.0000001
 44
0.0000000001
 40
0.0
 40
0.0
 40
0.0
 40
0.0
 40
1.0
 40
1.0
 40
1.0
 40
1.0
 10
682.3660344915
 20
924.5581212384
 30
0.0
 10
682.4830858845
 20
924.6894812784
 30
0.0
 10
682.608388376
 20
924.8150777756
 30
0.0
 10
682.7469260589
 20
924.9235388245
 30
0.0
  0
SPLINE
  5
5B9
100
AcDbEntity
  8
0
100
AcDbSpline
 62
7
  6
CONTINUOUS
 70
0
 71
3
 72
8
 73
4
 74
0
 42
0.0000001
 43
0.0000001
 44
0.0000000001
 40
0.0
 40
0.0
 40
0.0
 40
0.0
 40
1.0
 40
1.0
 40
1.0
 40
1.0
 10
682.7469260589
 20
924.9235388245
 30
0.0
 10
682.8648342249
 20
925.0158490401
 30
0.0
 10
682.9947457714
 20
925.0969113069
 30
0.0
 10
683.1345002874
 20
925.150690362
 30
0.0
  0
SPLINE
  5
5BA
100
AcDbEntity
  8
0
100
AcDbSpline
 62
7
  6
CONTINUOUS
 70
0
 71
3
 72
8
 73
4
 74
0
 42
0.0000001
 43
0.0000001
 44
0.0000000001
 40
0.0
 40
0.0
 40
0.0
 40
0.0
 40
1.0
 40
1.0
 40
1.0
 40
1.0
 10
683.1345002874
 20
925.150690362
 30
0.0
 10
683.2440675059
 20
925.1928530173
 30
0.0
 10
683.3627644767
 20
925.218222074
 30
0.0
 10
683.4801640715
 20
925.218222074
 30
0.0
  0
SPLINE
  5
5BB
100
AcDbEntity
  8
0
100
AcDbSpline
 62
7
  6
CONTINUOUS
 70
0
 71
3
 72
9
 73
5
 74
0
 42
0.0000001
 43
0.0000001
 44
0.0000000001
 40
0.0
 40
0.0
 40
0.0
 40
0.0
 40
0.228685913
 40
1.0
 40
1.0
 40
1.0
 40
1.0
 10
83.4801640715
 20
925.218222074
 30
0.0
 10
83.5428341684
 20
925.218222074
 30
0.0
 10
83.8174549633
 20
925.1876417348
 30
0.0
 10
84.066554058
 20
925.0413090935
 30
0.0
 10
84.2315388934
 20
924.9091761843
 30
0.0
  0
SPLINE
  5
5BC
100
AcDbEntity
  8
0
100
AcDbSpline
 62
7
  6
CONTINUOUS
 70
0
 71
3
 72
8
 73
4
 74
0
 42
0.0000001
 43
0.0000001
 44
0.0000000001
 40
0.0
 40
0.0
 40
0.0
 40
0.0
 40
1.0
 40
1.0
 40
1.0
 40
1.0
 10
84.2993771715
 20
924.8526038751
 30
0.0
 10
84.4580655235
 20
924.7150902823
 30
0.0
 10
84.5999930766
 20
924.5581150851
 30
0.0
 10
84.7327886484
 20
924.3954580305
 30
0.0
  0
SPLINE
  5
5BD
100
AcDbEntity
  8
0
100
AcDbSpline
 62
7
  6
CONTINUOUS
 70
0
 71
3
 72
8
 73
4
 74
0
 42
0.0000001
 43
0.0000001
 44
0.0000000001
 40
0.0
 40
0.0
 40
0.0
 40
0.0
 40
1.0
 40
1.0
 40
1.0
 40
1.0
 10
85.2120736252
 20
923.7397388873
 30
0.0
 10
85.2986062679
 20
923.6113089575
 30
0.0
 10
85.383279779
 20
923.4816251527
 30
0.0
 10
85.4671548369
 20
923.3514440489
 30
0.0
  0
SPLINE
  5
5BE
100
AcDbEntity
  8
0
100
AcDbSpline
 62
7
  6
CONTINUOUS
 70
0
 71
3
 72
9
 73
5
 74
0
 42
0.0000001
 43
0.0000001
 44
0.0000000001
 40
0.0
 40
0.0
 40
0.0
 40
0.0
 40
0.49031937
 40
1.0
 40
1.0
 40
1.0
 40
1.0
 10
83.4801640715
 20
126.218222074
 30
0.0
 10
83.4801640715
 20
126.235371237
 30
0.0
 10
83.4836897324
 20
126.2704238184
 30
0.0
 10
83.4937275241
 20
126.3041395873
 30
0.0
 10
83.5001700134
 20
126.3207610332
 30
0.0
  0
SPLINE
  5
5BF
100
AcDbEntity
  8
0
100
AcDbSpline
 62
7
  6
CONTINUOUS
 70
0
 71
3
 72
9
 73
5
 74
0
 42
0.0000001
 43
0.0000001
 44
0.0000000001
 40
0.0
 40
0.0
 40
0.0
 40
0.0
 40
0.191334112
 40
1.0
 40
1.0
 40
1.0
 40
1.0
 10
83.5001700134
 20
126.3207610332
 30
0.0
 10
83.5141426461
 20
126.3568100434
 30
0.0
 10
83.6211366294
 20
126.5317756027
 30
0.0
 10
83.8017042712
 20
126.6429670704
 30
0.0
 10
83.9439395558
 20
126.7234037698
 30
0.0
  0
SPLINE
  5
5C0
100
AcDbEntity
  8
0
100
AcDbSpline
 62
7
  6
CONTINUOUS
 70
0
 71
3
 72
8
 73
4
 74
0
 42
0.0000001
 43
0.0000001
 44
0.0000000001
 40
0.0
 40
0.0
 40
0.0
 40
0.0
 40
1.0
 40
1.0
 40
1.0
 40
1.0
 10
84.8885367934
 20
127.1370290422
 30
0.0
 10
85.1509775837
 20
127.2347058067
 30
0.0
 10
85.4156306366
 20
127.326363593
 30
0.0
 10
85.6801640715
 20
127.418222074
 30
0.0
  0
SPLINE
  5
5C1
100
AcDbEntity
  8
0
100
AcDbSpline
 62
7
  6
CONTINUOUS
 70
0
 71
3
 72
8
 73
4
 74
0
 42
0.0000001
 43
0.0000001
 44
0.0000000001
 40
0.0
 40
0.0
 40
0.0
 40
0.0
 40
1.0
 40
1.0
 40
1.0
 40
1.0
 10
85.6801640715
 20
923.018222074
 30
0.0
 10
85.415630736
 20
923.1100805205
 30
0.0
 10
85.1509777809
 20
923.2017382678
 30
0.0
 10
84.888537089
 20
923.2994149951
 30
0.0
  0
SPLINE
  5
5C2
100
AcDbEntity
  8
0
100
AcDbSpline
 62
7
  6
CONTINUOUS
 70
0
 71
3
 72
9
 73
5
 74
0
 42
0.0000001
 43
0.0000001
 44
0.0000000001
 40
0.0
 40
0.0
 40
0.0
 40
0.0
 40
0.3160688813
 40
1.0
 40
1.0
 40
1.0
 40
1.0
 10
83.9417362161
 20
923.71428771
 30
0.0
 10
83.8866172023
 20
923.7455239307
 30
0.0
 10
83.7184476343
 20
923.8491312076
 30
0.0
 10
83.549712162
 20
923.9878613021
 30
0.0
 10
83.5001685854
 20
924.1156868492
 30
0.0
  0
SPLINE
  5
5C3
100
AcDbEntity
  8
0
100
AcDbSpline
 62
7
  6
CONTINUOUS
 70
0
 71
3
 72
9
 73
5
 74
0
 42
0.0000001
 43
0.0000001
 44
0.0000000001
 40
0.0
 40
0.0
 40
0.0
 40
0.0
 40
0.5096800348
 40
1.0
 40
1.0
 40
1.0
 40
1.0
 10
83.5001685854
 20
924.1156868492
 30
0.0
 10
83.4937265444
 20
924.1323077204
 30
0.0
 10
83.4836894704
 20
924.1660222965
 30
0.0
 10
83.4801640715
 20
924.2010735416
 30
0.0
 10
83.4801640715
 20
924.218222074
 30
0.0
  0
SPLINE
  5
5C4
100
AcDbEntity
  8
0
100
AcDbSpline
 62
7
  6
CONTINUOUS
 70
0
 71
3
 72
8
 73
4
 74
0
 42
0.0000001
 43
0.0000001
 44
0.0000000001
 40
0.0
 40
0.0
 40
0.0
 40
0.0
 40
1.0
 40
1.0
 40
1.0
 40
1.0
 10
85.467155089
 20
127.0850004994
 30
0.0
 10
85.3832796038
 20
126.9548187349
 30
0.0
 10
85.2986056575
 20
126.8251342743
 30
0.0
 10
85.2120725577
 20
126.6967037037
 30
0.0
  0
SPLINE
  5
5C5
100
AcDbEntity
  8
0
100
AcDbSpline
 62
7
  6
CONTINUOUS
 70
0
 71
3
 72
9
 73
5
 74
0
 42
0.0000001
 43
0.0000001
 44
0.0000000001
 40
0.0
 40
0.0
 40
0.0
 40
0.0
 40
0.2704645052
 40
1.0
 40
1.0
 40
1.0
 40
1.0
 10
84.7327887778
 20
126.0409863019
 30
0.0
 10
84.6905156752
 20
125.989207331
 30
0.0
 10
84.5308710599
 20
125.800742104
 30
0.0
 10
84.3553694574
 20
125.6240514745
 30
0.0
 10
84.2134020842
 20
125.5129053235
 30
0.0
  0
SPLINE
  5
5C6
100
AcDbEntity
  8
0
100
AcDbSpline
 62
7
  6
CONTINUOUS
 70
0
 71
3
 72
8
 73
4
 74
0
 42
0.0000001
 43
0.0000001
 44
0.0000000001
 40
0.0
 40
0.0
 40
0.0
 40
0.0
 40
1.0
 40
1.0
 40
1.0
 40
1.0
 10
84.2134020842
 20
125.5129053235
 30
0.0
 10
84.0954939181
 20
125.420595108
 30
0.0
 10
83.9655823717
 20
125.3395328411
 30
0.0
 10
83.8258278557
 20
125.285753786
 30
0.0
  0
SPLINE
  5
5C7
100
AcDbEntity
  8
0
100
AcDbSpline
 62
7
  6
CONTINUOUS
 70
0
 71
3
 72
8
 73
4
 74
0
 42
0.0000001
 43
0.0000001
 44
0.0000000001
 40
0.0
 40
0.0
 40
0.0
 40
0.0
 40
1.0
 40
1.0
 40
1.0
 40
1.0
 10
83.8258278557
 20
125.285753786
 30
0.0
 10
83.7162606372
 20
125.2435911308
 30
0.0
 10
83.5975636664
 20
125.218222074
 30
0.0
 10
83.4801640715
 20
125.218222074
 30
0.0
  0
SPLINE
  5
5C8
100
AcDbEntity
  8
0
100
AcDbSpline
 62
7
  6
CONTINUOUS
 70
0
 71
3
 72
9
 73
5
 74
0
 42
0.0000001
 43
0.0000001
 44
0.0000000001
 40
0.0
 40
0.0
 40
0.0
 40
0.0
 40
0.228685913
 40
1.0
 40
1.0
 40
1.0
 40
1.0
 10
683.4801640715
 20
125.218222074
 30
0.0
 10
683.4174939747
 20
125.218222074
 30
0.0
 10
683.1428731798
 20
125.2488024132
 30
0.0
 10
682.8937740851
 20
125.3951350545
 30
0.0
 10
682.7287892497
 20
125.5272679638
 30
0.0
  0
SPLINE
  5
5C9
100
AcDbEntity
  8
0
100
AcDbSpline
 62
7
  6
CONTINUOUS
 70
0
 71
3
 72
9
 73
5
 74
0
 42
0.0000001
 43
0.0000001
 44
0.0000000001
 40
0.0
 40
0.0
 40
0.0
 40
0.0
 40
0.2263944319
 40
1.0
 40
1.0
 40
1.0
 40
1.0
 10
682.7287892497
 20
125.5272679638
 30
0.0
 10
682.6746072272
 20
125.5706612141
 30
0.0
 10
682.444678824
 20
125.7741075834
 30
0.0
 10
682.2467400984
 20
126.0108160307
 30
0.0
 10
682.1026415655
 20
126.199230777
 30
0.0
  0
SPLINE
  5
5CA
100
AcDbEntity
  8
0
100
AcDbSpline
 62
7
  6
CONTINUOUS
 70
0
 71
3
 72
8
 73
4
 74
0
 42
0.0000001
 43
0.0000001
 44
0.0000000001
 40
0.0
 40
0.0
 40
0.0
 40
0.0
 40
1.0
 40
1.0
 40
1.0
 40
1.0
 10
682.0134020842
 20
126.3183274972
 30
0.0
 10
681.9204361614
 20
126.4448351465
 30
0.0
 10
681.8309061215
 20
126.5738818102
 30
0.0
 10
681.743255803
 20
126.7041287673
 30
0.0
  0
SPLINE
  5
5CB
100
AcDbEntity
  8
0
100
AcDbSpline
 62
7
  6
CONTINUOUS
 70
0
 71
3
 72
8
 73
4
 74
0
 42
0.0000001
 43
0.0000001
 44
0.0000000001
 40
0.0
 40
0.0
 40
0.0
 40
0.0
 40
1.0
 40
1.0
 40
1.0
 40
1.0
 10
681.743255803
 20
126.7041287673
 30
0.0
 10
681.5848628942
 20
126.9394980706
 30
0.0
 10
681.4325205372
 20
127.1789010974
 30
0.0
 10
681.2801640715
 20
127.418222074
 30
0.0
  0
SPLINE
  5
5CC
100
AcDbEntity
  8
0
100
AcDbSpline
 62
7
  6
CONTINUOUS
 70
0
 71
3
 72
8
 73
4
 74
0
 42
0.0000001
 43
0.0000001
 44
0.0000000001
 40
0.0
 40
0.0
 40
0.0
 40
0.0
 40
1.0
 40
1.0
 40
1.0
 40
1.0
 10
671.4458390475
 20
128.5373126192
 30
0.0
 10
671.2733966423
 20
128.8086186708
 30
0.0
 10
671.0833002838
 20
129.0686298271
 30
0.0
 10
670.8888009144
 20
129.324585589
 30
0.0
  0
SPLINE
  5
5CD
100
AcDbEntity
  8
0
100
AcDbSpline
 62
7
  6
CONTINUOUS
 70
0
 71
3
 72
8
 73
4
 74
0
 42
0.0000001
 43
0.0000001
 44
0.0000000001
 40
0.0
 40
0.0
 40
0.0
 40
0.0
 40
1.0
 40
1.0
 40
1.0
 40
1.0
 10
670.585474393
 20
920.718222074
 30
0.0
 10
670.8220274312
 20
921.0230876995
 30
0.0
 10
671.0591854528
 20
921.3280247354
 30
0.0
 10
671.2779609936
 20
921.6458889395
 30
0.0
  0
SPLINE
  5
5CE
100
AcDbEntity
  8
0
100
AcDbSpline
 62
7
  6
CONTINUOUS
 70
0
 71
3
 72
8
 73
4
 74
0
 42
0.0000001
 43
0.0000001
 44
0.0000000001
 40
0.0
 40
0.0
 40
0.0
 40
0.0
 40
1.0
 40
1.0
 40
1.0
 40
1.0
 10
672.0804739227
 20
128.4707539373
 30
0.0
 10
672.2456519931
 20
128.3984534853
 30
0.0
 10
672.4168153096
 20
128.3377291895
 30
0.0
 10
672.5918300043
 20
128.2943586126
 30
0.0
  0
SPLINE
  5
5CF
100
AcDbEntity
  8
0
100
AcDbSpline
 62
7
  6
CONTINUOUS
 70
0
 71
3
 72
8
 73
4
 74
0
 42
0.0000001
 43
0.0000001
 44
0.0000000001
 40
0.0
 40
0.0
 40
0.0
 40
0.0
 40
1.0
 40
1.0
 40
1.0
 40
1.0
 10
672.5918300043
 20
128.2943586126
 30
0.0
 10
672.7903443414
 20
128.2451645644
 30
0.0
 10
672.9961256474
 20
128.218222074
 30
0.0
 10
673.2006445864
 20
128.218222074
 30
0.0
  0
SPLINE
  5
5D0
100
AcDbEntity
  8
0
100
AcDbSpline
 62
7
  6
CONTINUOUS
 70
0
 71
3
 72
8
 73
4
 74
0
 42
0.0000001
 43
0.0000001
 44
0.0000000001
 40
0.0
 40
0.0
 40
0.0
 40
0.0
 40
1.0
 40
1.0
 40
1.0
 40
1.0
 10
92.8620969328
 20
128.218222074
 30
0.0
 10
93.2448580504
 20
128.218222074
 30
0.0
 10
93.6316255162
 20
128.3172736305
 30
0.0
 10
93.9822675966
 20
128.4707539373
 30
0.0
  0
SPLINE
  5
5D1
100
AcDbEntity
  8
0
100
AcDbSpline
 62
7
  6
CONTINUOUS
 70
0
 71
3
 72
8
 73
4
 74
0
 42
0.0000001
 43
0.0000001
 44
0.0000000001
 40
0.0
 40
0.0
 40
0.0
 40
0.0
 40
1.0
 40
1.0
 40
1.0
 40
1.0
 10
94.6885406791
 20
128.8578574195
 30
0.0
 10
94.873508335
 20
129.0338808901
 30
0.0
 10
95.045790894
 20
129.2231083737
 30
0.0
 10
95.2143583105
 20
129.4148955527
 30
0.0
  0
SPLINE
  5
5D2
100
AcDbEntity
  8
0
100
AcDbSpline
 62
7
  6
CONTINUOUS
 70
0
 71
3
 72
9
 73
5
 74
0
 42
0.0000001
 43
0.0000001
 44
0.0000000001
 40
0.0
 40
0.0
 40
0.0
 40
0.0
 40
0.7613309911
 40
1.0
 40
1.0
 40
1.0
 40
1.0
 10
670.585474393
 20
129.718222074
 30
0.0
 10
670.7787699619
 20
129.4936621951
 30
0.0
 10
671.032319966
 20
129.1979220008
 30
0.0
 10
671.3069145121
 20
128.9218900901
 30
0.0
 10
671.3742008401
 20
128.8578574195
 30
0.0
  0
SPLINE
  5
5D3
100
AcDbEntity
  8
0
100
AcDbSpline
 62
7
  6
CONTINUOUS
 70
0
 71
3
 72
8
 73
4
 74
0
 42
0.0000001
 43
0.0000001
 44
0.0000000001
 40
0.0
 40
0.0
 40
0.0
 40
0.0
 40
1.0
 40
1.0
 40
1.0
 40
1.0
 10
94.6169024717
 20
921.8991315288
 30
0.0
 10
94.7893448769
 20
921.6278254773
 30
0.0
 10
94.9794412354
 20
921.3678143209
 30
0.0
 10
95.1739406048
 20
921.111858559
 30
0.0
  0
SPLINE
  5
5D4
100
AcDbEntity
  8
0
100
AcDbSpline
 62
7
  6
CONTINUOUS
 70
0
 71
3
 72
8
 73
4
 74
0
 42
0.0000001
 43
0.0000001
 44
0.0000000001
 40
0.0
 40
0.0
 40
0.0
 40
0.0
 40
1.0
 40
1.0
 40
1.0
 40
1.0
 10
95.4772671262
 20
129.718222074
 30
0.0
 10
95.240714088
 20
129.4133564485
 30
0.0
 10
95.0035560664
 20
129.1084194126
 30
0.0
 10
94.7847805256
 20
128.7905552086
 30
0.0
  0
SPLINE
  5
5D5
100
AcDbEntity
  8
0
100
AcDbSpline
 62
7
  6
CONTINUOUS
 70
0
 71
3
 72
8
 73
4
 74
0
 42
0.0000001
 43
0.0000001
 44
0.0000000001
 40
0.0
 40
0.0
 40
0.0
 40
0.0
 40
1.0
 40
1.0
 40
1.0
 40
1.0
 10
93.9822675966
 20
921.9656902107
 30
0.0
 10
93.8170895262
 20
922.0379906628
 30
0.0
 10
93.6459262097
 20
922.0987149586
 30
0.0
 10
93.4709115149
 20
922.1420855355
 30
0.0
  0
SPLINE
  5
5D6
100
AcDbEntity
  8
0
100
AcDbSpline
 62
7
  6
CONTINUOUS
 70
0
 71
3
 72
8
 73
4
 74
0
 42
0.0000001
 43
0.0000001
 44
0.0000000001
 40
0.0
 40
0.0
 40
0.0
 40
0.0
 40
1.0
 40
1.0
 40
1.0
 40
1.0
 10
93.4709115149
 20
922.1420855355
 30
0.0
 10
93.2723971778
 20
922.1912795837
 30
0.0
 10
93.0666158719
 20
922.218222074
 30
0.0
 10
92.8620969328
 20
922.218222074
 30
0.0
  0
SPLINE
  5
5D7
100
AcDbEntity
  8
0
100
AcDbSpline
 62
7
  6
CONTINUOUS
 70
0
 71
3
 72
8
 73
4
 74
0
 42
0.0000001
 43
0.0000001
 44
0.0000000001
 40
0.0
 40
0.0
 40
0.0
 40
0.0
 40
1.0
 40
1.0
 40
1.0
 40
1.0
 10
673.2006445864
 20
922.218222074
 30
0.0
 10
672.8178834689
 20
922.218222074
 30
0.0
 10
672.4311160031
 20
922.1191705175
 30
0.0
 10
672.0804739227
 20
921.9656902108
 30
0.0
  0
SPLINE
  5
5D8
100
AcDbEntity
  8
0
100
AcDbSpline
 62
7
  6
CONTINUOUS
 70
0
 71
3
 72
8
 73
4
 74
0
 42
0.0000001
 43
0.0000001
 44
0.0000000001
 40
0.0
 40
0.0
 40
0.0
 40
0.0
 40
1.0
 40
1.0
 40
1.0
 40
1.0
 10
671.3742008401
 20
921.5785867285
 30
0.0
 10
671.1892331842
 20
921.402563258
 30
0.0
 10
671.0169506252
 20
921.2133357743
 30
0.0
 10
670.8483832087
 20
921.0215485954
 30
0.0
  0
SPLINE
  5
5D9
100
AcDbEntity
  8
0
100
AcDbSpline
 62
7
  6
CONTINUOUS
 70
0
 71
3
 72
9
 73
5
 74
0
 42
0.0000001
 43
0.0000001
 44
0.0000000001
 40
0.0
 40
0.0
 40
0.0
 40
0.0
 40
0.7613309911
 40
1.0
 40
1.0
 40
1.0
 40
1.0
 10
95.4772671262
 20
920.718222074
 30
0.0
 10
95.2839715573
 20
920.9427819529
 30
0.0
 10
95.0304215532
 20
921.2385221473
 30
0.0
 10
94.7558270071
 20
921.514554058
 30
0.0
 10
94.6885406791
 20
921.5785867285
 30
0.0
  0
SPLINE
  5
5DA
100
AcDbEntity
  8
0
100
AcDbSpline
 62
7
  6
CONTINUOUS
 70
0
 71
3
 72
8
 73
4
 74
0
 42
0.0000001
 43
0.0000001
 44
0.0000000001
 40
0.0
 40
0.0
 40
0.0
 40
0.0
 40
1.0
 40
1.0
 40
1.0
 40
1.0
 10
670.585474393
 20
129.718222074
 30
0.0
 10
670.7881050441
 20
129.5876485657
 30
0.0
 10
670.9907519242
 20
129.4570866274
 30
0.0
 10
671.1921274358
 20
129.3245855891
 30
0.0
  0
SPLINE
  5
5DB
100
AcDbEntity
  8
0
100
AcDbSpline
 62
7
  6
CONTINUOUS
 70
0
 71
3
 72
8
 73
4
 74
0
 42
0.0000001
 43
0.0000001
 44
0.0000000001
 40
0.0
 40
0.0
 40
0.0
 40
0.0
 40
1.0
 40
1.0
 40
1.0
 40
1.0
 10
671.1921274358
 20
129.3245855891
 30
0.0
 10
671.3876843077
 20
129.1959130987
 30
0.0
 10
671.5821020487
 20
129.0654265948
 30
0.0
 10
671.7737133857
 20
128.9309491041
 30
0.0
  0
SPLINE
  5
5DC
100
AcDbEntity
  8
0
100
AcDbSpline
 62
7
  6
CONTINUOUS
 70
0
 71
3
 72
8
 73
4
 74
0
 42
0.0000001
 43
0.0000001
 44
0.0000000001
 40
0.0
 40
0.0
 40
0.0
 40
0.0
 40
1.0
 40
1.0
 40
1.0
 40
1.0
 10
671.7737133857
 20
128.9309491041
 30
0.0
 10
671.9543874703
 20
128.8041476428
 30
0.0
 10
672.1327191318
 20
128.6737854714
 30
0.0
 10
672.306203702
 20
128.5373126192
 30
0.0
  0
SPLINE
  5
5DD
100
AcDbEntity
  8
0
100
AcDbSpline
 62
7
  6
CONTINUOUS
 70
0
 71
3
 72
8
 73
4
 74
0
 42
0.0000001
 43
0.0000001
 44
0.0000000001
 40
0.0
 40
0.0
 40
0.0
 40
0.0
 40
1.0
 40
1.0
 40
1.0
 40
1.0
 10
670.585474393
 20
920.718222074
 30
0.0
 10
670.7567019642
 20
921.1160671241
 30
0.0
 10
670.9274578077
 20
921.5142818401
 30
0.0
 10
671.1112920244
 20
921.9064610667
 30
0.0
  0
SPLINE
  5
5DE
100
AcDbEntity
  8
0
100
AcDbSpline
 62
7
  6
CONTINUOUS
 70
0
 71
3
 72
8
 73
4
 74
0
 42
0.0000001
 43
0.0000001
 44
0.0000000001
 40
0.0
 40
0.0
 40
0.0
 40
0.0
 40
1.0
 40
1.0
 40
1.0
 40
1.0
 10
671.1738072374
 20
922.0383797092
 30
0.0
 10
671.2383403741
 20
922.1730127621
 30
0.0
 10
671.3047589055
 20
922.3067832993
 30
0.0
 10
671.3742008401
 20
922.4389513831
 30
0.0
  0
SPLINE
  5
5DF
100
AcDbEntity
  8
0
100
AcDbSpline
 62
7
  6
CONTINUOUS
 70
0
 71
3
 72
9
 73
5
 74
0
 42
0.0000001
 43
0.0000001
 44
0.0000000001
 40
0.0
 40
0.0
 40
0.0
 40
0.0
 40
0.2354077177
 40
1.0
 40
1.0
 40
1.0
 40
1.0
 10
94.6885406791
 20
922.4389513831
 30
0.0
 10
94.733508647
 20
922.3533643357
 30
0.0
 10
94.9190260979
 20
921.9868957642
 30
0.0
 10
95.0880217897
 20
921.6123554775
 30
0.0
 10
95.2143583105
 20
921.3248751168
 30
0.0
  0
SPLINE
  5
5E0
100
AcDbEntity
  8
0
100
AcDbSpline
 62
7
  6
CONTINUOUS
 70
0
 71
3
 72
9
 73
5
 74
0
 42
0.0000001
 43
0.0000001
 44
0.0000000001
 40
0.0
 40
0.0
 40
0.0
 40
0.0
 40
0.2228549253
 40
1.0
 40
1.0
 40
1.0
 40
1.0
 10
92.8620969328
 20
923.718222074
 30
0.0
 10
92.9642787196
 20
923.718222074
 30
0.0
 10
93.424554895
 20
923.6574012712
 30
0.0
 10
93.8203459579
 20
923.3689162571
 30
0.0
 10
94.0797260969
 20
923.1245935656
 30
0.0
  0
SPLINE
  5
5E1
100
AcDbEntity
  8
0
100
AcDbSpline
 62
7
  6
CONTINUOUS
 70
0
 71
3
 72
9
 73
5
 74
0
 42
0.0000001
 43
0.0000001
 44
0.0000000001
 40
0.0
 40
0.0
 40
0.0
 40
0.0
 40
0.233846505
 40
1.0
 40
1.0
 40
1.0
 40
1.0
 10
94.0797260969
 20
923.1245935656
 30
0.0
 10
94.1317851034
 20
923.0755566709
 30
0.0
 10
94.3485776095
 20
922.8596621459
 30
0.0
 10
94.545093816
 20
922.6242237228
 30
0.0
 10
94.6885406791
 20
922.4389513831
 30
0.0
  0
SPLINE
  5
5E2
100
AcDbEntity
  8
0
100
AcDbSpline
 62
7
  6
CONTINUOUS
 70
0
 71
3
 72
9
 73
5
 74
0
 42
0.0000001
 43
0.0000001
 44
0.0000000001
 40
0.0
 40
0.0
 40
0.0
 40
0.0
 40
0.2655836724
 40
1.0
 40
1.0
 40
1.0
 40
1.0
 10
671.3742008401
 20
922.4389513831
 30
0.0
 10
671.4239206004
 20
922.5031681678
 30
0.0
 10
671.6143906395
 20
922.7423091327
 30
0.0
 10
671.8195372772
 20
922.9706055981
 30
0.0
 10
671.9830154223
 20
923.1245935656
 30
0.0
  0
SPLINE
  5
5E3
100
AcDbEntity
  8
0
100
AcDbSpline
 62
7
  6
CONTINUOUS
 70
0
 71
3
 72
8
 73
4
 74
0
 42
0.0000001
 43
0.0000001
 44
0.0000000001
 40
0.0
 40
0.0
 40
0.0
 40
0.0
 40
1.0
 40
1.0
 40
1.0
 40
1.0
 10
671.9830154223
 20
923.1245935656
 30
0.0
 10
672.0980868671
 20
923.2329849221
 30
0.0
 10
672.220178244
 20
923.3349705711
 30
0.0
 10
672.3508334443
 20
923.423961257
 30
0.0
  0
SPLINE
  5
5E4
100
AcDbEntity
  8
0
100
AcDbSpline
 62
7
  6
CONTINUOUS
 70
0
 71
3
 72
9
 73
5
 74
0
 42
0.0000001
 43
0.0000001
 44
0.0000000001
 40
0.0
 40
0.0
 40
0.0
 40
0.0
 40
0.2733173187
 40
1.0
 40
1.0
 40
1.0
 40
1.0
 10
672.3508334443
 20
923.423961257
 30
0.0
 10
672.4190990043
 20
923.4704576765
 30
0.0
 10
672.6764025516
 20
923.6278491035
 30
0.0
 10
672.9810423206
 20
923.718222074
 30
0.0
 10
673.2006445864
 20
923.718222074
 30
0.0
  0
SPLINE
  5
5E5
100
AcDbEntity
  8
0
100
AcDbSpline
 62
7
  6
CONTINUOUS
 70
0
 71
3
 72
8
 73
4
 74
0
 42
0.0000001
 43
0.0000001
 44
0.0000000001
 40
0.0
 40
0.0
 40
0.0
 40
0.0
 40
1.0
 40
1.0
 40
1.0
 40
1.0
 10
95.4772671262
 20
129.718222074
 30
0.0
 10
95.3060395551
 20
129.3203770239
 30
0.0
 10
95.1352837115
 20
128.9221623079
 30
0.0
 10
94.9514494948
 20
128.5299830813
 30
0.0
  0
SPLINE
  5
5E6
100
AcDbEntity
  8
0
100
AcDbSpline
 62
7
  6
CONTINUOUS
 70
0
 71
3
 72
8
 73
4
 74
0
 42
0.0000001
 43
0.0000001
 44
0.0000000001
 40
0.0
 40
0.0
 40
0.0
 40
0.0
 40
1.0
 40
1.0
 40
1.0
 40
1.0
 10
94.8889342818
 20
128.3980644388
 30
0.0
 10
94.8244011452
 20
128.2634313859
 30
0.0
 10
94.7579826137
 20
128.1296608488
 30
0.0
 10
94.6885406791
 20
127.9974927649
 30
0.0
  0
SPLINE
  5
5E7
100
AcDbEntity
  8
0
100
AcDbSpline
 62
7
  6
CONTINUOUS
 70
0
 71
3
 72
9
 73
5
 74
0
 42
0.0000001
 43
0.0000001
 44
0.0000000001
 40
0.0
 40
0.0
 40
0.0
 40
0.0
 40
0.2354077177
 40
1.0
 40
1.0
 40
1.0
 40
1.0
 10
671.3742008401
 20
127.9974927649
 30
0.0
 10
671.3292328722
 20
128.0830798124
 30
0.0
 10
671.1437154213
 20
128.4495483838
 30
0.0
 10
670.9747197295
 20
128.8240886706
 30
0.0
 10
670.8483832087
 20
129.1115690312
 30
0.0
  0
SPLINE
  5
5E8
100
AcDbEntity
  8
0
100
AcDbSpline
 62
7
  6
CONTINUOUS
 70
0
 71
3
 72
9
 73
5
 74
0
 42
0.0000001
 43
0.0000001
 44
0.0000000001
 40
0.0
 40
0.0
 40
0.0
 40
0.0
 40
0.2228549253
 40
1.0
 40
1.0
 40
1.0
 40
1.0
 10
673.2006445864
 20
126.718222074
 30
0.0
 10
673.0984627997
 20
126.718222074
 30
0.0
 10
672.6381866242
 20
126.7790428769
 30
0.0
 10
672.2423955613
 20
127.067527891
 30
0.0
 10
671.9830154223
 20
127.3118505824
 30
0.0
  0
SPLINE
  5
5E9
100
AcDbEntity
  8
0
100
AcDbSpline
 62
7
  6
CONTINUOUS
 70
0
 71
3
 72
9
 73
5
 74
0
 42
0.0000001
 43
0.0000001
 44
0.0000000001
 40
0.0
 40
0.0
 40
0.0
 40
0.0
 40
0.233846505
 40
1.0
 40
1.0
 40
1.0
 40
1.0
 10
671.9830154223
 20
127.3118505824
 30
0.0
 10
671.9309564159
 20
127.3608874771
 30
0.0
 10
671.7141639097
 20
127.5767820021
 30
0.0
 10
671.5176477032
 20
127.8122204252
 30
0.0
 10
671.3742008401
 20
127.9974927649
 30
0.0
  0
SPLINE
  5
5EA
100
AcDbEntity
  8
0
100
AcDbSpline
 62
7
  6
CONTINUOUS
 70
0
 71
3
 72
9
 73
5
 74
0
 42
0.0000001
 43
0.0000001
 44
0.0000000001
 40
0.0
 40
0.0
 40
0.0
 40
0.0
 40
0.2655836724
 40
1.0
 40
1.0
 40
1.0
 40
1.0
 10
94.6885406791
 20
127.9974927649
 30
0.0
 10
94.6388209188
 20
127.9332759802
 30
0.0
 10
94.4483508797
 20
127.6941350154
 30
0.0
 10
94.2432042421
 20
127.4658385499
 30
0.0
 10
94.0797260969
 20
127.3118505824
 30
0.0
  0
SPLINE
  5
5EB
100
AcDbEntity
  8
0
100
AcDbSpline
 62
7
  6
CONTINUOUS
 70
0
 71
3
 72
8
 73
4
 74
0
 42
0.0000001
 43
0.0000001
 44
0.0000000001
 40
0.0
 40
0.0
 40
0.0
 40
0.0
 40
1.0
 40
1.0
 40
1.0
 40
1.0
 10
94.0797260969
 20
127.3118505824
 30
0.0
 10
93.9646546522
 20
127.203459226
 30
0.0
 10
93.8425632753
 20
127.1014735769
 30
0.0
 10
93.7119080749
 20
127.012482891
 30
0.0
  0
SPLINE
  5
5EC
100
AcDbEntity
  8
0
100
AcDbSpline
 62
7
  6
CONTINUOUS
 70
0
 71
3
 72
9
 73
5
 74
0
 42
0.0000001
 43
0.0000001
 44
0.0000000001
 40
0.0
 40
0.0
 40
0.0
 40
0.0
 40
0.2733173187
 40
1.0
 40
1.0
 40
1.0
 40
1.0
 10
93.7119080749
 20
127.012482891
 30
0.0
 10
93.6436425149
 20
126.9659864715
 30
0.0
 10
93.3863389677
 20
126.8085950446
 30
0.0
 10
93.0816991987
 20
126.718222074
 30
0.0
 10
92.8620969328
 20
126.718222074
 30
0.0
  0
SPLINE
  5
5ED
100
AcDbEntity
  8
0
100
AcDbSpline
 62
7
  6
CONTINUOUS
 70
0
 71
3
 72
8
 73
4
 74
0
 42
0.0000001
 43
0.0000001
 44
0.0000000001
 40
0.0
 40
0.0
 40
0.0
 40
0.0
 40
1.0
 40
1.0
 40
1.0
 40
1.0
 10
95.4772671262
 20
920.718222074
 30
0.0
 10
95.2746364751
 20
920.8487955823
 30
0.0
 10
95.0719895951
 20
920.9793575206
 30
0.0
 10
94.8706140834
 20
921.111858559
 30
0.0
  0
SPLINE
  5
5EE
100
AcDbEntity
  8
0
100
AcDbSpline
 62
7
  6
CONTINUOUS
 70
0
 71
3
 72
8
 73
4
 74
0
 42
0.0000001
 43
0.0000001
 44
0.0000000001
 40
0.0
 40
0.0
 40
0.0
 40
0.0
 40
1.0
 40
1.0
 40
1.0
 40
1.0
 10
94.8706140834
 20
921.111858559
 30
0.0
 10
94.6750572115
 20
921.2405310493
 30
0.0
 10
94.4806394705
 20
921.3710175533
 30
0.0
 10
94.2890281336
 20
921.5054950439
 30
0.0
  0
SPLINE
  5
5EF
100
AcDbEntity
  8
0
100
AcDbSpline
 62
7
  6
CONTINUOUS
 70
0
 71
3
 72
8
 73
4
 74
0
 42
0.0000001
 43
0.0000001
 44
0.0000000001
 40
0.0
 40
0.0
 40
0.0
 40
0.0
 40
1.0
 40
1.0
 40
1.0
 40
1.0
 10
94.2890281336
 20
921.5054950439
 30
0.0
 10
94.1083540489
 20
921.6322965053
 30
0.0
 10
93.9300223874
 20
921.7626586767
 30
0.0
 10
93.7565378172
 20
921.8991315288
 30
0.0
  0
SPLINE
  5
5F0
100
AcDbEntity
  8
0
100
AcDbSpline
 62
7
  6
CONTINUOUS
 70
0
 71
3
 72
9
 73
5
 74
0
 42
0.0000001
 43
0.0000001
 44
0.0000000001
 40
0.0
 40
0.0
 40
0.0
 40
0.0
 40
0.2381409913
 40
1.0
 40
1.0
 40
1.0
 40
1.0
 10
93.7565378172
 20
128.5373126192
 30
0.0
 10
93.8416644855
 20
128.604278109
 30
0.0
 10
94.204138499
 20
128.879129235
 30
0.0
 10
94.5811511389
 20
129.1341247908
 30
0.0
 10
94.8706140834
 20
129.3245855891
 30
0.0
  0
SPLINE
  5
5F1
100
AcDbEntity
  8
0
100
AcDbSpline
 62
7
  6
CONTINUOUS
 70
0
 71
3
 72
8
 73
4
 74
0
 42
0.0000001
 43
0.0000001
 44
0.0000000001
 40
0.0
 40
0.0
 40
0.0
 40
0.0
 40
1.0
 40
1.0
 40
1.0
 40
1.0
 10
94.8706140834
 20
129.3245855891
 30
0.0
 10
95.0719895951
 20
129.4570866274
 30
0.0
 10
95.2746364751
 20
129.5876485657
 30
0.0
 10
95.4772671262
 20
129.718222074
 30
0.0
  0
SPLINE
  5
5F2
100
AcDbEntity
  8
0
100
AcDbSpline
 62
7
  6
CONTINUOUS
 70
0
 71
3
 72
9
 73
5
 74
0
 42
0.0000001
 43
0.0000001
 44
0.0000000001
 40
0.0
 40
0.0
 40
0.0
 40
0.0
 40
0.2381409913
 40
1.0
 40
1.0
 40
1.0
 40
1.0
 10
672.306203702
 20
921.8991315288
 30
0.0
 10
672.2210770338
 20
921.832166039
 30
0.0
 10
671.8586030202
 20
921.557314913
 30
0.0
 10
671.4815903803
 20
921.3023193573
 30
0.0
 10
671.1921274358
 20
921.111858559
 30
0.0
  0
SPLINE
  5
5F3
100
AcDbEntity
  8
0
100
AcDbSpline
 62
7
  6
CONTINUOUS
 70
0
 71
3
 72
8
 73
4
 74
0
 42
0.0000001
 43
0.0000001
 44
0.0000000001
 40
0.0
 40
0.0
 40
0.0
 40
0.0
 40
1.0
 40
1.0
 40
1.0
 40
1.0
 10
671.1921274358
 20
921.111858559
 30
0.0
 10
670.9907519242
 20
920.9793575206
 30
0.0
 10
670.7881050441
 20
920.8487955823
 30
0.0
 10
670.585474393
 20
920.718222074
 30
0.0
  0
ENDSEC
  0
SECTION
  2
OBJECTS
  0
DICTIONARY
  5
C
100
AcDbDictionary
280
0
281
1
  3
ACAD_GROUP
350
D
  3
ACAD_MLINESTYLE
350
17
  3
ACAD_LAYOUT
350
1A
  3
ACAD_PLOTSETTINGS
350
19
  3
ACAD_PLOTSTYLENAME
350
E
  0
DICTIONARY
  5
D
102
{ACAD_REACTORS
330
C
102
}
100
AcDbDictionary
280
0
281
1
  0
ACDBDICTIONARYWDFLT
  5
E
102
{ACAD_REACTORS
330
C
102
}
100
AcDbDictionary
281
1
  3
Normal
350
F
100
AcDbDictionaryWithDefault
340
F
  0
DICTIONARY
  5
17
102
{ACAD_REACTORS
330
C
102
}
100
AcDbDictionary
280
0
281
1
  3
Standard
350
18
  0
DICTIONARY
  5
19
102
{ACAD_REACTORS
330
C
102
}
100
AcDbDictionary
281
1
  0
DICTIONARY
  5
1A
102
{ACAD_REACTORS
330
C
102
}
100
AcDbDictionary
281
1
  3
Model
350
5F4
  3
Layout1
350
5F5
  0
ACDBPLACEHOLDER
  5
F
102
{ACAD_REACTORS
330
E
102
}
  0
MLINESTYLE
  5
18
102
{ACAD_REACTORS
330
17
102
}
100
AcDbMlineStyle
  2
STANDARD
 70
0
  3

 62
256
 51
90.0
 52
90.0
 71
2
 49
0.5
 62
256
  6
BYLAYER
 49
-0.5
 62
256
  6
BYLAYER
  0
LAYOUT
  5
5F4
102
{ACAD_REACTORS
330
1A
102
}
100
AcDbPlotSettings
  1

  2
none_device
  4

  6

 40
0.0
 41
0.0
 42
0.0
 43
0.0
 44
210.0
 45
297.0
 46
0.0
 47
0.0
 48
0.0
 49
0.0
140
0.0
141
0.0
142
1.0
143
1.0
 70
1024
 72
1
 73
0
 74
0
  7

 75
0
147
1.0
148
0.0
149
0.0
100
AcDbLayout
  1
Model
 70
0
 71
0
 10
0.0
 20
0.0
 11
210.0
 21
297.0
 12
0.0
 22
0.0
 32
0.0
 14
0.0
 24
0.0
 34
0.0
 15
0.0
 25
0.0
 35
0.0
146
0.0
 13
0.0
 23
0.0
 33
0.0
 16
1.0
 26
0.0
 36
0.0
 17
0.0
 27
1.0
 37
0.0
 76
0
330
210
345
0
346
0
  0
LAYOUT
  5
5F5
102
{ACAD_REACTORS
330
1A
102
}
100
AcDbPlotSettings
  1

  2
none_device
  4

  6

 40
0.0
 41
0.0
 42
0.0
 43
0.0
 44
210.0
 45
297.0
 46
0.0
 47
0.0
 48
0.0
 49
0.0
140
0.0
141
0.0
142
1.0
143
1.0
 70
0
 72
1
 73
0
 74
0
  7

 75
0
147
1.0
148
0.0
149
0.0
100
AcDbLayout
  1
Layout1
 70
0
 71
1
 10
0.0
 20
0.0
 11
210.0
 21
297.0
 12
0.0
 22
0.0
 32
0.0
 14
0.0
 24
0.0
 34
0.0
 15
0.0
 25
0.0
 35
0.0
146
0.0
 13
0.0
 23
0.0
 33
0.0
 16
1.0
 26
0.0
 36
0.0
 17
0.0
 27
1.0
 37
0.0
 76
0
330
211
345
0
346
0
  0
ENDSEC
  0
EOF
