999
DXF file: C:\Users\sesa63760\Dev\_Creo\CAD\MCADUE0002496_3D-CAD\drw0001_4.dxf
999
Pro/ENGINEER 2019471 by Parametric Technology Corporation
  0
SECTION
  2
HEADER
  9
$ACADVER
  1
AC1024
  9
$DWGCODEPAGE
  3
ANSI_1252
  9
$EXTMAX
 10
498.0012436495
 20
704.31604459
 30
0.0
  9
$EXTMIN
 10
0.0
 20
0.0
 30
0.0
  9
$LIMMIN
 10
0.0
 20
0.0
  9
$LIMMAX
 10
498.0012436495
 20
704.31604459
  9
$VIEWCTR
 10
249.0006218247
 20
352.158022295
  9
$VIEWSIZE
 40
704.31604459
  9
$CLAYER
  8
0
  9
$LTSCALE
 40
45.9109717955
  9
$CELTYPE
  6
BYLAYER
  9
$DIMSCALE
 40
1.0
  9
$DIMASZ
 40
5.9285862339
  9
$DIMEXO
 40
1.0
  9
$DIMDLI
 40
31.720307786
  9
$DIMEXE
 40
1.0
  9
$DIMCEN
 40
7.5127044756
  9
$DIMLFAC
 40
1.0
  9
$DIMBLK
  1
_FILLED
  9
$DIMALT
 70
0
  9
$DIMALTF
 40
0.0393700787
  9
$DIMTXT
 40
8.3000207275
  9
$DIMTOL
 70
1
  9
$DIMLIM
 70
0
  9
$DIMTFAC
 40
1.0
  9
$DIMTP
 40
0.01
  9
$DIMTM
 40
0.01
  9
$DIMGAP
 40
0.625
  9
$DIMDSEP
 70
46
  9
$AUNITS
 70
0
  9
$PDMODE
 70
3
  9
$PDSIZE
 40
0.3125
  9
$HANDSEED
  5
2C8
  9
$TILEMODE
 70
1
  9
$MEASUREMENT
 70
1
  9
$INSUNITS
 70
4
  0
ENDSEC
  0
SECTION
  2
CLASSES
  0
CLASS
  1
ACDBDICTIONARYWDFLT
  2
AcDbDictionaryWithDefault
  3
AutoCAD 2000
 90
0
 91
1
280
0
281
0
  0
CLASS
  1
ACDBPLACEHOLDER
  2
AcDbPlaceHolder
  3
AutoCAD 2000
 90
0
 91
1
280
0
281
0
  0
CLASS
  1
LAYOUT
  2
AcDbLayout
  3
AutoCAD 2000
 90
0
 91
0
280
0
281
0
  0
ENDSEC
  0
SECTION
  2
TABLES
  0
TABLE
  2
VPORT
  5
8
100
AcDbSymbolTable
 70
2
  0
VPORT
  5
1F4
100
AcDbSymbolTableRecord
100
AcDbViewportTableRecord
  2
*ACTIVE
 70
0
 10
0.0
 20
0.0
 11
1.0
 21
1.0
 12
249.0006218247
 22
352.158022295
 13
0.0
 23
0.0
 14
1.0
 24
1.0
 15
0.0
 25
0.0
 16
0.0
 26
0.0
 36
1.0
 17
0.0
 27
0.0
 37
0.0
 40
704.31604459
 41
0.7070707071
 42
50.0
 43
0.0
 44
0.0
 50
0.0
 51
0.0
 71
0
 72
100
 73
1
 74
1
 75
0
 76
0
 77
0
 78
0
  0
ENDTAB
  0
TABLE
  2
LTYPE
  5
5
100
AcDbSymbolTable
 70
6
  0
LTYPE
  5
14
100
AcDbSymbolTableRecord
100
AcDbLinetypeTableRecord
  2
BYBLOCK
 70
0
  3

 72
65
 73
0
 40
0.0
  0
LTYPE
  5
15
100
AcDbSymbolTableRecord
100
AcDbLinetypeTableRecord
  2
BYLAYER
 70
0
  3

 72
65
 73
0
 40
0.0
  0
LTYPE
  5
16
100
AcDbSymbolTableRecord
100
AcDbLinetypeTableRecord
  2
CONTINUOUS
 70
64
  3
Solid line
 72
65
 73
0
 40
0.0
  0
LTYPE
  5
1F5
100
AcDbSymbolTableRecord
100
AcDbLinetypeTableRecord
  2
CENTER
 70
64
  3
____ _ ____ _ ____ _ ____ _ ____ _ ____ _ ____
 72
65
 73
4
 40
0.6
 49
0.375
 74
0
 49
-0.075
 74
0
 49
0.075
 74
0
 49
-0.075
 74
0
  0
LTYPE
  5
1F6
100
AcDbSymbolTableRecord
100
AcDbLinetypeTableRecord
  2
HIDDEN
 70
64
  3
- - - - - - - - - - - - - - - - - - - -
 72
65
 73
2
 40
0.2
 49
0.1
 74
0
 49
-0.1
 74
0
  0
LTYPE
  5
1F7
100
AcDbSymbolTableRecord
100
AcDbLinetypeTableRecord
  2
PHANTOM
 70
64
  3
_____ _ _ _____ _ _ _____ _ _ _____
 72
65
 73
6
 40
0.8
 49
0.45
 74
0
 49
-0.05
 74
0
 49
0.1
 74
0
 49
-0.05
 74
0
 49
0.1
 74
0
 49
-0.05
 74
0
  0
LTYPE
  5
1F8
100
AcDbSymbolTableRecord
100
AcDbLinetypeTableRecord
  2
DOT
 70
64
  3
. . . . . . . . . . . . . . . . . . . .
 72
65
 73
2
 40
0.2
 49
0.1
 74
0
 49
-0.1
 74
0
  0
LTYPE
  5
1F9
100
AcDbSymbolTableRecord
100
AcDbLinetypeTableRecord
  2
DASHED
 70
64
  3
- - - - - - - - - - - - - - - - - - - -
 72
65
 73
2
 40
0.2
 49
0.1
 74
0
 49
-0.1
 74
0
  0
ENDTAB
  0
TABLE
  2
LAYER
  5
2
100
AcDbSymbolTable
 70
36
  0
LAYER
  5
10
100
AcDbSymbolTableRecord
100
AcDbLayerTableRecord
  2
0
 70
0
 62
7
  6
CONTINUOUS
370
-3
390
F
  0
LAYER
  5
1FA
100
AcDbSymbolTableRecord
100
AcDbLayerTableRecord
  2
DEFAULT_1
 70
0
 62
7
  6
CENTER
370
-3
390
F
  0
LAYER
  5
1FB
100
AcDbSymbolTableRecord
100
AcDbLayerTableRecord
  2
DEFAULT_2
 70
0
 62
8
  6
HIDDEN
370
-3
390
F
  0
LAYER
  5
1FC
100
AcDbSymbolTableRecord
100
AcDbLayerTableRecord
  2
DEFAULT_3
 70
0
 62
7
  6
PHANTOM
370
-3
390
F
  0
LAYER
  5
1FD
100
AcDbSymbolTableRecord
100
AcDbLayerTableRecord
  2
00_COMPONENTS
 70
0
 62
7
  6
CONTINUOUS
370
-3
390
F
  0
LAYER
  5
1FE
100
AcDbSymbolTableRecord
100
AcDbLayerTableRecord
  2
01_1_DEFAULT_DATUMS
 70
0
 62
7
  6
CONTINUOUS
370
-3
390
F
  0
LAYER
  5
1FF
100
AcDbSymbolTableRecord
100
AcDbLayerTableRecord
  2
01_PLANES
 70
0
 62
7
  6
CONTINUOUS
370
-3
390
F
  0
LAYER
  5
200
100
AcDbSymbolTableRecord
100
AcDbLayerTableRecord
  2
02_COORD_SYS
 70
0
 62
7
  6
CONTINUOUS
370
-3
390
F
  0
LAYER
  5
201
100
AcDbSymbolTableRecord
100
AcDbLayerTableRecord
  2
03_AXES
 70
0
 62
7
  6
CONTINUOUS
370
-3
390
F
  0
LAYER
  5
202
100
AcDbSymbolTableRecord
100
AcDbLayerTableRecord
  2
04_POINTS
 70
0
 62
7
  6
CONTINUOUS
370
-3
390
F
  0
LAYER
  5
203
100
AcDbSymbolTableRecord
100
AcDbLayerTableRecord
  2
05_CURVES
 70
0
 62
7
  6
CONTINUOUS
370
-3
390
F
  0
LAYER
  5
204
100
AcDbSymbolTableRecord
100
AcDbLayerTableRecord
  2
06_SURFS
 70
0
 62
7
  6
CONTINUOUS
370
-3
390
F
  0
LAYER
  5
205
100
AcDbSymbolTableRecord
100
AcDbLayerTableRecord
  2
07_COSMETICS
 70
0
 62
7
  6
CONTINUOUS
370
-3
390
F
  0
LAYER
  5
206
100
AcDbSymbolTableRecord
100
AcDbLayerTableRecord
  2
10_NOTES
 70
0
 62
7
  6
CONTINUOUS
370
-3
390
F
  0
LAYER
  5
207
100
AcDbSymbolTableRecord
100
AcDbLayerTableRecord
  2
11_NOTES_PUB
 70
0
 62
7
  6
CONTINUOUS
370
-3
390
F
  0
LAYER
  5
208
100
AcDbSymbolTableRecord
100
AcDbLayerTableRecord
  2
13_REF_GTOL
 70
0
 62
7
  6
CONTINUOUS
370
-3
390
F
  0
LAYER
  5
209
100
AcDbSymbolTableRecord
100
AcDbLayerTableRecord
  2
16_MISC
 70
0
 62
7
  6
CONTINUOUS
370
-3
390
F
  0
LAYER
  5
20A
100
AcDbSymbolTableRecord
100
AcDbLayerTableRecord
  2
17_NO_PRINT
 70
0
 62
7
  6
CONTINUOUS
370
-3
390
F
  0
LAYER
  5
20B
100
AcDbSymbolTableRecord
100
AcDbLayerTableRecord
  2
18_DATUM_CAMS_JOINTS
 70
0
 62
7
  6
CONTINUOUS
370
-3
390
F
  0
LAYER
  5
20C
100
AcDbSymbolTableRecord
100
AcDbLayerTableRecord
  2
19_DATUM_FUNCTIONAL
 70
0
 62
7
  6
CONTINUOUS
370
-3
390
F
  0
LAYER
  5
20D
100
AcDbSymbolTableRecord
100
AcDbLayerTableRecord
  2
20_DATUM_KINEMATIC_SCHEME
 70
0
 62
7
  6
CONTINUOUS
370
-3
390
F
  0
ENDTAB
  0
TABLE
  2
STYLE
  5
3
100
AcDbSymbolTable
 70
1
  0
STYLE
  5
11
100
AcDbSymbolTableRecord
100
AcDbTextStyleTableRecord
  2
STANDARD
 70
0
 40
0.0
 41
0.8
 50
0.0
 71
0
 42
0.2
  3
txt
  4

  0
STYLE
  5
20E
100
AcDbSymbolTableRecord
100
AcDbTextStyleTableRecord
  2
TEXTSTYLE_1
 70
0
 40
0.0
 41
0.8
 50
0.0
 71
0
 42
0.2
  3
gdt
  4

  0
ENDTAB
  0
TABLE
  2
VIEW
  5
6
100
AcDbSymbolTable
 70
0
  0
ENDTAB
  0
TABLE
  2
UCS
  5
7
100
AcDbSymbolTable
 70
0
  0
ENDTAB
  0
TABLE
  2
APPID
  5
9
100
AcDbSymbolTable
 70
1
  0
APPID
  5
20F
100
AcDbSymbolTableRecord
100
AcDbRegAppTableRecord
  2
ACAD
 70
0
  0
ENDTAB
  0
TABLE
  2
BLOCK_RECORD
  5
1
100
AcDbSymbolTable
 70
0
  0
BLOCK_RECORD
  5
210
100
AcDbSymbolTableRecord
100
AcDbBlockTableRecord
  2
*Model_Space
  0
BLOCK_RECORD
  5
211
100
AcDbSymbolTableRecord
100
AcDbBlockTableRecord
  2
*Paper_Space
  0
BLOCK_RECORD
  5
212
100
AcDbSymbolTableRecord
100
AcDbBlockTableRecord
  2
_FILLED
  0
ENDTAB
  0
TABLE
  2
DIMSTYLE
  5
A
100
AcDbSymbolTable
 70
1
100
AcDbDimStyleTable
 71
0
  0
DIMSTYLE
105
213
100
AcDbSymbolTableRecord
100
AcDbDimStyleTableRecord
  2
STANDARD
 70
0
  3

  4

 40
1.0
 41
5.9285862339
 42
1.0
 43
0.38
 44
1.0
 45
0.0
 46
0.0
 47
0.01
 48
0.01
140
8.3000207275
141
0.09
142
0.0
143
25.4
144
1.0
145
0.0
146
1.0
147
0.625
 71
1
 72
0
 73
0
 74
0
 75
0
 76
0
 77
1
 78
8
 79
2
170
0
171
1
172
0
173
0
174
0
175
0
176
0
177
0
178
0
270
2
179
2
271
2
272
2
273
2
274
2
275
0
280
0
281
0
282
0
283
1
284
8
285
0
286
0
287
3
288
0
340
11
278
46
341
212
342
212
343
212
344
212
  0
ENDTAB
  0
ENDSEC
  0
SECTION
  2
BLOCKS
  0
BLOCK
  5
20
100
AcDbEntity
  8
0
100
AcDbBlockBegin
  2
*Model_Space
 70
0
 10
0.0
 20
0.0
 30
0.0
  3
*Model_Space
  1

  0
ENDBLK
  5
21
100
AcDbEntity
  8
0
100
AcDbBlockEnd
  0
BLOCK
  5
1C
100
AcDbEntity
  8
0
100
AcDbBlockBegin
  2
*Paper_Space
 70
0
 10
0.0
 20
0.0
 30
0.0
  3
*Paper_Space
  1

  0
ENDBLK
  5
1D
100
AcDbEntity
  8
0
100
AcDbBlockEnd
  0
BLOCK
  5
214
100
AcDbEntity
  8
0
100
AcDbBlockBegin
  2
_FILLED
 70
64
 10
0.0
 20
0.0
  3
_FILLED
  1

  0
SOLID
  5
215
100
AcDbEntity
  8
0
  6
BYBLOCK
 62
0
100
AcDbTrace
 10
0.0
 20
0.0
 11
-1.0
 21
0.25
 12
-1.0
 22
-0.25
 13
-1.0
 23
-0.25
  0
ENDBLK
  5
216
100
AcDbEntity
  8
0
  6
BYBLOCK
 62
0
100
AcDbBlockEnd
  0
ENDSEC
  0
SECTION
  2
ENTITIES
  0
LINE
  5
217
100
AcDbEntity
  8
0
100
AcDbLine
 62
7
  6
CONTINUOUS
 10
76.2678099266
 20
100.4028324401
 11
63.2678099266
 21
100.4028324401
  0
LINE
  5
218
100
AcDbEntity
  8
0
100
AcDbLine
 62
7
  6
CONTINUOUS
 10
56.6678099267
 20
100.6028324401
 11
453.2678099267
 21
100.6028324401
  0
LINE
  5
219
100
AcDbEntity
  8
0
100
AcDbLine
 62
7
  6
CONTINUOUS
 10
55.4678099267
 20
101.8028324401
 11
56.6678099267
 21
101.8028324401
  0
LINE
  5
21A
100
AcDbEntity
  8
0
100
AcDbLine
 62
7
  6
CONTINUOUS
 10
455.4678099267
 20
102.8028324401
 11
57.6678099267
 21
102.8028324401
  0
LINE
  5
21B
100
AcDbEntity
  8
0
100
AcDbLine
 62
7
  6
CONTINUOUS
 10
75.7918565583
 20
116.0028324401
 11
435.1437632962
 21
116.0028324401
  0
LINE
  5
21C
100
AcDbEntity
  8
0
100
AcDbLine
 62
7
  6
CONTINUOUS
 10
435.143763295
 20
116.6029888898
 11
75.7918565572
 21
116.6029888899
  0
LINE
  5
21D
100
AcDbEntity
  8
0
100
AcDbLine
 62
7
  6
CONTINUOUS
 10
56.8198533858
 20
101.9548283896
 11
56.6678099267
 21
101.9377745467
  0
LINE
  5
21E
100
AcDbEntity
  8
0
100
AcDbLine
 62
7
  6
CONTINUOUS
 10
72.8169813245
 20
118.5521602875
 11
73.4171377754
 21
118.5521602887
  0
LINE
  5
21F
100
AcDbEntity
  8
0
100
AcDbLine
 62
7
  6
CONTINUOUS
 10
437.5184820781
 20
118.5521602887
 11
438.118638529
 21
118.5521602874
  0
LINE
  5
220
100
AcDbEntity
  8
0
100
AcDbLine
 62
7
  6
CONTINUOUS
 10
440.0678099267
 20
120.9268790706
 11
439.4676534771
 21
120.9268790718
  0
LINE
  5
221
100
AcDbEntity
  8
0
100
AcDbLine
 62
7
  6
CONTINUOUS
 10
71.4679663764
 20
120.9268790718
 11
70.8678099267
 21
120.9268790706
  0
LINE
  5
222
100
AcDbEntity
  8
0
100
AcDbLine
 62
7
  6
CONTINUOUS
 10
75.8680967511
 20
121.0031192645
 11
435.0675231023
 21
121.0031192645
  0
LINE
  5
223
100
AcDbEntity
  8
0
100
AcDbLine
 62
7
  6
CONTINUOUS
 10
433.9678099267
 20
122.1028324401
 11
76.9678099267
 21
122.1028324401
  0
LINE
  5
224
100
AcDbEntity
  8
0
100
AcDbLine
 62
7
  6
CONTINUOUS
 10
55.4678099267
 20
598.4028324401
 11
55.4678099267
 21
101.8028324401
  0
LINE
  5
225
100
AcDbEntity
  8
0
100
AcDbLine
 62
7
  6
CONTINUOUS
 10
56.6678099267
 20
101.8028324401
 11
56.6678099267
 21
100.6028324401
  0
LINE
  5
226
100
AcDbEntity
  8
0
100
AcDbLine
 62
7
  6
CONTINUOUS
 10
57.6678099267
 20
102.8028324401
 11
57.6678099267
 21
600.6028324401
  0
LINE
  5
227
100
AcDbEntity
  8
0
100
AcDbLine
 62
7
  6
CONTINUOUS
 10
63.2678099266
 20
100.4028324401
 11
63.2678099266
 21
100.6028324401
  0
LINE
  5
228
100
AcDbEntity
  8
0
100
AcDbLine
 62
7
  6
CONTINUOUS
 10
451.0678099266
 20
145.6028324401
 11
440.0678099267
 21
145.6028324401
  0
LINE
  5
229
100
AcDbEntity
  8
0
100
AcDbLine
 62
7
  6
CONTINUOUS
 10
440.1658973981
 20
156.9028324401
 11
451.0678099266
 21
156.9028324401
  0
LINE
  5
22A
100
AcDbEntity
  8
0
100
AcDbLine
 62
7
  6
CONTINUOUS
 10
70.8678099267
 20
580.2787858096
 11
70.8678099267
 21
120.9268790706
  0
LINE
  5
22B
100
AcDbEntity
  8
0
100
AcDbLine
 62
7
  6
CONTINUOUS
 10
71.4679663764
 20
120.9268790718
 11
71.4679663763
 21
580.2787858084
  0
LINE
  5
22C
100
AcDbEntity
  8
0
100
AcDbLine
 62
7
  6
CONTINUOUS
 10
73.4171377741
 20
583.2536610423
 11
73.4171377754
 21
582.6535045914
  0
LINE
  5
22D
100
AcDbEntity
  8
0
100
AcDbLine
 62
7
  6
CONTINUOUS
 10
73.4171377742
 20
118.5521602876
 11
73.4171377753
 21
117.952003839
  0
LINE
  5
22E
100
AcDbEntity
  8
0
100
AcDbLine
 62
7
  6
CONTINUOUS
 10
75.7918565583
 20
116.0028324401
 11
75.7918565572
 21
116.6029888899
  0
LINE
  5
22F
100
AcDbEntity
  8
0
100
AcDbLine
 62
7
  6
CONTINUOUS
 10
75.7918565584
 20
584.6026759904
 11
75.7918565572
 21
585.2028324401
  0
LINE
  5
230
100
AcDbEntity
  8
0
100
AcDbLine
 62
7
  6
CONTINUOUS
 10
75.8680967511
 20
580.2025456157
 11
75.8680967511
 21
121.0031192645
  0
LINE
  5
231
100
AcDbEntity
  8
0
100
AcDbLine
 62
7
  6
CONTINUOUS
 10
76.2678099266
 20
100.6028324401
 11
76.2678099266
 21
100.4028324401
  0
LINE
  5
232
100
AcDbEntity
  8
0
100
AcDbLine
 62
7
  6
CONTINUOUS
 10
76.9678099267
 20
122.1028324401
 11
76.9678099267
 21
579.1028324401
  0
LINE
  5
233
100
AcDbEntity
  8
0
100
AcDbLine
 62
7
  6
CONTINUOUS
 10
56.80114326
 20
101.8028324401
 11
56.8177668157
 21
101.952830923
  0
LINE
  5
234
100
AcDbEntity
  8
0
100
AcDbLine
 62
7
  6
CONTINUOUS
 10
451.0678099266
 20
182.3028324401
 11
440.1658973981
 21
182.3028324401
  0
LINE
  5
235
100
AcDbEntity
  8
0
100
AcDbLine
 62
7
  6
CONTINUOUS
 10
440.0678099267
 20
193.6028324401
 11
451.0678099266
 21
193.6028324401
  0
LINE
  5
236
100
AcDbEntity
  8
0
100
AcDbLine
 62
7
  6
CONTINUOUS
 10
453.2678099267
 20
598.4028324401
 11
435.0675231023
 21
580.2025456157
  0
LINE
  5
237
100
AcDbEntity
  8
0
100
AcDbLine
 62
7
  6
CONTINUOUS
 10
453.2678099267
 20
102.8028324401
 11
435.0675231023
 21
121.0031192645
  0
LINE
  5
238
100
AcDbEntity
  8
0
100
AcDbLine
 62
7
  6
CONTINUOUS
 10
451.0678099266
 20
511.7028324401
 11
451.9678099266
 21
512.6028324401
  0
LINE
  5
239
100
AcDbEntity
  8
0
100
AcDbLine
 62
7
  6
CONTINUOUS
 10
57.3398514701
 20
102.4749163007
 11
57.5826170144
 21
102.7177143495
  0
LINE
  5
23A
100
AcDbEntity
  8
0
100
AcDbLine
 62
7
  6
CONTINUOUS
 10
75.8680967511
 20
121.0031192645
 11
57.6678099267
 21
102.8028324401
  0
LINE
  5
23B
100
AcDbEntity
  8
0
100
AcDbLine
 62
7
  6
CONTINUOUS
 10
57.3398514701
 20
102.4749163007
 11
57.5718913605
 21
102.7069426748
  0
LINE
  5
23C
100
AcDbEntity
  8
0
100
AcDbLine
 62
7
  6
CONTINUOUS
 10
451.9678099266
 20
188.6028324401
 11
451.0678099266
 21
189.5028324401
  0
LINE
  5
23D
100
AcDbEntity
  8
0
100
AcDbLine
 62
7
  6
CONTINUOUS
 10
57.6678099267
 20
598.4028324401
 11
75.8680967511
 21
580.2025456157
  0
LINE
  5
23E
100
AcDbEntity
  8
0
100
AcDbLine
 62
7
  6
CONTINUOUS
 10
451.0678099266
 20
507.6028324401
 11
440.0678099267
 21
507.6028324401
  0
LINE
  5
23F
100
AcDbEntity
  8
0
100
AcDbLine
 62
7
  6
CONTINUOUS
 10
440.1658973981
 20
518.9028324401
 11
451.0678099266
 21
518.9028324401
  0
LINE
  5
240
100
AcDbEntity
  8
0
100
AcDbLine
 62
7
  6
CONTINUOUS
 10
433.9678099267
 20
579.1028324401
 11
433.9678099267
 21
122.1028324401
  0
LINE
  5
241
100
AcDbEntity
  8
0
100
AcDbLine
 62
7
  6
CONTINUOUS
 10
435.0675231023
 20
121.0031192645
 11
435.0675231023
 21
580.2025456157
  0
LINE
  5
242
100
AcDbEntity
  8
0
100
AcDbLine
 62
7
  6
CONTINUOUS
 10
435.1437632962
 20
585.2028324401
 11
435.143763295
 21
584.6026759905
  0
LINE
  5
243
100
AcDbEntity
  8
0
100
AcDbLine
 62
7
  6
CONTINUOUS
 10
435.143763295
 20
116.6029888898
 11
435.1437632962
 21
116.0028324401
  0
LINE
  5
244
100
AcDbEntity
  8
0
100
AcDbLine
 62
7
  6
CONTINUOUS
 10
437.5184820793
 20
117.9520038378
 11
437.5184820781
 21
118.5521602888
  0
LINE
  5
245
100
AcDbEntity
  8
0
100
AcDbLine
 62
7
  6
CONTINUOUS
 10
437.5184820781
 20
582.6535045914
 11
437.5184820794
 21
583.2536610424
  0
LINE
  5
246
100
AcDbEntity
  8
0
100
AcDbLine
 62
7
  6
CONTINUOUS
 10
439.4676540564
 20
120.9268764212
 11
439.4676540564
 21
580.2787884592
  0
LINE
  5
247
100
AcDbEntity
  8
0
100
AcDbLine
 62
7
  6
CONTINUOUS
 10
440.0678099267
 20
120.9268790706
 11
440.0678099267
 21
580.2787858096
  0
LINE
  5
248
100
AcDbEntity
  8
0
100
AcDbLine
 62
7
  6
CONTINUOUS
 10
440.1658973981
 20
156.9028324401
 11
440.1658973981
 21
182.3028324401
  0
LINE
  5
249
100
AcDbEntity
  8
0
100
AcDbLine
 62
7
  6
CONTINUOUS
 10
440.1658973981
 20
518.9028324401
 11
440.1658973981
 21
544.3028324401
  0
LINE
  5
24A
100
AcDbEntity
  8
0
100
AcDbLine
 62
7
  6
CONTINUOUS
 10
441.4678099265
 20
145.6028324401
 11
441.4678099266
 21
156.9028324401
  0
LINE
  5
24B
100
AcDbEntity
  8
0
100
AcDbLine
 62
7
  6
CONTINUOUS
 10
441.4678099264
 20
182.3028324401
 11
441.4678099265
 21
193.6028324401
  0
LINE
  5
24C
100
AcDbEntity
  8
0
100
AcDbLine
 62
7
  6
CONTINUOUS
 10
441.4678099265
 20
507.6028324401
 11
441.4678099266
 21
518.9028324401
  0
LINE
  5
24D
100
AcDbEntity
  8
0
100
AcDbLine
 62
7
  6
CONTINUOUS
 10
441.4678099264
 20
544.3028324401
 11
441.4678099265
 21
555.6028324401
  0
LINE
  5
24E
100
AcDbEntity
  8
0
100
AcDbLine
 62
7
  6
CONTINUOUS
 10
442.8678099266
 20
555.6028324401
 11
442.8678099266
 21
544.3028324401
  0
LINE
  5
24F
100
AcDbEntity
  8
0
100
AcDbLine
 62
7
  6
CONTINUOUS
 10
442.8678099266
 20
518.9028324401
 11
442.8678099266
 21
507.6028324401
  0
LINE
  5
250
100
AcDbEntity
  8
0
100
AcDbLine
 62
7
  6
CONTINUOUS
 10
442.8678099266
 20
193.6028324401
 11
442.8678099266
 21
182.3028324401
  0
LINE
  5
251
100
AcDbEntity
  8
0
100
AcDbLine
 62
7
  6
CONTINUOUS
 10
442.8678099266
 20
156.9028324401
 11
442.8678099266
 21
145.6028324401
  0
LINE
  5
252
100
AcDbEntity
  8
0
100
AcDbLine
 62
7
  6
CONTINUOUS
 10
451.0678099266
 20
544.3028324401
 11
440.1658973981
 21
544.3028324401
  0
LINE
  5
253
100
AcDbEntity
  8
0
100
AcDbLine
 62
7
  6
CONTINUOUS
 10
451.0678099266
 20
145.6028324401
 11
451.0678099266
 21
156.9028324401
  0
LINE
  5
254
100
AcDbEntity
  8
0
100
AcDbLine
 62
7
  6
CONTINUOUS
 10
451.0678099266
 20
182.3028324401
 11
451.0678099266
 21
193.6028324401
  0
LINE
  5
255
100
AcDbEntity
  8
0
100
AcDbLine
 62
7
  6
CONTINUOUS
 10
451.0678099266
 20
507.6028324401
 11
451.0678099266
 21
518.9028324401
  0
LINE
  5
256
100
AcDbEntity
  8
0
100
AcDbLine
 62
7
  6
CONTINUOUS
 10
451.0678099266
 20
544.3028324401
 11
451.0678099266
 21
555.6028324401
  0
LINE
  5
257
100
AcDbEntity
  8
0
100
AcDbLine
 62
7
  6
CONTINUOUS
 10
451.9678099266
 20
550.6028324401
 11
451.9678099266
 21
512.6028324401
  0
LINE
  5
258
100
AcDbEntity
  8
0
100
AcDbLine
 62
7
  6
CONTINUOUS
 10
451.9678099266
 20
188.6028324401
 11
451.9678099266
 21
150.6028324401
  0
LINE
  5
259
100
AcDbEntity
  8
0
100
AcDbLine
 62
7
  6
CONTINUOUS
 10
453.2678099267
 20
600.6028324401
 11
453.2678099267
 21
100.6028324401
  0
LINE
  5
25A
100
AcDbEntity
  8
0
100
AcDbLine
 62
7
  6
CONTINUOUS
 10
455.4678099267
 20
102.8028324401
 11
455.4678099267
 21
598.4028324401
  0
LINE
  5
25B
100
AcDbEntity
  8
0
100
AcDbLine
 62
7
  6
CONTINUOUS
 10
440.0678099267
 20
555.6028324401
 11
451.0678099266
 21
555.6028324401
  0
LINE
  5
25C
100
AcDbEntity
  8
0
100
AcDbLine
 62
7
  6
CONTINUOUS
 10
76.9678099267
 20
579.1028324401
 11
433.9678099267
 21
579.1028324401
  0
LINE
  5
25D
100
AcDbEntity
  8
0
100
AcDbLine
 62
7
  6
CONTINUOUS
 10
435.0675231023
 20
580.2025456157
 11
75.8680967511
 21
580.2025456157
  0
LINE
  5
25E
100
AcDbEntity
  8
0
100
AcDbLine
 62
7
  6
CONTINUOUS
 10
70.8678099267
 20
580.2787858096
 11
71.4679663763
 21
580.2787858084
  0
LINE
  5
25F
100
AcDbEntity
  8
0
100
AcDbLine
 62
7
  6
CONTINUOUS
 10
439.4676534771
 20
580.2787858084
 11
440.0678099267
 21
580.2787858096
  0
LINE
  5
260
100
AcDbEntity
  8
0
100
AcDbLine
 62
7
  6
CONTINUOUS
 10
438.118638529
 20
582.6535045927
 11
437.518482078
 21
582.6535045914
  0
LINE
  5
261
100
AcDbEntity
  8
0
100
AcDbLine
 62
7
  6
CONTINUOUS
 10
73.4171377754
 20
582.6535045914
 11
72.8169813244
 21
582.6535045927
  0
LINE
  5
262
100
AcDbEntity
  8
0
100
AcDbLine
 62
7
  6
CONTINUOUS
 10
435.1437659458
 20
584.6026765697
 11
75.7918539076
 21
584.6026765697
  0
LINE
  5
263
100
AcDbEntity
  8
0
100
AcDbLine
 62
7
  6
CONTINUOUS
 10
435.1437632962
 20
585.2028324401
 11
75.7918565572
 21
585.2028324401
  0
LINE
  5
264
100
AcDbEntity
  8
0
100
AcDbLine
 62
7
  6
CONTINUOUS
 10
55.4678099267
 20
598.4028324401
 11
455.4678099267
 21
598.4028324401
  0
LINE
  5
265
100
AcDbEntity
  8
0
100
AcDbLine
 62
7
  6
CONTINUOUS
 10
453.2678099267
 20
600.6028324401
 11
57.6678099267
 21
600.6028324401
  0
LINE
  5
266
100
AcDbEntity
  8
0
100
AcDbLine
 62
7
  6
CONTINUOUS
 10
451.0678099266
 20
149.7028324401
 11
451.9678099266
 21
150.6028324401
  0
LINE
  5
267
100
AcDbEntity
  8
0
100
AcDbLine
 62
7
  6
CONTINUOUS
 10
451.9678099266
 20
550.6028324401
 11
451.0678099266
 21
551.5028324401
  0
ARC
  5
268
100
AcDbEntity
  8
0
100
AcDbCircle
 62
7
  6
CONTINUOUS
 10
69.7678099267
 20
121.0278324401
 40
21.625
100
AcDbArc
 50
252.5076754749
 51
287.4923245251
  0
ARC
  5
269
100
AcDbEntity
  8
0
100
AcDbCircle
 62
7
  6
CONTINUOUS
 10
87.5456956638
 20
133.3760033297
 40
20.4813776163
100
AcDbArc
 50
232.0787418024
 51
234.9788027539
  0
ARC
  5
26A
100
AcDbEntity
  8
0
100
AcDbCircle
 62
7
  6
CONTINUOUS
 10
88.2221013877
 20
132.6667531117
 40
20.457902241
100
AcDbArc
 50
215.0195111431
 51
217.9115337654
  0
ARC
  5
26B
100
AcDbEntity
  8
0
100
AcDbCircle
 62
7
  6
CONTINUOUS
 10
87.2904816786
 20
132.4360697876
 40
20.0563681193
100
AcDbArc
 50
226.2337648778
 51
235.020041744
  0
ARC
  5
26C
100
AcDbEntity
  8
0
100
AcDbCircle
 62
7
  6
CONTINUOUS
 10
87.7068623245
 20
132.2590775501
 40
19.8009058468
100
AcDbArc
 50
217.8969086404
 51
223.8074439401
  0
ARC
  5
26D
100
AcDbEntity
  8
0
100
AcDbCircle
 62
7
  6
CONTINUOUS
 10
87.1181231321
 20
132.8304334838
 40
19.7882249674
100
AcDbArc
 50
226.1820174956
 51
232.0845269678
  0
ARC
  5
26E
100
AcDbEntity
  8
0
100
AcDbCircle
 62
7
  6
CONTINUOUS
 10
59.8214192302
 20
92.729198163
 40
10.2693314983
100
AcDbArc
 50
108.3180460394
 51
109.4374892685
  0
ARC
  5
26F
100
AcDbEntity
  8
0
100
AcDbCircle
 62
7
  6
CONTINUOUS
 10
80.4678099267
 20
125.6028324401
 40
9.2125175291
100
AcDbArc
 50
340.9404084525
 51
113.3948000263
  0
ARC
  5
270
100
AcDbEntity
  8
0
100
AcDbCircle
 62
7
  6
CONTINUOUS
 10
80.4678099267
 20
125.6028324401
 40
7.4814954576
100
AcDbArc
 50
331.3730166041
 51
119.3888912367
  0
ARC
  5
271
100
AcDbEntity
  8
0
100
AcDbCircle
 62
7
  6
CONTINUOUS
 10
80.4678099267
 20
125.6028324401
 40
6.7886751346
100
AcDbArc
 50
328.4520376899
 51
122.8408004954
  0
ARC
  5
272
100
AcDbEntity
  8
0
100
AcDbCircle
 62
7
  6
CONTINUOUS
 10
80.4678099267
 20
125.6028324401
 40
5.9226497308
100
AcDbArc
 50
323.7030774611
 51
128.20783898
  0
ARC
  5
273
100
AcDbEntity
  8
0
100
AcDbCircle
 62
7
  6
CONTINUOUS
 10
66.7678099268
 20
169.6028324401
 40
5.5
100
AcDbArc
 50
43.1935906144
 51
316.8064093856
  0
ARC
  5
274
100
AcDbEntity
  8
0
100
AcDbCircle
 62
7
  6
CONTINUOUS
 10
80.4678099267
 20
125.6028324401
 40
5.15
100
AcDbArc
 50
320.1277893722
 51
138.7163920785
  0
CIRCLE
  5
275
100
AcDbEntity
  8
0
100
AcDbCircle
 62
7
  6
CONTINUOUS
 10
66.7678099268
 20
169.6028324401
 40
4.0305566978
  0
CIRCLE
  5
276
100
AcDbEntity
  8
0
100
AcDbCircle
 62
7
  6
CONTINUOUS
 10
66.7678099268
 20
169.6028324401
 40
1.8030312623
  0
CIRCLE
  5
277
100
AcDbEntity
  8
0
100
AcDbCircle
 62
7
  6
CONTINUOUS
 10
66.7678099268
 20
169.6028324401
 40
0.9924038765
  0
CIRCLE
  5
278
100
AcDbEntity
  8
0
100
AcDbCircle
 62
7
  6
CONTINUOUS
 10
66.7678099268
 20
169.6028324401
 40
0.5
  0
ARC
  5
279
100
AcDbEntity
  8
0
100
AcDbCircle
 62
7
  6
CONTINUOUS
 10
66.7678099268
 20
531.6028324401
 40
5.5
100
AcDbArc
 50
43.1935906144
 51
316.8064093856
  0
CIRCLE
  5
27A
100
AcDbEntity
  8
0
100
AcDbCircle
 62
7
  6
CONTINUOUS
 10
66.7678099268
 20
531.6028324401
 40
4.0305566978
  0
CIRCLE
  5
27B
100
AcDbEntity
  8
0
100
AcDbCircle
 62
7
  6
CONTINUOUS
 10
66.7678099268
 20
531.6028324401
 40
1.8030312623
  0
CIRCLE
  5
27C
100
AcDbEntity
  8
0
100
AcDbCircle
 62
7
  6
CONTINUOUS
 10
66.7678099268
 20
531.6028324401
 40
0.9924038765
  0
CIRCLE
  5
27D
100
AcDbEntity
  8
0
100
AcDbCircle
 62
7
  6
CONTINUOUS
 10
66.7678099268
 20
531.6028324401
 40
0.5
  0
ARC
  5
27E
100
AcDbEntity
  8
0
100
AcDbCircle
 62
7
  6
CONTINUOUS
 10
57.6678099267
 20
598.4028324401
 40
2.2
100
AcDbArc
 50
90.0
 51
180.0
  0
ARC
  5
27F
100
AcDbEntity
  8
0
100
AcDbCircle
 62
7
  6
CONTINUOUS
 10
57.6678099267
 20
598.4028324401
 40
1.0
100
AcDbArc
 50
90.0
 51
180.0
  0
ARC
  5
280
100
AcDbEntity
  8
0
100
AcDbCircle
 62
7
  6
CONTINUOUS
 10
88.2221013872
 20
568.5389117686
 40
20.4579022405
100
AcDbArc
 50
142.0884662333
 51
144.9804888566
  0
ARC
  5
281
100
AcDbEntity
  8
0
100
AcDbCircle
 62
7
  6
CONTINUOUS
 10
87.5317305983
 20
567.8485409793
 40
20.4579022408
100
AcDbArc
 50
125.0195111431
 51
127.9115337655
  0
ARC
  5
282
100
AcDbEntity
  8
0
100
AcDbCircle
 62
7
  6
CONTINUOUS
 10
87.3010472509
 20
568.7801607091
 40
20.0563680933
100
AcDbArc
 50
136.2337648741
 51
145.020041741
  0
ARC
  5
283
100
AcDbEntity
  8
0
100
AcDbCircle
 62
7
  6
CONTINUOUS
 10
87.7068623247
 20
568.9465873298
 40
19.800905847
100
AcDbArc
 50
136.1925560599
 51
142.1030913588
  0
ARC
  5
284
100
AcDbEntity
  8
0
100
AcDbCircle
 62
7
  6
CONTINUOUS
 10
87.124055037
 20
568.3637800421
 40
19.8009058471
100
AcDbArc
 50
127.8969086405
 51
133.8074439402
  0
ARC
  5
285
100
AcDbEntity
  8
0
100
AcDbCircle
 62
7
  6
CONTINUOUS
 10
80.4678099267
 20
575.6028324401
 40
9.2125402301
100
AcDbArc
 50
246.5855902911
 51
25.8741963174
  0
ARC
  5
286
100
AcDbEntity
  8
0
100
AcDbCircle
 62
7
  6
CONTINUOUS
 10
80.4678099267
 20
575.6028324401
 40
7.4814954576
100
AcDbArc
 50
240.5548973214
 51
28.7369498866
  0
ARC
  5
287
100
AcDbEntity
  8
0
100
AcDbCircle
 62
7
  6
CONTINUOUS
 10
80.4678099267
 20
575.6028324401
 40
6.7886751346
100
AcDbArc
 50
237.1543511082
 51
31.6808936118
  0
ARC
  5
288
100
AcDbEntity
  8
0
100
AcDbCircle
 62
7
  6
CONTINUOUS
 10
80.4678099267
 20
575.6028324401
 40
5.9226497308
100
AcDbArc
 50
231.875987196
 51
36.3834080531
  0
ARC
  5
289
100
AcDbEntity
  8
0
100
AcDbCircle
 62
7
  6
CONTINUOUS
 10
80.4678099267
 20
575.6028324401
 40
5.15
100
AcDbArc
 50
221.3543426834
 51
39.7775882133
  0
ARC
  5
28A
100
AcDbEntity
  8
0
100
AcDbCircle
 62
7
  6
CONTINUOUS
 10
422.6946389811
 20
132.6807182232
 40
20.4813776837
100
AcDbArc
 50
322.0787417972
 51
324.9788027519
  0
ARC
  5
28B
100
AcDbEntity
  8
0
100
AcDbCircle
 62
7
  6
CONTINUOUS
 10
423.4038892533
 20
133.3571239034
 40
20.4579022439
100
AcDbArc
 50
305.0195111429
 51
307.911533765
  0
ARC
  5
28C
100
AcDbEntity
  8
0
100
AcDbCircle
 62
7
  6
CONTINUOUS
 10
423.6345726028
 20
132.4255041708
 40
20.056368093
100
AcDbArc
 50
316.2337648741
 51
325.0200417409
  0
ARC
  5
28D
100
AcDbEntity
  8
0
100
AcDbCircle
 62
7
  6
CONTINUOUS
 10
423.8115648174
 20
132.841884837
 40
19.8009058456
100
AcDbArc
 50
307.89690864
 51
313.8074439402
  0
ARC
  5
28E
100
AcDbEntity
  8
0
100
AcDbCircle
 62
7
  6
CONTINUOUS
 10
423.2402088695
 20
132.2531456585
 40
19.7882249809
100
AcDbArc
 50
316.1820174963
 51
322.0845269621
  0
ARC
  5
28F
100
AcDbEntity
  8
0
100
AcDbCircle
 62
7
  6
CONTINUOUS
 10
430.4678099267
 20
125.6028324401
 40
9.2125175291
100
AcDbArc
 50
70.9404084525
 51
203.3948000263
  0
ARC
  5
290
100
AcDbEntity
  8
0
100
AcDbCircle
 62
7
  6
CONTINUOUS
 10
430.4678099267
 20
125.6028324401
 40
7.4814954576
100
AcDbArc
 50
61.3730166041
 51
209.3888912367
  0
ARC
  5
291
100
AcDbEntity
  8
0
100
AcDbCircle
 62
7
  6
CONTINUOUS
 10
430.4678099267
 20
125.6028324401
 40
6.7886751346
100
AcDbArc
 50
58.4520376899
 51
212.8408004954
  0
ARC
  5
292
100
AcDbEntity
  8
0
100
AcDbCircle
 62
7
  6
CONTINUOUS
 10
430.4678099267
 20
125.6028324401
 40
5.9226497308
100
AcDbArc
 50
53.7030774611
 51
218.20783898
  0
ARC
  5
293
100
AcDbEntity
  8
0
100
AcDbCircle
 62
7
  6
CONTINUOUS
 10
430.4678099267
 20
125.6028324401
 40
5.15
100
AcDbArc
 50
50.1277893722
 51
228.7163920785
  0
ARC
  5
294
100
AcDbEntity
  8
0
100
AcDbCircle
 62
7
  6
CONTINUOUS
 10
453.2678099267
 20
102.8028324401
 40
2.2
100
AcDbArc
 50
270.0
 51
360.0
  0
ARC
  5
295
100
AcDbEntity
  8
0
100
AcDbCircle
 62
7
  6
CONTINUOUS
 10
453.2678099267
 20
102.8028324401
 40
1.0
100
AcDbArc
 50
270.0
 51
360.0
  0
ARC
  5
296
100
AcDbEntity
  8
0
100
AcDbCircle
 62
7
  6
CONTINUOUS
 10
441.4678099266
 20
157.6028324401
 40
2.3682206767
100
AcDbArc
 50
341.1273366822
 51
125.1075372688
  0
ARC
  5
297
100
AcDbEntity
  8
0
100
AcDbCircle
 62
7
  6
CONTINUOUS
 10
441.4678099266
 20
157.6028324401
 40
0.8566550758
100
AcDbArc
 50
291.9441985756
 51
248.0558014244
  0
ARC
  5
298
100
AcDbEntity
  8
0
100
AcDbCircle
 62
7
  6
CONTINUOUS
 10
441.4678099266
 20
181.6028324401
 40
2.3682206767
100
AcDbArc
 50
234.926815442
 51
18.9387294078
  0
ARC
  5
299
100
AcDbEntity
  8
0
100
AcDbCircle
 62
7
  6
CONTINUOUS
 10
441.4678099266
 20
181.6028324401
 40
0.8566550758
100
AcDbArc
 50
111.9441985756
 51
68.0558014244
  0
ARC
  5
29A
100
AcDbEntity
  8
0
100
AcDbCircle
 62
7
  6
CONTINUOUS
 10
444.1678099266
 20
169.6028324401
 40
5.05
100
AcDbArc
 50
211.6957663781
 51
148.0526762933
  0
ARC
  5
29B
100
AcDbEntity
  8
0
100
AcDbCircle
 62
7
  6
CONTINUOUS
 10
444.1678099266
 20
169.6028324401
 40
4.0
100
AcDbArc
 50
188.1067963477
 51
168.7156525487
  0
CIRCLE
  5
29C
100
AcDbEntity
  8
0
100
AcDbCircle
 62
7
  6
CONTINUOUS
 10
444.1678099266
 20
169.6028324401
 40
3.85
  0
ARC
  5
29D
100
AcDbEntity
  8
0
100
AcDbCircle
 62
7
  6
CONTINUOUS
 10
423.4038892545
 20
567.8485409787
 40
20.4579022416
100
AcDbArc
 50
52.0884662333
 51
54.9804888565
  0
ARC
  5
29E
100
AcDbEntity
  8
0
100
AcDbCircle
 62
7
  6
CONTINUOUS
 10
422.713518466
 20
568.5389117685
 40
20.4579022408
100
AcDbArc
 50
35.0195111431
 51
37.9115337655
  0
ARC
  5
29F
100
AcDbEntity
  8
0
100
AcDbCircle
 62
7
  6
CONTINUOUS
 10
423.645138196
 20
568.7695951161
 40
20.056368093
100
AcDbArc
 50
46.2337648741
 51
55.0200417409
  0
ARC
  5
2A0
100
AcDbEntity
  8
0
100
AcDbCircle
 62
7
  6
CONTINUOUS
 10
423.8115648165
 20
568.3637800421
 40
19.8009058469
100
AcDbArc
 50
46.1925560599
 51
52.1030913588
  0
ARC
  5
2A1
100
AcDbEntity
  8
0
100
AcDbCircle
 62
7
  6
CONTINUOUS
 10
423.2287575287
 20
568.9465873297
 40
19.8009058471
100
AcDbArc
 50
37.8969086405
 51
43.8074439402
  0
ARC
  5
2A2
100
AcDbEntity
  8
0
100
AcDbCircle
 62
7
  6
CONTINUOUS
 10
430.4678099267
 20
575.6028324401
 40
9.2125402301
100
AcDbArc
 50
156.5855902911
 51
295.8741963174
  0
ARC
  5
2A3
100
AcDbEntity
  8
0
100
AcDbCircle
 62
7
  6
CONTINUOUS
 10
430.4678099267
 20
575.6028324401
 40
7.4814954576
100
AcDbArc
 50
150.5548973214
 51
298.7369498866
  0
ARC
  5
2A4
100
AcDbEntity
  8
0
100
AcDbCircle
 62
7
  6
CONTINUOUS
 10
430.4678099267
 20
575.6028324401
 40
6.7886751346
100
AcDbArc
 50
147.1543511082
 51
301.6808936118
  0
ARC
  5
2A5
100
AcDbEntity
  8
0
100
AcDbCircle
 62
7
  6
CONTINUOUS
 10
430.4678099267
 20
575.6028324401
 40
5.9226497308
100
AcDbArc
 50
141.875987196
 51
306.3834080531
  0
ARC
  5
2A6
100
AcDbEntity
  8
0
100
AcDbCircle
 62
7
  6
CONTINUOUS
 10
430.4678099267
 20
575.6028324401
 40
5.15
100
AcDbArc
 50
131.3543426834
 51
309.7775882133
  0
ARC
  5
2A7
100
AcDbEntity
  8
0
100
AcDbCircle
 62
7
  6
CONTINUOUS
 10
441.4678099266
 20
519.6028324401
 40
2.3682206767
100
AcDbArc
 50
341.1273366822
 51
125.1075372688
  0
ARC
  5
2A8
100
AcDbEntity
  8
0
100
AcDbCircle
 62
7
  6
CONTINUOUS
 10
441.4678099266
 20
519.6028324401
 40
0.8566550758
100
AcDbArc
 50
291.9441985756
 51
248.0558014244
  0
ARC
  5
2A9
100
AcDbEntity
  8
0
100
AcDbCircle
 62
7
  6
CONTINUOUS
 10
441.4678099266
 20
543.6028324401
 40
2.3682206767
100
AcDbArc
 50
234.926815442
 51
18.9387294078
  0
ARC
  5
2AA
100
AcDbEntity
  8
0
100
AcDbCircle
 62
7
  6
CONTINUOUS
 10
441.4678099266
 20
543.6028324401
 40
0.8566550758
100
AcDbArc
 50
111.9441985756
 51
68.0558014244
  0
ARC
  5
2AB
100
AcDbEntity
  8
0
100
AcDbCircle
 62
7
  6
CONTINUOUS
 10
444.1678099266
 20
531.6028324401
 40
5.05
100
AcDbArc
 50
211.6957663781
 51
148.0526762933
  0
ARC
  5
2AC
100
AcDbEntity
  8
0
100
AcDbCircle
 62
7
  6
CONTINUOUS
 10
444.1678099266
 20
531.6028324401
 40
4.0
100
AcDbArc
 50
188.1067963477
 51
168.7156525487
  0
CIRCLE
  5
2AD
100
AcDbEntity
  8
0
100
AcDbCircle
 62
7
  6
CONTINUOUS
 10
444.1678099266
 20
531.6028324401
 40
3.85
  0
ARC
  5
2AE
100
AcDbEntity
  8
0
100
AcDbCircle
 62
7
  6
CONTINUOUS
 10
453.2678099267
 20
598.4028324401
 40
2.2
100
AcDbArc
 50
0.0
 51
90.0
  0
ARC
  5
2AF
100
AcDbEntity
  8
0
100
AcDbCircle
 62
7
  6
CONTINUOUS
 10
453.2678099267
 20
598.4028324401
 40
1.0
100
AcDbArc
 50
0.0
 51
90.0
  0
SPLINE
  5
2B0
100
AcDbEntity
  8
0
100
AcDbSpline
 62
7
  6
CONTINUOUS
 70
0
 71
3
 72
9
 73
5
 74
0
 42
0.0000001
 43
0.0000001
 44
0.0000000001
 40
0.0
 40
0.0
 40
0.0
 40
0.0
 40
0.2480013167
 40
1.0
 40
1.0
 40
1.0
 40
1.0
 10
73.4173563998
 20
583.2534422765
 30
0.0
 10
73.6006677341
 20
583.4294243103
 30
0.0
 10
74.3533466769
 20
584.1248377048
 30
0.0
 10
75.1608638653
 20
584.7606081629
 30
0.0
 10
75.7918539007
 20
585.2028330208
 30
0.0
  0
LINE
  5
2B1
100
AcDbEntity
  8
0
100
AcDbLine
 62
7
  6
CONTINUOUS
 10
56.8204984957
 20
101.9551579887
 11
57.3398514701
 21
102.4749163007
  0
SPLINE
  5
2B2
100
AcDbEntity
  8
0
100
AcDbSpline
 62
7
  6
CONTINUOUS
 70
0
 71
3
 72
9
 73
5
 74
0
 42
0.0000001
 43
0.0000001
 44
0.0000000001
 40
0.0
 40
0.0
 40
0.0
 40
0.0
 40
0.2480013167
 40
1.0
 40
1.0
 40
1.0
 40
1.0
 10
72.8172000903
 20
118.5523789132
 30
0.0
 10
72.6412180565
 20
118.7356902476
 30
0.0
 10
71.945804662
 20
119.4883691903
 30
0.0
 10
71.3100342039
 20
120.2958863788
 30
0.0
 10
70.867809346
 20
120.9268764142
 30
0.0
  0
SPLINE
  5
2B3
100
AcDbEntity
  8
0
100
AcDbSpline
 62
7
  6
CONTINUOUS
 70
0
 71
3
 72
9
 73
5
 74
0
 42
0.0000001
 43
0.0000001
 44
0.0000000001
 40
0.0
 40
0.0
 40
0.0
 40
0.0
 40
0.5991274471
 40
1.0
 40
1.0
 40
1.0
 40
1.0
 10
57.6678099267
 20
102.8028324401
 30
0.0
 10
57.4242899873
 20
102.6478028317
 30
0.0
 10
57.0244464459
 20
102.4167245819
 30
0.0
 10
56.6678099267
 20
101.9959864806
 30
0.0
 10
56.6678099267
 20
101.8028324401
 30
0.0
  0
LINE
  5
2B4
100
AcDbEntity
  8
0
100
AcDbLine
 62
7
  6
CONTINUOUS
 10
57.5827480196
 20
102.7177084861
 11
57.3297218661
 21
102.4647022501
  0
LINE
  5
2B5
100
AcDbEntity
  8
0
100
AcDbLine
 62
7
  6
CONTINUOUS
 10
57.3297218661
 20
102.4647022501
 11
56.818093382
 21
101.9534852543
  0
SPLINE
  5
2B6
100
AcDbEntity
  8
0
100
AcDbSpline
 62
7
  6
CONTINUOUS
 70
0
 71
3
 72
9
 73
5
 74
0
 42
0.0000001
 43
0.0000001
 44
0.0000000001
 40
0.0
 40
0.0
 40
0.0
 40
0.0
 40
0.2707342791
 40
1.0
 40
1.0
 40
1.0
 40
1.0
 10
75.8680967511
 20
121.0031192645
 30
0.0
 10
75.9269730586
 20
121.0355784979
 30
0.0
 10
76.1429031735
 20
121.158045704
 30
0.0
 10
76.3532191307
 20
121.2918469839
 30
0.0
 10
76.496590972
 20
121.402485456
 30
0.0
  0
SPLINE
  5
2B7
100
AcDbEntity
  8
0
100
AcDbSpline
 62
7
  6
CONTINUOUS
 70
0
 71
3
 72
9
 73
5
 74
0
 42
0.0000001
 43
0.0000001
 44
0.0000000001
 40
0.0
 40
0.0
 40
0.0
 40
0.0
 40
0.2302018365
 40
1.0
 40
1.0
 40
1.0
 40
1.0
 10
76.4532518957
 20
579.8359745583
 30
0.0
 10
76.4106903758
 20
579.8675724514
 30
0.0
 10
76.2222250172
 20
580.0000222144
 30
0.0
 10
76.0233299461
 20
580.1169636434
 30
0.0
 10
75.8680967511
 20
580.2025456157
 30
0.0
  0
SPLINE
  5
2B8
100
AcDbEntity
  8
0
100
AcDbSpline
 62
7
  6
CONTINUOUS
 70
0
 71
3
 72
9
 73
5
 74
0
 42
0.0000001
 43
0.0000001
 44
0.0000000001
 40
0.0
 40
0.0
 40
0.0
 40
0.0
 40
0.2480013167
 40
1.0
 40
1.0
 40
1.0
 40
1.0
 10
438.1184197631
 20
582.653285967
 30
0.0
 10
438.2944017969
 20
582.4699746327
 30
0.0
 10
438.9898151914
 20
581.7172956899
 30
0.0
 10
439.6255856496
 20
580.9097785015
 30
0.0
 10
440.0678105074
 20
580.2787884661
 30
0.0
  0
SPLINE
  5
2B9
100
AcDbEntity
  8
0
100
AcDbSpline
 62
7
  6
CONTINUOUS
 70
0
 71
3
 72
9
 73
5
 74
0
 42
0.0000001
 43
0.0000001
 44
0.0000000001
 40
0.0
 40
0.0
 40
0.0
 40
0.0
 40
0.2707342791
 40
1.0
 40
1.0
 40
1.0
 40
1.0
 10
75.8680967511
 20
580.2025456157
 30
0.0
 10
75.9005559845
 20
580.1436693082
 30
0.0
 10
76.0230231907
 20
579.9277391933
 30
0.0
 10
76.1568244705
 20
579.7174232361
 30
0.0
 10
76.2674629426
 20
579.5740513948
 30
0.0
  0
SPLINE
  5
2BA
100
AcDbEntity
  8
0
100
AcDbSpline
 62
7
  6
CONTINUOUS
 70
0
 71
3
 72
9
 73
5
 74
0
 42
0.0000001
 43
0.0000001
 44
0.0000000001
 40
0.0
 40
0.0
 40
0.0
 40
0.0
 40
0.2302018365
 40
1.0
 40
1.0
 40
1.0
 40
1.0
 10
434.700952045
 20
579.6173904711
 30
0.0
 10
434.732549938
 20
579.659951991
 30
0.0
 10
434.864999701
 20
579.8484173496
 30
0.0
 10
434.9819411301
 20
580.0473124207
 30
0.0
 10
435.0675231023
 20
580.2025456157
 30
0.0
  0
SPLINE
  5
2BB
100
AcDbEntity
  8
0
100
AcDbSpline
 62
7
  6
CONTINUOUS
 70
0
 71
3
 72
9
 73
5
 74
0
 42
0.0000001
 43
0.0000001
 44
0.0000000001
 40
0.0
 40
0.0
 40
0.0
 40
0.0
 40
0.2302018365
 40
1.0
 40
1.0
 40
1.0
 40
1.0
 10
434.4823679578
 20
121.3696903218
 30
0.0
 10
434.5249294777
 20
121.3380924288
 30
0.0
 10
434.7133948363
 20
121.2056426658
 30
0.0
 10
434.9122899073
 20
121.0887012367
 30
0.0
 10
435.0675231023
 20
121.0031192645
 30
0.0
  0
SPLINE
  5
2BC
100
AcDbEntity
  8
0
100
AcDbSpline
 62
7
  6
CONTINUOUS
 70
0
 71
3
 72
9
 73
5
 74
0
 42
0.0000001
 43
0.0000001
 44
0.0000000001
 40
0.0
 40
0.0
 40
0.0
 40
0.0
 40
0.2707342791
 40
1.0
 40
1.0
 40
1.0
 40
1.0
 10
435.0675231023
 20
580.2025456157
 30
0.0
 10
435.0086467949
 20
580.1700863823
 30
0.0
 10
434.7927166799
 20
580.0476191761
 30
0.0
 10
434.5824007227
 20
579.9138178963
 30
0.0
 10
434.4390288814
 20
579.8031794242
 30
0.0
  0
SPLINE
  5
2BD
100
AcDbEntity
  8
0
100
AcDbSpline
 62
7
  6
CONTINUOUS
 70
0
 71
3
 72
9
 73
5
 74
0
 42
0.0000001
 43
0.0000001
 44
0.0000000001
 40
0.0
 40
0.0
 40
0.0
 40
0.0
 40
0.4008710327
 40
1.0
 40
1.0
 40
1.0
 40
1.0
 10
56.6678099267
 20
101.8028324401
 30
0.0
 10
56.8609632672
 20
101.8028324401
 30
0.0
 10
57.2817022377
 20
102.1594674651
 30
0.0
 10
57.512779899
 20
102.5593118418
 30
0.0
 10
57.6678099267
 20
102.8028324401
 30
0.0
  0
SPLINE
  5
2BE
100
AcDbEntity
  8
0
100
AcDbSpline
 62
7
  6
CONTINUOUS
 70
0
 71
3
 72
9
 73
5
 74
0
 42
0.0000001
 43
0.0000001
 44
0.0000000001
 40
0.0
 40
0.0
 40
0.0
 40
0.0
 40
0.2707342791
 40
1.0
 40
1.0
 40
1.0
 40
1.0
 10
435.0675231023
 20
121.0031192645
 30
0.0
 10
435.0350638689
 20
121.061995572
 30
0.0
 10
434.9125966627
 20
121.2779256869
 30
0.0
 10
434.7787953829
 20
121.4882416441
 30
0.0
 10
434.6681569107
 20
121.6316134854
 30
0.0
  0
SPLINE
  5
2BF
100
AcDbEntity
  8
0
100
AcDbSpline
 62
7
  6
CONTINUOUS
 70
0
 71
3
 72
9
 73
5
 74
0
 42
0.0000001
 43
0.0000001
 44
0.0000000001
 40
0.0
 40
0.0
 40
0.0
 40
0.0
 40
0.2302018365
 40
1.0
 40
1.0
 40
1.0
 40
1.0
 10
76.2346678085
 20
121.588274409
 30
0.0
 10
76.2030699154
 20
121.5457128891
 30
0.0
 10
76.0706201524
 20
121.3572475306
 30
0.0
 10
75.9536787233
 20
121.1583524595
 30
0.0
 10
75.8680967511
 20
121.0031192645
 30
0.0
  0
SPLINE
  5
2C0
100
AcDbEntity
  8
0
100
AcDbSpline
 62
7
  6
CONTINUOUS
 70
0
 71
3
 72
9
 73
5
 74
0
 42
0.0000001
 43
0.0000001
 44
0.0000000001
 40
0.0
 40
0.0
 40
0.0
 40
0.0
 40
0.2480013167
 40
1.0
 40
1.0
 40
1.0
 40
1.0
 10
437.5182634536
 20
117.9522226037
 30
0.0
 10
437.3349521192
 20
117.7762405699
 30
0.0
 10
436.5822731764
 20
117.0808271754
 30
0.0
 10
435.774755988
 20
116.4450567172
 30
0.0
 10
435.1437659526
 20
116.0028318594
 30
0.0
  0
SPLINE
  5
2C1
100
AcDbEntity
  8
0
100
AcDbSpline
 62
7
  6
CONTINUOUS
 70
0
 71
3
 72
9
 73
5
 74
0
 42
0.0000001
 43
0.0000001
 44
0.0000000001
 40
0.0
 40
0.0
 40
0.0
 40
0.0
 40
0.2587608082
 40
1.0
 40
1.0
 40
1.0
 40
1.0
 10
57.6678099267
 20
102.8028324401
 30
0.0
 10
57.6409052022
 20
102.7098563867
 30
0.0
 10
57.5368546544
 20
102.3505842258
 30
0.0
 10
57.4303579621
 20
101.9918758834
 30
0.0
 10
57.3430689112
 20
101.7287110728
 30
0.0
  0
SPLINE
  5
2C2
100
AcDbEntity
  8
0
100
AcDbSpline
 62
7
  6
CONTINUOUS
 70
0
 71
3
 72
9
 73
5
 74
0
 42
0.0000001
 43
0.0000001
 44
0.0000000001
 40
0.0
 40
0.0
 40
0.0
 40
0.0
 40
0.2668730687
 40
1.0
 40
1.0
 40
1.0
 40
1.0
 10
57.3430689112
 20
101.7287110728
 30
0.0
 10
57.3287021526
 20
101.6853972176
 30
0.0
 10
57.2739341989
 20
101.5234183319
 30
0.0
 10
57.2150990407
 20
101.3627317245
 30
0.0
 10
57.1676107697
 20
101.2467122348
 30
0.0
  0
SPLINE
  5
2C3
100
AcDbEntity
  8
0
100
AcDbSpline
 62
7
  6
CONTINUOUS
 70
0
 71
3
 72
9
 73
5
 74
0
 42
0.0000001
 43
0.0000001
 44
0.0000000001
 40
0.0
 40
0.0
 40
0.0
 40
0.0
 40
0.641467968
 40
1.0
 40
1.0
 40
1.0
 40
1.0
 10
57.1676107697
 20
101.2467122348
 30
0.0
 10
57.0996660983
 20
101.0807153277
 30
0.0
 10
57.0007350182
 20
100.8330787931
 30
0.0
 10
56.768060835
 20
100.6028324401
 30
0.0
 10
56.6678099267
 20
100.6028324401
 30
0.0
  0
SPLINE
  5
2C4
100
AcDbEntity
  8
0
100
AcDbSpline
 62
7
  6
CONTINUOUS
 70
0
 71
3
 72
9
 73
5
 74
0
 42
0.0000001
 43
0.0000001
 44
0.0000000001
 40
0.0
 40
0.0
 40
0.0
 40
0.0
 40
0.3432749186
 40
1.0
 40
1.0
 40
1.0
 40
1.0
 10
55.4678099267
 20
101.8028324401
 30
0.0
 10
55.4678099267
 20
101.9339737391
 30
0.0
 10
55.8353144553
 20
102.2168363073
 30
0.0
 10
56.1674651912
 20
102.329612322
 30
0.0
 10
56.4040093546
 20
102.4132303378
 30
0.0
  0
SPLINE
  5
2C5
100
AcDbEntity
  8
0
100
AcDbSpline
 62
7
  6
CONTINUOUS
 70
0
 71
3
 72
9
 73
5
 74
0
 42
0.0000001
 43
0.0000001
 44
0.0000000001
 40
0.0
 40
0.0
 40
0.0
 40
0.0
 40
0.2368351877
 40
1.0
 40
1.0
 40
1.0
 40
1.0
 10
56.5938558956
 20
102.4781470469
 30
0.0
 10
56.6779296917
 20
102.5060315139
 30
0.0
 10
57.0342102833
 20
102.6198842379
 30
0.0
 10
57.393631719
 20
102.7234927728
 30
0.0
 10
57.6678099267
 20
102.8028324401
 30
0.0
  0
ENDSEC
  0
SECTION
  2
OBJECTS
  0
DICTIONARY
  5
C
100
AcDbDictionary
280
0
281
1
  3
ACAD_GROUP
350
D
  3
ACAD_MLINESTYLE
350
17
  3
ACAD_LAYOUT
350
1A
  3
ACAD_PLOTSETTINGS
350
19
  3
ACAD_PLOTSTYLENAME
350
E
  0
DICTIONARY
  5
D
102
{ACAD_REACTORS
330
C
102
}
100
AcDbDictionary
280
0
281
1
  0
ACDBDICTIONARYWDFLT
  5
E
102
{ACAD_REACTORS
330
C
102
}
100
AcDbDictionary
281
1
  3
Normal
350
F
100
AcDbDictionaryWithDefault
340
F
  0
DICTIONARY
  5
17
102
{ACAD_REACTORS
330
C
102
}
100
AcDbDictionary
280
0
281
1
  3
Standard
350
18
  0
DICTIONARY
  5
19
102
{ACAD_REACTORS
330
C
102
}
100
AcDbDictionary
281
1
  0
DICTIONARY
  5
1A
102
{ACAD_REACTORS
330
C
102
}
100
AcDbDictionary
281
1
  3
Model
350
2C6
  3
Layout1
350
2C7
  0
ACDBPLACEHOLDER
  5
F
102
{ACAD_REACTORS
330
E
102
}
  0
MLINESTYLE
  5
18
102
{ACAD_REACTORS
330
17
102
}
100
AcDbMlineStyle
  2
STANDARD
 70
0
  3

 62
256
 51
90.0
 52
90.0
 71
2
 49
0.5
 62
256
  6
BYLAYER
 49
-0.5
 62
256
  6
BYLAYER
  0
LAYOUT
  5
2C6
102
{ACAD_REACTORS
330
1A
102
}
100
AcDbPlotSettings
  1

  2
none_device
  4

  6

 40
0.0
 41
0.0
 42
0.0
 43
0.0
 44
210.0
 45
297.0
 46
0.0
 47
0.0
 48
0.0
 49
0.0
140
0.0
141
0.0
142
1.0
143
1.0
 70
1024
 72
1
 73
0
 74
0
  7

 75
0
147
1.0
148
0.0
149
0.0
100
AcDbLayout
  1
Model
 70
0
 71
0
 10
0.0
 20
0.0
 11
210.0
 21
297.0
 12
0.0
 22
0.0
 32
0.0
 14
0.0
 24
0.0
 34
0.0
 15
0.0
 25
0.0
 35
0.0
146
0.0
 13
0.0
 23
0.0
 33
0.0
 16
1.0
 26
0.0
 36
0.0
 17
0.0
 27
1.0
 37
0.0
 76
0
330
210
345
0
346
0
  0
LAYOUT
  5
2C7
102
{ACAD_REACTORS
330
1A
102
}
100
AcDbPlotSettings
  1

  2
none_device
  4

  6

 40
0.0
 41
0.0
 42
0.0
 43
0.0
 44
210.0
 45
297.0
 46
0.0
 47
0.0
 48
0.0
 49
0.0
140
0.0
141
0.0
142
1.0
143
1.0
 70
0
 72
1
 73
0
 74
0
  7

 75
0
147
1.0
148
0.0
149
0.0
100
AcDbLayout
  1
Layout1
 70
0
 71
1
 10
0.0
 20
0.0
 11
210.0
 21
297.0
 12
0.0
 22
0.0
 32
0.0
 14
0.0
 24
0.0
 34
0.0
 15
0.0
 25
0.0
 35
0.0
146
0.0
 13
0.0
 23
0.0
 33
0.0
 16
1.0
 26
0.0
 36
0.0
 17
0.0
 27
1.0
 37
0.0
 76
0
330
211
345
0
346
0
  0
ENDSEC
  0
EOF
