999
DXF file: C:\Users\sesa63760\Dev\_Creo\CAD\MCADUE0003213_3D-CAD\drw0001_6.dxf
999
Pro/ENGINEER 2019471 by Parametric Technology Corporation
  0
SECTION
  2
HEADER
  9
$ACADVER
  1
AC1024
  9
$DWGCODEPAGE
  3
ANSI_1252
  9
$EXTMAX
 10
2444.6977432973
 20
3457.5010940919
 30
0.0
  9
$EXTMIN
 10
0.0
 20
0.0
 30
0.0
  9
$LIMMIN
 10
0.0
 20
0.0
  9
$LIMMAX
 10
2444.6977432973
 20
3457.5010940919
  9
$VIEWCTR
 10
1222.3488716487
 20
1728.7505470459
  9
$VIEWSIZE
 40
3457.5010940919
  9
$CLAYER
  8
0
  9
$LTSCALE
 40
225.3778490964
  9
$CELTYPE
  6
BYLAYER
  9
$DIMSCALE
 40
1.0
  9
$DIMASZ
 40
29.1035445631
  9
$DIMEXO
 40
1.0
  9
$DIMDLI
 40
155.7156048302
  9
$DIMEXE
 40
1.0
  9
$DIMCEN
 40
36.8800116703
  9
$DIMLFAC
 40
1.0
  9
$DIMBLK
  1
_FILLED
  9
$DIMALT
 70
0
  9
$DIMALTF
 40
0.0393700787
  9
$DIMTXT
 40
40.7449623883
  9
$DIMTOL
 70
1
  9
$DIMLIM
 70
0
  9
$DIMTFAC
 40
1.0
  9
$DIMTP
 40
0.01
  9
$DIMTM
 40
0.01
  9
$DIMGAP
 40
0.625
  9
$DIMDSEP
 70
46
  9
$AUNITS
 70
0
  9
$PDMODE
 70
3
  9
$PDSIZE
 40
0.3125
  9
$HANDSEED
  5
915
  9
$TILEMODE
 70
1
  9
$MEASUREMENT
 70
1
  9
$INSUNITS
 70
4
  0
ENDSEC
  0
SECTION
  2
CLASSES
  0
CLASS
  1
ACDBDICTIONARYWDFLT
  2
AcDbDictionaryWithDefault
  3
AutoCAD 2000
 90
0
 91
1
280
0
281
0
  0
CLASS
  1
ACDBPLACEHOLDER
  2
AcDbPlaceHolder
  3
AutoCAD 2000
 90
0
 91
1
280
0
281
0
  0
CLASS
  1
LAYOUT
  2
AcDbLayout
  3
AutoCAD 2000
 90
0
 91
0
280
0
281
0
  0
ENDSEC
  0
SECTION
  2
TABLES
  0
TABLE
  2
VPORT
  5
8
100
AcDbSymbolTable
 70
2
  0
VPORT
  5
1F4
100
AcDbSymbolTableRecord
100
AcDbViewportTableRecord
  2
*ACTIVE
 70
0
 10
0.0
 20
0.0
 11
1.0
 21
1.0
 12
1222.3488716487
 22
1728.7505470459
 13
0.0
 23
0.0
 14
1.0
 24
1.0
 15
0.0
 25
0.0
 16
0.0
 26
0.0
 36
1.0
 17
0.0
 27
0.0
 37
0.0
 40
3457.5010940919
 41
0.7070707071
 42
50.0
 43
0.0
 44
0.0
 50
0.0
 51
0.0
 71
0
 72
100
 73
1
 74
1
 75
0
 76
0
 77
0
 78
0
  0
ENDTAB
  0
TABLE
  2
LTYPE
  5
5
100
AcDbSymbolTable
 70
6
  0
LTYPE
  5
14
100
AcDbSymbolTableRecord
100
AcDbLinetypeTableRecord
  2
BYBLOCK
 70
0
  3

 72
65
 73
0
 40
0.0
  0
LTYPE
  5
15
100
AcDbSymbolTableRecord
100
AcDbLinetypeTableRecord
  2
BYLAYER
 70
0
  3

 72
65
 73
0
 40
0.0
  0
LTYPE
  5
16
100
AcDbSymbolTableRecord
100
AcDbLinetypeTableRecord
  2
CONTINUOUS
 70
64
  3
Solid line
 72
65
 73
0
 40
0.0
  0
LTYPE
  5
1F5
100
AcDbSymbolTableRecord
100
AcDbLinetypeTableRecord
  2
CENTER
 70
64
  3
____ _ ____ _ ____ _ ____ _ ____ _ ____ _ ____
 72
65
 73
4
 40
0.6
 49
0.375
 74
0
 49
-0.075
 74
0
 49
0.075
 74
0
 49
-0.075
 74
0
  0
LTYPE
  5
1F6
100
AcDbSymbolTableRecord
100
AcDbLinetypeTableRecord
  2
HIDDEN
 70
64
  3
- - - - - - - - - - - - - - - - - - - -
 72
65
 73
2
 40
0.2
 49
0.1
 74
0
 49
-0.1
 74
0
  0
LTYPE
  5
1F7
100
AcDbSymbolTableRecord
100
AcDbLinetypeTableRecord
  2
PHANTOM
 70
64
  3
_____ _ _ _____ _ _ _____ _ _ _____
 72
65
 73
6
 40
0.8
 49
0.45
 74
0
 49
-0.05
 74
0
 49
0.1
 74
0
 49
-0.05
 74
0
 49
0.1
 74
0
 49
-0.05
 74
0
  0
LTYPE
  5
1F8
100
AcDbSymbolTableRecord
100
AcDbLinetypeTableRecord
  2
DOT
 70
64
  3
. . . . . . . . . . . . . . . . . . . .
 72
65
 73
2
 40
0.2
 49
0.1
 74
0
 49
-0.1
 74
0
  0
LTYPE
  5
1F9
100
AcDbSymbolTableRecord
100
AcDbLinetypeTableRecord
  2
DASHED
 70
64
  3
- - - - - - - - - - - - - - - - - - - -
 72
65
 73
2
 40
0.2
 49
0.1
 74
0
 49
-0.1
 74
0
  0
ENDTAB
  0
TABLE
  2
LAYER
  5
2
100
AcDbSymbolTable
 70
36
  0
LAYER
  5
10
100
AcDbSymbolTableRecord
100
AcDbLayerTableRecord
  2
0
 70
0
 62
7
  6
CONTINUOUS
370
-3
390
F
  0
LAYER
  5
1FA
100
AcDbSymbolTableRecord
100
AcDbLayerTableRecord
  2
DEFAULT_1
 70
0
 62
7
  6
CENTER
370
-3
390
F
  0
LAYER
  5
1FB
100
AcDbSymbolTableRecord
100
AcDbLayerTableRecord
  2
DEFAULT_2
 70
0
 62
8
  6
HIDDEN
370
-3
390
F
  0
LAYER
  5
1FC
100
AcDbSymbolTableRecord
100
AcDbLayerTableRecord
  2
DEFAULT_3
 70
0
 62
7
  6
PHANTOM
370
-3
390
F
  0
LAYER
  5
1FD
100
AcDbSymbolTableRecord
100
AcDbLayerTableRecord
  2
00_COMPONENTS
 70
0
 62
7
  6
CONTINUOUS
370
-3
390
F
  0
LAYER
  5
1FE
100
AcDbSymbolTableRecord
100
AcDbLayerTableRecord
  2
01_1_DEFAULT_DATUMS
 70
0
 62
7
  6
CONTINUOUS
370
-3
390
F
  0
LAYER
  5
1FF
100
AcDbSymbolTableRecord
100
AcDbLayerTableRecord
  2
01_PLANES
 70
0
 62
7
  6
CONTINUOUS
370
-3
390
F
  0
LAYER
  5
200
100
AcDbSymbolTableRecord
100
AcDbLayerTableRecord
  2
02_COORD_SYS
 70
0
 62
7
  6
CONTINUOUS
370
-3
390
F
  0
LAYER
  5
201
100
AcDbSymbolTableRecord
100
AcDbLayerTableRecord
  2
03_AXES
 70
0
 62
7
  6
CONTINUOUS
370
-3
390
F
  0
LAYER
  5
202
100
AcDbSymbolTableRecord
100
AcDbLayerTableRecord
  2
04_POINTS
 70
0
 62
7
  6
CONTINUOUS
370
-3
390
F
  0
LAYER
  5
203
100
AcDbSymbolTableRecord
100
AcDbLayerTableRecord
  2
05_CURVES
 70
0
 62
7
  6
CONTINUOUS
370
-3
390
F
  0
LAYER
  5
204
100
AcDbSymbolTableRecord
100
AcDbLayerTableRecord
  2
06_SURFS
 70
0
 62
7
  6
CONTINUOUS
370
-3
390
F
  0
LAYER
  5
205
100
AcDbSymbolTableRecord
100
AcDbLayerTableRecord
  2
07_COSMETICS
 70
0
 62
7
  6
CONTINUOUS
370
-3
390
F
  0
LAYER
  5
206
100
AcDbSymbolTableRecord
100
AcDbLayerTableRecord
  2
10_NOTES
 70
0
 62
7
  6
CONTINUOUS
370
-3
390
F
  0
LAYER
  5
207
100
AcDbSymbolTableRecord
100
AcDbLayerTableRecord
  2
11_NOTES_PUB
 70
0
 62
7
  6
CONTINUOUS
370
-3
390
F
  0
LAYER
  5
208
100
AcDbSymbolTableRecord
100
AcDbLayerTableRecord
  2
13_REF_GTOL
 70
0
 62
7
  6
CONTINUOUS
370
-3
390
F
  0
LAYER
  5
209
100
AcDbSymbolTableRecord
100
AcDbLayerTableRecord
  2
16_MISC
 70
0
 62
7
  6
CONTINUOUS
370
-3
390
F
  0
LAYER
  5
20A
100
AcDbSymbolTableRecord
100
AcDbLayerTableRecord
  2
17_NO_PRINT
 70
0
 62
7
  6
CONTINUOUS
370
-3
390
F
  0
LAYER
  5
20B
100
AcDbSymbolTableRecord
100
AcDbLayerTableRecord
  2
18_DATUM_CAMS_JOINTS
 70
0
 62
7
  6
CONTINUOUS
370
-3
390
F
  0
LAYER
  5
20C
100
AcDbSymbolTableRecord
100
AcDbLayerTableRecord
  2
19_DATUM_FUNCTIONAL
 70
0
 62
7
  6
CONTINUOUS
370
-3
390
F
  0
LAYER
  5
20D
100
AcDbSymbolTableRecord
100
AcDbLayerTableRecord
  2
20_DATUM_KINEMATIC_SCHEME
 70
0
 62
7
  6
CONTINUOUS
370
-3
390
F
  0
LAYER
  5
20E
100
AcDbSymbolTableRecord
100
AcDbLayerTableRecord
  2
INTFCLR_124059
 70
0
 62
7
  6
CONTINUOUS
370
-3
390
F
  0
ENDTAB
  0
TABLE
  2
STYLE
  5
3
100
AcDbSymbolTable
 70
1
  0
STYLE
  5
11
100
AcDbSymbolTableRecord
100
AcDbTextStyleTableRecord
  2
STANDARD
 70
0
 40
0.0
 41
0.8
 50
0.0
 71
0
 42
0.2
  3
txt
  4

  0
STYLE
  5
20F
100
AcDbSymbolTableRecord
100
AcDbTextStyleTableRecord
  2
TEXTSTYLE_1
 70
0
 40
0.0
 41
0.8
 50
0.0
 71
0
 42
0.2
  3
gdt
  4

  0
ENDTAB
  0
TABLE
  2
VIEW
  5
6
100
AcDbSymbolTable
 70
0
  0
ENDTAB
  0
TABLE
  2
UCS
  5
7
100
AcDbSymbolTable
 70
0
  0
ENDTAB
  0
TABLE
  2
APPID
  5
9
100
AcDbSymbolTable
 70
1
  0
APPID
  5
210
100
AcDbSymbolTableRecord
100
AcDbRegAppTableRecord
  2
ACAD
 70
0
  0
ENDTAB
  0
TABLE
  2
BLOCK_RECORD
  5
1
100
AcDbSymbolTable
 70
0
  0
BLOCK_RECORD
  5
211
100
AcDbSymbolTableRecord
100
AcDbBlockTableRecord
  2
*Model_Space
  0
BLOCK_RECORD
  5
212
100
AcDbSymbolTableRecord
100
AcDbBlockTableRecord
  2
*Paper_Space
  0
BLOCK_RECORD
  5
213
100
AcDbSymbolTableRecord
100
AcDbBlockTableRecord
  2
_FILLED
  0
ENDTAB
  0
TABLE
  2
DIMSTYLE
  5
A
100
AcDbSymbolTable
 70
1
100
AcDbDimStyleTable
 71
0
  0
DIMSTYLE
105
214
100
AcDbSymbolTableRecord
100
AcDbDimStyleTableRecord
  2
STANDARD
 70
0
  3

  4

 40
1.0
 41
29.1035445631
 42
1.0
 43
0.38
 44
1.0
 45
0.0
 46
0.0
 47
0.01
 48
0.01
140
40.7449623883
141
0.09
142
0.0
143
25.4
144
1.0
145
0.0
146
1.0
147
0.625
 71
1
 72
0
 73
0
 74
0
 75
0
 76
0
 77
1
 78
8
 79
2
170
0
171
1
172
0
173
0
174
0
175
0
176
0
177
0
178
0
270
2
179
2
271
2
272
2
273
2
274
2
275
0
280
0
281
0
282
0
283
1
284
8
285
0
286
0
287
3
288
0
340
11
278
46
341
213
342
213
343
213
344
213
  0
ENDTAB
  0
ENDSEC
  0
SECTION
  2
BLOCKS
  0
BLOCK
  5
20
100
AcDbEntity
  8
0
100
AcDbBlockBegin
  2
*Model_Space
 70
0
 10
0.0
 20
0.0
 30
0.0
  3
*Model_Space
  1

  0
ENDBLK
  5
21
100
AcDbEntity
  8
0
100
AcDbBlockEnd
  0
BLOCK
  5
1C
100
AcDbEntity
  8
0
100
AcDbBlockBegin
  2
*Paper_Space
 70
0
 10
0.0
 20
0.0
 30
0.0
  3
*Paper_Space
  1

  0
ENDBLK
  5
1D
100
AcDbEntity
  8
0
100
AcDbBlockEnd
  0
BLOCK
  5
215
100
AcDbEntity
  8
0
100
AcDbBlockBegin
  2
_FILLED
 70
64
 10
0.0
 20
0.0
  3
_FILLED
  1

  0
SOLID
  5
216
100
AcDbEntity
  8
0
  6
BYBLOCK
 62
0
100
AcDbTrace
 10
0.0
 20
0.0
 11
-1.0
 21
0.25
 12
-1.0
 22
-0.25
 13
-1.0
 23
-0.25
  0
ENDBLK
  5
217
100
AcDbEntity
  8
0
  6
BYBLOCK
 62
0
100
AcDbBlockEnd
  0
ENDSEC
  0
SECTION
  2
ENTITIES
  0
LINE
  5
218
100
AcDbEntity
  8
0
100
AcDbLine
 62
7
  6
CONTINUOUS
 10
276.5086090666
 20
1702.2505470459
 11
276.5086090666
 21
1705.2505470459
  0
LINE
  5
219
100
AcDbEntity
  8
0
100
AcDbLine
 62
7
  6
CONTINUOUS
 10
276.5086090666
 20
1752.2505470459
 11
276.5086090666
 21
1755.2505470459
  0
LINE
  5
21A
100
AcDbEntity
  8
0
100
AcDbLine
 62
7
  6
CONTINUOUS
 10
280.0086090666
 20
1700.7505470459
 11
280.0086090666
 21
1706.7505470459
  0
LINE
  5
21B
100
AcDbEntity
  8
0
100
AcDbLine
 62
7
  6
CONTINUOUS
 10
280.0086090666
 20
1750.7505470459
 11
280.0086090666
 21
1756.7505470459
  0
LINE
  5
21C
100
AcDbEntity
  8
0
100
AcDbLine
 62
7
  6
CONTINUOUS
 10
294.9451927476
 20
1717.5916070288
 11
294.4217770147
 21
1727.5789741707
  0
LINE
  5
21D
100
AcDbEntity
  8
0
100
AcDbLine
 62
7
  6
CONTINUOUS
 10
288.5086090666
 20
1696.2505470459
 11
288.5086090666
 21
1761.2505470459
  0
LINE
  5
21E
100
AcDbEntity
  8
0
100
AcDbLine
 62
7
  6
CONTINUOUS
 10
290.0086090666
 20
1683.7505470459
 11
290.0086090666
 21
1773.7505470459
  0
LINE
  5
21F
100
AcDbEntity
  8
0
100
AcDbLine
 62
7
  6
CONTINUOUS
 10
298.2586090666
 20
1755.9156105554
 11
298.2586090666
 21
1755.0495851516
  0
LINE
  5
220
100
AcDbEntity
  8
0
100
AcDbLine
 62
7
  6
CONTINUOUS
 10
298.2586090666
 20
1752.4515089403
 11
298.2586090666
 21
1751.5854835365
  0
LINE
  5
221
100
AcDbEntity
  8
0
100
AcDbLine
 62
7
  6
CONTINUOUS
 10
298.2586090666
 20
1705.9156105554
 11
298.2586090666
 21
1705.0495851516
  0
LINE
  5
222
100
AcDbEntity
  8
0
100
AcDbLine
 62
7
  6
CONTINUOUS
 10
298.2586090666
 20
1702.4515089403
 11
298.2586090666
 21
1701.5854835365
  0
LINE
  5
223
100
AcDbEntity
  8
0
100
AcDbLine
 62
7
  6
CONTINUOUS
 10
301.7586090666
 20
1701.5854835365
 11
301.7586090666
 21
1702.4515089403
  0
LINE
  5
224
100
AcDbEntity
  8
0
100
AcDbLine
 62
7
  6
CONTINUOUS
 10
301.7586090666
 20
1705.0495851516
 11
301.7586090666
 21
1705.9156105554
  0
LINE
  5
225
100
AcDbEntity
  8
0
100
AcDbLine
 62
7
  6
CONTINUOUS
 10
301.7586090666
 20
1751.5854835365
 11
301.7586090666
 21
1752.4515089403
  0
LINE
  5
226
100
AcDbEntity
  8
0
100
AcDbLine
 62
7
  6
CONTINUOUS
 10
301.7586090666
 20
1755.0495851516
 11
301.7586090666
 21
1755.9156105554
  0
LINE
  5
227
100
AcDbEntity
  8
0
100
AcDbLine
 62
7
  6
CONTINUOUS
 10
325.5086090666
 20
1767.7505470459
 11
325.5086090666
 21
1754.7505470459
  0
LINE
  5
228
100
AcDbEntity
  8
0
100
AcDbLine
 62
7
  6
CONTINUOUS
 10
325.5086090666
 20
1742.7505470459
 11
325.5086090666
 21
1729.7505470459
  0
LINE
  5
229
100
AcDbEntity
  8
0
100
AcDbLine
 62
7
  6
CONTINUOUS
 10
325.5086090666
 20
1727.7505470459
 11
325.5086090666
 21
1714.7505470459
  0
LINE
  5
22A
100
AcDbEntity
  8
0
100
AcDbLine
 62
7
  6
CONTINUOUS
 10
325.5086090666
 20
1702.7505470459
 11
325.5086090666
 21
1689.7505470459
  0
LINE
  5
22B
100
AcDbEntity
  8
0
100
AcDbLine
 62
7
  6
CONTINUOUS
 10
336.5086090666
 20
1689.7505470459
 11
336.5086090666
 21
1702.7505470459
  0
LINE
  5
22C
100
AcDbEntity
  8
0
100
AcDbLine
 62
7
  6
CONTINUOUS
 10
336.5086090666
 20
1714.7505470459
 11
336.5086090666
 21
1727.7505470459
  0
LINE
  5
22D
100
AcDbEntity
  8
0
100
AcDbLine
 62
7
  6
CONTINUOUS
 10
336.5086090666
 20
1729.7505470459
 11
336.5086090666
 21
1742.7505470459
  0
LINE
  5
22E
100
AcDbEntity
  8
0
100
AcDbLine
 62
7
  6
CONTINUOUS
 10
336.5086090666
 20
1754.7505470459
 11
336.5086090666
 21
1767.7505470459
  0
LINE
  5
22F
100
AcDbEntity
  8
0
100
AcDbLine
 62
7
  6
CONTINUOUS
 10
305.5086090666
 20
1727.5789741705
 11
304.9851933338
 21
1717.5916070289
  0
LINE
  5
230
100
AcDbEntity
  8
0
100
AcDbLine
 62
7
  6
CONTINUOUS
 10
350.5086090666
 20
1767.7505470459
 11
350.5086090666
 21
1754.7505470459
  0
LINE
  5
231
100
AcDbEntity
  8
0
100
AcDbLine
 62
7
  6
CONTINUOUS
 10
350.5086090666
 20
1742.7505470459
 11
350.5086090666
 21
1729.7505470459
  0
LINE
  5
232
100
AcDbEntity
  8
0
100
AcDbLine
 62
7
  6
CONTINUOUS
 10
350.5086090666
 20
1727.7505470459
 11
350.5086090666
 21
1714.7505470459
  0
LINE
  5
233
100
AcDbEntity
  8
0
100
AcDbLine
 62
7
  6
CONTINUOUS
 10
350.5086090666
 20
1702.7505470459
 11
350.5086090666
 21
1689.7505470459
  0
LINE
  5
234
100
AcDbEntity
  8
0
100
AcDbLine
 62
7
  6
CONTINUOUS
 10
361.5086090666
 20
1689.7505470459
 11
361.5086090666
 21
1702.7505470459
  0
LINE
  5
235
100
AcDbEntity
  8
0
100
AcDbLine
 62
7
  6
CONTINUOUS
 10
361.5086090666
 20
1714.7505470459
 11
361.5086090666
 21
1727.7505470459
  0
LINE
  5
236
100
AcDbEntity
  8
0
100
AcDbLine
 62
7
  6
CONTINUOUS
 10
361.5086090666
 20
1729.7505470459
 11
361.5086090666
 21
1742.7505470459
  0
LINE
  5
237
100
AcDbEntity
  8
0
100
AcDbLine
 62
7
  6
CONTINUOUS
 10
361.5086090666
 20
1754.7505470459
 11
361.5086090666
 21
1767.7505470459
  0
LINE
  5
238
100
AcDbEntity
  8
0
100
AcDbLine
 62
7
  6
CONTINUOUS
 10
375.5086090666
 20
1767.7505470459
 11
375.5086090666
 21
1754.7505470459
  0
LINE
  5
239
100
AcDbEntity
  8
0
100
AcDbLine
 62
7
  6
CONTINUOUS
 10
375.5086090666
 20
1742.7505470459
 11
375.5086090666
 21
1729.7505470459
  0
LINE
  5
23A
100
AcDbEntity
  8
0
100
AcDbLine
 62
7
  6
CONTINUOUS
 10
375.5086090666
 20
1727.7505470459
 11
375.5086090666
 21
1714.7505470459
  0
LINE
  5
23B
100
AcDbEntity
  8
0
100
AcDbLine
 62
7
  6
CONTINUOUS
 10
375.5086090666
 20
1702.7505470459
 11
375.5086090666
 21
1689.7505470459
  0
LINE
  5
23C
100
AcDbEntity
  8
0
100
AcDbLine
 62
7
  6
CONTINUOUS
 10
386.5086090666
 20
1689.7505470459
 11
386.5086090666
 21
1702.7505470459
  0
LINE
  5
23D
100
AcDbEntity
  8
0
100
AcDbLine
 62
7
  6
CONTINUOUS
 10
386.5086090666
 20
1714.7505470459
 11
386.5086090666
 21
1727.7505470459
  0
LINE
  5
23E
100
AcDbEntity
  8
0
100
AcDbLine
 62
7
  6
CONTINUOUS
 10
386.5086090666
 20
1729.7505470459
 11
386.5086090666
 21
1742.7505470459
  0
LINE
  5
23F
100
AcDbEntity
  8
0
100
AcDbLine
 62
7
  6
CONTINUOUS
 10
386.5086090666
 20
1754.7505470459
 11
386.5086090666
 21
1767.7505470459
  0
LINE
  5
240
100
AcDbEntity
  8
0
100
AcDbLine
 62
7
  6
CONTINUOUS
 10
400.5086090666
 20
1767.7505470459
 11
400.5086090666
 21
1754.7505470459
  0
LINE
  5
241
100
AcDbEntity
  8
0
100
AcDbLine
 62
7
  6
CONTINUOUS
 10
400.5086090666
 20
1742.7505470459
 11
400.5086090666
 21
1729.7505470459
  0
LINE
  5
242
100
AcDbEntity
  8
0
100
AcDbLine
 62
7
  6
CONTINUOUS
 10
400.5086090666
 20
1727.7505470459
 11
400.5086090666
 21
1714.7505470459
  0
LINE
  5
243
100
AcDbEntity
  8
0
100
AcDbLine
 62
7
  6
CONTINUOUS
 10
400.5086090666
 20
1702.7505470459
 11
400.5086090666
 21
1689.7505470459
  0
LINE
  5
244
100
AcDbEntity
  8
0
100
AcDbLine
 62
7
  6
CONTINUOUS
 10
411.5086090666
 20
1689.7505470459
 11
411.5086090666
 21
1702.7505470459
  0
LINE
  5
245
100
AcDbEntity
  8
0
100
AcDbLine
 62
7
  6
CONTINUOUS
 10
411.5086090666
 20
1714.7505470459
 11
411.5086090666
 21
1727.7505470459
  0
LINE
  5
246
100
AcDbEntity
  8
0
100
AcDbLine
 62
7
  6
CONTINUOUS
 10
411.5086090666
 20
1729.7505470459
 11
411.5086090666
 21
1742.7505470459
  0
LINE
  5
247
100
AcDbEntity
  8
0
100
AcDbLine
 62
7
  6
CONTINUOUS
 10
411.5086090666
 20
1754.7505470459
 11
411.5086090666
 21
1767.7505470459
  0
LINE
  5
248
100
AcDbEntity
  8
0
100
AcDbLine
 62
7
  6
CONTINUOUS
 10
425.5086090666
 20
1767.7505470459
 11
425.5086090666
 21
1754.7505470459
  0
LINE
  5
249
100
AcDbEntity
  8
0
100
AcDbLine
 62
7
  6
CONTINUOUS
 10
425.5086090666
 20
1742.7505470459
 11
425.5086090666
 21
1729.7505470459
  0
LINE
  5
24A
100
AcDbEntity
  8
0
100
AcDbLine
 62
7
  6
CONTINUOUS
 10
425.5086090666
 20
1727.7505470459
 11
425.5086090666
 21
1714.7505470459
  0
LINE
  5
24B
100
AcDbEntity
  8
0
100
AcDbLine
 62
7
  6
CONTINUOUS
 10
425.5086090666
 20
1702.7505470459
 11
425.5086090666
 21
1689.7505470459
  0
LINE
  5
24C
100
AcDbEntity
  8
0
100
AcDbLine
 62
7
  6
CONTINUOUS
 10
436.5086090666
 20
1689.7505470459
 11
436.5086090666
 21
1702.7505470459
  0
LINE
  5
24D
100
AcDbEntity
  8
0
100
AcDbLine
 62
7
  6
CONTINUOUS
 10
436.5086090666
 20
1714.7505470459
 11
436.5086090666
 21
1727.7505470459
  0
LINE
  5
24E
100
AcDbEntity
  8
0
100
AcDbLine
 62
7
  6
CONTINUOUS
 10
436.5086090666
 20
1729.7505470459
 11
436.5086090666
 21
1742.7505470459
  0
LINE
  5
24F
100
AcDbEntity
  8
0
100
AcDbLine
 62
7
  6
CONTINUOUS
 10
436.5086090666
 20
1754.7505470459
 11
436.5086090666
 21
1767.7505470459
  0
LINE
  5
250
100
AcDbEntity
  8
0
100
AcDbLine
 62
7
  6
CONTINUOUS
 10
450.5086090666
 20
1767.7505470459
 11
450.5086090666
 21
1754.7505470459
  0
LINE
  5
251
100
AcDbEntity
  8
0
100
AcDbLine
 62
7
  6
CONTINUOUS
 10
450.5086090666
 20
1742.7505470459
 11
450.5086090666
 21
1729.7505470459
  0
LINE
  5
252
100
AcDbEntity
  8
0
100
AcDbLine
 62
7
  6
CONTINUOUS
 10
450.5086090666
 20
1727.7505470459
 11
450.5086090666
 21
1714.7505470459
  0
LINE
  5
253
100
AcDbEntity
  8
0
100
AcDbLine
 62
7
  6
CONTINUOUS
 10
450.5086090666
 20
1702.7505470459
 11
450.5086090666
 21
1689.7505470459
  0
LINE
  5
254
100
AcDbEntity
  8
0
100
AcDbLine
 62
7
  6
CONTINUOUS
 10
461.5086090666
 20
1689.7505470459
 11
461.5086090666
 21
1702.7505470459
  0
LINE
  5
255
100
AcDbEntity
  8
0
100
AcDbLine
 62
7
  6
CONTINUOUS
 10
461.5086090666
 20
1714.7505470459
 11
461.5086090666
 21
1727.7505470459
  0
LINE
  5
256
100
AcDbEntity
  8
0
100
AcDbLine
 62
7
  6
CONTINUOUS
 10
461.5086090666
 20
1729.7505470459
 11
461.5086090666
 21
1742.7505470459
  0
LINE
  5
257
100
AcDbEntity
  8
0
100
AcDbLine
 62
7
  6
CONTINUOUS
 10
461.5086090666
 20
1754.7505470459
 11
461.5086090666
 21
1767.7505470459
  0
LINE
  5
258
100
AcDbEntity
  8
0
100
AcDbLine
 62
7
  6
CONTINUOUS
 10
475.5086090666
 20
1767.7505470459
 11
475.5086090666
 21
1754.7505470459
  0
LINE
  5
259
100
AcDbEntity
  8
0
100
AcDbLine
 62
7
  6
CONTINUOUS
 10
475.5086090666
 20
1742.7505470459
 11
475.5086090666
 21
1729.7505470459
  0
LINE
  5
25A
100
AcDbEntity
  8
0
100
AcDbLine
 62
7
  6
CONTINUOUS
 10
475.5086090666
 20
1727.7505470459
 11
475.5086090666
 21
1714.7505470459
  0
LINE
  5
25B
100
AcDbEntity
  8
0
100
AcDbLine
 62
7
  6
CONTINUOUS
 10
475.5086090666
 20
1702.7505470459
 11
475.5086090666
 21
1689.7505470459
  0
LINE
  5
25C
100
AcDbEntity
  8
0
100
AcDbLine
 62
7
  6
CONTINUOUS
 10
486.5086090666
 20
1689.7505470459
 11
486.5086090666
 21
1702.7505470459
  0
LINE
  5
25D
100
AcDbEntity
  8
0
100
AcDbLine
 62
7
  6
CONTINUOUS
 10
486.5086090666
 20
1714.7505470459
 11
486.5086090666
 21
1727.7505470459
  0
LINE
  5
25E
100
AcDbEntity
  8
0
100
AcDbLine
 62
7
  6
CONTINUOUS
 10
486.5086090666
 20
1729.7505470459
 11
486.5086090666
 21
1742.7505470459
  0
LINE
  5
25F
100
AcDbEntity
  8
0
100
AcDbLine
 62
7
  6
CONTINUOUS
 10
486.5086090666
 20
1754.7505470459
 11
486.5086090666
 21
1767.7505470459
  0
LINE
  5
260
100
AcDbEntity
  8
0
100
AcDbLine
 62
7
  6
CONTINUOUS
 10
500.5086090666
 20
1767.7505470459
 11
500.5086090666
 21
1754.7505470459
  0
LINE
  5
261
100
AcDbEntity
  8
0
100
AcDbLine
 62
7
  6
CONTINUOUS
 10
500.5086090666
 20
1742.7505470459
 11
500.5086090666
 21
1729.7505470459
  0
LINE
  5
262
100
AcDbEntity
  8
0
100
AcDbLine
 62
7
  6
CONTINUOUS
 10
500.5086090666
 20
1727.7505470459
 11
500.5086090666
 21
1714.7505470459
  0
LINE
  5
263
100
AcDbEntity
  8
0
100
AcDbLine
 62
7
  6
CONTINUOUS
 10
500.5086090666
 20
1702.7505470459
 11
500.5086090666
 21
1689.7505470459
  0
LINE
  5
264
100
AcDbEntity
  8
0
100
AcDbLine
 62
7
  6
CONTINUOUS
 10
511.5086090666
 20
1689.7505470459
 11
511.5086090666
 21
1702.7505470459
  0
LINE
  5
265
100
AcDbEntity
  8
0
100
AcDbLine
 62
7
  6
CONTINUOUS
 10
511.5086090666
 20
1714.7505470459
 11
511.5086090666
 21
1727.7505470459
  0
LINE
  5
266
100
AcDbEntity
  8
0
100
AcDbLine
 62
7
  6
CONTINUOUS
 10
511.5086090666
 20
1729.7505470459
 11
511.5086090666
 21
1742.7505470459
  0
LINE
  5
267
100
AcDbEntity
  8
0
100
AcDbLine
 62
7
  6
CONTINUOUS
 10
511.5086090666
 20
1754.7505470459
 11
511.5086090666
 21
1767.7505470459
  0
LINE
  5
268
100
AcDbEntity
  8
0
100
AcDbLine
 62
7
  6
CONTINUOUS
 10
525.5086090666
 20
1767.7505470459
 11
525.5086090666
 21
1754.7505470459
  0
LINE
  5
269
100
AcDbEntity
  8
0
100
AcDbLine
 62
7
  6
CONTINUOUS
 10
525.5086090666
 20
1742.7505470459
 11
525.5086090666
 21
1729.7505470459
  0
LINE
  5
26A
100
AcDbEntity
  8
0
100
AcDbLine
 62
7
  6
CONTINUOUS
 10
525.5086090666
 20
1727.7505470459
 11
525.5086090666
 21
1714.7505470459
  0
LINE
  5
26B
100
AcDbEntity
  8
0
100
AcDbLine
 62
7
  6
CONTINUOUS
 10
525.5086090666
 20
1702.7505470459
 11
525.5086090666
 21
1689.7505470459
  0
LINE
  5
26C
100
AcDbEntity
  8
0
100
AcDbLine
 62
7
  6
CONTINUOUS
 10
536.5086090666
 20
1689.7505470459
 11
536.5086090666
 21
1702.7505470459
  0
LINE
  5
26D
100
AcDbEntity
  8
0
100
AcDbLine
 62
7
  6
CONTINUOUS
 10
536.5086090666
 20
1714.7505470459
 11
536.5086090666
 21
1727.7505470459
  0
LINE
  5
26E
100
AcDbEntity
  8
0
100
AcDbLine
 62
7
  6
CONTINUOUS
 10
536.5086090666
 20
1729.7505470459
 11
536.5086090666
 21
1742.7505470459
  0
LINE
  5
26F
100
AcDbEntity
  8
0
100
AcDbLine
 62
7
  6
CONTINUOUS
 10
536.5086090666
 20
1754.7505470459
 11
536.5086090666
 21
1767.7505470459
  0
LINE
  5
270
100
AcDbEntity
  8
0
100
AcDbLine
 62
7
  6
CONTINUOUS
 10
550.5086090666
 20
1767.7505470459
 11
550.5086090666
 21
1754.7505470459
  0
LINE
  5
271
100
AcDbEntity
  8
0
100
AcDbLine
 62
7
  6
CONTINUOUS
 10
550.5086090666
 20
1742.7505470459
 11
550.5086090666
 21
1729.7505470459
  0
LINE
  5
272
100
AcDbEntity
  8
0
100
AcDbLine
 62
7
  6
CONTINUOUS
 10
550.5086090666
 20
1727.7505470459
 11
550.5086090666
 21
1714.7505470459
  0
LINE
  5
273
100
AcDbEntity
  8
0
100
AcDbLine
 62
7
  6
CONTINUOUS
 10
550.5086090666
 20
1702.7505470459
 11
550.5086090666
 21
1689.7505470459
  0
LINE
  5
274
100
AcDbEntity
  8
0
100
AcDbLine
 62
7
  6
CONTINUOUS
 10
561.5086090666
 20
1689.7505470459
 11
561.5086090666
 21
1702.7505470459
  0
LINE
  5
275
100
AcDbEntity
  8
0
100
AcDbLine
 62
7
  6
CONTINUOUS
 10
561.5086090666
 20
1714.7505470459
 11
561.5086090666
 21
1727.7505470459
  0
LINE
  5
276
100
AcDbEntity
  8
0
100
AcDbLine
 62
7
  6
CONTINUOUS
 10
561.5086090666
 20
1729.7505470459
 11
561.5086090666
 21
1742.7505470459
  0
LINE
  5
277
100
AcDbEntity
  8
0
100
AcDbLine
 62
7
  6
CONTINUOUS
 10
561.5086090666
 20
1754.7505470459
 11
561.5086090666
 21
1767.7505470459
  0
LINE
  5
278
100
AcDbEntity
  8
0
100
AcDbLine
 62
7
  6
CONTINUOUS
 10
575.5086090666
 20
1767.7505470459
 11
575.5086090666
 21
1754.7505470459
  0
LINE
  5
279
100
AcDbEntity
  8
0
100
AcDbLine
 62
7
  6
CONTINUOUS
 10
575.5086090666
 20
1742.7505470459
 11
575.5086090666
 21
1729.7505470459
  0
LINE
  5
27A
100
AcDbEntity
  8
0
100
AcDbLine
 62
7
  6
CONTINUOUS
 10
575.5086090666
 20
1727.7505470459
 11
575.5086090666
 21
1714.7505470459
  0
LINE
  5
27B
100
AcDbEntity
  8
0
100
AcDbLine
 62
7
  6
CONTINUOUS
 10
575.5086090666
 20
1702.7505470459
 11
575.5086090666
 21
1689.7505470459
  0
LINE
  5
27C
100
AcDbEntity
  8
0
100
AcDbLine
 62
7
  6
CONTINUOUS
 10
586.5086090666
 20
1689.7505470459
 11
586.5086090666
 21
1702.7505470459
  0
LINE
  5
27D
100
AcDbEntity
  8
0
100
AcDbLine
 62
7
  6
CONTINUOUS
 10
586.5086090666
 20
1714.7505470459
 11
586.5086090666
 21
1727.7505470459
  0
LINE
  5
27E
100
AcDbEntity
  8
0
100
AcDbLine
 62
7
  6
CONTINUOUS
 10
586.5086090666
 20
1729.7505470459
 11
586.5086090666
 21
1742.7505470459
  0
LINE
  5
27F
100
AcDbEntity
  8
0
100
AcDbLine
 62
7
  6
CONTINUOUS
 10
586.5086090666
 20
1754.7505470459
 11
586.5086090666
 21
1767.7505470459
  0
LINE
  5
280
100
AcDbEntity
  8
0
100
AcDbLine
 62
7
  6
CONTINUOUS
 10
600.5086090666
 20
1767.7505470459
 11
600.5086090666
 21
1754.7505470459
  0
LINE
  5
281
100
AcDbEntity
  8
0
100
AcDbLine
 62
7
  6
CONTINUOUS
 10
600.5086090666
 20
1742.7505470459
 11
600.5086090666
 21
1729.7505470459
  0
LINE
  5
282
100
AcDbEntity
  8
0
100
AcDbLine
 62
7
  6
CONTINUOUS
 10
600.5086090666
 20
1727.7505470459
 11
600.5086090666
 21
1714.7505470459
  0
LINE
  5
283
100
AcDbEntity
  8
0
100
AcDbLine
 62
7
  6
CONTINUOUS
 10
600.5086090666
 20
1702.7505470459
 11
600.5086090666
 21
1689.7505470459
  0
LINE
  5
284
100
AcDbEntity
  8
0
100
AcDbLine
 62
7
  6
CONTINUOUS
 10
304.9851933338
 20
1717.5916070289
 11
303.9935230271
 21
1716.6505470459
  0
LINE
  5
285
100
AcDbEntity
  8
0
100
AcDbLine
 62
7
  6
CONTINUOUS
 10
295.9368630543
 20
1716.650547046
 11
294.9451927476
 21
1717.5916070288
  0
LINE
  5
286
100
AcDbEntity
  8
0
100
AcDbLine
 62
7
  6
CONTINUOUS
 10
611.5086090666
 20
1689.7505470459
 11
611.5086090666
 21
1702.7505470459
  0
LINE
  5
287
100
AcDbEntity
  8
0
100
AcDbLine
 62
7
  6
CONTINUOUS
 10
611.5086090666
 20
1714.7505470459
 11
611.5086090666
 21
1727.7505470459
  0
LINE
  5
288
100
AcDbEntity
  8
0
100
AcDbLine
 62
7
  6
CONTINUOUS
 10
611.5086090666
 20
1729.7505470459
 11
611.5086090666
 21
1742.7505470459
  0
LINE
  5
289
100
AcDbEntity
  8
0
100
AcDbLine
 62
7
  6
CONTINUOUS
 10
611.5086090666
 20
1754.7505470459
 11
611.5086090666
 21
1767.7505470459
  0
LINE
  5
28A
100
AcDbEntity
  8
0
100
AcDbLine
 62
7
  6
CONTINUOUS
 10
625.5086090666
 20
1767.7505470459
 11
625.5086090666
 21
1754.7505470459
  0
LINE
  5
28B
100
AcDbEntity
  8
0
100
AcDbLine
 62
7
  6
CONTINUOUS
 10
625.5086090666
 20
1742.7505470459
 11
625.5086090666
 21
1729.7505470459
  0
LINE
  5
28C
100
AcDbEntity
  8
0
100
AcDbLine
 62
7
  6
CONTINUOUS
 10
625.5086090666
 20
1727.7505470459
 11
625.5086090666
 21
1714.7505470459
  0
LINE
  5
28D
100
AcDbEntity
  8
0
100
AcDbLine
 62
7
  6
CONTINUOUS
 10
625.5086090666
 20
1702.7505470459
 11
625.5086090666
 21
1689.7505470459
  0
LINE
  5
28E
100
AcDbEntity
  8
0
100
AcDbLine
 62
7
  6
CONTINUOUS
 10
636.5086090666
 20
1689.7505470459
 11
636.5086090666
 21
1702.7505470459
  0
LINE
  5
28F
100
AcDbEntity
  8
0
100
AcDbLine
 62
7
  6
CONTINUOUS
 10
636.5086090666
 20
1714.7505470459
 11
636.5086090666
 21
1727.7505470459
  0
LINE
  5
290
100
AcDbEntity
  8
0
100
AcDbLine
 62
7
  6
CONTINUOUS
 10
636.5086090666
 20
1729.7505470459
 11
636.5086090666
 21
1742.7505470459
  0
LINE
  5
291
100
AcDbEntity
  8
0
100
AcDbLine
 62
7
  6
CONTINUOUS
 10
636.5086090666
 20
1754.7505470459
 11
636.5086090666
 21
1767.7505470459
  0
LINE
  5
292
100
AcDbEntity
  8
0
100
AcDbLine
 62
7
  6
CONTINUOUS
 10
650.5086090666
 20
1767.7505470459
 11
650.5086090666
 21
1754.7505470459
  0
LINE
  5
293
100
AcDbEntity
  8
0
100
AcDbLine
 62
7
  6
CONTINUOUS
 10
650.5086090666
 20
1742.7505470459
 11
650.5086090666
 21
1729.7505470459
  0
LINE
  5
294
100
AcDbEntity
  8
0
100
AcDbLine
 62
7
  6
CONTINUOUS
 10
650.5086090666
 20
1727.7505470459
 11
650.5086090666
 21
1714.7505470459
  0
LINE
  5
295
100
AcDbEntity
  8
0
100
AcDbLine
 62
7
  6
CONTINUOUS
 10
650.5086090666
 20
1702.7505470459
 11
650.5086090666
 21
1689.7505470459
  0
LINE
  5
296
100
AcDbEntity
  8
0
100
AcDbLine
 62
7
  6
CONTINUOUS
 10
661.5086090666
 20
1689.7505470459
 11
661.5086090666
 21
1702.7505470459
  0
LINE
  5
297
100
AcDbEntity
  8
0
100
AcDbLine
 62
7
  6
CONTINUOUS
 10
661.5086090666
 20
1714.7505470459
 11
661.5086090666
 21
1727.7505470459
  0
LINE
  5
298
100
AcDbEntity
  8
0
100
AcDbLine
 62
7
  6
CONTINUOUS
 10
661.5086090666
 20
1729.7505470459
 11
661.5086090666
 21
1742.7505470459
  0
LINE
  5
299
100
AcDbEntity
  8
0
100
AcDbLine
 62
7
  6
CONTINUOUS
 10
661.5086090666
 20
1754.7505470459
 11
661.5086090666
 21
1767.7505470459
  0
LINE
  5
29A
100
AcDbEntity
  8
0
100
AcDbLine
 62
7
  6
CONTINUOUS
 10
675.5086090666
 20
1767.7505470459
 11
675.5086090666
 21
1754.7505470459
  0
LINE
  5
29B
100
AcDbEntity
  8
0
100
AcDbLine
 62
7
  6
CONTINUOUS
 10
675.5086090666
 20
1742.7505470459
 11
675.5086090666
 21
1729.7505470459
  0
LINE
  5
29C
100
AcDbEntity
  8
0
100
AcDbLine
 62
7
  6
CONTINUOUS
 10
675.5086090666
 20
1727.7505470459
 11
675.5086090666
 21
1714.7505470459
  0
LINE
  5
29D
100
AcDbEntity
  8
0
100
AcDbLine
 62
7
  6
CONTINUOUS
 10
675.5086090666
 20
1702.7505470459
 11
675.5086090666
 21
1689.7505470459
  0
LINE
  5
29E
100
AcDbEntity
  8
0
100
AcDbLine
 62
7
  6
CONTINUOUS
 10
686.5086090666
 20
1689.7505470459
 11
686.5086090666
 21
1702.7505470459
  0
LINE
  5
29F
100
AcDbEntity
  8
0
100
AcDbLine
 62
7
  6
CONTINUOUS
 10
686.5086090666
 20
1714.7505470459
 11
686.5086090666
 21
1727.7505470459
  0
LINE
  5
2A0
100
AcDbEntity
  8
0
100
AcDbLine
 62
7
  6
CONTINUOUS
 10
686.5086090666
 20
1729.7505470459
 11
686.5086090666
 21
1742.7505470459
  0
LINE
  5
2A1
100
AcDbEntity
  8
0
100
AcDbLine
 62
7
  6
CONTINUOUS
 10
686.5086090666
 20
1754.7505470459
 11
686.5086090666
 21
1767.7505470459
  0
LINE
  5
2A2
100
AcDbEntity
  8
0
100
AcDbLine
 62
7
  6
CONTINUOUS
 10
700.5086090666
 20
1767.7505470459
 11
700.5086090666
 21
1754.7505470459
  0
LINE
  5
2A3
100
AcDbEntity
  8
0
100
AcDbLine
 62
7
  6
CONTINUOUS
 10
700.5086090666
 20
1742.7505470459
 11
700.5086090666
 21
1729.7505470459
  0
LINE
  5
2A4
100
AcDbEntity
  8
0
100
AcDbLine
 62
7
  6
CONTINUOUS
 10
700.5086090666
 20
1727.7505470459
 11
700.5086090666
 21
1714.7505470459
  0
LINE
  5
2A5
100
AcDbEntity
  8
0
100
AcDbLine
 62
7
  6
CONTINUOUS
 10
700.5086090666
 20
1702.7505470459
 11
700.5086090666
 21
1689.7505470459
  0
LINE
  5
2A6
100
AcDbEntity
  8
0
100
AcDbLine
 62
7
  6
CONTINUOUS
 10
711.5086090666
 20
1689.7505470459
 11
711.5086090666
 21
1702.7505470459
  0
LINE
  5
2A7
100
AcDbEntity
  8
0
100
AcDbLine
 62
7
  6
CONTINUOUS
 10
711.5086090666
 20
1714.7505470459
 11
711.5086090666
 21
1727.7505470459
  0
LINE
  5
2A8
100
AcDbEntity
  8
0
100
AcDbLine
 62
7
  6
CONTINUOUS
 10
711.5086090666
 20
1729.7505470459
 11
711.5086090666
 21
1742.7505470459
  0
LINE
  5
2A9
100
AcDbEntity
  8
0
100
AcDbLine
 62
7
  6
CONTINUOUS
 10
711.5086090666
 20
1754.7505470459
 11
711.5086090666
 21
1767.7505470459
  0
LINE
  5
2AA
100
AcDbEntity
  8
0
100
AcDbLine
 62
7
  6
CONTINUOUS
 10
725.5086090666
 20
1767.7505470459
 11
725.5086090666
 21
1754.7505470459
  0
LINE
  5
2AB
100
AcDbEntity
  8
0
100
AcDbLine
 62
7
  6
CONTINUOUS
 10
725.5086090666
 20
1742.7505470459
 11
725.5086090666
 21
1729.7505470459
  0
LINE
  5
2AC
100
AcDbEntity
  8
0
100
AcDbLine
 62
7
  6
CONTINUOUS
 10
725.5086090666
 20
1727.7505470459
 11
725.5086090666
 21
1714.7505470459
  0
LINE
  5
2AD
100
AcDbEntity
  8
0
100
AcDbLine
 62
7
  6
CONTINUOUS
 10
725.5086090666
 20
1702.7505470459
 11
725.5086090666
 21
1689.7505470459
  0
LINE
  5
2AE
100
AcDbEntity
  8
0
100
AcDbLine
 62
7
  6
CONTINUOUS
 10
736.5086090666
 20
1689.7505470459
 11
736.5086090666
 21
1702.7505470459
  0
LINE
  5
2AF
100
AcDbEntity
  8
0
100
AcDbLine
 62
7
  6
CONTINUOUS
 10
736.5086090666
 20
1714.7505470459
 11
736.5086090666
 21
1727.7505470459
  0
LINE
  5
2B0
100
AcDbEntity
  8
0
100
AcDbLine
 62
7
  6
CONTINUOUS
 10
736.5086090666
 20
1729.7505470459
 11
736.5086090666
 21
1742.7505470459
  0
LINE
  5
2B1
100
AcDbEntity
  8
0
100
AcDbLine
 62
7
  6
CONTINUOUS
 10
736.5086090666
 20
1754.7505470459
 11
736.5086090666
 21
1767.7505470459
  0
LINE
  5
2B2
100
AcDbEntity
  8
0
100
AcDbLine
 62
7
  6
CONTINUOUS
 10
750.5086090666
 20
1767.7505470459
 11
750.5086090666
 21
1754.7505470459
  0
LINE
  5
2B3
100
AcDbEntity
  8
0
100
AcDbLine
 62
7
  6
CONTINUOUS
 10
750.5086090666
 20
1742.7505470459
 11
750.5086090666
 21
1729.7505470459
  0
LINE
  5
2B4
100
AcDbEntity
  8
0
100
AcDbLine
 62
7
  6
CONTINUOUS
 10
750.5086090666
 20
1727.7505470459
 11
750.5086090666
 21
1714.7505470459
  0
LINE
  5
2B5
100
AcDbEntity
  8
0
100
AcDbLine
 62
7
  6
CONTINUOUS
 10
750.5086090666
 20
1702.7505470459
 11
750.5086090666
 21
1689.7505470459
  0
LINE
  5
2B6
100
AcDbEntity
  8
0
100
AcDbLine
 62
7
  6
CONTINUOUS
 10
761.5086090666
 20
1689.7505470459
 11
761.5086090666
 21
1702.7505470459
  0
LINE
  5
2B7
100
AcDbEntity
  8
0
100
AcDbLine
 62
7
  6
CONTINUOUS
 10
761.5086090666
 20
1714.7505470459
 11
761.5086090666
 21
1727.7505470459
  0
LINE
  5
2B8
100
AcDbEntity
  8
0
100
AcDbLine
 62
7
  6
CONTINUOUS
 10
761.5086090666
 20
1729.7505470459
 11
761.5086090666
 21
1742.7505470459
  0
LINE
  5
2B9
100
AcDbEntity
  8
0
100
AcDbLine
 62
7
  6
CONTINUOUS
 10
761.5086090666
 20
1754.7505470459
 11
761.5086090666
 21
1767.7505470459
  0
LINE
  5
2BA
100
AcDbEntity
  8
0
100
AcDbLine
 62
7
  6
CONTINUOUS
 10
775.5086090666
 20
1767.7505470459
 11
775.5086090666
 21
1754.7505470459
  0
LINE
  5
2BB
100
AcDbEntity
  8
0
100
AcDbLine
 62
7
  6
CONTINUOUS
 10
775.5086090666
 20
1742.7505470459
 11
775.5086090666
 21
1729.7505470459
  0
LINE
  5
2BC
100
AcDbEntity
  8
0
100
AcDbLine
 62
7
  6
CONTINUOUS
 10
775.5086090666
 20
1727.7505470459
 11
775.5086090666
 21
1714.7505470459
  0
LINE
  5
2BD
100
AcDbEntity
  8
0
100
AcDbLine
 62
7
  6
CONTINUOUS
 10
775.5086090666
 20
1702.7505470459
 11
775.5086090666
 21
1689.7505470459
  0
LINE
  5
2BE
100
AcDbEntity
  8
0
100
AcDbLine
 62
7
  6
CONTINUOUS
 10
786.5086090666
 20
1689.7505470459
 11
786.5086090666
 21
1702.7505470459
  0
LINE
  5
2BF
100
AcDbEntity
  8
0
100
AcDbLine
 62
7
  6
CONTINUOUS
 10
786.5086090666
 20
1714.7505470459
 11
786.5086090666
 21
1727.7505470459
  0
LINE
  5
2C0
100
AcDbEntity
  8
0
100
AcDbLine
 62
7
  6
CONTINUOUS
 10
786.5086090666
 20
1729.7505470459
 11
786.5086090666
 21
1742.7505470459
  0
LINE
  5
2C1
100
AcDbEntity
  8
0
100
AcDbLine
 62
7
  6
CONTINUOUS
 10
786.5086090666
 20
1754.7505470459
 11
786.5086090666
 21
1767.7505470459
  0
LINE
  5
2C2
100
AcDbEntity
  8
0
100
AcDbLine
 62
7
  6
CONTINUOUS
 10
301.0086090666
 20
1756.3486232573
 11
300.2586090666
 21
1755.9156105554
  0
LINE
  5
2C3
100
AcDbEntity
  8
0
100
AcDbLine
 62
7
  6
CONTINUOUS
 10
298.0086090666
 20
1754.6165724497
 11
297.2586090666
 21
1754.1835597478
  0
LINE
  5
2C4
100
AcDbEntity
  8
0
100
AcDbLine
 62
7
  6
CONTINUOUS
 10
299.0086090666
 20
1751.1524708346
 11
299.7586090666
 21
1751.5854835365
  0
LINE
  5
2C5
100
AcDbEntity
  8
0
100
AcDbLine
 62
7
  6
CONTINUOUS
 10
302.0086090666
 20
1752.8845216422
 11
302.7586090666
 21
1753.3175343441
  0
LINE
  5
2C6
100
AcDbEntity
  8
0
100
AcDbLine
 62
7
  6
CONTINUOUS
 10
301.0086090666
 20
1706.3486232573
 11
300.2586090666
 21
1705.9156105554
  0
LINE
  5
2C7
100
AcDbEntity
  8
0
100
AcDbLine
 62
7
  6
CONTINUOUS
 10
298.0086090666
 20
1704.6165724497
 11
297.2586090666
 21
1704.1835597478
  0
LINE
  5
2C8
100
AcDbEntity
  8
0
100
AcDbLine
 62
7
  6
CONTINUOUS
 10
299.0086090666
 20
1701.1524708346
 11
299.7586090666
 21
1701.5854835365
  0
LINE
  5
2C9
100
AcDbEntity
  8
0
100
AcDbLine
 62
7
  6
CONTINUOUS
 10
302.0086090666
 20
1702.8845216422
 11
302.7586090666
 21
1703.3175343441
  0
LINE
  5
2CA
100
AcDbEntity
  8
0
100
AcDbLine
 62
7
  6
CONTINUOUS
 10
297.2586090666
 20
1703.3175343441
 11
298.0086090666
 21
1702.8845216422
  0
LINE
  5
2CB
100
AcDbEntity
  8
0
100
AcDbLine
 62
7
  6
CONTINUOUS
 10
300.2586090666
 20
1701.5854835365
 11
301.0086090666
 21
1701.1524708346
  0
LINE
  5
2CC
100
AcDbEntity
  8
0
100
AcDbLine
 62
7
  6
CONTINUOUS
 10
302.7586090666
 20
1704.1835597478
 11
302.0086090666
 21
1704.6165724497
  0
LINE
  5
2CD
100
AcDbEntity
  8
0
100
AcDbLine
 62
7
  6
CONTINUOUS
 10
299.7586090666
 20
1705.9156105554
 11
299.0086090666
 21
1706.3486232573
  0
LINE
  5
2CE
100
AcDbEntity
  8
0
100
AcDbLine
 62
7
  6
CONTINUOUS
 10
297.2586090666
 20
1753.3175343441
 11
298.0086090666
 21
1752.8845216422
  0
LINE
  5
2CF
100
AcDbEntity
  8
0
100
AcDbLine
 62
7
  6
CONTINUOUS
 10
300.2586090666
 20
1751.5854835365
 11
301.0086090666
 21
1751.1524708346
  0
LINE
  5
2D0
100
AcDbEntity
  8
0
100
AcDbLine
 62
7
  6
CONTINUOUS
 10
302.7586090666
 20
1754.1835597478
 11
302.0086090666
 21
1754.6165724497
  0
LINE
  5
2D1
100
AcDbEntity
  8
0
100
AcDbLine
 62
7
  6
CONTINUOUS
 10
299.7586090666
 20
1755.9156105554
 11
299.0086090666
 21
1756.3486232573
  0
LINE
  5
2D2
100
AcDbEntity
  8
0
100
AcDbLine
 62
7
  6
CONTINUOUS
 10
800.5086090666
 20
1767.7505470459
 11
800.5086090666
 21
1754.7505470459
  0
LINE
  5
2D3
100
AcDbEntity
  8
0
100
AcDbLine
 62
7
  6
CONTINUOUS
 10
800.5086090666
 20
1742.7505470459
 11
800.5086090666
 21
1729.7505470459
  0
LINE
  5
2D4
100
AcDbEntity
  8
0
100
AcDbLine
 62
7
  6
CONTINUOUS
 10
800.5086090666
 20
1727.7505470459
 11
800.5086090666
 21
1714.7505470459
  0
LINE
  5
2D5
100
AcDbEntity
  8
0
100
AcDbLine
 62
7
  6
CONTINUOUS
 10
800.5086090666
 20
1702.7505470459
 11
800.5086090666
 21
1689.7505470459
  0
LINE
  5
2D6
100
AcDbEntity
  8
0
100
AcDbLine
 62
7
  6
CONTINUOUS
 10
811.5086090666
 20
1689.7505470459
 11
811.5086090666
 21
1702.7505470459
  0
LINE
  5
2D7
100
AcDbEntity
  8
0
100
AcDbLine
 62
7
  6
CONTINUOUS
 10
811.5086090666
 20
1714.7505470459
 11
811.5086090666
 21
1727.7505470459
  0
LINE
  5
2D8
100
AcDbEntity
  8
0
100
AcDbLine
 62
7
  6
CONTINUOUS
 10
811.5086090666
 20
1729.7505470459
 11
811.5086090666
 21
1742.7505470459
  0
LINE
  5
2D9
100
AcDbEntity
  8
0
100
AcDbLine
 62
7
  6
CONTINUOUS
 10
811.5086090666
 20
1754.7505470459
 11
811.5086090666
 21
1767.7505470459
  0
LINE
  5
2DA
100
AcDbEntity
  8
0
100
AcDbLine
 62
7
  6
CONTINUOUS
 10
825.5086090666
 20
1767.7505470459
 11
825.5086090666
 21
1754.7505470459
  0
LINE
  5
2DB
100
AcDbEntity
  8
0
100
AcDbLine
 62
7
  6
CONTINUOUS
 10
825.5086090666
 20
1742.7505470459
 11
825.5086090666
 21
1729.7505470459
  0
LINE
  5
2DC
100
AcDbEntity
  8
0
100
AcDbLine
 62
7
  6
CONTINUOUS
 10
825.5086090666
 20
1727.7505470459
 11
825.5086090666
 21
1714.7505470459
  0
LINE
  5
2DD
100
AcDbEntity
  8
0
100
AcDbLine
 62
7
  6
CONTINUOUS
 10
825.5086090666
 20
1702.7505470459
 11
825.5086090666
 21
1689.7505470459
  0
LINE
  5
2DE
100
AcDbEntity
  8
0
100
AcDbLine
 62
7
  6
CONTINUOUS
 10
836.5086090666
 20
1689.7505470459
 11
836.5086090666
 21
1702.7505470459
  0
LINE
  5
2DF
100
AcDbEntity
  8
0
100
AcDbLine
 62
7
  6
CONTINUOUS
 10
836.5086090666
 20
1714.7505470459
 11
836.5086090666
 21
1727.7505470459
  0
LINE
  5
2E0
100
AcDbEntity
  8
0
100
AcDbLine
 62
7
  6
CONTINUOUS
 10
836.5086090666
 20
1729.7505470459
 11
836.5086090666
 21
1742.7505470459
  0
LINE
  5
2E1
100
AcDbEntity
  8
0
100
AcDbLine
 62
7
  6
CONTINUOUS
 10
836.5086090666
 20
1754.7505470459
 11
836.5086090666
 21
1767.7505470459
  0
LINE
  5
2E2
100
AcDbEntity
  8
0
100
AcDbLine
 62
7
  6
CONTINUOUS
 10
850.5086090666
 20
1767.7505470459
 11
850.5086090666
 21
1754.7505470459
  0
LINE
  5
2E3
100
AcDbEntity
  8
0
100
AcDbLine
 62
7
  6
CONTINUOUS
 10
850.5086090666
 20
1742.7505470459
 11
850.5086090666
 21
1729.7505470459
  0
LINE
  5
2E4
100
AcDbEntity
  8
0
100
AcDbLine
 62
7
  6
CONTINUOUS
 10
850.5086090666
 20
1727.7505470459
 11
850.5086090666
 21
1714.7505470459
  0
LINE
  5
2E5
100
AcDbEntity
  8
0
100
AcDbLine
 62
7
  6
CONTINUOUS
 10
850.5086090666
 20
1702.7505470459
 11
850.5086090666
 21
1689.7505470459
  0
LINE
  5
2E6
100
AcDbEntity
  8
0
100
AcDbLine
 62
7
  6
CONTINUOUS
 10
861.5086090666
 20
1689.7505470459
 11
861.5086090666
 21
1702.7505470459
  0
LINE
  5
2E7
100
AcDbEntity
  8
0
100
AcDbLine
 62
7
  6
CONTINUOUS
 10
861.5086090666
 20
1714.7505470459
 11
861.5086090666
 21
1727.7505470459
  0
LINE
  5
2E8
100
AcDbEntity
  8
0
100
AcDbLine
 62
7
  6
CONTINUOUS
 10
861.5086090666
 20
1729.7505470459
 11
861.5086090666
 21
1742.7505470459
  0
LINE
  5
2E9
100
AcDbEntity
  8
0
100
AcDbLine
 62
7
  6
CONTINUOUS
 10
861.5086090666
 20
1754.7505470459
 11
861.5086090666
 21
1767.7505470459
  0
LINE
  5
2EA
100
AcDbEntity
  8
0
100
AcDbLine
 62
7
  6
CONTINUOUS
 10
276.5086090666
 20
1755.2505470459
 11
280.0086090666
 21
1756.750547046
  0
LINE
  5
2EB
100
AcDbEntity
  8
0
100
AcDbLine
 62
7
  6
CONTINUOUS
 10
280.0086090666
 20
1700.7505470459
 11
276.5086090666
 21
1702.250547046
  0
LINE
  5
2EC
100
AcDbEntity
  8
0
100
AcDbLine
 62
7
  6
CONTINUOUS
 10
875.5086090666
 20
1767.7505470459
 11
875.5086090666
 21
1754.7505470459
  0
LINE
  5
2ED
100
AcDbEntity
  8
0
100
AcDbLine
 62
7
  6
CONTINUOUS
 10
875.5086090666
 20
1742.7505470459
 11
875.5086090666
 21
1729.7505470459
  0
LINE
  5
2EE
100
AcDbEntity
  8
0
100
AcDbLine
 62
7
  6
CONTINUOUS
 10
875.5086090666
 20
1727.7505470459
 11
875.5086090666
 21
1714.7505470459
  0
LINE
  5
2EF
100
AcDbEntity
  8
0
100
AcDbLine
 62
7
  6
CONTINUOUS
 10
875.5086090666
 20
1702.7505470459
 11
875.5086090666
 21
1689.7505470459
  0
LINE
  5
2F0
100
AcDbEntity
  8
0
100
AcDbLine
 62
7
  6
CONTINUOUS
 10
886.5086090666
 20
1689.7505470459
 11
886.5086090666
 21
1702.7505470459
  0
LINE
  5
2F1
100
AcDbEntity
  8
0
100
AcDbLine
 62
7
  6
CONTINUOUS
 10
886.5086090666
 20
1714.7505470459
 11
886.5086090666
 21
1727.7505470459
  0
LINE
  5
2F2
100
AcDbEntity
  8
0
100
AcDbLine
 62
7
  6
CONTINUOUS
 10
886.5086090666
 20
1729.7505470459
 11
886.5086090666
 21
1742.7505470459
  0
LINE
  5
2F3
100
AcDbEntity
  8
0
100
AcDbLine
 62
7
  6
CONTINUOUS
 10
886.5086090666
 20
1754.7505470459
 11
886.5086090666
 21
1767.7505470459
  0
LINE
  5
2F4
100
AcDbEntity
  8
0
100
AcDbLine
 62
7
  6
CONTINUOUS
 10
900.5086090666
 20
1767.7505470459
 11
900.5086090666
 21
1754.7505470459
  0
LINE
  5
2F5
100
AcDbEntity
  8
0
100
AcDbLine
 62
7
  6
CONTINUOUS
 10
900.5086090666
 20
1742.7505470459
 11
900.5086090666
 21
1729.7505470459
  0
LINE
  5
2F6
100
AcDbEntity
  8
0
100
AcDbLine
 62
7
  6
CONTINUOUS
 10
900.5086090666
 20
1727.7505470459
 11
900.5086090666
 21
1714.7505470459
  0
LINE
  5
2F7
100
AcDbEntity
  8
0
100
AcDbLine
 62
7
  6
CONTINUOUS
 10
900.5086090666
 20
1702.7505470459
 11
900.5086090666
 21
1689.7505470459
  0
LINE
  5
2F8
100
AcDbEntity
  8
0
100
AcDbLine
 62
7
  6
CONTINUOUS
 10
911.5086090666
 20
1689.7505470459
 11
911.5086090666
 21
1702.7505470459
  0
LINE
  5
2F9
100
AcDbEntity
  8
0
100
AcDbLine
 62
7
  6
CONTINUOUS
 10
911.5086090666
 20
1714.7505470459
 11
911.5086090666
 21
1727.7505470459
  0
LINE
  5
2FA
100
AcDbEntity
  8
0
100
AcDbLine
 62
7
  6
CONTINUOUS
 10
911.5086090666
 20
1729.7505470459
 11
911.5086090666
 21
1742.7505470459
  0
LINE
  5
2FB
100
AcDbEntity
  8
0
100
AcDbLine
 62
7
  6
CONTINUOUS
 10
911.5086090666
 20
1754.7505470459
 11
911.5086090666
 21
1767.7505470459
  0
LINE
  5
2FC
100
AcDbEntity
  8
0
100
AcDbLine
 62
7
  6
CONTINUOUS
 10
925.5086090666
 20
1767.7505470459
 11
925.5086090666
 21
1754.7505470459
  0
LINE
  5
2FD
100
AcDbEntity
  8
0
100
AcDbLine
 62
7
  6
CONTINUOUS
 10
925.5086090666
 20
1742.7505470459
 11
925.5086090666
 21
1729.7505470459
  0
LINE
  5
2FE
100
AcDbEntity
  8
0
100
AcDbLine
 62
7
  6
CONTINUOUS
 10
925.5086090666
 20
1727.7505470459
 11
925.5086090666
 21
1714.7505470459
  0
LINE
  5
2FF
100
AcDbEntity
  8
0
100
AcDbLine
 62
7
  6
CONTINUOUS
 10
925.5086090666
 20
1702.7505470459
 11
925.5086090666
 21
1689.7505470459
  0
LINE
  5
300
100
AcDbEntity
  8
0
100
AcDbLine
 62
7
  6
CONTINUOUS
 10
276.5086090666
 20
1705.2505470459
 11
280.0086090666
 21
1706.750547046
  0
LINE
  5
301
100
AcDbEntity
  8
0
100
AcDbLine
 62
7
  6
CONTINUOUS
 10
280.0086090666
 20
1750.7505470459
 11
276.5086090666
 21
1752.250547046
  0
LINE
  5
302
100
AcDbEntity
  8
0
100
AcDbLine
 62
7
  6
CONTINUOUS
 10
936.5086090666
 20
1689.7505470459
 11
936.5086090666
 21
1702.7505470459
  0
LINE
  5
303
100
AcDbEntity
  8
0
100
AcDbLine
 62
7
  6
CONTINUOUS
 10
936.5086090666
 20
1714.7505470459
 11
936.5086090666
 21
1727.7505470459
  0
LINE
  5
304
100
AcDbEntity
  8
0
100
AcDbLine
 62
7
  6
CONTINUOUS
 10
936.5086090666
 20
1729.7505470459
 11
936.5086090666
 21
1742.7505470459
  0
LINE
  5
305
100
AcDbEntity
  8
0
100
AcDbLine
 62
7
  6
CONTINUOUS
 10
936.5086090666
 20
1754.7505470459
 11
936.5086090666
 21
1767.7505470459
  0
LINE
  5
306
100
AcDbEntity
  8
0
100
AcDbLine
 62
7
  6
CONTINUOUS
 10
950.5086090666
 20
1767.7505470459
 11
950.5086090666
 21
1754.7505470459
  0
LINE
  5
307
100
AcDbEntity
  8
0
100
AcDbLine
 62
7
  6
CONTINUOUS
 10
950.5086090666
 20
1742.7505470459
 11
950.5086090666
 21
1729.7505470459
  0
LINE
  5
308
100
AcDbEntity
  8
0
100
AcDbLine
 62
7
  6
CONTINUOUS
 10
950.5086090666
 20
1727.7505470459
 11
950.5086090666
 21
1714.7505470459
  0
LINE
  5
309
100
AcDbEntity
  8
0
100
AcDbLine
 62
7
  6
CONTINUOUS
 10
950.5086090666
 20
1702.7505470459
 11
950.5086090666
 21
1689.7505470459
  0
LINE
  5
30A
100
AcDbEntity
  8
0
100
AcDbLine
 62
7
  6
CONTINUOUS
 10
961.5086090666
 20
1689.7505470459
 11
961.5086090666
 21
1702.7505470459
  0
LINE
  5
30B
100
AcDbEntity
  8
0
100
AcDbLine
 62
7
  6
CONTINUOUS
 10
961.5086090666
 20
1714.7505470459
 11
961.5086090666
 21
1727.7505470459
  0
LINE
  5
30C
100
AcDbEntity
  8
0
100
AcDbLine
 62
7
  6
CONTINUOUS
 10
961.5086090666
 20
1729.7505470459
 11
961.5086090666
 21
1742.7505470459
  0
LINE
  5
30D
100
AcDbEntity
  8
0
100
AcDbLine
 62
7
  6
CONTINUOUS
 10
961.5086090666
 20
1754.7505470459
 11
961.5086090666
 21
1767.7505470459
  0
LINE
  5
30E
100
AcDbEntity
  8
0
100
AcDbLine
 62
7
  6
CONTINUOUS
 10
975.5086090666
 20
1767.7505470459
 11
975.5086090666
 21
1754.7505470459
  0
LINE
  5
30F
100
AcDbEntity
  8
0
100
AcDbLine
 62
7
  6
CONTINUOUS
 10
975.5086090666
 20
1742.7505470459
 11
975.5086090666
 21
1729.7505470459
  0
LINE
  5
310
100
AcDbEntity
  8
0
100
AcDbLine
 62
7
  6
CONTINUOUS
 10
975.5086090666
 20
1727.7505470459
 11
975.5086090666
 21
1714.7505470459
  0
LINE
  5
311
100
AcDbEntity
  8
0
100
AcDbLine
 62
7
  6
CONTINUOUS
 10
975.5086090666
 20
1702.7505470459
 11
975.5086090666
 21
1689.7505470459
  0
LINE
  5
312
100
AcDbEntity
  8
0
100
AcDbLine
 62
7
  6
CONTINUOUS
 10
986.5086090666
 20
1689.7505470459
 11
986.5086090666
 21
1702.7505470459
  0
LINE
  5
313
100
AcDbEntity
  8
0
100
AcDbLine
 62
7
  6
CONTINUOUS
 10
986.5086090666
 20
1714.7505470459
 11
986.5086090666
 21
1727.7505470459
  0
LINE
  5
314
100
AcDbEntity
  8
0
100
AcDbLine
 62
7
  6
CONTINUOUS
 10
986.5086090666
 20
1729.7505470459
 11
986.5086090666
 21
1742.7505470459
  0
LINE
  5
315
100
AcDbEntity
  8
0
100
AcDbLine
 62
7
  6
CONTINUOUS
 10
986.5086090666
 20
1754.7505470459
 11
986.5086090666
 21
1767.7505470459
  0
LINE
  5
316
100
AcDbEntity
  8
0
100
AcDbLine
 62
7
  6
CONTINUOUS
 10
1000.5086090666
 20
1767.7505470459
 11
1000.5086090666
 21
1754.7505470459
  0
LINE
  5
317
100
AcDbEntity
  8
0
100
AcDbLine
 62
7
  6
CONTINUOUS
 10
1000.5086090666
 20
1742.7505470459
 11
1000.5086090666
 21
1729.7505470459
  0
LINE
  5
318
100
AcDbEntity
  8
0
100
AcDbLine
 62
7
  6
CONTINUOUS
 10
1000.5086090666
 20
1727.7505470459
 11
1000.5086090666
 21
1714.7505470459
  0
LINE
  5
319
100
AcDbEntity
  8
0
100
AcDbLine
 62
7
  6
CONTINUOUS
 10
1000.5086090666
 20
1702.7505470459
 11
1000.5086090666
 21
1689.7505470459
  0
LINE
  5
31A
100
AcDbEntity
  8
0
100
AcDbLine
 62
7
  6
CONTINUOUS
 10
1011.5086090666
 20
1689.7505470459
 11
1011.5086090666
 21
1702.7505470459
  0
LINE
  5
31B
100
AcDbEntity
  8
0
100
AcDbLine
 62
7
  6
CONTINUOUS
 10
1011.5086090666
 20
1714.7505470459
 11
1011.5086090666
 21
1727.7505470459
  0
LINE
  5
31C
100
AcDbEntity
  8
0
100
AcDbLine
 62
7
  6
CONTINUOUS
 10
1011.5086090666
 20
1729.7505470459
 11
1011.5086090666
 21
1742.7505470459
  0
LINE
  5
31D
100
AcDbEntity
  8
0
100
AcDbLine
 62
7
  6
CONTINUOUS
 10
1011.5086090666
 20
1754.7505470459
 11
1011.5086090666
 21
1767.7505470459
  0
LINE
  5
31E
100
AcDbEntity
  8
0
100
AcDbLine
 62
7
  6
CONTINUOUS
 10
1025.5086090666
 20
1767.7505470459
 11
1025.5086090666
 21
1754.7505470459
  0
LINE
  5
31F
100
AcDbEntity
  8
0
100
AcDbLine
 62
7
  6
CONTINUOUS
 10
1025.5086090666
 20
1742.7505470459
 11
1025.5086090666
 21
1729.7505470459
  0
LINE
  5
320
100
AcDbEntity
  8
0
100
AcDbLine
 62
7
  6
CONTINUOUS
 10
1025.5086090666
 20
1727.7505470459
 11
1025.5086090666
 21
1714.7505470459
  0
LINE
  5
321
100
AcDbEntity
  8
0
100
AcDbLine
 62
7
  6
CONTINUOUS
 10
1025.5086090666
 20
1702.7505470459
 11
1025.5086090666
 21
1689.7505470459
  0
LINE
  5
322
100
AcDbEntity
  8
0
100
AcDbLine
 62
7
  6
CONTINUOUS
 10
1036.5086090666
 20
1689.7505470459
 11
1036.5086090666
 21
1702.7505470459
  0
LINE
  5
323
100
AcDbEntity
  8
0
100
AcDbLine
 62
7
  6
CONTINUOUS
 10
1036.5086090666
 20
1714.7505470459
 11
1036.5086090666
 21
1727.7505470459
  0
LINE
  5
324
100
AcDbEntity
  8
0
100
AcDbLine
 62
7
  6
CONTINUOUS
 10
1036.5086090666
 20
1729.7505470459
 11
1036.5086090666
 21
1742.7505470459
  0
LINE
  5
325
100
AcDbEntity
  8
0
100
AcDbLine
 62
7
  6
CONTINUOUS
 10
1036.5086090666
 20
1754.7505470459
 11
1036.5086090666
 21
1767.7505470459
  0
LINE
  5
326
100
AcDbEntity
  8
0
100
AcDbLine
 62
7
  6
CONTINUOUS
 10
1050.5086090666
 20
1767.7505470459
 11
1050.5086090666
 21
1754.7505470459
  0
LINE
  5
327
100
AcDbEntity
  8
0
100
AcDbLine
 62
7
  6
CONTINUOUS
 10
1050.5086090666
 20
1742.7505470459
 11
1050.5086090666
 21
1729.7505470459
  0
LINE
  5
328
100
AcDbEntity
  8
0
100
AcDbLine
 62
7
  6
CONTINUOUS
 10
1050.5086090666
 20
1727.7505470459
 11
1050.5086090666
 21
1714.7505470459
  0
LINE
  5
329
100
AcDbEntity
  8
0
100
AcDbLine
 62
7
  6
CONTINUOUS
 10
1050.5086090666
 20
1702.7505470459
 11
1050.5086090666
 21
1689.7505470459
  0
LINE
  5
32A
100
AcDbEntity
  8
0
100
AcDbLine
 62
7
  6
CONTINUOUS
 10
1061.5086090666
 20
1689.7505470459
 11
1061.5086090666
 21
1702.7505470459
  0
LINE
  5
32B
100
AcDbEntity
  8
0
100
AcDbLine
 62
7
  6
CONTINUOUS
 10
1061.5086090666
 20
1714.7505470459
 11
1061.5086090666
 21
1727.7505470459
  0
LINE
  5
32C
100
AcDbEntity
  8
0
100
AcDbLine
 62
7
  6
CONTINUOUS
 10
1061.5086090666
 20
1729.7505470459
 11
1061.5086090666
 21
1742.7505470459
  0
LINE
  5
32D
100
AcDbEntity
  8
0
100
AcDbLine
 62
7
  6
CONTINUOUS
 10
1061.5086090666
 20
1754.7505470459
 11
1061.5086090666
 21
1767.7505470459
  0
LINE
  5
32E
100
AcDbEntity
  8
0
100
AcDbLine
 62
7
  6
CONTINUOUS
 10
1075.5086090666
 20
1767.7505470459
 11
1075.5086090666
 21
1754.7505470459
  0
LINE
  5
32F
100
AcDbEntity
  8
0
100
AcDbLine
 62
7
  6
CONTINUOUS
 10
1075.5086090666
 20
1742.7505470459
 11
1075.5086090666
 21
1729.7505470459
  0
LINE
  5
330
100
AcDbEntity
  8
0
100
AcDbLine
 62
7
  6
CONTINUOUS
 10
1075.5086090666
 20
1727.7505470459
 11
1075.5086090666
 21
1714.7505470459
  0
LINE
  5
331
100
AcDbEntity
  8
0
100
AcDbLine
 62
7
  6
CONTINUOUS
 10
1075.5086090666
 20
1702.7505470459
 11
1075.5086090666
 21
1689.7505470459
  0
LINE
  5
332
100
AcDbEntity
  8
0
100
AcDbLine
 62
7
  6
CONTINUOUS
 10
1086.5086090666
 20
1689.7505470459
 11
1086.5086090666
 21
1702.7505470459
  0
LINE
  5
333
100
AcDbEntity
  8
0
100
AcDbLine
 62
7
  6
CONTINUOUS
 10
1086.5086090666
 20
1714.7505470459
 11
1086.5086090666
 21
1727.7505470459
  0
LINE
  5
334
100
AcDbEntity
  8
0
100
AcDbLine
 62
7
  6
CONTINUOUS
 10
1086.5086090666
 20
1729.7505470459
 11
1086.5086090666
 21
1742.7505470459
  0
LINE
  5
335
100
AcDbEntity
  8
0
100
AcDbLine
 62
7
  6
CONTINUOUS
 10
1086.5086090666
 20
1754.7505470459
 11
1086.5086090666
 21
1767.7505470459
  0
LINE
  5
336
100
AcDbEntity
  8
0
100
AcDbLine
 62
7
  6
CONTINUOUS
 10
1100.5086090666
 20
1767.7505470459
 11
1100.5086090666
 21
1754.7505470459
  0
LINE
  5
337
100
AcDbEntity
  8
0
100
AcDbLine
 62
7
  6
CONTINUOUS
 10
1100.5086090666
 20
1742.7505470459
 11
1100.5086090666
 21
1729.7505470459
  0
LINE
  5
338
100
AcDbEntity
  8
0
100
AcDbLine
 62
7
  6
CONTINUOUS
 10
1100.5086090666
 20
1727.7505470459
 11
1100.5086090666
 21
1714.7505470459
  0
LINE
  5
339
100
AcDbEntity
  8
0
100
AcDbLine
 62
7
  6
CONTINUOUS
 10
1100.5086090666
 20
1702.7505470459
 11
1100.5086090666
 21
1689.7505470459
  0
LINE
  5
33A
100
AcDbEntity
  8
0
100
AcDbLine
 62
7
  6
CONTINUOUS
 10
1111.5086090666
 20
1689.7505470459
 11
1111.5086090666
 21
1702.7505470459
  0
LINE
  5
33B
100
AcDbEntity
  8
0
100
AcDbLine
 62
7
  6
CONTINUOUS
 10
1111.5086090666
 20
1714.7505470459
 11
1111.5086090666
 21
1727.7505470459
  0
LINE
  5
33C
100
AcDbEntity
  8
0
100
AcDbLine
 62
7
  6
CONTINUOUS
 10
1111.5086090666
 20
1729.7505470459
 11
1111.5086090666
 21
1742.7505470459
  0
LINE
  5
33D
100
AcDbEntity
  8
0
100
AcDbLine
 62
7
  6
CONTINUOUS
 10
1111.5086090666
 20
1754.7505470459
 11
1111.5086090666
 21
1767.7505470459
  0
LINE
  5
33E
100
AcDbEntity
  8
0
100
AcDbLine
 62
7
  6
CONTINUOUS
 10
1125.5086090666
 20
1767.7505470459
 11
1125.5086090666
 21
1754.7505470459
  0
LINE
  5
33F
100
AcDbEntity
  8
0
100
AcDbLine
 62
7
  6
CONTINUOUS
 10
1125.5086090666
 20
1742.7505470459
 11
1125.5086090666
 21
1729.7505470459
  0
LINE
  5
340
100
AcDbEntity
  8
0
100
AcDbLine
 62
7
  6
CONTINUOUS
 10
1125.5086090666
 20
1727.7505470459
 11
1125.5086090666
 21
1714.7505470459
  0
LINE
  5
341
100
AcDbEntity
  8
0
100
AcDbLine
 62
7
  6
CONTINUOUS
 10
1125.5086090666
 20
1702.7505470459
 11
1125.5086090666
 21
1689.7505470459
  0
LINE
  5
342
100
AcDbEntity
  8
0
100
AcDbLine
 62
7
  6
CONTINUOUS
 10
1136.5086090666
 20
1689.7505470459
 11
1136.5086090666
 21
1702.7505470459
  0
LINE
  5
343
100
AcDbEntity
  8
0
100
AcDbLine
 62
7
  6
CONTINUOUS
 10
1136.5086090666
 20
1714.7505470459
 11
1136.5086090666
 21
1727.7505470459
  0
LINE
  5
344
100
AcDbEntity
  8
0
100
AcDbLine
 62
7
  6
CONTINUOUS
 10
1136.5086090666
 20
1729.7505470459
 11
1136.5086090666
 21
1742.7505470459
  0
LINE
  5
345
100
AcDbEntity
  8
0
100
AcDbLine
 62
7
  6
CONTINUOUS
 10
1136.5086090666
 20
1754.7505470459
 11
1136.5086090666
 21
1767.7505470459
  0
LINE
  5
346
100
AcDbEntity
  8
0
100
AcDbLine
 62
7
  6
CONTINUOUS
 10
1150.5086090666
 20
1767.7505470459
 11
1150.5086090666
 21
1754.7505470459
  0
LINE
  5
347
100
AcDbEntity
  8
0
100
AcDbLine
 62
7
  6
CONTINUOUS
 10
1150.5086090666
 20
1742.7505470459
 11
1150.5086090666
 21
1729.7505470459
  0
LINE
  5
348
100
AcDbEntity
  8
0
100
AcDbLine
 62
7
  6
CONTINUOUS
 10
1150.5086090666
 20
1727.7505470459
 11
1150.5086090666
 21
1714.7505470459
  0
LINE
  5
349
100
AcDbEntity
  8
0
100
AcDbLine
 62
7
  6
CONTINUOUS
 10
1150.5086090666
 20
1702.7505470459
 11
1150.5086090666
 21
1689.7505470459
  0
LINE
  5
34A
100
AcDbEntity
  8
0
100
AcDbLine
 62
7
  6
CONTINUOUS
 10
1161.5086090666
 20
1689.7505470459
 11
1161.5086090666
 21
1702.7505470459
  0
LINE
  5
34B
100
AcDbEntity
  8
0
100
AcDbLine
 62
7
  6
CONTINUOUS
 10
1161.5086090666
 20
1714.7505470459
 11
1161.5086090666
 21
1727.7505470459
  0
LINE
  5
34C
100
AcDbEntity
  8
0
100
AcDbLine
 62
7
  6
CONTINUOUS
 10
1161.5086090666
 20
1729.7505470459
 11
1161.5086090666
 21
1742.7505470459
  0
LINE
  5
34D
100
AcDbEntity
  8
0
100
AcDbLine
 62
7
  6
CONTINUOUS
 10
1161.5086090666
 20
1754.7505470459
 11
1161.5086090666
 21
1767.7505470459
  0
LINE
  5
34E
100
AcDbEntity
  8
0
100
AcDbLine
 62
7
  6
CONTINUOUS
 10
1175.5086090666
 20
1767.7505470459
 11
1175.5086090666
 21
1754.7505470459
  0
LINE
  5
34F
100
AcDbEntity
  8
0
100
AcDbLine
 62
7
  6
CONTINUOUS
 10
1175.5086090666
 20
1742.7505470459
 11
1175.5086090666
 21
1729.7505470459
  0
LINE
  5
350
100
AcDbEntity
  8
0
100
AcDbLine
 62
7
  6
CONTINUOUS
 10
1175.5086090666
 20
1727.7505470459
 11
1175.5086090666
 21
1714.7505470459
  0
LINE
  5
351
100
AcDbEntity
  8
0
100
AcDbLine
 62
7
  6
CONTINUOUS
 10
1175.5086090666
 20
1702.7505470459
 11
1175.5086090666
 21
1689.7505470459
  0
LINE
  5
352
100
AcDbEntity
  8
0
100
AcDbLine
 62
7
  6
CONTINUOUS
 10
1186.5086090666
 20
1689.7505470459
 11
1186.5086090666
 21
1702.7505470459
  0
LINE
  5
353
100
AcDbEntity
  8
0
100
AcDbLine
 62
7
  6
CONTINUOUS
 10
1186.5086090666
 20
1714.7505470459
 11
1186.5086090666
 21
1727.7505470459
  0
LINE
  5
354
100
AcDbEntity
  8
0
100
AcDbLine
 62
7
  6
CONTINUOUS
 10
1186.5086090666
 20
1729.7505470459
 11
1186.5086090666
 21
1742.7505470459
  0
LINE
  5
355
100
AcDbEntity
  8
0
100
AcDbLine
 62
7
  6
CONTINUOUS
 10
1186.5086090666
 20
1754.7505470459
 11
1186.5086090666
 21
1767.7505470459
  0
LINE
  5
356
100
AcDbEntity
  8
0
100
AcDbLine
 62
7
  6
CONTINUOUS
 10
1200.5086090666
 20
1767.7505470459
 11
1200.5086090666
 21
1754.7505470459
  0
LINE
  5
357
100
AcDbEntity
  8
0
100
AcDbLine
 62
7
  6
CONTINUOUS
 10
1200.5086090666
 20
1742.7505470459
 11
1200.5086090666
 21
1729.7505470459
  0
LINE
  5
358
100
AcDbEntity
  8
0
100
AcDbLine
 62
7
  6
CONTINUOUS
 10
1200.5086090666
 20
1727.7505470459
 11
1200.5086090666
 21
1714.7505470459
  0
LINE
  5
359
100
AcDbEntity
  8
0
100
AcDbLine
 62
7
  6
CONTINUOUS
 10
1200.5086090666
 20
1702.7505470459
 11
1200.5086090666
 21
1689.7505470459
  0
LINE
  5
35A
100
AcDbEntity
  8
0
100
AcDbLine
 62
7
  6
CONTINUOUS
 10
1211.5086090666
 20
1689.7505470459
 11
1211.5086090666
 21
1702.7505470459
  0
LINE
  5
35B
100
AcDbEntity
  8
0
100
AcDbLine
 62
7
  6
CONTINUOUS
 10
1211.5086090666
 20
1714.7505470459
 11
1211.5086090666
 21
1727.7505470459
  0
LINE
  5
35C
100
AcDbEntity
  8
0
100
AcDbLine
 62
7
  6
CONTINUOUS
 10
1211.5086090666
 20
1729.7505470459
 11
1211.5086090666
 21
1742.7505470459
  0
LINE
  5
35D
100
AcDbEntity
  8
0
100
AcDbLine
 62
7
  6
CONTINUOUS
 10
1211.5086090666
 20
1754.7505470459
 11
1211.5086090666
 21
1767.7505470459
  0
LINE
  5
35E
100
AcDbEntity
  8
0
100
AcDbLine
 62
7
  6
CONTINUOUS
 10
1225.5086090666
 20
1767.7505470459
 11
1225.5086090666
 21
1754.7505470459
  0
LINE
  5
35F
100
AcDbEntity
  8
0
100
AcDbLine
 62
7
  6
CONTINUOUS
 10
1225.5086090666
 20
1742.7505470459
 11
1225.5086090666
 21
1729.7505470459
  0
LINE
  5
360
100
AcDbEntity
  8
0
100
AcDbLine
 62
7
  6
CONTINUOUS
 10
1225.5086090666
 20
1727.7505470459
 11
1225.5086090666
 21
1714.7505470459
  0
LINE
  5
361
100
AcDbEntity
  8
0
100
AcDbLine
 62
7
  6
CONTINUOUS
 10
1225.5086090666
 20
1702.7505470459
 11
1225.5086090666
 21
1689.7505470459
  0
LINE
  5
362
100
AcDbEntity
  8
0
100
AcDbLine
 62
7
  6
CONTINUOUS
 10
1236.5086090666
 20
1689.7505470459
 11
1236.5086090666
 21
1702.7505470459
  0
LINE
  5
363
100
AcDbEntity
  8
0
100
AcDbLine
 62
7
  6
CONTINUOUS
 10
1236.5086090666
 20
1714.7505470459
 11
1236.5086090666
 21
1727.7505470459
  0
LINE
  5
364
100
AcDbEntity
  8
0
100
AcDbLine
 62
7
  6
CONTINUOUS
 10
1236.5086090666
 20
1729.7505470459
 11
1236.5086090666
 21
1742.7505470459
  0
LINE
  5
365
100
AcDbEntity
  8
0
100
AcDbLine
 62
7
  6
CONTINUOUS
 10
1236.5086090666
 20
1754.7505470459
 11
1236.5086090666
 21
1767.7505470459
  0
LINE
  5
366
100
AcDbEntity
  8
0
100
AcDbLine
 62
7
  6
CONTINUOUS
 10
1250.5086090666
 20
1767.7505470459
 11
1250.5086090666
 21
1754.7505470459
  0
LINE
  5
367
100
AcDbEntity
  8
0
100
AcDbLine
 62
7
  6
CONTINUOUS
 10
1250.5086090666
 20
1742.7505470459
 11
1250.5086090666
 21
1729.7505470459
  0
LINE
  5
368
100
AcDbEntity
  8
0
100
AcDbLine
 62
7
  6
CONTINUOUS
 10
1250.5086090666
 20
1727.7505470459
 11
1250.5086090666
 21
1714.7505470459
  0
LINE
  5
369
100
AcDbEntity
  8
0
100
AcDbLine
 62
7
  6
CONTINUOUS
 10
1250.5086090666
 20
1702.7505470459
 11
1250.5086090666
 21
1689.7505470459
  0
LINE
  5
36A
100
AcDbEntity
  8
0
100
AcDbLine
 62
7
  6
CONTINUOUS
 10
290.0086090666
 20
1683.7505470459
 11
2197.0086090666
 21
1683.7505470459
  0
LINE
  5
36B
100
AcDbEntity
  8
0
100
AcDbLine
 62
7
  6
CONTINUOUS
 10
2197.0086090666
 20
1686.2505470459
 11
290.0086090666
 21
1686.2505470459
  0
LINE
  5
36C
100
AcDbEntity
  8
0
100
AcDbLine
 62
7
  6
CONTINUOUS
 10
325.5086090666
 20
1689.7505470459
 11
336.5086090666
 21
1689.7505470459
  0
LINE
  5
36D
100
AcDbEntity
  8
0
100
AcDbLine
 62
7
  6
CONTINUOUS
 10
350.5086090666
 20
1689.7505470459
 11
361.5086090666
 21
1689.7505470459
  0
LINE
  5
36E
100
AcDbEntity
  8
0
100
AcDbLine
 62
7
  6
CONTINUOUS
 10
375.5086090666
 20
1689.7505470459
 11
386.5086090666
 21
1689.7505470459
  0
LINE
  5
36F
100
AcDbEntity
  8
0
100
AcDbLine
 62
7
  6
CONTINUOUS
 10
400.5086090666
 20
1689.7505470459
 11
411.5086090666
 21
1689.7505470459
  0
LINE
  5
370
100
AcDbEntity
  8
0
100
AcDbLine
 62
7
  6
CONTINUOUS
 10
425.5086090666
 20
1689.7505470459
 11
436.5086090666
 21
1689.7505470459
  0
LINE
  5
371
100
AcDbEntity
  8
0
100
AcDbLine
 62
7
  6
CONTINUOUS
 10
450.5086090666
 20
1689.7505470459
 11
461.5086090666
 21
1689.7505470459
  0
LINE
  5
372
100
AcDbEntity
  8
0
100
AcDbLine
 62
7
  6
CONTINUOUS
 10
475.5086090666
 20
1689.7505470459
 11
486.5086090666
 21
1689.7505470459
  0
LINE
  5
373
100
AcDbEntity
  8
0
100
AcDbLine
 62
7
  6
CONTINUOUS
 10
500.5086090666
 20
1689.7505470459
 11
511.5086090666
 21
1689.7505470459
  0
LINE
  5
374
100
AcDbEntity
  8
0
100
AcDbLine
 62
7
  6
CONTINUOUS
 10
525.5086090666
 20
1689.7505470459
 11
536.5086090666
 21
1689.7505470459
  0
LINE
  5
375
100
AcDbEntity
  8
0
100
AcDbLine
 62
7
  6
CONTINUOUS
 10
550.5086090666
 20
1689.7505470459
 11
561.5086090666
 21
1689.7505470459
  0
LINE
  5
376
100
AcDbEntity
  8
0
100
AcDbLine
 62
7
  6
CONTINUOUS
 10
575.5086090666
 20
1689.7505470459
 11
586.5086090666
 21
1689.7505470459
  0
LINE
  5
377
100
AcDbEntity
  8
0
100
AcDbLine
 62
7
  6
CONTINUOUS
 10
600.5086090666
 20
1689.7505470459
 11
611.5086090666
 21
1689.7505470459
  0
LINE
  5
378
100
AcDbEntity
  8
0
100
AcDbLine
 62
7
  6
CONTINUOUS
 10
625.5086090666
 20
1689.7505470459
 11
636.5086090666
 21
1689.7505470459
  0
LINE
  5
379
100
AcDbEntity
  8
0
100
AcDbLine
 62
7
  6
CONTINUOUS
 10
650.5086090666
 20
1689.7505470459
 11
661.5086090666
 21
1689.7505470459
  0
LINE
  5
37A
100
AcDbEntity
  8
0
100
AcDbLine
 62
7
  6
CONTINUOUS
 10
675.5086090666
 20
1689.7505470459
 11
686.5086090666
 21
1689.7505470459
  0
LINE
  5
37B
100
AcDbEntity
  8
0
100
AcDbLine
 62
7
  6
CONTINUOUS
 10
700.5086090666
 20
1689.7505470459
 11
711.5086090666
 21
1689.7505470459
  0
LINE
  5
37C
100
AcDbEntity
  8
0
100
AcDbLine
 62
7
  6
CONTINUOUS
 10
725.5086090666
 20
1689.7505470459
 11
736.5086090666
 21
1689.7505470459
  0
LINE
  5
37D
100
AcDbEntity
  8
0
100
AcDbLine
 62
7
  6
CONTINUOUS
 10
750.5086090666
 20
1689.7505470459
 11
761.5086090666
 21
1689.7505470459
  0
LINE
  5
37E
100
AcDbEntity
  8
0
100
AcDbLine
 62
7
  6
CONTINUOUS
 10
775.5086090666
 20
1689.7505470459
 11
786.5086090666
 21
1689.7505470459
  0
LINE
  5
37F
100
AcDbEntity
  8
0
100
AcDbLine
 62
7
  6
CONTINUOUS
 10
800.5086090666
 20
1689.7505470459
 11
811.5086090666
 21
1689.7505470459
  0
LINE
  5
380
100
AcDbEntity
  8
0
100
AcDbLine
 62
7
  6
CONTINUOUS
 10
825.5086090666
 20
1689.7505470459
 11
836.5086090666
 21
1689.7505470459
  0
LINE
  5
381
100
AcDbEntity
  8
0
100
AcDbLine
 62
7
  6
CONTINUOUS
 10
850.5086090666
 20
1689.7505470459
 11
861.5086090666
 21
1689.7505470459
  0
LINE
  5
382
100
AcDbEntity
  8
0
100
AcDbLine
 62
7
  6
CONTINUOUS
 10
875.5086090666
 20
1689.7505470459
 11
886.5086090666
 21
1689.7505470459
  0
LINE
  5
383
100
AcDbEntity
  8
0
100
AcDbLine
 62
7
  6
CONTINUOUS
 10
900.5086090666
 20
1689.7505470459
 11
911.5086090666
 21
1689.7505470459
  0
LINE
  5
384
100
AcDbEntity
  8
0
100
AcDbLine
 62
7
  6
CONTINUOUS
 10
925.5086090666
 20
1689.7505470459
 11
936.5086090666
 21
1689.7505470459
  0
LINE
  5
385
100
AcDbEntity
  8
0
100
AcDbLine
 62
7
  6
CONTINUOUS
 10
950.5086090666
 20
1689.7505470459
 11
961.5086090666
 21
1689.7505470459
  0
LINE
  5
386
100
AcDbEntity
  8
0
100
AcDbLine
 62
7
  6
CONTINUOUS
 10
975.5086090666
 20
1689.7505470459
 11
986.5086090666
 21
1689.7505470459
  0
LINE
  5
387
100
AcDbEntity
  8
0
100
AcDbLine
 62
7
  6
CONTINUOUS
 10
1000.5086090666
 20
1689.7505470459
 11
1011.5086090666
 21
1689.7505470459
  0
LINE
  5
388
100
AcDbEntity
  8
0
100
AcDbLine
 62
7
  6
CONTINUOUS
 10
1025.5086090666
 20
1689.7505470459
 11
1036.5086090666
 21
1689.7505470459
  0
LINE
  5
389
100
AcDbEntity
  8
0
100
AcDbLine
 62
7
  6
CONTINUOUS
 10
1050.5086090666
 20
1689.7505470459
 11
1061.5086090666
 21
1689.7505470459
  0
LINE
  5
38A
100
AcDbEntity
  8
0
100
AcDbLine
 62
7
  6
CONTINUOUS
 10
1075.5086090666
 20
1689.7505470459
 11
1086.5086090666
 21
1689.7505470459
  0
LINE
  5
38B
100
AcDbEntity
  8
0
100
AcDbLine
 62
7
  6
CONTINUOUS
 10
1100.5086090666
 20
1689.7505470459
 11
1111.5086090666
 21
1689.7505470459
  0
LINE
  5
38C
100
AcDbEntity
  8
0
100
AcDbLine
 62
7
  6
CONTINUOUS
 10
1125.5086090666
 20
1689.7505470459
 11
1136.5086090666
 21
1689.7505470459
  0
LINE
  5
38D
100
AcDbEntity
  8
0
100
AcDbLine
 62
7
  6
CONTINUOUS
 10
1150.5086090666
 20
1689.7505470459
 11
1161.5086090666
 21
1689.7505470459
  0
LINE
  5
38E
100
AcDbEntity
  8
0
100
AcDbLine
 62
7
  6
CONTINUOUS
 10
1175.5086090666
 20
1689.7505470459
 11
1186.5086090666
 21
1689.7505470459
  0
LINE
  5
38F
100
AcDbEntity
  8
0
100
AcDbLine
 62
7
  6
CONTINUOUS
 10
1200.5086090666
 20
1689.7505470459
 11
1211.5086090666
 21
1689.7505470459
  0
LINE
  5
390
100
AcDbEntity
  8
0
100
AcDbLine
 62
7
  6
CONTINUOUS
 10
1225.5086090666
 20
1689.7505470459
 11
1236.5086090666
 21
1689.7505470459
  0
LINE
  5
391
100
AcDbEntity
  8
0
100
AcDbLine
 62
7
  6
CONTINUOUS
 10
1250.5086090666
 20
1689.7505470459
 11
1261.5086090666
 21
1689.7505470459
  0
LINE
  5
392
100
AcDbEntity
  8
0
100
AcDbLine
 62
7
  6
CONTINUOUS
 10
1275.5086090666
 20
1689.7505470459
 11
1286.5086090666
 21
1689.7505470459
  0
LINE
  5
393
100
AcDbEntity
  8
0
100
AcDbLine
 62
7
  6
CONTINUOUS
 10
1300.5086090666
 20
1689.7505470459
 11
1311.5086090666
 21
1689.7505470459
  0
LINE
  5
394
100
AcDbEntity
  8
0
100
AcDbLine
 62
7
  6
CONTINUOUS
 10
1325.5086090666
 20
1689.7505470459
 11
1336.5086090666
 21
1689.7505470459
  0
LINE
  5
395
100
AcDbEntity
  8
0
100
AcDbLine
 62
7
  6
CONTINUOUS
 10
1350.5086090666
 20
1689.7505470459
 11
1361.5086090666
 21
1689.7505470459
  0
LINE
  5
396
100
AcDbEntity
  8
0
100
AcDbLine
 62
7
  6
CONTINUOUS
 10
1375.5086090666
 20
1689.7505470459
 11
1386.5086090666
 21
1689.7505470459
  0
LINE
  5
397
100
AcDbEntity
  8
0
100
AcDbLine
 62
7
  6
CONTINUOUS
 10
1400.5086090666
 20
1689.7505470459
 11
1411.5086090666
 21
1689.7505470459
  0
LINE
  5
398
100
AcDbEntity
  8
0
100
AcDbLine
 62
7
  6
CONTINUOUS
 10
1425.5086090666
 20
1689.7505470459
 11
1436.5086090666
 21
1689.7505470459
  0
LINE
  5
399
100
AcDbEntity
  8
0
100
AcDbLine
 62
7
  6
CONTINUOUS
 10
1450.5086090666
 20
1689.7505470459
 11
1461.5086090666
 21
1689.7505470459
  0
LINE
  5
39A
100
AcDbEntity
  8
0
100
AcDbLine
 62
7
  6
CONTINUOUS
 10
1475.5086090666
 20
1689.7505470459
 11
1486.5086090666
 21
1689.7505470459
  0
LINE
  5
39B
100
AcDbEntity
  8
0
100
AcDbLine
 62
7
  6
CONTINUOUS
 10
1500.5086090666
 20
1689.7505470459
 11
1511.5086090666
 21
1689.7505470459
  0
LINE
  5
39C
100
AcDbEntity
  8
0
100
AcDbLine
 62
7
  6
CONTINUOUS
 10
1525.5086090666
 20
1689.7505470459
 11
1536.5086090666
 21
1689.7505470459
  0
LINE
  5
39D
100
AcDbEntity
  8
0
100
AcDbLine
 62
7
  6
CONTINUOUS
 10
1550.5086090666
 20
1689.7505470459
 11
1561.5086090666
 21
1689.7505470459
  0
LINE
  5
39E
100
AcDbEntity
  8
0
100
AcDbLine
 62
7
  6
CONTINUOUS
 10
1575.5086090666
 20
1689.7505470459
 11
1586.5086090666
 21
1689.7505470459
  0
LINE
  5
39F
100
AcDbEntity
  8
0
100
AcDbLine
 62
7
  6
CONTINUOUS
 10
1600.5086090666
 20
1689.7505470459
 11
1611.5086090666
 21
1689.7505470459
  0
LINE
  5
3A0
100
AcDbEntity
  8
0
100
AcDbLine
 62
7
  6
CONTINUOUS
 10
1625.5086090666
 20
1689.7505470459
 11
1636.5086090666
 21
1689.7505470459
  0
LINE
  5
3A1
100
AcDbEntity
  8
0
100
AcDbLine
 62
7
  6
CONTINUOUS
 10
1650.5086090666
 20
1689.7505470459
 11
1661.5086090666
 21
1689.7505470459
  0
LINE
  5
3A2
100
AcDbEntity
  8
0
100
AcDbLine
 62
7
  6
CONTINUOUS
 10
1675.5086090666
 20
1689.7505470459
 11
1686.5086090666
 21
1689.7505470459
  0
LINE
  5
3A3
100
AcDbEntity
  8
0
100
AcDbLine
 62
7
  6
CONTINUOUS
 10
1700.5086090666
 20
1689.7505470459
 11
1711.5086090666
 21
1689.7505470459
  0
LINE
  5
3A4
100
AcDbEntity
  8
0
100
AcDbLine
 62
7
  6
CONTINUOUS
 10
1725.5086090666
 20
1689.7505470459
 11
1736.5086090666
 21
1689.7505470459
  0
LINE
  5
3A5
100
AcDbEntity
  8
0
100
AcDbLine
 62
7
  6
CONTINUOUS
 10
1750.5086090666
 20
1689.7505470459
 11
1761.5086090666
 21
1689.7505470459
  0
LINE
  5
3A6
100
AcDbEntity
  8
0
100
AcDbLine
 62
7
  6
CONTINUOUS
 10
1775.5086090666
 20
1689.7505470459
 11
1786.5086090666
 21
1689.7505470459
  0
LINE
  5
3A7
100
AcDbEntity
  8
0
100
AcDbLine
 62
7
  6
CONTINUOUS
 10
1800.5086090666
 20
1689.7505470459
 11
1811.5086090666
 21
1689.7505470459
  0
LINE
  5
3A8
100
AcDbEntity
  8
0
100
AcDbLine
 62
7
  6
CONTINUOUS
 10
1825.5086090666
 20
1689.7505470459
 11
1836.5086090666
 21
1689.7505470459
  0
LINE
  5
3A9
100
AcDbEntity
  8
0
100
AcDbLine
 62
7
  6
CONTINUOUS
 10
1850.5086090666
 20
1689.7505470459
 11
1861.5086090666
 21
1689.7505470459
  0
LINE
  5
3AA
100
AcDbEntity
  8
0
100
AcDbLine
 62
7
  6
CONTINUOUS
 10
1875.5086090666
 20
1689.7505470459
 11
1886.5086090666
 21
1689.7505470459
  0
LINE
  5
3AB
100
AcDbEntity
  8
0
100
AcDbLine
 62
7
  6
CONTINUOUS
 10
1900.5086090666
 20
1689.7505470459
 11
1911.5086090666
 21
1689.7505470459
  0
LINE
  5
3AC
100
AcDbEntity
  8
0
100
AcDbLine
 62
7
  6
CONTINUOUS
 10
1925.5086090666
 20
1689.7505470459
 11
1936.5086090666
 21
1689.7505470459
  0
LINE
  5
3AD
100
AcDbEntity
  8
0
100
AcDbLine
 62
7
  6
CONTINUOUS
 10
1950.5086090666
 20
1689.7505470459
 11
1961.5086090666
 21
1689.7505470459
  0
LINE
  5
3AE
100
AcDbEntity
  8
0
100
AcDbLine
 62
7
  6
CONTINUOUS
 10
1975.5086090666
 20
1689.7505470459
 11
1986.5086090666
 21
1689.7505470459
  0
LINE
  5
3AF
100
AcDbEntity
  8
0
100
AcDbLine
 62
7
  6
CONTINUOUS
 10
2000.5086090666
 20
1689.7505470459
 11
2011.5086090666
 21
1689.7505470459
  0
LINE
  5
3B0
100
AcDbEntity
  8
0
100
AcDbLine
 62
7
  6
CONTINUOUS
 10
2025.5086090666
 20
1689.7505470459
 11
2036.5086090666
 21
1689.7505470459
  0
LINE
  5
3B1
100
AcDbEntity
  8
0
100
AcDbLine
 62
7
  6
CONTINUOUS
 10
2050.5086090666
 20
1689.7505470459
 11
2061.5086090666
 21
1689.7505470459
  0
LINE
  5
3B2
100
AcDbEntity
  8
0
100
AcDbLine
 62
7
  6
CONTINUOUS
 10
2075.5086090666
 20
1689.7505470459
 11
2086.5086090666
 21
1689.7505470459
  0
LINE
  5
3B3
100
AcDbEntity
  8
0
100
AcDbLine
 62
7
  6
CONTINUOUS
 10
2100.5086090666
 20
1689.7505470459
 11
2111.5086090666
 21
1689.7505470459
  0
LINE
  5
3B4
100
AcDbEntity
  8
0
100
AcDbLine
 62
7
  6
CONTINUOUS
 10
2125.5086090666
 20
1689.7505470459
 11
2136.5086090666
 21
1689.7505470459
  0
LINE
  5
3B5
100
AcDbEntity
  8
0
100
AcDbLine
 62
7
  6
CONTINUOUS
 10
2150.5086090666
 20
1689.7505470459
 11
2161.5086090666
 21
1689.7505470459
  0
LINE
  5
3B6
100
AcDbEntity
  8
0
100
AcDbLine
 62
7
  6
CONTINUOUS
 10
325.5086090666
 20
1692.7505470459
 11
336.5086090666
 21
1692.7505470459
  0
LINE
  5
3B7
100
AcDbEntity
  8
0
100
AcDbLine
 62
7
  6
CONTINUOUS
 10
350.5086090666
 20
1692.7505470459
 11
361.5086090666
 21
1692.7505470459
  0
LINE
  5
3B8
100
AcDbEntity
  8
0
100
AcDbLine
 62
7
  6
CONTINUOUS
 10
375.5086090666
 20
1692.7505470459
 11
386.5086090666
 21
1692.7505470459
  0
LINE
  5
3B9
100
AcDbEntity
  8
0
100
AcDbLine
 62
7
  6
CONTINUOUS
 10
400.5086090666
 20
1692.7505470459
 11
411.5086090666
 21
1692.7505470459
  0
LINE
  5
3BA
100
AcDbEntity
  8
0
100
AcDbLine
 62
7
  6
CONTINUOUS
 10
425.5086090666
 20
1692.7505470459
 11
436.5086090666
 21
1692.7505470459
  0
LINE
  5
3BB
100
AcDbEntity
  8
0
100
AcDbLine
 62
7
  6
CONTINUOUS
 10
450.5086090666
 20
1692.7505470459
 11
461.5086090666
 21
1692.7505470459
  0
LINE
  5
3BC
100
AcDbEntity
  8
0
100
AcDbLine
 62
7
  6
CONTINUOUS
 10
475.5086090666
 20
1692.7505470459
 11
486.5086090666
 21
1692.7505470459
  0
LINE
  5
3BD
100
AcDbEntity
  8
0
100
AcDbLine
 62
7
  6
CONTINUOUS
 10
500.5086090666
 20
1692.7505470459
 11
511.5086090666
 21
1692.7505470459
  0
LINE
  5
3BE
100
AcDbEntity
  8
0
100
AcDbLine
 62
7
  6
CONTINUOUS
 10
525.5086090666
 20
1692.7505470459
 11
536.5086090666
 21
1692.7505470459
  0
LINE
  5
3BF
100
AcDbEntity
  8
0
100
AcDbLine
 62
7
  6
CONTINUOUS
 10
550.5086090666
 20
1692.7505470459
 11
561.5086090666
 21
1692.7505470459
  0
LINE
  5
3C0
100
AcDbEntity
  8
0
100
AcDbLine
 62
7
  6
CONTINUOUS
 10
575.5086090666
 20
1692.7505470459
 11
586.5086090666
 21
1692.7505470459
  0
LINE
  5
3C1
100
AcDbEntity
  8
0
100
AcDbLine
 62
7
  6
CONTINUOUS
 10
600.5086090666
 20
1692.7505470459
 11
611.5086090666
 21
1692.7505470459
  0
LINE
  5
3C2
100
AcDbEntity
  8
0
100
AcDbLine
 62
7
  6
CONTINUOUS
 10
625.5086090666
 20
1692.7505470459
 11
636.5086090666
 21
1692.7505470459
  0
LINE
  5
3C3
100
AcDbEntity
  8
0
100
AcDbLine
 62
7
  6
CONTINUOUS
 10
650.5086090666
 20
1692.7505470459
 11
661.5086090666
 21
1692.7505470459
  0
LINE
  5
3C4
100
AcDbEntity
  8
0
100
AcDbLine
 62
7
  6
CONTINUOUS
 10
675.5086090666
 20
1692.7505470459
 11
686.5086090666
 21
1692.7505470459
  0
LINE
  5
3C5
100
AcDbEntity
  8
0
100
AcDbLine
 62
7
  6
CONTINUOUS
 10
700.5086090666
 20
1692.7505470459
 11
711.5086090666
 21
1692.7505470459
  0
LINE
  5
3C6
100
AcDbEntity
  8
0
100
AcDbLine
 62
7
  6
CONTINUOUS
 10
725.5086090666
 20
1692.7505470459
 11
736.5086090666
 21
1692.7505470459
  0
LINE
  5
3C7
100
AcDbEntity
  8
0
100
AcDbLine
 62
7
  6
CONTINUOUS
 10
750.5086090666
 20
1692.7505470459
 11
761.5086090666
 21
1692.7505470459
  0
LINE
  5
3C8
100
AcDbEntity
  8
0
100
AcDbLine
 62
7
  6
CONTINUOUS
 10
775.5086090666
 20
1692.7505470459
 11
786.5086090666
 21
1692.7505470459
  0
LINE
  5
3C9
100
AcDbEntity
  8
0
100
AcDbLine
 62
7
  6
CONTINUOUS
 10
800.5086090666
 20
1692.7505470459
 11
811.5086090666
 21
1692.7505470459
  0
LINE
  5
3CA
100
AcDbEntity
  8
0
100
AcDbLine
 62
7
  6
CONTINUOUS
 10
825.5086090666
 20
1692.7505470459
 11
836.5086090666
 21
1692.7505470459
  0
LINE
  5
3CB
100
AcDbEntity
  8
0
100
AcDbLine
 62
7
  6
CONTINUOUS
 10
850.5086090666
 20
1692.7505470459
 11
861.5086090666
 21
1692.7505470459
  0
LINE
  5
3CC
100
AcDbEntity
  8
0
100
AcDbLine
 62
7
  6
CONTINUOUS
 10
875.5086090666
 20
1692.7505470459
 11
886.5086090666
 21
1692.7505470459
  0
LINE
  5
3CD
100
AcDbEntity
  8
0
100
AcDbLine
 62
7
  6
CONTINUOUS
 10
900.5086090666
 20
1692.7505470459
 11
911.5086090666
 21
1692.7505470459
  0
LINE
  5
3CE
100
AcDbEntity
  8
0
100
AcDbLine
 62
7
  6
CONTINUOUS
 10
925.5086090666
 20
1692.7505470459
 11
936.5086090666
 21
1692.7505470459
  0
LINE
  5
3CF
100
AcDbEntity
  8
0
100
AcDbLine
 62
7
  6
CONTINUOUS
 10
950.5086090666
 20
1692.7505470459
 11
961.5086090666
 21
1692.7505470459
  0
LINE
  5
3D0
100
AcDbEntity
  8
0
100
AcDbLine
 62
7
  6
CONTINUOUS
 10
975.5086090666
 20
1692.7505470459
 11
986.5086090666
 21
1692.7505470459
  0
LINE
  5
3D1
100
AcDbEntity
  8
0
100
AcDbLine
 62
7
  6
CONTINUOUS
 10
1000.5086090666
 20
1692.7505470459
 11
1011.5086090666
 21
1692.7505470459
  0
LINE
  5
3D2
100
AcDbEntity
  8
0
100
AcDbLine
 62
7
  6
CONTINUOUS
 10
1025.5086090666
 20
1692.7505470459
 11
1036.5086090666
 21
1692.7505470459
  0
LINE
  5
3D3
100
AcDbEntity
  8
0
100
AcDbLine
 62
7
  6
CONTINUOUS
 10
1050.5086090666
 20
1692.7505470459
 11
1061.5086090666
 21
1692.7505470459
  0
LINE
  5
3D4
100
AcDbEntity
  8
0
100
AcDbLine
 62
7
  6
CONTINUOUS
 10
1075.5086090666
 20
1692.7505470459
 11
1086.5086090666
 21
1692.7505470459
  0
LINE
  5
3D5
100
AcDbEntity
  8
0
100
AcDbLine
 62
7
  6
CONTINUOUS
 10
1100.5086090666
 20
1692.7505470459
 11
1111.5086090666
 21
1692.7505470459
  0
LINE
  5
3D6
100
AcDbEntity
  8
0
100
AcDbLine
 62
7
  6
CONTINUOUS
 10
1125.5086090666
 20
1692.7505470459
 11
1136.5086090666
 21
1692.7505470459
  0
LINE
  5
3D7
100
AcDbEntity
  8
0
100
AcDbLine
 62
7
  6
CONTINUOUS
 10
1150.5086090666
 20
1692.7505470459
 11
1161.5086090666
 21
1692.7505470459
  0
LINE
  5
3D8
100
AcDbEntity
  8
0
100
AcDbLine
 62
7
  6
CONTINUOUS
 10
1175.5086090666
 20
1692.7505470459
 11
1186.5086090666
 21
1692.7505470459
  0
LINE
  5
3D9
100
AcDbEntity
  8
0
100
AcDbLine
 62
7
  6
CONTINUOUS
 10
1200.5086090666
 20
1692.7505470459
 11
1211.5086090666
 21
1692.7505470459
  0
LINE
  5
3DA
100
AcDbEntity
  8
0
100
AcDbLine
 62
7
  6
CONTINUOUS
 10
1225.5086090666
 20
1692.7505470459
 11
1236.5086090666
 21
1692.7505470459
  0
LINE
  5
3DB
100
AcDbEntity
  8
0
100
AcDbLine
 62
7
  6
CONTINUOUS
 10
1250.5086090666
 20
1692.7505470459
 11
1261.5086090666
 21
1692.7505470459
  0
LINE
  5
3DC
100
AcDbEntity
  8
0
100
AcDbLine
 62
7
  6
CONTINUOUS
 10
1275.5086090666
 20
1692.7505470459
 11
1286.5086090666
 21
1692.7505470459
  0
LINE
  5
3DD
100
AcDbEntity
  8
0
100
AcDbLine
 62
7
  6
CONTINUOUS
 10
1300.5086090666
 20
1692.7505470459
 11
1311.5086090666
 21
1692.7505470459
  0
LINE
  5
3DE
100
AcDbEntity
  8
0
100
AcDbLine
 62
7
  6
CONTINUOUS
 10
1325.5086090666
 20
1692.7505470459
 11
1336.5086090666
 21
1692.7505470459
  0
LINE
  5
3DF
100
AcDbEntity
  8
0
100
AcDbLine
 62
7
  6
CONTINUOUS
 10
1350.5086090666
 20
1692.7505470459
 11
1361.5086090666
 21
1692.7505470459
  0
LINE
  5
3E0
100
AcDbEntity
  8
0
100
AcDbLine
 62
7
  6
CONTINUOUS
 10
1375.5086090666
 20
1692.7505470459
 11
1386.5086090666
 21
1692.7505470459
  0
LINE
  5
3E1
100
AcDbEntity
  8
0
100
AcDbLine
 62
7
  6
CONTINUOUS
 10
1400.5086090666
 20
1692.7505470459
 11
1411.5086090666
 21
1692.7505470459
  0
LINE
  5
3E2
100
AcDbEntity
  8
0
100
AcDbLine
 62
7
  6
CONTINUOUS
 10
1425.5086090666
 20
1692.7505470459
 11
1436.5086090666
 21
1692.7505470459
  0
LINE
  5
3E3
100
AcDbEntity
  8
0
100
AcDbLine
 62
7
  6
CONTINUOUS
 10
1450.5086090666
 20
1692.7505470459
 11
1461.5086090666
 21
1692.7505470459
  0
LINE
  5
3E4
100
AcDbEntity
  8
0
100
AcDbLine
 62
7
  6
CONTINUOUS
 10
1475.5086090666
 20
1692.7505470459
 11
1486.5086090666
 21
1692.7505470459
  0
LINE
  5
3E5
100
AcDbEntity
  8
0
100
AcDbLine
 62
7
  6
CONTINUOUS
 10
1500.5086090666
 20
1692.7505470459
 11
1511.5086090666
 21
1692.7505470459
  0
LINE
  5
3E6
100
AcDbEntity
  8
0
100
AcDbLine
 62
7
  6
CONTINUOUS
 10
1525.5086090666
 20
1692.7505470459
 11
1536.5086090666
 21
1692.7505470459
  0
LINE
  5
3E7
100
AcDbEntity
  8
0
100
AcDbLine
 62
7
  6
CONTINUOUS
 10
1550.5086090666
 20
1692.7505470459
 11
1561.5086090666
 21
1692.7505470459
  0
LINE
  5
3E8
100
AcDbEntity
  8
0
100
AcDbLine
 62
7
  6
CONTINUOUS
 10
1575.5086090666
 20
1692.7505470459
 11
1586.5086090666
 21
1692.7505470459
  0
LINE
  5
3E9
100
AcDbEntity
  8
0
100
AcDbLine
 62
7
  6
CONTINUOUS
 10
1600.5086090666
 20
1692.7505470459
 11
1611.5086090666
 21
1692.7505470459
  0
LINE
  5
3EA
100
AcDbEntity
  8
0
100
AcDbLine
 62
7
  6
CONTINUOUS
 10
1625.5086090666
 20
1692.7505470459
 11
1636.5086090666
 21
1692.7505470459
  0
LINE
  5
3EB
100
AcDbEntity
  8
0
100
AcDbLine
 62
7
  6
CONTINUOUS
 10
1650.5086090666
 20
1692.7505470459
 11
1661.5086090666
 21
1692.7505470459
  0
LINE
  5
3EC
100
AcDbEntity
  8
0
100
AcDbLine
 62
7
  6
CONTINUOUS
 10
1675.5086090666
 20
1692.7505470459
 11
1686.5086090666
 21
1692.7505470459
  0
LINE
  5
3ED
100
AcDbEntity
  8
0
100
AcDbLine
 62
7
  6
CONTINUOUS
 10
1700.5086090666
 20
1692.7505470459
 11
1711.5086090666
 21
1692.7505470459
  0
LINE
  5
3EE
100
AcDbEntity
  8
0
100
AcDbLine
 62
7
  6
CONTINUOUS
 10
1725.5086090666
 20
1692.7505470459
 11
1736.5086090666
 21
1692.7505470459
  0
LINE
  5
3EF
100
AcDbEntity
  8
0
100
AcDbLine
 62
7
  6
CONTINUOUS
 10
1750.5086090666
 20
1692.7505470459
 11
1761.5086090666
 21
1692.7505470459
  0
LINE
  5
3F0
100
AcDbEntity
  8
0
100
AcDbLine
 62
7
  6
CONTINUOUS
 10
1775.5086090666
 20
1692.7505470459
 11
1786.5086090666
 21
1692.7505470459
  0
LINE
  5
3F1
100
AcDbEntity
  8
0
100
AcDbLine
 62
7
  6
CONTINUOUS
 10
1800.5086090666
 20
1692.7505470459
 11
1811.5086090666
 21
1692.7505470459
  0
LINE
  5
3F2
100
AcDbEntity
  8
0
100
AcDbLine
 62
7
  6
CONTINUOUS
 10
1825.5086090666
 20
1692.7505470459
 11
1836.5086090666
 21
1692.7505470459
  0
LINE
  5
3F3
100
AcDbEntity
  8
0
100
AcDbLine
 62
7
  6
CONTINUOUS
 10
1850.5086090666
 20
1692.7505470459
 11
1861.5086090666
 21
1692.7505470459
  0
LINE
  5
3F4
100
AcDbEntity
  8
0
100
AcDbLine
 62
7
  6
CONTINUOUS
 10
1875.5086090666
 20
1692.7505470459
 11
1886.5086090666
 21
1692.7505470459
  0
LINE
  5
3F5
100
AcDbEntity
  8
0
100
AcDbLine
 62
7
  6
CONTINUOUS
 10
1900.5086090666
 20
1692.7505470459
 11
1911.5086090666
 21
1692.7505470459
  0
LINE
  5
3F6
100
AcDbEntity
  8
0
100
AcDbLine
 62
7
  6
CONTINUOUS
 10
1925.5086090666
 20
1692.7505470459
 11
1936.5086090666
 21
1692.7505470459
  0
LINE
  5
3F7
100
AcDbEntity
  8
0
100
AcDbLine
 62
7
  6
CONTINUOUS
 10
1950.5086090666
 20
1692.7505470459
 11
1961.5086090666
 21
1692.7505470459
  0
LINE
  5
3F8
100
AcDbEntity
  8
0
100
AcDbLine
 62
7
  6
CONTINUOUS
 10
1975.5086090666
 20
1692.7505470459
 11
1986.5086090666
 21
1692.7505470459
  0
LINE
  5
3F9
100
AcDbEntity
  8
0
100
AcDbLine
 62
7
  6
CONTINUOUS
 10
2000.5086090666
 20
1692.7505470459
 11
2011.5086090666
 21
1692.7505470459
  0
LINE
  5
3FA
100
AcDbEntity
  8
0
100
AcDbLine
 62
7
  6
CONTINUOUS
 10
2025.5086090666
 20
1692.7505470459
 11
2036.5086090666
 21
1692.7505470459
  0
LINE
  5
3FB
100
AcDbEntity
  8
0
100
AcDbLine
 62
7
  6
CONTINUOUS
 10
2050.5086090666
 20
1692.7505470459
 11
2061.5086090666
 21
1692.7505470459
  0
LINE
  5
3FC
100
AcDbEntity
  8
0
100
AcDbLine
 62
7
  6
CONTINUOUS
 10
2075.5086090666
 20
1692.7505470459
 11
2086.5086090666
 21
1692.7505470459
  0
LINE
  5
3FD
100
AcDbEntity
  8
0
100
AcDbLine
 62
7
  6
CONTINUOUS
 10
2100.5086090666
 20
1692.7505470459
 11
2111.5086090666
 21
1692.7505470459
  0
LINE
  5
3FE
100
AcDbEntity
  8
0
100
AcDbLine
 62
7
  6
CONTINUOUS
 10
2125.5086090666
 20
1692.7505470459
 11
2136.5086090666
 21
1692.7505470459
  0
LINE
  5
3FF
100
AcDbEntity
  8
0
100
AcDbLine
 62
7
  6
CONTINUOUS
 10
2150.5086090666
 20
1692.7505470459
 11
2161.5086090666
 21
1692.7505470459
  0
LINE
  5
400
100
AcDbEntity
  8
0
100
AcDbLine
 62
7
  6
CONTINUOUS
 10
2198.5086090666
 20
1696.2505470459
 11
2197.0086090666
 21
1696.2505470459
  0
LINE
  5
401
100
AcDbEntity
  8
0
100
AcDbLine
 62
7
  6
CONTINUOUS
 10
290.0086090666
 20
1696.2505470459
 11
288.5086090666
 21
1696.2505470459
  0
LINE
  5
402
100
AcDbEntity
  8
0
100
AcDbLine
 62
7
  6
CONTINUOUS
 10
2207.0086090666
 20
1700.7505470459
 11
2198.5086090666
 21
1700.7505470459
  0
LINE
  5
403
100
AcDbEntity
  8
0
100
AcDbLine
 62
7
  6
CONTINUOUS
 10
280.0086090666
 20
1700.7505470459
 11
288.5086090666
 21
1700.7505470459
  0
LINE
  5
404
100
AcDbEntity
  8
0
100
AcDbLine
 62
7
  6
CONTINUOUS
 10
2161.5086090666
 20
1702.7505470459
 11
2150.5086090666
 21
1702.7505470459
  0
LINE
  5
405
100
AcDbEntity
  8
0
100
AcDbLine
 62
7
  6
CONTINUOUS
 10
2136.5086090666
 20
1702.7505470459
 11
2125.5086090666
 21
1702.7505470459
  0
LINE
  5
406
100
AcDbEntity
  8
0
100
AcDbLine
 62
7
  6
CONTINUOUS
 10
2111.5086090666
 20
1702.7505470459
 11
2100.5086090666
 21
1702.7505470459
  0
LINE
  5
407
100
AcDbEntity
  8
0
100
AcDbLine
 62
7
  6
CONTINUOUS
 10
2086.5086090666
 20
1702.7505470459
 11
2075.5086090666
 21
1702.7505470459
  0
LINE
  5
408
100
AcDbEntity
  8
0
100
AcDbLine
 62
7
  6
CONTINUOUS
 10
2061.5086090666
 20
1702.7505470459
 11
2050.5086090666
 21
1702.7505470459
  0
LINE
  5
409
100
AcDbEntity
  8
0
100
AcDbLine
 62
7
  6
CONTINUOUS
 10
2036.5086090666
 20
1702.7505470459
 11
2025.5086090666
 21
1702.7505470459
  0
LINE
  5
40A
100
AcDbEntity
  8
0
100
AcDbLine
 62
7
  6
CONTINUOUS
 10
2011.5086090666
 20
1702.7505470459
 11
2000.5086090666
 21
1702.7505470459
  0
LINE
  5
40B
100
AcDbEntity
  8
0
100
AcDbLine
 62
7
  6
CONTINUOUS
 10
1986.5086090666
 20
1702.7505470459
 11
1975.5086090666
 21
1702.7505470459
  0
LINE
  5
40C
100
AcDbEntity
  8
0
100
AcDbLine
 62
7
  6
CONTINUOUS
 10
1961.5086090666
 20
1702.7505470459
 11
1950.5086090666
 21
1702.7505470459
  0
LINE
  5
40D
100
AcDbEntity
  8
0
100
AcDbLine
 62
7
  6
CONTINUOUS
 10
1936.5086090666
 20
1702.7505470459
 11
1925.5086090666
 21
1702.7505470459
  0
LINE
  5
40E
100
AcDbEntity
  8
0
100
AcDbLine
 62
7
  6
CONTINUOUS
 10
1911.5086090666
 20
1702.7505470459
 11
1900.5086090666
 21
1702.7505470459
  0
LINE
  5
40F
100
AcDbEntity
  8
0
100
AcDbLine
 62
7
  6
CONTINUOUS
 10
1886.5086090666
 20
1702.7505470459
 11
1875.5086090666
 21
1702.7505470459
  0
LINE
  5
410
100
AcDbEntity
  8
0
100
AcDbLine
 62
7
  6
CONTINUOUS
 10
1861.5086090666
 20
1702.7505470459
 11
1850.5086090666
 21
1702.7505470459
  0
LINE
  5
411
100
AcDbEntity
  8
0
100
AcDbLine
 62
7
  6
CONTINUOUS
 10
1836.5086090666
 20
1702.7505470459
 11
1825.5086090666
 21
1702.7505470459
  0
LINE
  5
412
100
AcDbEntity
  8
0
100
AcDbLine
 62
7
  6
CONTINUOUS
 10
1811.5086090666
 20
1702.7505470459
 11
1800.5086090666
 21
1702.7505470459
  0
LINE
  5
413
100
AcDbEntity
  8
0
100
AcDbLine
 62
7
  6
CONTINUOUS
 10
1786.5086090666
 20
1702.7505470459
 11
1775.5086090666
 21
1702.7505470459
  0
LINE
  5
414
100
AcDbEntity
  8
0
100
AcDbLine
 62
7
  6
CONTINUOUS
 10
1761.5086090666
 20
1702.7505470459
 11
1750.5086090666
 21
1702.7505470459
  0
LINE
  5
415
100
AcDbEntity
  8
0
100
AcDbLine
 62
7
  6
CONTINUOUS
 10
1736.5086090666
 20
1702.7505470459
 11
1725.5086090666
 21
1702.7505470459
  0
LINE
  5
416
100
AcDbEntity
  8
0
100
AcDbLine
 62
7
  6
CONTINUOUS
 10
1711.5086090666
 20
1702.7505470459
 11
1700.5086090666
 21
1702.7505470459
  0
LINE
  5
417
100
AcDbEntity
  8
0
100
AcDbLine
 62
7
  6
CONTINUOUS
 10
1686.5086090666
 20
1702.7505470459
 11
1675.5086090666
 21
1702.7505470459
  0
LINE
  5
418
100
AcDbEntity
  8
0
100
AcDbLine
 62
7
  6
CONTINUOUS
 10
1661.5086090666
 20
1702.7505470459
 11
1650.5086090666
 21
1702.7505470459
  0
LINE
  5
419
100
AcDbEntity
  8
0
100
AcDbLine
 62
7
  6
CONTINUOUS
 10
1636.5086090666
 20
1702.7505470459
 11
1625.5086090666
 21
1702.7505470459
  0
LINE
  5
41A
100
AcDbEntity
  8
0
100
AcDbLine
 62
7
  6
CONTINUOUS
 10
1611.5086090666
 20
1702.7505470459
 11
1600.5086090666
 21
1702.7505470459
  0
LINE
  5
41B
100
AcDbEntity
  8
0
100
AcDbLine
 62
7
  6
CONTINUOUS
 10
1586.5086090666
 20
1702.7505470459
 11
1575.5086090666
 21
1702.7505470459
  0
LINE
  5
41C
100
AcDbEntity
  8
0
100
AcDbLine
 62
7
  6
CONTINUOUS
 10
1561.5086090666
 20
1702.7505470459
 11
1550.5086090666
 21
1702.7505470459
  0
LINE
  5
41D
100
AcDbEntity
  8
0
100
AcDbLine
 62
7
  6
CONTINUOUS
 10
1536.5086090666
 20
1702.7505470459
 11
1525.5086090666
 21
1702.7505470459
  0
LINE
  5
41E
100
AcDbEntity
  8
0
100
AcDbLine
 62
7
  6
CONTINUOUS
 10
1511.5086090666
 20
1702.7505470459
 11
1500.5086090666
 21
1702.7505470459
  0
LINE
  5
41F
100
AcDbEntity
  8
0
100
AcDbLine
 62
7
  6
CONTINUOUS
 10
1486.5086090666
 20
1702.7505470459
 11
1475.5086090666
 21
1702.7505470459
  0
LINE
  5
420
100
AcDbEntity
  8
0
100
AcDbLine
 62
7
  6
CONTINUOUS
 10
1461.5086090666
 20
1702.7505470459
 11
1450.5086090666
 21
1702.7505470459
  0
LINE
  5
421
100
AcDbEntity
  8
0
100
AcDbLine
 62
7
  6
CONTINUOUS
 10
1436.5086090666
 20
1702.7505470459
 11
1425.5086090666
 21
1702.7505470459
  0
LINE
  5
422
100
AcDbEntity
  8
0
100
AcDbLine
 62
7
  6
CONTINUOUS
 10
1411.5086090666
 20
1702.7505470459
 11
1400.5086090666
 21
1702.7505470459
  0
LINE
  5
423
100
AcDbEntity
  8
0
100
AcDbLine
 62
7
  6
CONTINUOUS
 10
1386.5086090666
 20
1702.7505470459
 11
1375.5086090666
 21
1702.7505470459
  0
LINE
  5
424
100
AcDbEntity
  8
0
100
AcDbLine
 62
7
  6
CONTINUOUS
 10
1361.5086090666
 20
1702.7505470459
 11
1350.5086090666
 21
1702.7505470459
  0
LINE
  5
425
100
AcDbEntity
  8
0
100
AcDbLine
 62
7
  6
CONTINUOUS
 10
1336.5086090666
 20
1702.7505470459
 11
1325.5086090666
 21
1702.7505470459
  0
LINE
  5
426
100
AcDbEntity
  8
0
100
AcDbLine
 62
7
  6
CONTINUOUS
 10
1311.5086090666
 20
1702.7505470459
 11
1300.5086090666
 21
1702.7505470459
  0
LINE
  5
427
100
AcDbEntity
  8
0
100
AcDbLine
 62
7
  6
CONTINUOUS
 10
1286.5086090666
 20
1702.7505470459
 11
1275.5086090666
 21
1702.7505470459
  0
LINE
  5
428
100
AcDbEntity
  8
0
100
AcDbLine
 62
7
  6
CONTINUOUS
 10
1261.5086090666
 20
1702.7505470459
 11
1250.5086090666
 21
1702.7505470459
  0
LINE
  5
429
100
AcDbEntity
  8
0
100
AcDbLine
 62
7
  6
CONTINUOUS
 10
1236.5086090666
 20
1702.7505470459
 11
1225.5086090666
 21
1702.7505470459
  0
LINE
  5
42A
100
AcDbEntity
  8
0
100
AcDbLine
 62
7
  6
CONTINUOUS
 10
1211.5086090666
 20
1702.7505470459
 11
1200.5086090666
 21
1702.7505470459
  0
LINE
  5
42B
100
AcDbEntity
  8
0
100
AcDbLine
 62
7
  6
CONTINUOUS
 10
1186.5086090666
 20
1702.7505470459
 11
1175.5086090666
 21
1702.7505470459
  0
LINE
  5
42C
100
AcDbEntity
  8
0
100
AcDbLine
 62
7
  6
CONTINUOUS
 10
1161.5086090666
 20
1702.7505470459
 11
1150.5086090666
 21
1702.7505470459
  0
LINE
  5
42D
100
AcDbEntity
  8
0
100
AcDbLine
 62
7
  6
CONTINUOUS
 10
1136.5086090666
 20
1702.7505470459
 11
1125.5086090666
 21
1702.7505470459
  0
LINE
  5
42E
100
AcDbEntity
  8
0
100
AcDbLine
 62
7
  6
CONTINUOUS
 10
1111.5086090666
 20
1702.7505470459
 11
1100.5086090666
 21
1702.7505470459
  0
LINE
  5
42F
100
AcDbEntity
  8
0
100
AcDbLine
 62
7
  6
CONTINUOUS
 10
1086.5086090666
 20
1702.7505470459
 11
1075.5086090666
 21
1702.7505470459
  0
LINE
  5
430
100
AcDbEntity
  8
0
100
AcDbLine
 62
7
  6
CONTINUOUS
 10
1061.5086090666
 20
1702.7505470459
 11
1050.5086090666
 21
1702.7505470459
  0
LINE
  5
431
100
AcDbEntity
  8
0
100
AcDbLine
 62
7
  6
CONTINUOUS
 10
1036.5086090666
 20
1702.7505470459
 11
1025.5086090666
 21
1702.7505470459
  0
LINE
  5
432
100
AcDbEntity
  8
0
100
AcDbLine
 62
7
  6
CONTINUOUS
 10
1011.5086090666
 20
1702.7505470459
 11
1000.5086090666
 21
1702.7505470459
  0
LINE
  5
433
100
AcDbEntity
  8
0
100
AcDbLine
 62
7
  6
CONTINUOUS
 10
986.5086090666
 20
1702.7505470459
 11
975.5086090666
 21
1702.7505470459
  0
LINE
  5
434
100
AcDbEntity
  8
0
100
AcDbLine
 62
7
  6
CONTINUOUS
 10
961.5086090666
 20
1702.7505470459
 11
950.5086090666
 21
1702.7505470459
  0
LINE
  5
435
100
AcDbEntity
  8
0
100
AcDbLine
 62
7
  6
CONTINUOUS
 10
936.5086090666
 20
1702.7505470459
 11
925.5086090666
 21
1702.7505470459
  0
LINE
  5
436
100
AcDbEntity
  8
0
100
AcDbLine
 62
7
  6
CONTINUOUS
 10
911.5086090666
 20
1702.7505470459
 11
900.5086090666
 21
1702.7505470459
  0
LINE
  5
437
100
AcDbEntity
  8
0
100
AcDbLine
 62
7
  6
CONTINUOUS
 10
886.5086090666
 20
1702.7505470459
 11
875.5086090666
 21
1702.7505470459
  0
LINE
  5
438
100
AcDbEntity
  8
0
100
AcDbLine
 62
7
  6
CONTINUOUS
 10
861.5086090666
 20
1702.7505470459
 11
850.5086090666
 21
1702.7505470459
  0
LINE
  5
439
100
AcDbEntity
  8
0
100
AcDbLine
 62
7
  6
CONTINUOUS
 10
836.5086090666
 20
1702.7505470459
 11
825.5086090666
 21
1702.7505470459
  0
LINE
  5
43A
100
AcDbEntity
  8
0
100
AcDbLine
 62
7
  6
CONTINUOUS
 10
811.5086090666
 20
1702.7505470459
 11
800.5086090666
 21
1702.7505470459
  0
LINE
  5
43B
100
AcDbEntity
  8
0
100
AcDbLine
 62
7
  6
CONTINUOUS
 10
786.5086090666
 20
1702.7505470459
 11
775.5086090666
 21
1702.7505470459
  0
LINE
  5
43C
100
AcDbEntity
  8
0
100
AcDbLine
 62
7
  6
CONTINUOUS
 10
761.5086090666
 20
1702.7505470459
 11
750.5086090666
 21
1702.7505470459
  0
LINE
  5
43D
100
AcDbEntity
  8
0
100
AcDbLine
 62
7
  6
CONTINUOUS
 10
736.5086090666
 20
1702.7505470459
 11
725.5086090666
 21
1702.7505470459
  0
LINE
  5
43E
100
AcDbEntity
  8
0
100
AcDbLine
 62
7
  6
CONTINUOUS
 10
711.5086090666
 20
1702.7505470459
 11
700.5086090666
 21
1702.7505470459
  0
LINE
  5
43F
100
AcDbEntity
  8
0
100
AcDbLine
 62
7
  6
CONTINUOUS
 10
686.5086090666
 20
1702.7505470459
 11
675.5086090666
 21
1702.7505470459
  0
LINE
  5
440
100
AcDbEntity
  8
0
100
AcDbLine
 62
7
  6
CONTINUOUS
 10
661.5086090666
 20
1702.7505470459
 11
650.5086090666
 21
1702.7505470459
  0
LINE
  5
441
100
AcDbEntity
  8
0
100
AcDbLine
 62
7
  6
CONTINUOUS
 10
636.5086090666
 20
1702.7505470459
 11
625.5086090666
 21
1702.7505470459
  0
LINE
  5
442
100
AcDbEntity
  8
0
100
AcDbLine
 62
7
  6
CONTINUOUS
 10
611.5086090666
 20
1702.7505470459
 11
600.5086090666
 21
1702.7505470459
  0
LINE
  5
443
100
AcDbEntity
  8
0
100
AcDbLine
 62
7
  6
CONTINUOUS
 10
586.5086090666
 20
1702.7505470459
 11
575.5086090666
 21
1702.7505470459
  0
LINE
  5
444
100
AcDbEntity
  8
0
100
AcDbLine
 62
7
  6
CONTINUOUS
 10
561.5086090666
 20
1702.7505470459
 11
550.5086090666
 21
1702.7505470459
  0
LINE
  5
445
100
AcDbEntity
  8
0
100
AcDbLine
 62
7
  6
CONTINUOUS
 10
536.5086090666
 20
1702.7505470459
 11
525.5086090666
 21
1702.7505470459
  0
LINE
  5
446
100
AcDbEntity
  8
0
100
AcDbLine
 62
7
  6
CONTINUOUS
 10
511.5086090666
 20
1702.7505470459
 11
500.5086090666
 21
1702.7505470459
  0
LINE
  5
447
100
AcDbEntity
  8
0
100
AcDbLine
 62
7
  6
CONTINUOUS
 10
486.5086090666
 20
1702.7505470459
 11
475.5086090666
 21
1702.7505470459
  0
LINE
  5
448
100
AcDbEntity
  8
0
100
AcDbLine
 62
7
  6
CONTINUOUS
 10
461.5086090666
 20
1702.7505470459
 11
450.5086090666
 21
1702.7505470459
  0
LINE
  5
449
100
AcDbEntity
  8
0
100
AcDbLine
 62
7
  6
CONTINUOUS
 10
436.5086090666
 20
1702.7505470459
 11
425.5086090666
 21
1702.7505470459
  0
LINE
  5
44A
100
AcDbEntity
  8
0
100
AcDbLine
 62
7
  6
CONTINUOUS
 10
411.5086090666
 20
1702.7505470459
 11
400.5086090666
 21
1702.7505470459
  0
LINE
  5
44B
100
AcDbEntity
  8
0
100
AcDbLine
 62
7
  6
CONTINUOUS
 10
386.5086090666
 20
1702.7505470459
 11
375.5086090666
 21
1702.7505470459
  0
LINE
  5
44C
100
AcDbEntity
  8
0
100
AcDbLine
 62
7
  6
CONTINUOUS
 10
361.5086090666
 20
1702.7505470459
 11
350.5086090666
 21
1702.7505470459
  0
LINE
  5
44D
100
AcDbEntity
  8
0
100
AcDbLine
 62
7
  6
CONTINUOUS
 10
336.5086090666
 20
1702.7505470459
 11
325.5086090666
 21
1702.7505470459
  0
LINE
  5
44E
100
AcDbEntity
  8
0
100
AcDbLine
 62
7
  6
CONTINUOUS
 10
2207.0086090666
 20
1706.7505470459
 11
2198.5086090666
 21
1706.7505470459
  0
LINE
  5
44F
100
AcDbEntity
  8
0
100
AcDbLine
 62
7
  6
CONTINUOUS
 10
280.0086090666
 20
1706.7505470459
 11
288.5086090666
 21
1706.7505470459
  0
LINE
  5
450
100
AcDbEntity
  8
0
100
AcDbLine
 62
7
  6
CONTINUOUS
 10
2197.0086090666
 20
1707.3857782199
 11
2198.5086090666
 21
1707.3857782199
  0
LINE
  5
451
100
AcDbEntity
  8
0
100
AcDbLine
 62
7
  6
CONTINUOUS
 10
288.5086090666
 20
1707.3867976576
 11
290.0086090666
 21
1707.3867976576
  0
LINE
  5
452
100
AcDbEntity
  8
0
100
AcDbLine
 62
7
  6
CONTINUOUS
 10
325.5086090666
 20
1714.7505470459
 11
336.5086090666
 21
1714.7505470459
  0
LINE
  5
453
100
AcDbEntity
  8
0
100
AcDbLine
 62
7
  6
CONTINUOUS
 10
350.5086090666
 20
1714.7505470459
 11
361.5086090666
 21
1714.7505470459
  0
LINE
  5
454
100
AcDbEntity
  8
0
100
AcDbLine
 62
7
  6
CONTINUOUS
 10
375.5086090666
 20
1714.7505470459
 11
386.5086090666
 21
1714.7505470459
  0
LINE
  5
455
100
AcDbEntity
  8
0
100
AcDbLine
 62
7
  6
CONTINUOUS
 10
400.5086090666
 20
1714.7505470459
 11
411.5086090666
 21
1714.7505470459
  0
LINE
  5
456
100
AcDbEntity
  8
0
100
AcDbLine
 62
7
  6
CONTINUOUS
 10
425.5086090666
 20
1714.7505470459
 11
436.5086090666
 21
1714.7505470459
  0
LINE
  5
457
100
AcDbEntity
  8
0
100
AcDbLine
 62
7
  6
CONTINUOUS
 10
450.5086090666
 20
1714.7505470459
 11
461.5086090666
 21
1714.7505470459
  0
LINE
  5
458
100
AcDbEntity
  8
0
100
AcDbLine
 62
7
  6
CONTINUOUS
 10
475.5086090666
 20
1714.7505470459
 11
486.5086090666
 21
1714.7505470459
  0
LINE
  5
459
100
AcDbEntity
  8
0
100
AcDbLine
 62
7
  6
CONTINUOUS
 10
500.5086090666
 20
1714.7505470459
 11
511.5086090666
 21
1714.7505470459
  0
LINE
  5
45A
100
AcDbEntity
  8
0
100
AcDbLine
 62
7
  6
CONTINUOUS
 10
525.5086090666
 20
1714.7505470459
 11
536.5086090666
 21
1714.7505470459
  0
LINE
  5
45B
100
AcDbEntity
  8
0
100
AcDbLine
 62
7
  6
CONTINUOUS
 10
550.5086090666
 20
1714.7505470459
 11
561.5086090666
 21
1714.7505470459
  0
LINE
  5
45C
100
AcDbEntity
  8
0
100
AcDbLine
 62
7
  6
CONTINUOUS
 10
575.5086090666
 20
1714.7505470459
 11
586.5086090666
 21
1714.7505470459
  0
LINE
  5
45D
100
AcDbEntity
  8
0
100
AcDbLine
 62
7
  6
CONTINUOUS
 10
600.5086090666
 20
1714.7505470459
 11
611.5086090666
 21
1714.7505470459
  0
LINE
  5
45E
100
AcDbEntity
  8
0
100
AcDbLine
 62
7
  6
CONTINUOUS
 10
625.5086090666
 20
1714.7505470459
 11
636.5086090666
 21
1714.7505470459
  0
LINE
  5
45F
100
AcDbEntity
  8
0
100
AcDbLine
 62
7
  6
CONTINUOUS
 10
650.5086090666
 20
1714.7505470459
 11
661.5086090666
 21
1714.7505470459
  0
LINE
  5
460
100
AcDbEntity
  8
0
100
AcDbLine
 62
7
  6
CONTINUOUS
 10
675.5086090666
 20
1714.7505470459
 11
686.5086090666
 21
1714.7505470459
  0
LINE
  5
461
100
AcDbEntity
  8
0
100
AcDbLine
 62
7
  6
CONTINUOUS
 10
700.5086090666
 20
1714.7505470459
 11
711.5086090666
 21
1714.7505470459
  0
LINE
  5
462
100
AcDbEntity
  8
0
100
AcDbLine
 62
7
  6
CONTINUOUS
 10
725.5086090666
 20
1714.7505470459
 11
736.5086090666
 21
1714.7505470459
  0
LINE
  5
463
100
AcDbEntity
  8
0
100
AcDbLine
 62
7
  6
CONTINUOUS
 10
750.5086090666
 20
1714.7505470459
 11
761.5086090666
 21
1714.7505470459
  0
LINE
  5
464
100
AcDbEntity
  8
0
100
AcDbLine
 62
7
  6
CONTINUOUS
 10
775.5086090666
 20
1714.7505470459
 11
786.5086090666
 21
1714.7505470459
  0
LINE
  5
465
100
AcDbEntity
  8
0
100
AcDbLine
 62
7
  6
CONTINUOUS
 10
800.5086090666
 20
1714.7505470459
 11
811.5086090666
 21
1714.7505470459
  0
LINE
  5
466
100
AcDbEntity
  8
0
100
AcDbLine
 62
7
  6
CONTINUOUS
 10
825.5086090666
 20
1714.7505470459
 11
836.5086090666
 21
1714.7505470459
  0
LINE
  5
467
100
AcDbEntity
  8
0
100
AcDbLine
 62
7
  6
CONTINUOUS
 10
850.5086090666
 20
1714.7505470459
 11
861.5086090666
 21
1714.7505470459
  0
LINE
  5
468
100
AcDbEntity
  8
0
100
AcDbLine
 62
7
  6
CONTINUOUS
 10
875.5086090666
 20
1714.7505470459
 11
886.5086090666
 21
1714.7505470459
  0
LINE
  5
469
100
AcDbEntity
  8
0
100
AcDbLine
 62
7
  6
CONTINUOUS
 10
900.5086090666
 20
1714.7505470459
 11
911.5086090666
 21
1714.7505470459
  0
LINE
  5
46A
100
AcDbEntity
  8
0
100
AcDbLine
 62
7
  6
CONTINUOUS
 10
925.5086090666
 20
1714.7505470459
 11
936.5086090666
 21
1714.7505470459
  0
LINE
  5
46B
100
AcDbEntity
  8
0
100
AcDbLine
 62
7
  6
CONTINUOUS
 10
950.5086090666
 20
1714.7505470459
 11
961.5086090666
 21
1714.7505470459
  0
LINE
  5
46C
100
AcDbEntity
  8
0
100
AcDbLine
 62
7
  6
CONTINUOUS
 10
975.5086090666
 20
1714.7505470459
 11
986.5086090666
 21
1714.7505470459
  0
LINE
  5
46D
100
AcDbEntity
  8
0
100
AcDbLine
 62
7
  6
CONTINUOUS
 10
1000.5086090666
 20
1714.7505470459
 11
1011.5086090666
 21
1714.7505470459
  0
LINE
  5
46E
100
AcDbEntity
  8
0
100
AcDbLine
 62
7
  6
CONTINUOUS
 10
1025.5086090666
 20
1714.7505470459
 11
1036.5086090666
 21
1714.7505470459
  0
LINE
  5
46F
100
AcDbEntity
  8
0
100
AcDbLine
 62
7
  6
CONTINUOUS
 10
1050.5086090666
 20
1714.7505470459
 11
1061.5086090666
 21
1714.7505470459
  0
LINE
  5
470
100
AcDbEntity
  8
0
100
AcDbLine
 62
7
  6
CONTINUOUS
 10
1075.5086090666
 20
1714.7505470459
 11
1086.5086090666
 21
1714.7505470459
  0
LINE
  5
471
100
AcDbEntity
  8
0
100
AcDbLine
 62
7
  6
CONTINUOUS
 10
1100.5086090666
 20
1714.7505470459
 11
1111.5086090666
 21
1714.7505470459
  0
LINE
  5
472
100
AcDbEntity
  8
0
100
AcDbLine
 62
7
  6
CONTINUOUS
 10
1125.5086090666
 20
1714.7505470459
 11
1136.5086090666
 21
1714.7505470459
  0
LINE
  5
473
100
AcDbEntity
  8
0
100
AcDbLine
 62
7
  6
CONTINUOUS
 10
1150.5086090666
 20
1714.7505470459
 11
1161.5086090666
 21
1714.7505470459
  0
LINE
  5
474
100
AcDbEntity
  8
0
100
AcDbLine
 62
7
  6
CONTINUOUS
 10
1175.5086090666
 20
1714.7505470459
 11
1186.5086090666
 21
1714.7505470459
  0
LINE
  5
475
100
AcDbEntity
  8
0
100
AcDbLine
 62
7
  6
CONTINUOUS
 10
1200.5086090666
 20
1714.7505470459
 11
1211.5086090666
 21
1714.7505470459
  0
LINE
  5
476
100
AcDbEntity
  8
0
100
AcDbLine
 62
7
  6
CONTINUOUS
 10
1225.5086090666
 20
1714.7505470459
 11
1236.5086090666
 21
1714.7505470459
  0
LINE
  5
477
100
AcDbEntity
  8
0
100
AcDbLine
 62
7
  6
CONTINUOUS
 10
1250.5086090666
 20
1714.7505470459
 11
1261.5086090666
 21
1714.7505470459
  0
LINE
  5
478
100
AcDbEntity
  8
0
100
AcDbLine
 62
7
  6
CONTINUOUS
 10
1275.5086090666
 20
1714.7505470459
 11
1286.5086090666
 21
1714.7505470459
  0
LINE
  5
479
100
AcDbEntity
  8
0
100
AcDbLine
 62
7
  6
CONTINUOUS
 10
1300.5086090666
 20
1714.7505470459
 11
1311.5086090666
 21
1714.7505470459
  0
LINE
  5
47A
100
AcDbEntity
  8
0
100
AcDbLine
 62
7
  6
CONTINUOUS
 10
1325.5086090666
 20
1714.7505470459
 11
1336.5086090666
 21
1714.7505470459
  0
LINE
  5
47B
100
AcDbEntity
  8
0
100
AcDbLine
 62
7
  6
CONTINUOUS
 10
1350.5086090666
 20
1714.7505470459
 11
1361.5086090666
 21
1714.7505470459
  0
LINE
  5
47C
100
AcDbEntity
  8
0
100
AcDbLine
 62
7
  6
CONTINUOUS
 10
1375.5086090666
 20
1714.7505470459
 11
1386.5086090666
 21
1714.7505470459
  0
LINE
  5
47D
100
AcDbEntity
  8
0
100
AcDbLine
 62
7
  6
CONTINUOUS
 10
1400.5086090666
 20
1714.7505470459
 11
1411.5086090666
 21
1714.7505470459
  0
LINE
  5
47E
100
AcDbEntity
  8
0
100
AcDbLine
 62
7
  6
CONTINUOUS
 10
1425.5086090666
 20
1714.7505470459
 11
1436.5086090666
 21
1714.7505470459
  0
LINE
  5
47F
100
AcDbEntity
  8
0
100
AcDbLine
 62
7
  6
CONTINUOUS
 10
1450.5086090666
 20
1714.7505470459
 11
1461.5086090666
 21
1714.7505470459
  0
LINE
  5
480
100
AcDbEntity
  8
0
100
AcDbLine
 62
7
  6
CONTINUOUS
 10
1475.5086090666
 20
1714.7505470459
 11
1486.5086090666
 21
1714.7505470459
  0
LINE
  5
481
100
AcDbEntity
  8
0
100
AcDbLine
 62
7
  6
CONTINUOUS
 10
1500.5086090666
 20
1714.7505470459
 11
1511.5086090666
 21
1714.7505470459
  0
LINE
  5
482
100
AcDbEntity
  8
0
100
AcDbLine
 62
7
  6
CONTINUOUS
 10
1525.5086090666
 20
1714.7505470459
 11
1536.5086090666
 21
1714.7505470459
  0
LINE
  5
483
100
AcDbEntity
  8
0
100
AcDbLine
 62
7
  6
CONTINUOUS
 10
1550.5086090666
 20
1714.7505470459
 11
1561.5086090666
 21
1714.7505470459
  0
LINE
  5
484
100
AcDbEntity
  8
0
100
AcDbLine
 62
7
  6
CONTINUOUS
 10
1575.5086090666
 20
1714.7505470459
 11
1586.5086090666
 21
1714.7505470459
  0
LINE
  5
485
100
AcDbEntity
  8
0
100
AcDbLine
 62
7
  6
CONTINUOUS
 10
1600.5086090666
 20
1714.7505470459
 11
1611.5086090666
 21
1714.7505470459
  0
LINE
  5
486
100
AcDbEntity
  8
0
100
AcDbLine
 62
7
  6
CONTINUOUS
 10
1625.5086090666
 20
1714.7505470459
 11
1636.5086090666
 21
1714.7505470459
  0
LINE
  5
487
100
AcDbEntity
  8
0
100
AcDbLine
 62
7
  6
CONTINUOUS
 10
1650.5086090666
 20
1714.7505470459
 11
1661.5086090666
 21
1714.7505470459
  0
LINE
  5
488
100
AcDbEntity
  8
0
100
AcDbLine
 62
7
  6
CONTINUOUS
 10
1675.5086090666
 20
1714.7505470459
 11
1686.5086090666
 21
1714.7505470459
  0
LINE
  5
489
100
AcDbEntity
  8
0
100
AcDbLine
 62
7
  6
CONTINUOUS
 10
1700.5086090666
 20
1714.7505470459
 11
1711.5086090666
 21
1714.7505470459
  0
LINE
  5
48A
100
AcDbEntity
  8
0
100
AcDbLine
 62
7
  6
CONTINUOUS
 10
1725.5086090666
 20
1714.7505470459
 11
1736.5086090666
 21
1714.7505470459
  0
LINE
  5
48B
100
AcDbEntity
  8
0
100
AcDbLine
 62
7
  6
CONTINUOUS
 10
1750.5086090666
 20
1714.7505470459
 11
1761.5086090666
 21
1714.7505470459
  0
LINE
  5
48C
100
AcDbEntity
  8
0
100
AcDbLine
 62
7
  6
CONTINUOUS
 10
1775.5086090666
 20
1714.7505470459
 11
1786.5086090666
 21
1714.7505470459
  0
LINE
  5
48D
100
AcDbEntity
  8
0
100
AcDbLine
 62
7
  6
CONTINUOUS
 10
1800.5086090666
 20
1714.7505470459
 11
1811.5086090666
 21
1714.7505470459
  0
LINE
  5
48E
100
AcDbEntity
  8
0
100
AcDbLine
 62
7
  6
CONTINUOUS
 10
1825.5086090666
 20
1714.7505470459
 11
1836.5086090666
 21
1714.7505470459
  0
LINE
  5
48F
100
AcDbEntity
  8
0
100
AcDbLine
 62
7
  6
CONTINUOUS
 10
1850.5086090666
 20
1714.7505470459
 11
1861.5086090666
 21
1714.7505470459
  0
LINE
  5
490
100
AcDbEntity
  8
0
100
AcDbLine
 62
7
  6
CONTINUOUS
 10
1875.5086090666
 20
1714.7505470459
 11
1886.5086090666
 21
1714.7505470459
  0
LINE
  5
491
100
AcDbEntity
  8
0
100
AcDbLine
 62
7
  6
CONTINUOUS
 10
1900.5086090666
 20
1714.7505470459
 11
1911.5086090666
 21
1714.7505470459
  0
LINE
  5
492
100
AcDbEntity
  8
0
100
AcDbLine
 62
7
  6
CONTINUOUS
 10
1925.5086090666
 20
1714.7505470459
 11
1936.5086090666
 21
1714.7505470459
  0
LINE
  5
493
100
AcDbEntity
  8
0
100
AcDbLine
 62
7
  6
CONTINUOUS
 10
1950.5086090666
 20
1714.7505470459
 11
1961.5086090666
 21
1714.7505470459
  0
LINE
  5
494
100
AcDbEntity
  8
0
100
AcDbLine
 62
7
  6
CONTINUOUS
 10
1975.5086090666
 20
1714.7505470459
 11
1986.5086090666
 21
1714.7505470459
  0
LINE
  5
495
100
AcDbEntity
  8
0
100
AcDbLine
 62
7
  6
CONTINUOUS
 10
2000.5086090666
 20
1714.7505470459
 11
2011.5086090666
 21
1714.7505470459
  0
LINE
  5
496
100
AcDbEntity
  8
0
100
AcDbLine
 62
7
  6
CONTINUOUS
 10
2025.5086090666
 20
1714.7505470459
 11
2036.5086090666
 21
1714.7505470459
  0
LINE
  5
497
100
AcDbEntity
  8
0
100
AcDbLine
 62
7
  6
CONTINUOUS
 10
2050.5086090666
 20
1714.7505470459
 11
2061.5086090666
 21
1714.7505470459
  0
LINE
  5
498
100
AcDbEntity
  8
0
100
AcDbLine
 62
7
  6
CONTINUOUS
 10
2075.5086090666
 20
1714.7505470459
 11
2086.5086090666
 21
1714.7505470459
  0
LINE
  5
499
100
AcDbEntity
  8
0
100
AcDbLine
 62
7
  6
CONTINUOUS
 10
2100.5086090666
 20
1714.7505470459
 11
2111.5086090666
 21
1714.7505470459
  0
LINE
  5
49A
100
AcDbEntity
  8
0
100
AcDbLine
 62
7
  6
CONTINUOUS
 10
2125.5086090666
 20
1714.7505470459
 11
2136.5086090666
 21
1714.7505470459
  0
LINE
  5
49B
100
AcDbEntity
  8
0
100
AcDbLine
 62
7
  6
CONTINUOUS
 10
2150.5086090666
 20
1714.7505470459
 11
2161.5086090666
 21
1714.7505470459
  0
LINE
  5
49C
100
AcDbEntity
  8
0
100
AcDbLine
 62
7
  6
CONTINUOUS
 10
295.9368630542
 20
1716.6505470459
 11
303.9935230271
 21
1716.6505470459
  0
LINE
  5
49D
100
AcDbEntity
  8
0
100
AcDbLine
 62
7
  6
CONTINUOUS
 10
2183.0236951061
 20
1716.6505470459
 11
2191.0803550789
 21
1716.6505470459
  0
LINE
  5
49E
100
AcDbEntity
  8
0
100
AcDbLine
 62
7
  6
CONTINUOUS
 10
2198.5086090666
 20
1720.1142964343
 11
2197.0086090666
 21
1720.1142964343
  0
LINE
  5
49F
100
AcDbEntity
  8
0
100
AcDbLine
 62
7
  6
CONTINUOUS
 10
290.0086090666
 20
1720.1153158719
 11
288.5086090666
 21
1720.1153158719
  0
LINE
  5
4A0
100
AcDbEntity
  8
0
100
AcDbLine
 62
7
  6
CONTINUOUS
 10
294.6748241578
 20
1722.7505470459
 11
305.2555619236
 21
1722.7505470459
  0
LINE
  5
4A1
100
AcDbEntity
  8
0
100
AcDbLine
 62
7
  6
CONTINUOUS
 10
2181.7616562096
 20
1722.7505470459
 11
2192.3423939754
 21
1722.7505470459
  0
LINE
  5
4A2
100
AcDbEntity
  8
0
100
AcDbLine
 62
7
  6
CONTINUOUS
 10
2192.5213251543
 20
1726.1647606134
 11
2181.5827249426
 21
1726.1647606108
  0
LINE
  5
4A3
100
AcDbEntity
  8
0
100
AcDbLine
 62
7
  6
CONTINUOUS
 10
305.4344931025
 20
1726.1647606134
 11
294.4958928908
 21
1726.1647606108
  0
LINE
  5
4A4
100
AcDbEntity
  8
0
100
AcDbLine
 62
7
  6
CONTINUOUS
 10
2192.5954411184
 20
1727.5789741705
 11
2181.5086090666
 21
1727.5789741705
  0
LINE
  5
4A5
100
AcDbEntity
  8
0
100
AcDbLine
 62
7
  6
CONTINUOUS
 10
305.5086090666
 20
1727.5789741705
 11
294.4217770145
 21
1727.5789741704
  0
LINE
  5
4A6
100
AcDbEntity
  8
0
100
AcDbLine
 62
7
  6
CONTINUOUS
 10
2161.5086090666
 20
1727.7505470459
 11
2150.5086090666
 21
1727.7505470459
  0
LINE
  5
4A7
100
AcDbEntity
  8
0
100
AcDbLine
 62
7
  6
CONTINUOUS
 10
2136.5086090666
 20
1727.7505470459
 11
2125.5086090666
 21
1727.7505470459
  0
LINE
  5
4A8
100
AcDbEntity
  8
0
100
AcDbLine
 62
7
  6
CONTINUOUS
 10
2111.5086090666
 20
1727.7505470459
 11
2100.5086090666
 21
1727.7505470459
  0
LINE
  5
4A9
100
AcDbEntity
  8
0
100
AcDbLine
 62
7
  6
CONTINUOUS
 10
2086.5086090666
 20
1727.7505470459
 11
2075.5086090666
 21
1727.7505470459
  0
LINE
  5
4AA
100
AcDbEntity
  8
0
100
AcDbLine
 62
7
  6
CONTINUOUS
 10
2061.5086090666
 20
1727.7505470459
 11
2050.5086090666
 21
1727.7505470459
  0
LINE
  5
4AB
100
AcDbEntity
  8
0
100
AcDbLine
 62
7
  6
CONTINUOUS
 10
2036.5086090666
 20
1727.7505470459
 11
2025.5086090666
 21
1727.7505470459
  0
LINE
  5
4AC
100
AcDbEntity
  8
0
100
AcDbLine
 62
7
  6
CONTINUOUS
 10
2011.5086090666
 20
1727.7505470459
 11
2000.5086090666
 21
1727.7505470459
  0
LINE
  5
4AD
100
AcDbEntity
  8
0
100
AcDbLine
 62
7
  6
CONTINUOUS
 10
1986.5086090666
 20
1727.7505470459
 11
1975.5086090666
 21
1727.7505470459
  0
LINE
  5
4AE
100
AcDbEntity
  8
0
100
AcDbLine
 62
7
  6
CONTINUOUS
 10
1961.5086090666
 20
1727.7505470459
 11
1950.5086090666
 21
1727.7505470459
  0
LINE
  5
4AF
100
AcDbEntity
  8
0
100
AcDbLine
 62
7
  6
CONTINUOUS
 10
1936.5086090666
 20
1727.7505470459
 11
1925.5086090666
 21
1727.7505470459
  0
LINE
  5
4B0
100
AcDbEntity
  8
0
100
AcDbLine
 62
7
  6
CONTINUOUS
 10
1911.5086090666
 20
1727.7505470459
 11
1900.5086090666
 21
1727.7505470459
  0
LINE
  5
4B1
100
AcDbEntity
  8
0
100
AcDbLine
 62
7
  6
CONTINUOUS
 10
1886.5086090666
 20
1727.7505470459
 11
1875.5086090666
 21
1727.7505470459
  0
LINE
  5
4B2
100
AcDbEntity
  8
0
100
AcDbLine
 62
7
  6
CONTINUOUS
 10
1861.5086090666
 20
1727.7505470459
 11
1850.5086090666
 21
1727.7505470459
  0
LINE
  5
4B3
100
AcDbEntity
  8
0
100
AcDbLine
 62
7
  6
CONTINUOUS
 10
1836.5086090666
 20
1727.7505470459
 11
1825.5086090666
 21
1727.7505470459
  0
LINE
  5
4B4
100
AcDbEntity
  8
0
100
AcDbLine
 62
7
  6
CONTINUOUS
 10
1811.5086090666
 20
1727.7505470459
 11
1800.5086090666
 21
1727.7505470459
  0
LINE
  5
4B5
100
AcDbEntity
  8
0
100
AcDbLine
 62
7
  6
CONTINUOUS
 10
1786.5086090666
 20
1727.7505470459
 11
1775.5086090666
 21
1727.7505470459
  0
LINE
  5
4B6
100
AcDbEntity
  8
0
100
AcDbLine
 62
7
  6
CONTINUOUS
 10
1761.5086090666
 20
1727.7505470459
 11
1750.5086090666
 21
1727.7505470459
  0
LINE
  5
4B7
100
AcDbEntity
  8
0
100
AcDbLine
 62
7
  6
CONTINUOUS
 10
1736.5086090666
 20
1727.7505470459
 11
1725.5086090666
 21
1727.7505470459
  0
LINE
  5
4B8
100
AcDbEntity
  8
0
100
AcDbLine
 62
7
  6
CONTINUOUS
 10
1711.5086090666
 20
1727.7505470459
 11
1700.5086090666
 21
1727.7505470459
  0
LINE
  5
4B9
100
AcDbEntity
  8
0
100
AcDbLine
 62
7
  6
CONTINUOUS
 10
1686.5086090666
 20
1727.7505470459
 11
1675.5086090666
 21
1727.7505470459
  0
LINE
  5
4BA
100
AcDbEntity
  8
0
100
AcDbLine
 62
7
  6
CONTINUOUS
 10
1661.5086090666
 20
1727.7505470459
 11
1650.5086090666
 21
1727.7505470459
  0
LINE
  5
4BB
100
AcDbEntity
  8
0
100
AcDbLine
 62
7
  6
CONTINUOUS
 10
1636.5086090666
 20
1727.7505470459
 11
1625.5086090666
 21
1727.7505470459
  0
LINE
  5
4BC
100
AcDbEntity
  8
0
100
AcDbLine
 62
7
  6
CONTINUOUS
 10
1611.5086090666
 20
1727.7505470459
 11
1600.5086090666
 21
1727.7505470459
  0
LINE
  5
4BD
100
AcDbEntity
  8
0
100
AcDbLine
 62
7
  6
CONTINUOUS
 10
1586.5086090666
 20
1727.7505470459
 11
1575.5086090666
 21
1727.7505470459
  0
LINE
  5
4BE
100
AcDbEntity
  8
0
100
AcDbLine
 62
7
  6
CONTINUOUS
 10
1561.5086090666
 20
1727.7505470459
 11
1550.5086090666
 21
1727.7505470459
  0
LINE
  5
4BF
100
AcDbEntity
  8
0
100
AcDbLine
 62
7
  6
CONTINUOUS
 10
1536.5086090666
 20
1727.7505470459
 11
1525.5086090666
 21
1727.7505470459
  0
LINE
  5
4C0
100
AcDbEntity
  8
0
100
AcDbLine
 62
7
  6
CONTINUOUS
 10
1511.5086090666
 20
1727.7505470459
 11
1500.5086090666
 21
1727.7505470459
  0
LINE
  5
4C1
100
AcDbEntity
  8
0
100
AcDbLine
 62
7
  6
CONTINUOUS
 10
1486.5086090666
 20
1727.7505470459
 11
1475.5086090666
 21
1727.7505470459
  0
LINE
  5
4C2
100
AcDbEntity
  8
0
100
AcDbLine
 62
7
  6
CONTINUOUS
 10
1461.5086090666
 20
1727.7505470459
 11
1450.5086090666
 21
1727.7505470459
  0
LINE
  5
4C3
100
AcDbEntity
  8
0
100
AcDbLine
 62
7
  6
CONTINUOUS
 10
1436.5086090666
 20
1727.7505470459
 11
1425.5086090666
 21
1727.7505470459
  0
LINE
  5
4C4
100
AcDbEntity
  8
0
100
AcDbLine
 62
7
  6
CONTINUOUS
 10
1411.5086090666
 20
1727.7505470459
 11
1400.5086090666
 21
1727.7505470459
  0
LINE
  5
4C5
100
AcDbEntity
  8
0
100
AcDbLine
 62
7
  6
CONTINUOUS
 10
1386.5086090666
 20
1727.7505470459
 11
1375.5086090666
 21
1727.7505470459
  0
LINE
  5
4C6
100
AcDbEntity
  8
0
100
AcDbLine
 62
7
  6
CONTINUOUS
 10
1361.5086090666
 20
1727.7505470459
 11
1350.5086090666
 21
1727.7505470459
  0
LINE
  5
4C7
100
AcDbEntity
  8
0
100
AcDbLine
 62
7
  6
CONTINUOUS
 10
1336.5086090666
 20
1727.7505470459
 11
1325.5086090666
 21
1727.7505470459
  0
LINE
  5
4C8
100
AcDbEntity
  8
0
100
AcDbLine
 62
7
  6
CONTINUOUS
 10
1311.5086090666
 20
1727.7505470459
 11
1300.5086090666
 21
1727.7505470459
  0
LINE
  5
4C9
100
AcDbEntity
  8
0
100
AcDbLine
 62
7
  6
CONTINUOUS
 10
1286.5086090666
 20
1727.7505470459
 11
1275.5086090666
 21
1727.7505470459
  0
LINE
  5
4CA
100
AcDbEntity
  8
0
100
AcDbLine
 62
7
  6
CONTINUOUS
 10
1261.5086090666
 20
1727.7505470459
 11
1250.5086090666
 21
1727.7505470459
  0
LINE
  5
4CB
100
AcDbEntity
  8
0
100
AcDbLine
 62
7
  6
CONTINUOUS
 10
1236.5086090666
 20
1727.7505470459
 11
1225.5086090666
 21
1727.7505470459
  0
LINE
  5
4CC
100
AcDbEntity
  8
0
100
AcDbLine
 62
7
  6
CONTINUOUS
 10
1211.5086090666
 20
1727.7505470459
 11
1200.5086090666
 21
1727.7505470459
  0
LINE
  5
4CD
100
AcDbEntity
  8
0
100
AcDbLine
 62
7
  6
CONTINUOUS
 10
1186.5086090666
 20
1727.7505470459
 11
1175.5086090666
 21
1727.7505470459
  0
LINE
  5
4CE
100
AcDbEntity
  8
0
100
AcDbLine
 62
7
  6
CONTINUOUS
 10
1161.5086090666
 20
1727.7505470459
 11
1150.5086090666
 21
1727.7505470459
  0
LINE
  5
4CF
100
AcDbEntity
  8
0
100
AcDbLine
 62
7
  6
CONTINUOUS
 10
1136.5086090666
 20
1727.7505470459
 11
1125.5086090666
 21
1727.7505470459
  0
LINE
  5
4D0
100
AcDbEntity
  8
0
100
AcDbLine
 62
7
  6
CONTINUOUS
 10
1111.5086090666
 20
1727.7505470459
 11
1100.5086090666
 21
1727.7505470459
  0
LINE
  5
4D1
100
AcDbEntity
  8
0
100
AcDbLine
 62
7
  6
CONTINUOUS
 10
1086.5086090666
 20
1727.7505470459
 11
1075.5086090666
 21
1727.7505470459
  0
LINE
  5
4D2
100
AcDbEntity
  8
0
100
AcDbLine
 62
7
  6
CONTINUOUS
 10
1061.5086090666
 20
1727.7505470459
 11
1050.5086090666
 21
1727.7505470459
  0
LINE
  5
4D3
100
AcDbEntity
  8
0
100
AcDbLine
 62
7
  6
CONTINUOUS
 10
1036.5086090666
 20
1727.7505470459
 11
1025.5086090666
 21
1727.7505470459
  0
LINE
  5
4D4
100
AcDbEntity
  8
0
100
AcDbLine
 62
7
  6
CONTINUOUS
 10
1011.5086090666
 20
1727.7505470459
 11
1000.5086090666
 21
1727.7505470459
  0
LINE
  5
4D5
100
AcDbEntity
  8
0
100
AcDbLine
 62
7
  6
CONTINUOUS
 10
986.5086090666
 20
1727.7505470459
 11
975.5086090666
 21
1727.7505470459
  0
LINE
  5
4D6
100
AcDbEntity
  8
0
100
AcDbLine
 62
7
  6
CONTINUOUS
 10
961.5086090666
 20
1727.7505470459
 11
950.5086090666
 21
1727.7505470459
  0
LINE
  5
4D7
100
AcDbEntity
  8
0
100
AcDbLine
 62
7
  6
CONTINUOUS
 10
936.5086090666
 20
1727.7505470459
 11
925.5086090666
 21
1727.7505470459
  0
LINE
  5
4D8
100
AcDbEntity
  8
0
100
AcDbLine
 62
7
  6
CONTINUOUS
 10
911.5086090666
 20
1727.7505470459
 11
900.5086090666
 21
1727.7505470459
  0
LINE
  5
4D9
100
AcDbEntity
  8
0
100
AcDbLine
 62
7
  6
CONTINUOUS
 10
886.5086090666
 20
1727.7505470459
 11
875.5086090666
 21
1727.7505470459
  0
LINE
  5
4DA
100
AcDbEntity
  8
0
100
AcDbLine
 62
7
  6
CONTINUOUS
 10
861.5086090666
 20
1727.7505470459
 11
850.5086090666
 21
1727.7505470459
  0
LINE
  5
4DB
100
AcDbEntity
  8
0
100
AcDbLine
 62
7
  6
CONTINUOUS
 10
836.5086090666
 20
1727.7505470459
 11
825.5086090666
 21
1727.7505470459
  0
LINE
  5
4DC
100
AcDbEntity
  8
0
100
AcDbLine
 62
7
  6
CONTINUOUS
 10
811.5086090666
 20
1727.7505470459
 11
800.5086090666
 21
1727.7505470459
  0
LINE
  5
4DD
100
AcDbEntity
  8
0
100
AcDbLine
 62
7
  6
CONTINUOUS
 10
786.5086090666
 20
1727.7505470459
 11
775.5086090666
 21
1727.7505470459
  0
LINE
  5
4DE
100
AcDbEntity
  8
0
100
AcDbLine
 62
7
  6
CONTINUOUS
 10
761.5086090666
 20
1727.7505470459
 11
750.5086090666
 21
1727.7505470459
  0
LINE
  5
4DF
100
AcDbEntity
  8
0
100
AcDbLine
 62
7
  6
CONTINUOUS
 10
736.5086090666
 20
1727.7505470459
 11
725.5086090666
 21
1727.7505470459
  0
LINE
  5
4E0
100
AcDbEntity
  8
0
100
AcDbLine
 62
7
  6
CONTINUOUS
 10
711.5086090666
 20
1727.7505470459
 11
700.5086090666
 21
1727.7505470459
  0
LINE
  5
4E1
100
AcDbEntity
  8
0
100
AcDbLine
 62
7
  6
CONTINUOUS
 10
686.5086090666
 20
1727.7505470459
 11
675.5086090666
 21
1727.7505470459
  0
LINE
  5
4E2
100
AcDbEntity
  8
0
100
AcDbLine
 62
7
  6
CONTINUOUS
 10
661.5086090666
 20
1727.7505470459
 11
650.5086090666
 21
1727.7505470459
  0
LINE
  5
4E3
100
AcDbEntity
  8
0
100
AcDbLine
 62
7
  6
CONTINUOUS
 10
636.5086090666
 20
1727.7505470459
 11
625.5086090666
 21
1727.7505470459
  0
LINE
  5
4E4
100
AcDbEntity
  8
0
100
AcDbLine
 62
7
  6
CONTINUOUS
 10
611.5086090666
 20
1727.7505470459
 11
600.5086090666
 21
1727.7505470459
  0
LINE
  5
4E5
100
AcDbEntity
  8
0
100
AcDbLine
 62
7
  6
CONTINUOUS
 10
586.5086090666
 20
1727.7505470459
 11
575.5086090666
 21
1727.7505470459
  0
LINE
  5
4E6
100
AcDbEntity
  8
0
100
AcDbLine
 62
7
  6
CONTINUOUS
 10
561.5086090666
 20
1727.7505470459
 11
550.5086090666
 21
1727.7505470459
  0
LINE
  5
4E7
100
AcDbEntity
  8
0
100
AcDbLine
 62
7
  6
CONTINUOUS
 10
536.5086090666
 20
1727.7505470459
 11
525.5086090666
 21
1727.7505470459
  0
LINE
  5
4E8
100
AcDbEntity
  8
0
100
AcDbLine
 62
7
  6
CONTINUOUS
 10
511.5086090666
 20
1727.7505470459
 11
500.5086090666
 21
1727.7505470459
  0
LINE
  5
4E9
100
AcDbEntity
  8
0
100
AcDbLine
 62
7
  6
CONTINUOUS
 10
486.5086090666
 20
1727.7505470459
 11
475.5086090666
 21
1727.7505470459
  0
LINE
  5
4EA
100
AcDbEntity
  8
0
100
AcDbLine
 62
7
  6
CONTINUOUS
 10
461.5086090666
 20
1727.7505470459
 11
450.5086090666
 21
1727.7505470459
  0
LINE
  5
4EB
100
AcDbEntity
  8
0
100
AcDbLine
 62
7
  6
CONTINUOUS
 10
436.5086090666
 20
1727.7505470459
 11
425.5086090666
 21
1727.7505470459
  0
LINE
  5
4EC
100
AcDbEntity
  8
0
100
AcDbLine
 62
7
  6
CONTINUOUS
 10
411.5086090666
 20
1727.7505470459
 11
400.5086090666
 21
1727.7505470459
  0
LINE
  5
4ED
100
AcDbEntity
  8
0
100
AcDbLine
 62
7
  6
CONTINUOUS
 10
386.5086090666
 20
1727.7505470459
 11
375.5086090666
 21
1727.7505470459
  0
LINE
  5
4EE
100
AcDbEntity
  8
0
100
AcDbLine
 62
7
  6
CONTINUOUS
 10
361.5086090666
 20
1727.7505470459
 11
350.5086090666
 21
1727.7505470459
  0
LINE
  5
4EF
100
AcDbEntity
  8
0
100
AcDbLine
 62
7
  6
CONTINUOUS
 10
336.5086090666
 20
1727.7505470459
 11
325.5086090666
 21
1727.7505470459
  0
LINE
  5
4F0
100
AcDbEntity
  8
0
100
AcDbLine
 62
7
  6
CONTINUOUS
 10
325.5086090666
 20
1729.7505470459
 11
336.5086090666
 21
1729.7505470459
  0
LINE
  5
4F1
100
AcDbEntity
  8
0
100
AcDbLine
 62
7
  6
CONTINUOUS
 10
350.5086090666
 20
1729.7505470459
 11
361.5086090666
 21
1729.7505470459
  0
LINE
  5
4F2
100
AcDbEntity
  8
0
100
AcDbLine
 62
7
  6
CONTINUOUS
 10
375.5086090666
 20
1729.7505470459
 11
386.5086090666
 21
1729.7505470459
  0
LINE
  5
4F3
100
AcDbEntity
  8
0
100
AcDbLine
 62
7
  6
CONTINUOUS
 10
400.5086090666
 20
1729.7505470459
 11
411.5086090666
 21
1729.7505470459
  0
LINE
  5
4F4
100
AcDbEntity
  8
0
100
AcDbLine
 62
7
  6
CONTINUOUS
 10
425.5086090666
 20
1729.7505470459
 11
436.5086090666
 21
1729.7505470459
  0
LINE
  5
4F5
100
AcDbEntity
  8
0
100
AcDbLine
 62
7
  6
CONTINUOUS
 10
450.5086090666
 20
1729.7505470459
 11
461.5086090666
 21
1729.7505470459
  0
LINE
  5
4F6
100
AcDbEntity
  8
0
100
AcDbLine
 62
7
  6
CONTINUOUS
 10
475.5086090666
 20
1729.7505470459
 11
486.5086090666
 21
1729.7505470459
  0
LINE
  5
4F7
100
AcDbEntity
  8
0
100
AcDbLine
 62
7
  6
CONTINUOUS
 10
500.5086090666
 20
1729.7505470459
 11
511.5086090666
 21
1729.7505470459
  0
LINE
  5
4F8
100
AcDbEntity
  8
0
100
AcDbLine
 62
7
  6
CONTINUOUS
 10
525.5086090666
 20
1729.7505470459
 11
536.5086090666
 21
1729.7505470459
  0
LINE
  5
4F9
100
AcDbEntity
  8
0
100
AcDbLine
 62
7
  6
CONTINUOUS
 10
550.5086090666
 20
1729.7505470459
 11
561.5086090666
 21
1729.7505470459
  0
LINE
  5
4FA
100
AcDbEntity
  8
0
100
AcDbLine
 62
7
  6
CONTINUOUS
 10
575.5086090666
 20
1729.7505470459
 11
586.5086090666
 21
1729.7505470459
  0
LINE
  5
4FB
100
AcDbEntity
  8
0
100
AcDbLine
 62
7
  6
CONTINUOUS
 10
600.5086090666
 20
1729.7505470459
 11
611.5086090666
 21
1729.7505470459
  0
LINE
  5
4FC
100
AcDbEntity
  8
0
100
AcDbLine
 62
7
  6
CONTINUOUS
 10
625.5086090666
 20
1729.7505470459
 11
636.5086090666
 21
1729.7505470459
  0
LINE
  5
4FD
100
AcDbEntity
  8
0
100
AcDbLine
 62
7
  6
CONTINUOUS
 10
650.5086090666
 20
1729.7505470459
 11
661.5086090666
 21
1729.7505470459
  0
LINE
  5
4FE
100
AcDbEntity
  8
0
100
AcDbLine
 62
7
  6
CONTINUOUS
 10
675.5086090666
 20
1729.7505470459
 11
686.5086090666
 21
1729.7505470459
  0
LINE
  5
4FF
100
AcDbEntity
  8
0
100
AcDbLine
 62
7
  6
CONTINUOUS
 10
700.5086090666
 20
1729.7505470459
 11
711.5086090666
 21
1729.7505470459
  0
LINE
  5
500
100
AcDbEntity
  8
0
100
AcDbLine
 62
7
  6
CONTINUOUS
 10
725.5086090666
 20
1729.7505470459
 11
736.5086090666
 21
1729.7505470459
  0
LINE
  5
501
100
AcDbEntity
  8
0
100
AcDbLine
 62
7
  6
CONTINUOUS
 10
750.5086090666
 20
1729.7505470459
 11
761.5086090666
 21
1729.7505470459
  0
LINE
  5
502
100
AcDbEntity
  8
0
100
AcDbLine
 62
7
  6
CONTINUOUS
 10
775.5086090666
 20
1729.7505470459
 11
786.5086090666
 21
1729.7505470459
  0
LINE
  5
503
100
AcDbEntity
  8
0
100
AcDbLine
 62
7
  6
CONTINUOUS
 10
800.5086090666
 20
1729.7505470459
 11
811.5086090666
 21
1729.7505470459
  0
LINE
  5
504
100
AcDbEntity
  8
0
100
AcDbLine
 62
7
  6
CONTINUOUS
 10
825.5086090666
 20
1729.7505470459
 11
836.5086090666
 21
1729.7505470459
  0
LINE
  5
505
100
AcDbEntity
  8
0
100
AcDbLine
 62
7
  6
CONTINUOUS
 10
850.5086090666
 20
1729.7505470459
 11
861.5086090666
 21
1729.7505470459
  0
LINE
  5
506
100
AcDbEntity
  8
0
100
AcDbLine
 62
7
  6
CONTINUOUS
 10
875.5086090666
 20
1729.7505470459
 11
886.5086090666
 21
1729.7505470459
  0
LINE
  5
507
100
AcDbEntity
  8
0
100
AcDbLine
 62
7
  6
CONTINUOUS
 10
900.5086090666
 20
1729.7505470459
 11
911.5086090666
 21
1729.7505470459
  0
LINE
  5
508
100
AcDbEntity
  8
0
100
AcDbLine
 62
7
  6
CONTINUOUS
 10
925.5086090666
 20
1729.7505470459
 11
936.5086090666
 21
1729.7505470459
  0
LINE
  5
509
100
AcDbEntity
  8
0
100
AcDbLine
 62
7
  6
CONTINUOUS
 10
950.5086090666
 20
1729.7505470459
 11
961.5086090666
 21
1729.7505470459
  0
LINE
  5
50A
100
AcDbEntity
  8
0
100
AcDbLine
 62
7
  6
CONTINUOUS
 10
975.5086090666
 20
1729.7505470459
 11
986.5086090666
 21
1729.7505470459
  0
LINE
  5
50B
100
AcDbEntity
  8
0
100
AcDbLine
 62
7
  6
CONTINUOUS
 10
1000.5086090666
 20
1729.7505470459
 11
1011.5086090666
 21
1729.7505470459
  0
LINE
  5
50C
100
AcDbEntity
  8
0
100
AcDbLine
 62
7
  6
CONTINUOUS
 10
1025.5086090666
 20
1729.7505470459
 11
1036.5086090666
 21
1729.7505470459
  0
LINE
  5
50D
100
AcDbEntity
  8
0
100
AcDbLine
 62
7
  6
CONTINUOUS
 10
1050.5086090666
 20
1729.7505470459
 11
1061.5086090666
 21
1729.7505470459
  0
LINE
  5
50E
100
AcDbEntity
  8
0
100
AcDbLine
 62
7
  6
CONTINUOUS
 10
1075.5086090666
 20
1729.7505470459
 11
1086.5086090666
 21
1729.7505470459
  0
LINE
  5
50F
100
AcDbEntity
  8
0
100
AcDbLine
 62
7
  6
CONTINUOUS
 10
1100.5086090666
 20
1729.7505470459
 11
1111.5086090666
 21
1729.7505470459
  0
LINE
  5
510
100
AcDbEntity
  8
0
100
AcDbLine
 62
7
  6
CONTINUOUS
 10
1125.5086090666
 20
1729.7505470459
 11
1136.5086090666
 21
1729.7505470459
  0
LINE
  5
511
100
AcDbEntity
  8
0
100
AcDbLine
 62
7
  6
CONTINUOUS
 10
1150.5086090666
 20
1729.7505470459
 11
1161.5086090666
 21
1729.7505470459
  0
LINE
  5
512
100
AcDbEntity
  8
0
100
AcDbLine
 62
7
  6
CONTINUOUS
 10
1175.5086090666
 20
1729.7505470459
 11
1186.5086090666
 21
1729.7505470459
  0
LINE
  5
513
100
AcDbEntity
  8
0
100
AcDbLine
 62
7
  6
CONTINUOUS
 10
1200.5086090666
 20
1729.7505470459
 11
1211.5086090666
 21
1729.7505470459
  0
LINE
  5
514
100
AcDbEntity
  8
0
100
AcDbLine
 62
7
  6
CONTINUOUS
 10
1225.5086090666
 20
1729.7505470459
 11
1236.5086090666
 21
1729.7505470459
  0
LINE
  5
515
100
AcDbEntity
  8
0
100
AcDbLine
 62
7
  6
CONTINUOUS
 10
1250.5086090666
 20
1729.7505470459
 11
1261.5086090666
 21
1729.7505470459
  0
LINE
  5
516
100
AcDbEntity
  8
0
100
AcDbLine
 62
7
  6
CONTINUOUS
 10
1275.5086090666
 20
1729.7505470459
 11
1286.5086090666
 21
1729.7505470459
  0
LINE
  5
517
100
AcDbEntity
  8
0
100
AcDbLine
 62
7
  6
CONTINUOUS
 10
1300.5086090666
 20
1729.7505470459
 11
1311.5086090666
 21
1729.7505470459
  0
LINE
  5
518
100
AcDbEntity
  8
0
100
AcDbLine
 62
7
  6
CONTINUOUS
 10
1325.5086090666
 20
1729.7505470459
 11
1336.5086090666
 21
1729.7505470459
  0
LINE
  5
519
100
AcDbEntity
  8
0
100
AcDbLine
 62
7
  6
CONTINUOUS
 10
1350.5086090666
 20
1729.7505470459
 11
1361.5086090666
 21
1729.7505470459
  0
LINE
  5
51A
100
AcDbEntity
  8
0
100
AcDbLine
 62
7
  6
CONTINUOUS
 10
1375.5086090666
 20
1729.7505470459
 11
1386.5086090666
 21
1729.7505470459
  0
LINE
  5
51B
100
AcDbEntity
  8
0
100
AcDbLine
 62
7
  6
CONTINUOUS
 10
1400.5086090666
 20
1729.7505470459
 11
1411.5086090666
 21
1729.7505470459
  0
LINE
  5
51C
100
AcDbEntity
  8
0
100
AcDbLine
 62
7
  6
CONTINUOUS
 10
1425.5086090666
 20
1729.7505470459
 11
1436.5086090666
 21
1729.7505470459
  0
LINE
  5
51D
100
AcDbEntity
  8
0
100
AcDbLine
 62
7
  6
CONTINUOUS
 10
1450.5086090666
 20
1729.7505470459
 11
1461.5086090666
 21
1729.7505470459
  0
LINE
  5
51E
100
AcDbEntity
  8
0
100
AcDbLine
 62
7
  6
CONTINUOUS
 10
1475.5086090666
 20
1729.7505470459
 11
1486.5086090666
 21
1729.7505470459
  0
LINE
  5
51F
100
AcDbEntity
  8
0
100
AcDbLine
 62
7
  6
CONTINUOUS
 10
1500.5086090666
 20
1729.7505470459
 11
1511.5086090666
 21
1729.7505470459
  0
LINE
  5
520
100
AcDbEntity
  8
0
100
AcDbLine
 62
7
  6
CONTINUOUS
 10
1525.5086090666
 20
1729.7505470459
 11
1536.5086090666
 21
1729.7505470459
  0
LINE
  5
521
100
AcDbEntity
  8
0
100
AcDbLine
 62
7
  6
CONTINUOUS
 10
1550.5086090666
 20
1729.7505470459
 11
1561.5086090666
 21
1729.7505470459
  0
LINE
  5
522
100
AcDbEntity
  8
0
100
AcDbLine
 62
7
  6
CONTINUOUS
 10
1575.5086090666
 20
1729.7505470459
 11
1586.5086090666
 21
1729.7505470459
  0
LINE
  5
523
100
AcDbEntity
  8
0
100
AcDbLine
 62
7
  6
CONTINUOUS
 10
1600.5086090666
 20
1729.7505470459
 11
1611.5086090666
 21
1729.7505470459
  0
LINE
  5
524
100
AcDbEntity
  8
0
100
AcDbLine
 62
7
  6
CONTINUOUS
 10
1625.5086090666
 20
1729.7505470459
 11
1636.5086090666
 21
1729.7505470459
  0
LINE
  5
525
100
AcDbEntity
  8
0
100
AcDbLine
 62
7
  6
CONTINUOUS
 10
1650.5086090666
 20
1729.7505470459
 11
1661.5086090666
 21
1729.7505470459
  0
LINE
  5
526
100
AcDbEntity
  8
0
100
AcDbLine
 62
7
  6
CONTINUOUS
 10
1675.5086090666
 20
1729.7505470459
 11
1686.5086090666
 21
1729.7505470459
  0
LINE
  5
527
100
AcDbEntity
  8
0
100
AcDbLine
 62
7
  6
CONTINUOUS
 10
1700.5086090666
 20
1729.7505470459
 11
1711.5086090666
 21
1729.7505470459
  0
LINE
  5
528
100
AcDbEntity
  8
0
100
AcDbLine
 62
7
  6
CONTINUOUS
 10
1725.5086090666
 20
1729.7505470459
 11
1736.5086090666
 21
1729.7505470459
  0
LINE
  5
529
100
AcDbEntity
  8
0
100
AcDbLine
 62
7
  6
CONTINUOUS
 10
1750.5086090666
 20
1729.7505470459
 11
1761.5086090666
 21
1729.7505470459
  0
LINE
  5
52A
100
AcDbEntity
  8
0
100
AcDbLine
 62
7
  6
CONTINUOUS
 10
1775.5086090666
 20
1729.7505470459
 11
1786.5086090666
 21
1729.7505470459
  0
LINE
  5
52B
100
AcDbEntity
  8
0
100
AcDbLine
 62
7
  6
CONTINUOUS
 10
1800.5086090666
 20
1729.7505470459
 11
1811.5086090666
 21
1729.7505470459
  0
LINE
  5
52C
100
AcDbEntity
  8
0
100
AcDbLine
 62
7
  6
CONTINUOUS
 10
1825.5086090666
 20
1729.7505470459
 11
1836.5086090666
 21
1729.7505470459
  0
LINE
  5
52D
100
AcDbEntity
  8
0
100
AcDbLine
 62
7
  6
CONTINUOUS
 10
1850.5086090666
 20
1729.7505470459
 11
1861.5086090666
 21
1729.7505470459
  0
LINE
  5
52E
100
AcDbEntity
  8
0
100
AcDbLine
 62
7
  6
CONTINUOUS
 10
1875.5086090666
 20
1729.7505470459
 11
1886.5086090666
 21
1729.7505470459
  0
LINE
  5
52F
100
AcDbEntity
  8
0
100
AcDbLine
 62
7
  6
CONTINUOUS
 10
1900.5086090666
 20
1729.7505470459
 11
1911.5086090666
 21
1729.7505470459
  0
LINE
  5
530
100
AcDbEntity
  8
0
100
AcDbLine
 62
7
  6
CONTINUOUS
 10
1925.5086090666
 20
1729.7505470459
 11
1936.5086090666
 21
1729.7505470459
  0
LINE
  5
531
100
AcDbEntity
  8
0
100
AcDbLine
 62
7
  6
CONTINUOUS
 10
1950.5086090666
 20
1729.7505470459
 11
1961.5086090666
 21
1729.7505470459
  0
LINE
  5
532
100
AcDbEntity
  8
0
100
AcDbLine
 62
7
  6
CONTINUOUS
 10
1975.5086090666
 20
1729.7505470459
 11
1986.5086090666
 21
1729.7505470459
  0
LINE
  5
533
100
AcDbEntity
  8
0
100
AcDbLine
 62
7
  6
CONTINUOUS
 10
2000.5086090666
 20
1729.7505470459
 11
2011.5086090666
 21
1729.7505470459
  0
LINE
  5
534
100
AcDbEntity
  8
0
100
AcDbLine
 62
7
  6
CONTINUOUS
 10
2025.5086090666
 20
1729.7505470459
 11
2036.5086090666
 21
1729.7505470459
  0
LINE
  5
535
100
AcDbEntity
  8
0
100
AcDbLine
 62
7
  6
CONTINUOUS
 10
2050.5086090666
 20
1729.7505470459
 11
2061.5086090666
 21
1729.7505470459
  0
LINE
  5
536
100
AcDbEntity
  8
0
100
AcDbLine
 62
7
  6
CONTINUOUS
 10
2075.5086090666
 20
1729.7505470459
 11
2086.5086090666
 21
1729.7505470459
  0
LINE
  5
537
100
AcDbEntity
  8
0
100
AcDbLine
 62
7
  6
CONTINUOUS
 10
2100.5086090666
 20
1729.7505470459
 11
2111.5086090666
 21
1729.7505470459
  0
LINE
  5
538
100
AcDbEntity
  8
0
100
AcDbLine
 62
7
  6
CONTINUOUS
 10
2125.5086090666
 20
1729.7505470459
 11
2136.5086090666
 21
1729.7505470459
  0
LINE
  5
539
100
AcDbEntity
  8
0
100
AcDbLine
 62
7
  6
CONTINUOUS
 10
2150.5086090666
 20
1729.7505470459
 11
2161.5086090666
 21
1729.7505470459
  0
LINE
  5
53A
100
AcDbEntity
  8
0
100
AcDbLine
 62
7
  6
CONTINUOUS
 10
2197.0086090666
 20
1737.38577822
 11
2198.5086090666
 21
1737.38577822
  0
LINE
  5
53B
100
AcDbEntity
  8
0
100
AcDbLine
 62
7
  6
CONTINUOUS
 10
288.5086090666
 20
1737.3867976576
 11
290.0086090666
 21
1737.3867976576
  0
LINE
  5
53C
100
AcDbEntity
  8
0
100
AcDbLine
 62
7
  6
CONTINUOUS
 10
1261.5086090666
 20
1689.7505470459
 11
1261.5086090666
 21
1702.7505470459
  0
LINE
  5
53D
100
AcDbEntity
  8
0
100
AcDbLine
 62
7
  6
CONTINUOUS
 10
1261.5086090666
 20
1714.7505470459
 11
1261.5086090666
 21
1727.7505470459
  0
LINE
  5
53E
100
AcDbEntity
  8
0
100
AcDbLine
 62
7
  6
CONTINUOUS
 10
1261.5086090666
 20
1729.7505470459
 11
1261.5086090666
 21
1742.7505470459
  0
LINE
  5
53F
100
AcDbEntity
  8
0
100
AcDbLine
 62
7
  6
CONTINUOUS
 10
1261.5086090666
 20
1754.7505470459
 11
1261.5086090666
 21
1767.7505470459
  0
LINE
  5
540
100
AcDbEntity
  8
0
100
AcDbLine
 62
7
  6
CONTINUOUS
 10
1275.5086090666
 20
1767.7505470459
 11
1275.5086090666
 21
1754.7505470459
  0
LINE
  5
541
100
AcDbEntity
  8
0
100
AcDbLine
 62
7
  6
CONTINUOUS
 10
1275.5086090666
 20
1742.7505470459
 11
1275.5086090666
 21
1729.7505470459
  0
LINE
  5
542
100
AcDbEntity
  8
0
100
AcDbLine
 62
7
  6
CONTINUOUS
 10
1275.5086090666
 20
1727.7505470459
 11
1275.5086090666
 21
1714.7505470459
  0
LINE
  5
543
100
AcDbEntity
  8
0
100
AcDbLine
 62
7
  6
CONTINUOUS
 10
1275.5086090666
 20
1702.7505470459
 11
1275.5086090666
 21
1689.7505470459
  0
LINE
  5
544
100
AcDbEntity
  8
0
100
AcDbLine
 62
7
  6
CONTINUOUS
 10
1286.5086090666
 20
1689.7505470459
 11
1286.5086090666
 21
1702.7505470459
  0
LINE
  5
545
100
AcDbEntity
  8
0
100
AcDbLine
 62
7
  6
CONTINUOUS
 10
1286.5086090666
 20
1714.7505470459
 11
1286.5086090666
 21
1727.7505470459
  0
LINE
  5
546
100
AcDbEntity
  8
0
100
AcDbLine
 62
7
  6
CONTINUOUS
 10
1286.5086090666
 20
1729.7505470459
 11
1286.5086090666
 21
1742.7505470459
  0
LINE
  5
547
100
AcDbEntity
  8
0
100
AcDbLine
 62
7
  6
CONTINUOUS
 10
1286.5086090666
 20
1754.7505470459
 11
1286.5086090666
 21
1767.7505470459
  0
LINE
  5
548
100
AcDbEntity
  8
0
100
AcDbLine
 62
7
  6
CONTINUOUS
 10
1300.5086090666
 20
1767.7505470459
 11
1300.5086090666
 21
1754.7505470459
  0
LINE
  5
549
100
AcDbEntity
  8
0
100
AcDbLine
 62
7
  6
CONTINUOUS
 10
1300.5086090666
 20
1742.7505470459
 11
1300.5086090666
 21
1729.7505470459
  0
LINE
  5
54A
100
AcDbEntity
  8
0
100
AcDbLine
 62
7
  6
CONTINUOUS
 10
1300.5086090666
 20
1727.7505470459
 11
1300.5086090666
 21
1714.7505470459
  0
LINE
  5
54B
100
AcDbEntity
  8
0
100
AcDbLine
 62
7
  6
CONTINUOUS
 10
1300.5086090666
 20
1702.7505470459
 11
1300.5086090666
 21
1689.7505470459
  0
LINE
  5
54C
100
AcDbEntity
  8
0
100
AcDbLine
 62
7
  6
CONTINUOUS
 10
1311.5086090666
 20
1689.7505470459
 11
1311.5086090666
 21
1702.7505470459
  0
LINE
  5
54D
100
AcDbEntity
  8
0
100
AcDbLine
 62
7
  6
CONTINUOUS
 10
1311.5086090666
 20
1714.7505470459
 11
1311.5086090666
 21
1727.7505470459
  0
LINE
  5
54E
100
AcDbEntity
  8
0
100
AcDbLine
 62
7
  6
CONTINUOUS
 10
1311.5086090666
 20
1729.7505470459
 11
1311.5086090666
 21
1742.7505470459
  0
LINE
  5
54F
100
AcDbEntity
  8
0
100
AcDbLine
 62
7
  6
CONTINUOUS
 10
1311.5086090666
 20
1754.7505470459
 11
1311.5086090666
 21
1767.7505470459
  0
LINE
  5
550
100
AcDbEntity
  8
0
100
AcDbLine
 62
7
  6
CONTINUOUS
 10
2161.5086090666
 20
1742.7505470459
 11
2150.5086090666
 21
1742.7505470459
  0
LINE
  5
551
100
AcDbEntity
  8
0
100
AcDbLine
 62
7
  6
CONTINUOUS
 10
2136.5086090666
 20
1742.7505470459
 11
2125.5086090666
 21
1742.7505470459
  0
LINE
  5
552
100
AcDbEntity
  8
0
100
AcDbLine
 62
7
  6
CONTINUOUS
 10
2111.5086090666
 20
1742.7505470459
 11
2100.5086090666
 21
1742.7505470459
  0
LINE
  5
553
100
AcDbEntity
  8
0
100
AcDbLine
 62
7
  6
CONTINUOUS
 10
2086.5086090666
 20
1742.7505470459
 11
2075.5086090666
 21
1742.7505470459
  0
LINE
  5
554
100
AcDbEntity
  8
0
100
AcDbLine
 62
7
  6
CONTINUOUS
 10
2061.5086090666
 20
1742.7505470459
 11
2050.5086090666
 21
1742.7505470459
  0
LINE
  5
555
100
AcDbEntity
  8
0
100
AcDbLine
 62
7
  6
CONTINUOUS
 10
2036.5086090666
 20
1742.7505470459
 11
2025.5086090666
 21
1742.7505470459
  0
LINE
  5
556
100
AcDbEntity
  8
0
100
AcDbLine
 62
7
  6
CONTINUOUS
 10
2011.5086090666
 20
1742.7505470459
 11
2000.5086090666
 21
1742.7505470459
  0
LINE
  5
557
100
AcDbEntity
  8
0
100
AcDbLine
 62
7
  6
CONTINUOUS
 10
1986.5086090666
 20
1742.7505470459
 11
1975.5086090666
 21
1742.7505470459
  0
LINE
  5
558
100
AcDbEntity
  8
0
100
AcDbLine
 62
7
  6
CONTINUOUS
 10
1961.5086090666
 20
1742.7505470459
 11
1950.5086090666
 21
1742.7505470459
  0
LINE
  5
559
100
AcDbEntity
  8
0
100
AcDbLine
 62
7
  6
CONTINUOUS
 10
1936.5086090666
 20
1742.7505470459
 11
1925.5086090666
 21
1742.7505470459
  0
LINE
  5
55A
100
AcDbEntity
  8
0
100
AcDbLine
 62
7
  6
CONTINUOUS
 10
1911.5086090666
 20
1742.7505470459
 11
1900.5086090666
 21
1742.7505470459
  0
LINE
  5
55B
100
AcDbEntity
  8
0
100
AcDbLine
 62
7
  6
CONTINUOUS
 10
1886.5086090666
 20
1742.7505470459
 11
1875.5086090666
 21
1742.7505470459
  0
LINE
  5
55C
100
AcDbEntity
  8
0
100
AcDbLine
 62
7
  6
CONTINUOUS
 10
1861.5086090666
 20
1742.7505470459
 11
1850.5086090666
 21
1742.7505470459
  0
LINE
  5
55D
100
AcDbEntity
  8
0
100
AcDbLine
 62
7
  6
CONTINUOUS
 10
1836.5086090666
 20
1742.7505470459
 11
1825.5086090666
 21
1742.7505470459
  0
LINE
  5
55E
100
AcDbEntity
  8
0
100
AcDbLine
 62
7
  6
CONTINUOUS
 10
1811.5086090666
 20
1742.7505470459
 11
1800.5086090666
 21
1742.7505470459
  0
LINE
  5
55F
100
AcDbEntity
  8
0
100
AcDbLine
 62
7
  6
CONTINUOUS
 10
1786.5086090666
 20
1742.7505470459
 11
1775.5086090666
 21
1742.7505470459
  0
LINE
  5
560
100
AcDbEntity
  8
0
100
AcDbLine
 62
7
  6
CONTINUOUS
 10
1761.5086090666
 20
1742.7505470459
 11
1750.5086090666
 21
1742.7505470459
  0
LINE
  5
561
100
AcDbEntity
  8
0
100
AcDbLine
 62
7
  6
CONTINUOUS
 10
1736.5086090666
 20
1742.7505470459
 11
1725.5086090666
 21
1742.7505470459
  0
LINE
  5
562
100
AcDbEntity
  8
0
100
AcDbLine
 62
7
  6
CONTINUOUS
 10
1711.5086090666
 20
1742.7505470459
 11
1700.5086090666
 21
1742.7505470459
  0
LINE
  5
563
100
AcDbEntity
  8
0
100
AcDbLine
 62
7
  6
CONTINUOUS
 10
1686.5086090666
 20
1742.7505470459
 11
1675.5086090666
 21
1742.7505470459
  0
LINE
  5
564
100
AcDbEntity
  8
0
100
AcDbLine
 62
7
  6
CONTINUOUS
 10
1661.5086090666
 20
1742.7505470459
 11
1650.5086090666
 21
1742.7505470459
  0
LINE
  5
565
100
AcDbEntity
  8
0
100
AcDbLine
 62
7
  6
CONTINUOUS
 10
1636.5086090666
 20
1742.7505470459
 11
1625.5086090666
 21
1742.7505470459
  0
LINE
  5
566
100
AcDbEntity
  8
0
100
AcDbLine
 62
7
  6
CONTINUOUS
 10
1611.5086090666
 20
1742.7505470459
 11
1600.5086090666
 21
1742.7505470459
  0
LINE
  5
567
100
AcDbEntity
  8
0
100
AcDbLine
 62
7
  6
CONTINUOUS
 10
1586.5086090666
 20
1742.7505470459
 11
1575.5086090666
 21
1742.7505470459
  0
LINE
  5
568
100
AcDbEntity
  8
0
100
AcDbLine
 62
7
  6
CONTINUOUS
 10
1561.5086090666
 20
1742.7505470459
 11
1550.5086090666
 21
1742.7505470459
  0
LINE
  5
569
100
AcDbEntity
  8
0
100
AcDbLine
 62
7
  6
CONTINUOUS
 10
1536.5086090666
 20
1742.7505470459
 11
1525.5086090666
 21
1742.7505470459
  0
LINE
  5
56A
100
AcDbEntity
  8
0
100
AcDbLine
 62
7
  6
CONTINUOUS
 10
1511.5086090666
 20
1742.7505470459
 11
1500.5086090666
 21
1742.7505470459
  0
LINE
  5
56B
100
AcDbEntity
  8
0
100
AcDbLine
 62
7
  6
CONTINUOUS
 10
1486.5086090666
 20
1742.7505470459
 11
1475.5086090666
 21
1742.7505470459
  0
LINE
  5
56C
100
AcDbEntity
  8
0
100
AcDbLine
 62
7
  6
CONTINUOUS
 10
1461.5086090666
 20
1742.7505470459
 11
1450.5086090666
 21
1742.7505470459
  0
LINE
  5
56D
100
AcDbEntity
  8
0
100
AcDbLine
 62
7
  6
CONTINUOUS
 10
1436.5086090666
 20
1742.7505470459
 11
1425.5086090666
 21
1742.7505470459
  0
LINE
  5
56E
100
AcDbEntity
  8
0
100
AcDbLine
 62
7
  6
CONTINUOUS
 10
1411.5086090666
 20
1742.7505470459
 11
1400.5086090666
 21
1742.7505470459
  0
LINE
  5
56F
100
AcDbEntity
  8
0
100
AcDbLine
 62
7
  6
CONTINUOUS
 10
1386.5086090666
 20
1742.7505470459
 11
1375.5086090666
 21
1742.7505470459
  0
LINE
  5
570
100
AcDbEntity
  8
0
100
AcDbLine
 62
7
  6
CONTINUOUS
 10
1361.5086090666
 20
1742.7505470459
 11
1350.5086090666
 21
1742.7505470459
  0
LINE
  5
571
100
AcDbEntity
  8
0
100
AcDbLine
 62
7
  6
CONTINUOUS
 10
1336.5086090666
 20
1742.7505470459
 11
1325.5086090666
 21
1742.7505470459
  0
LINE
  5
572
100
AcDbEntity
  8
0
100
AcDbLine
 62
7
  6
CONTINUOUS
 10
1311.5086090666
 20
1742.7505470459
 11
1300.5086090666
 21
1742.7505470459
  0
LINE
  5
573
100
AcDbEntity
  8
0
100
AcDbLine
 62
7
  6
CONTINUOUS
 10
1286.5086090666
 20
1742.7505470459
 11
1275.5086090666
 21
1742.7505470459
  0
LINE
  5
574
100
AcDbEntity
  8
0
100
AcDbLine
 62
7
  6
CONTINUOUS
 10
1261.5086090666
 20
1742.7505470459
 11
1250.5086090666
 21
1742.7505470459
  0
LINE
  5
575
100
AcDbEntity
  8
0
100
AcDbLine
 62
7
  6
CONTINUOUS
 10
1236.5086090666
 20
1742.7505470459
 11
1225.5086090666
 21
1742.7505470459
  0
LINE
  5
576
100
AcDbEntity
  8
0
100
AcDbLine
 62
7
  6
CONTINUOUS
 10
1211.5086090666
 20
1742.7505470459
 11
1200.5086090666
 21
1742.7505470459
  0
LINE
  5
577
100
AcDbEntity
  8
0
100
AcDbLine
 62
7
  6
CONTINUOUS
 10
1186.5086090666
 20
1742.7505470459
 11
1175.5086090666
 21
1742.7505470459
  0
LINE
  5
578
100
AcDbEntity
  8
0
100
AcDbLine
 62
7
  6
CONTINUOUS
 10
1161.5086090666
 20
1742.7505470459
 11
1150.5086090666
 21
1742.7505470459
  0
LINE
  5
579
100
AcDbEntity
  8
0
100
AcDbLine
 62
7
  6
CONTINUOUS
 10
1136.5086090666
 20
1742.7505470459
 11
1125.5086090666
 21
1742.7505470459
  0
LINE
  5
57A
100
AcDbEntity
  8
0
100
AcDbLine
 62
7
  6
CONTINUOUS
 10
1111.5086090666
 20
1742.7505470459
 11
1100.5086090666
 21
1742.7505470459
  0
LINE
  5
57B
100
AcDbEntity
  8
0
100
AcDbLine
 62
7
  6
CONTINUOUS
 10
1086.5086090666
 20
1742.7505470459
 11
1075.5086090666
 21
1742.7505470459
  0
LINE
  5
57C
100
AcDbEntity
  8
0
100
AcDbLine
 62
7
  6
CONTINUOUS
 10
1061.5086090666
 20
1742.7505470459
 11
1050.5086090666
 21
1742.7505470459
  0
LINE
  5
57D
100
AcDbEntity
  8
0
100
AcDbLine
 62
7
  6
CONTINUOUS
 10
1036.5086090666
 20
1742.7505470459
 11
1025.5086090666
 21
1742.7505470459
  0
LINE
  5
57E
100
AcDbEntity
  8
0
100
AcDbLine
 62
7
  6
CONTINUOUS
 10
1011.5086090666
 20
1742.7505470459
 11
1000.5086090666
 21
1742.7505470459
  0
LINE
  5
57F
100
AcDbEntity
  8
0
100
AcDbLine
 62
7
  6
CONTINUOUS
 10
986.5086090666
 20
1742.7505470459
 11
975.5086090666
 21
1742.7505470459
  0
LINE
  5
580
100
AcDbEntity
  8
0
100
AcDbLine
 62
7
  6
CONTINUOUS
 10
961.5086090666
 20
1742.7505470459
 11
950.5086090666
 21
1742.7505470459
  0
LINE
  5
581
100
AcDbEntity
  8
0
100
AcDbLine
 62
7
  6
CONTINUOUS
 10
936.5086090666
 20
1742.7505470459
 11
925.5086090666
 21
1742.7505470459
  0
LINE
  5
582
100
AcDbEntity
  8
0
100
AcDbLine
 62
7
  6
CONTINUOUS
 10
911.5086090666
 20
1742.7505470459
 11
900.5086090666
 21
1742.7505470459
  0
LINE
  5
583
100
AcDbEntity
  8
0
100
AcDbLine
 62
7
  6
CONTINUOUS
 10
886.5086090666
 20
1742.7505470459
 11
875.5086090666
 21
1742.7505470459
  0
LINE
  5
584
100
AcDbEntity
  8
0
100
AcDbLine
 62
7
  6
CONTINUOUS
 10
861.5086090666
 20
1742.7505470459
 11
850.5086090666
 21
1742.7505470459
  0
LINE
  5
585
100
AcDbEntity
  8
0
100
AcDbLine
 62
7
  6
CONTINUOUS
 10
836.5086090666
 20
1742.7505470459
 11
825.5086090666
 21
1742.7505470459
  0
LINE
  5
586
100
AcDbEntity
  8
0
100
AcDbLine
 62
7
  6
CONTINUOUS
 10
811.5086090666
 20
1742.7505470459
 11
800.5086090666
 21
1742.7505470459
  0
LINE
  5
587
100
AcDbEntity
  8
0
100
AcDbLine
 62
7
  6
CONTINUOUS
 10
786.5086090666
 20
1742.7505470459
 11
775.5086090666
 21
1742.7505470459
  0
LINE
  5
588
100
AcDbEntity
  8
0
100
AcDbLine
 62
7
  6
CONTINUOUS
 10
761.5086090666
 20
1742.7505470459
 11
750.5086090666
 21
1742.7505470459
  0
LINE
  5
589
100
AcDbEntity
  8
0
100
AcDbLine
 62
7
  6
CONTINUOUS
 10
736.5086090666
 20
1742.7505470459
 11
725.5086090666
 21
1742.7505470459
  0
LINE
  5
58A
100
AcDbEntity
  8
0
100
AcDbLine
 62
7
  6
CONTINUOUS
 10
711.5086090666
 20
1742.7505470459
 11
700.5086090666
 21
1742.7505470459
  0
LINE
  5
58B
100
AcDbEntity
  8
0
100
AcDbLine
 62
7
  6
CONTINUOUS
 10
686.5086090666
 20
1742.7505470459
 11
675.5086090666
 21
1742.7505470459
  0
LINE
  5
58C
100
AcDbEntity
  8
0
100
AcDbLine
 62
7
  6
CONTINUOUS
 10
661.5086090666
 20
1742.7505470459
 11
650.5086090666
 21
1742.7505470459
  0
LINE
  5
58D
100
AcDbEntity
  8
0
100
AcDbLine
 62
7
  6
CONTINUOUS
 10
636.5086090666
 20
1742.7505470459
 11
625.5086090666
 21
1742.7505470459
  0
LINE
  5
58E
100
AcDbEntity
  8
0
100
AcDbLine
 62
7
  6
CONTINUOUS
 10
611.5086090666
 20
1742.7505470459
 11
600.5086090666
 21
1742.7505470459
  0
LINE
  5
58F
100
AcDbEntity
  8
0
100
AcDbLine
 62
7
  6
CONTINUOUS
 10
586.5086090666
 20
1742.7505470459
 11
575.5086090666
 21
1742.7505470459
  0
LINE
  5
590
100
AcDbEntity
  8
0
100
AcDbLine
 62
7
  6
CONTINUOUS
 10
561.5086090666
 20
1742.7505470459
 11
550.5086090666
 21
1742.7505470459
  0
LINE
  5
591
100
AcDbEntity
  8
0
100
AcDbLine
 62
7
  6
CONTINUOUS
 10
536.5086090666
 20
1742.7505470459
 11
525.5086090666
 21
1742.7505470459
  0
LINE
  5
592
100
AcDbEntity
  8
0
100
AcDbLine
 62
7
  6
CONTINUOUS
 10
511.5086090666
 20
1742.7505470459
 11
500.5086090666
 21
1742.7505470459
  0
LINE
  5
593
100
AcDbEntity
  8
0
100
AcDbLine
 62
7
  6
CONTINUOUS
 10
486.5086090666
 20
1742.7505470459
 11
475.5086090666
 21
1742.7505470459
  0
LINE
  5
594
100
AcDbEntity
  8
0
100
AcDbLine
 62
7
  6
CONTINUOUS
 10
461.5086090666
 20
1742.7505470459
 11
450.5086090666
 21
1742.7505470459
  0
LINE
  5
595
100
AcDbEntity
  8
0
100
AcDbLine
 62
7
  6
CONTINUOUS
 10
436.5086090666
 20
1742.7505470459
 11
425.5086090666
 21
1742.7505470459
  0
LINE
  5
596
100
AcDbEntity
  8
0
100
AcDbLine
 62
7
  6
CONTINUOUS
 10
411.5086090666
 20
1742.7505470459
 11
400.5086090666
 21
1742.7505470459
  0
LINE
  5
597
100
AcDbEntity
  8
0
100
AcDbLine
 62
7
  6
CONTINUOUS
 10
386.5086090666
 20
1742.7505470459
 11
375.5086090666
 21
1742.7505470459
  0
LINE
  5
598
100
AcDbEntity
  8
0
100
AcDbLine
 62
7
  6
CONTINUOUS
 10
361.5086090666
 20
1742.7505470459
 11
350.5086090666
 21
1742.7505470459
  0
LINE
  5
599
100
AcDbEntity
  8
0
100
AcDbLine
 62
7
  6
CONTINUOUS
 10
336.5086090666
 20
1742.7505470459
 11
325.5086090666
 21
1742.7505470459
  0
LINE
  5
59A
100
AcDbEntity
  8
0
100
AcDbLine
 62
7
  6
CONTINUOUS
 10
2198.5086090666
 20
1750.1142964343
 11
2197.0086090666
 21
1750.1142964343
  0
LINE
  5
59B
100
AcDbEntity
  8
0
100
AcDbLine
 62
7
  6
CONTINUOUS
 10
290.0086090666
 20
1750.1153158719
 11
288.5086090666
 21
1750.1153158719
  0
LINE
  5
59C
100
AcDbEntity
  8
0
100
AcDbLine
 62
7
  6
CONTINUOUS
 10
2207.0086090666
 20
1750.7505470459
 11
2198.5086090666
 21
1750.7505470459
  0
LINE
  5
59D
100
AcDbEntity
  8
0
100
AcDbLine
 62
7
  6
CONTINUOUS
 10
280.0086090666
 20
1750.7505470459
 11
288.5086090666
 21
1750.7505470459
  0
LINE
  5
59E
100
AcDbEntity
  8
0
100
AcDbLine
 62
7
  6
CONTINUOUS
 10
325.5086090666
 20
1754.7505470459
 11
336.5086090666
 21
1754.7505470459
  0
LINE
  5
59F
100
AcDbEntity
  8
0
100
AcDbLine
 62
7
  6
CONTINUOUS
 10
350.5086090666
 20
1754.7505470459
 11
361.5086090666
 21
1754.7505470459
  0
LINE
  5
5A0
100
AcDbEntity
  8
0
100
AcDbLine
 62
7
  6
CONTINUOUS
 10
375.5086090666
 20
1754.7505470459
 11
386.5086090666
 21
1754.7505470459
  0
LINE
  5
5A1
100
AcDbEntity
  8
0
100
AcDbLine
 62
7
  6
CONTINUOUS
 10
400.5086090666
 20
1754.7505470459
 11
411.5086090666
 21
1754.7505470459
  0
LINE
  5
5A2
100
AcDbEntity
  8
0
100
AcDbLine
 62
7
  6
CONTINUOUS
 10
425.5086090666
 20
1754.7505470459
 11
436.5086090666
 21
1754.7505470459
  0
LINE
  5
5A3
100
AcDbEntity
  8
0
100
AcDbLine
 62
7
  6
CONTINUOUS
 10
450.5086090666
 20
1754.7505470459
 11
461.5086090666
 21
1754.7505470459
  0
LINE
  5
5A4
100
AcDbEntity
  8
0
100
AcDbLine
 62
7
  6
CONTINUOUS
 10
475.5086090666
 20
1754.7505470459
 11
486.5086090666
 21
1754.7505470459
  0
LINE
  5
5A5
100
AcDbEntity
  8
0
100
AcDbLine
 62
7
  6
CONTINUOUS
 10
500.5086090666
 20
1754.7505470459
 11
511.5086090666
 21
1754.7505470459
  0
LINE
  5
5A6
100
AcDbEntity
  8
0
100
AcDbLine
 62
7
  6
CONTINUOUS
 10
525.5086090666
 20
1754.7505470459
 11
536.5086090666
 21
1754.7505470459
  0
LINE
  5
5A7
100
AcDbEntity
  8
0
100
AcDbLine
 62
7
  6
CONTINUOUS
 10
550.5086090666
 20
1754.7505470459
 11
561.5086090666
 21
1754.7505470459
  0
LINE
  5
5A8
100
AcDbEntity
  8
0
100
AcDbLine
 62
7
  6
CONTINUOUS
 10
575.5086090666
 20
1754.7505470459
 11
586.5086090666
 21
1754.7505470459
  0
LINE
  5
5A9
100
AcDbEntity
  8
0
100
AcDbLine
 62
7
  6
CONTINUOUS
 10
600.5086090666
 20
1754.7505470459
 11
611.5086090666
 21
1754.7505470459
  0
LINE
  5
5AA
100
AcDbEntity
  8
0
100
AcDbLine
 62
7
  6
CONTINUOUS
 10
625.5086090666
 20
1754.7505470459
 11
636.5086090666
 21
1754.7505470459
  0
LINE
  5
5AB
100
AcDbEntity
  8
0
100
AcDbLine
 62
7
  6
CONTINUOUS
 10
650.5086090666
 20
1754.7505470459
 11
661.5086090666
 21
1754.7505470459
  0
LINE
  5
5AC
100
AcDbEntity
  8
0
100
AcDbLine
 62
7
  6
CONTINUOUS
 10
675.5086090666
 20
1754.7505470459
 11
686.5086090666
 21
1754.7505470459
  0
LINE
  5
5AD
100
AcDbEntity
  8
0
100
AcDbLine
 62
7
  6
CONTINUOUS
 10
700.5086090666
 20
1754.7505470459
 11
711.5086090666
 21
1754.7505470459
  0
LINE
  5
5AE
100
AcDbEntity
  8
0
100
AcDbLine
 62
7
  6
CONTINUOUS
 10
725.5086090666
 20
1754.7505470459
 11
736.5086090666
 21
1754.7505470459
  0
LINE
  5
5AF
100
AcDbEntity
  8
0
100
AcDbLine
 62
7
  6
CONTINUOUS
 10
750.5086090666
 20
1754.7505470459
 11
761.5086090666
 21
1754.7505470459
  0
LINE
  5
5B0
100
AcDbEntity
  8
0
100
AcDbLine
 62
7
  6
CONTINUOUS
 10
775.5086090666
 20
1754.7505470459
 11
786.5086090666
 21
1754.7505470459
  0
LINE
  5
5B1
100
AcDbEntity
  8
0
100
AcDbLine
 62
7
  6
CONTINUOUS
 10
800.5086090666
 20
1754.7505470459
 11
811.5086090666
 21
1754.7505470459
  0
LINE
  5
5B2
100
AcDbEntity
  8
0
100
AcDbLine
 62
7
  6
CONTINUOUS
 10
825.5086090666
 20
1754.7505470459
 11
836.5086090666
 21
1754.7505470459
  0
LINE
  5
5B3
100
AcDbEntity
  8
0
100
AcDbLine
 62
7
  6
CONTINUOUS
 10
850.5086090666
 20
1754.7505470459
 11
861.5086090666
 21
1754.7505470459
  0
LINE
  5
5B4
100
AcDbEntity
  8
0
100
AcDbLine
 62
7
  6
CONTINUOUS
 10
875.5086090666
 20
1754.7505470459
 11
886.5086090666
 21
1754.7505470459
  0
LINE
  5
5B5
100
AcDbEntity
  8
0
100
AcDbLine
 62
7
  6
CONTINUOUS
 10
900.5086090666
 20
1754.7505470459
 11
911.5086090666
 21
1754.7505470459
  0
LINE
  5
5B6
100
AcDbEntity
  8
0
100
AcDbLine
 62
7
  6
CONTINUOUS
 10
925.5086090666
 20
1754.7505470459
 11
936.5086090666
 21
1754.7505470459
  0
LINE
  5
5B7
100
AcDbEntity
  8
0
100
AcDbLine
 62
7
  6
CONTINUOUS
 10
950.5086090666
 20
1754.7505470459
 11
961.5086090666
 21
1754.7505470459
  0
LINE
  5
5B8
100
AcDbEntity
  8
0
100
AcDbLine
 62
7
  6
CONTINUOUS
 10
975.5086090666
 20
1754.7505470459
 11
986.5086090666
 21
1754.7505470459
  0
LINE
  5
5B9
100
AcDbEntity
  8
0
100
AcDbLine
 62
7
  6
CONTINUOUS
 10
1000.5086090666
 20
1754.7505470459
 11
1011.5086090666
 21
1754.7505470459
  0
LINE
  5
5BA
100
AcDbEntity
  8
0
100
AcDbLine
 62
7
  6
CONTINUOUS
 10
1025.5086090666
 20
1754.7505470459
 11
1036.5086090666
 21
1754.7505470459
  0
LINE
  5
5BB
100
AcDbEntity
  8
0
100
AcDbLine
 62
7
  6
CONTINUOUS
 10
1050.5086090666
 20
1754.7505470459
 11
1061.5086090666
 21
1754.7505470459
  0
LINE
  5
5BC
100
AcDbEntity
  8
0
100
AcDbLine
 62
7
  6
CONTINUOUS
 10
1075.5086090666
 20
1754.7505470459
 11
1086.5086090666
 21
1754.7505470459
  0
LINE
  5
5BD
100
AcDbEntity
  8
0
100
AcDbLine
 62
7
  6
CONTINUOUS
 10
1100.5086090666
 20
1754.7505470459
 11
1111.5086090666
 21
1754.7505470459
  0
LINE
  5
5BE
100
AcDbEntity
  8
0
100
AcDbLine
 62
7
  6
CONTINUOUS
 10
1125.5086090666
 20
1754.7505470459
 11
1136.5086090666
 21
1754.7505470459
  0
LINE
  5
5BF
100
AcDbEntity
  8
0
100
AcDbLine
 62
7
  6
CONTINUOUS
 10
1150.5086090666
 20
1754.7505470459
 11
1161.5086090666
 21
1754.7505470459
  0
LINE
  5
5C0
100
AcDbEntity
  8
0
100
AcDbLine
 62
7
  6
CONTINUOUS
 10
1175.5086090666
 20
1754.7505470459
 11
1186.5086090666
 21
1754.7505470459
  0
LINE
  5
5C1
100
AcDbEntity
  8
0
100
AcDbLine
 62
7
  6
CONTINUOUS
 10
1200.5086090666
 20
1754.7505470459
 11
1211.5086090666
 21
1754.7505470459
  0
LINE
  5
5C2
100
AcDbEntity
  8
0
100
AcDbLine
 62
7
  6
CONTINUOUS
 10
1225.5086090666
 20
1754.7505470459
 11
1236.5086090666
 21
1754.7505470459
  0
LINE
  5
5C3
100
AcDbEntity
  8
0
100
AcDbLine
 62
7
  6
CONTINUOUS
 10
1250.5086090666
 20
1754.7505470459
 11
1261.5086090666
 21
1754.7505470459
  0
LINE
  5
5C4
100
AcDbEntity
  8
0
100
AcDbLine
 62
7
  6
CONTINUOUS
 10
1275.5086090666
 20
1754.7505470459
 11
1286.5086090666
 21
1754.7505470459
  0
LINE
  5
5C5
100
AcDbEntity
  8
0
100
AcDbLine
 62
7
  6
CONTINUOUS
 10
1300.5086090666
 20
1754.7505470459
 11
1311.5086090666
 21
1754.7505470459
  0
LINE
  5
5C6
100
AcDbEntity
  8
0
100
AcDbLine
 62
7
  6
CONTINUOUS
 10
1325.5086090666
 20
1754.7505470459
 11
1336.5086090666
 21
1754.7505470459
  0
LINE
  5
5C7
100
AcDbEntity
  8
0
100
AcDbLine
 62
7
  6
CONTINUOUS
 10
1350.5086090666
 20
1754.7505470459
 11
1361.5086090666
 21
1754.7505470459
  0
LINE
  5
5C8
100
AcDbEntity
  8
0
100
AcDbLine
 62
7
  6
CONTINUOUS
 10
1375.5086090666
 20
1754.7505470459
 11
1386.5086090666
 21
1754.7505470459
  0
LINE
  5
5C9
100
AcDbEntity
  8
0
100
AcDbLine
 62
7
  6
CONTINUOUS
 10
1400.5086090666
 20
1754.7505470459
 11
1411.5086090666
 21
1754.7505470459
  0
LINE
  5
5CA
100
AcDbEntity
  8
0
100
AcDbLine
 62
7
  6
CONTINUOUS
 10
1425.5086090666
 20
1754.7505470459
 11
1436.5086090666
 21
1754.7505470459
  0
LINE
  5
5CB
100
AcDbEntity
  8
0
100
AcDbLine
 62
7
  6
CONTINUOUS
 10
1450.5086090666
 20
1754.7505470459
 11
1461.5086090666
 21
1754.7505470459
  0
LINE
  5
5CC
100
AcDbEntity
  8
0
100
AcDbLine
 62
7
  6
CONTINUOUS
 10
1475.5086090666
 20
1754.7505470459
 11
1486.5086090666
 21
1754.7505470459
  0
LINE
  5
5CD
100
AcDbEntity
  8
0
100
AcDbLine
 62
7
  6
CONTINUOUS
 10
1500.5086090666
 20
1754.7505470459
 11
1511.5086090666
 21
1754.7505470459
  0
LINE
  5
5CE
100
AcDbEntity
  8
0
100
AcDbLine
 62
7
  6
CONTINUOUS
 10
1525.5086090666
 20
1754.7505470459
 11
1536.5086090666
 21
1754.7505470459
  0
LINE
  5
5CF
100
AcDbEntity
  8
0
100
AcDbLine
 62
7
  6
CONTINUOUS
 10
1550.5086090666
 20
1754.7505470459
 11
1561.5086090666
 21
1754.7505470459
  0
LINE
  5
5D0
100
AcDbEntity
  8
0
100
AcDbLine
 62
7
  6
CONTINUOUS
 10
1575.5086090666
 20
1754.7505470459
 11
1586.5086090666
 21
1754.7505470459
  0
LINE
  5
5D1
100
AcDbEntity
  8
0
100
AcDbLine
 62
7
  6
CONTINUOUS
 10
1600.5086090666
 20
1754.7505470459
 11
1611.5086090666
 21
1754.7505470459
  0
LINE
  5
5D2
100
AcDbEntity
  8
0
100
AcDbLine
 62
7
  6
CONTINUOUS
 10
1625.5086090666
 20
1754.7505470459
 11
1636.5086090666
 21
1754.7505470459
  0
LINE
  5
5D3
100
AcDbEntity
  8
0
100
AcDbLine
 62
7
  6
CONTINUOUS
 10
1650.5086090666
 20
1754.7505470459
 11
1661.5086090666
 21
1754.7505470459
  0
LINE
  5
5D4
100
AcDbEntity
  8
0
100
AcDbLine
 62
7
  6
CONTINUOUS
 10
1675.5086090666
 20
1754.7505470459
 11
1686.5086090666
 21
1754.7505470459
  0
LINE
  5
5D5
100
AcDbEntity
  8
0
100
AcDbLine
 62
7
  6
CONTINUOUS
 10
1700.5086090666
 20
1754.7505470459
 11
1711.5086090666
 21
1754.7505470459
  0
LINE
  5
5D6
100
AcDbEntity
  8
0
100
AcDbLine
 62
7
  6
CONTINUOUS
 10
1725.5086090666
 20
1754.7505470459
 11
1736.5086090666
 21
1754.7505470459
  0
LINE
  5
5D7
100
AcDbEntity
  8
0
100
AcDbLine
 62
7
  6
CONTINUOUS
 10
1750.5086090666
 20
1754.7505470459
 11
1761.5086090666
 21
1754.7505470459
  0
LINE
  5
5D8
100
AcDbEntity
  8
0
100
AcDbLine
 62
7
  6
CONTINUOUS
 10
1775.5086090666
 20
1754.7505470459
 11
1786.5086090666
 21
1754.7505470459
  0
LINE
  5
5D9
100
AcDbEntity
  8
0
100
AcDbLine
 62
7
  6
CONTINUOUS
 10
1800.5086090666
 20
1754.7505470459
 11
1811.5086090666
 21
1754.7505470459
  0
LINE
  5
5DA
100
AcDbEntity
  8
0
100
AcDbLine
 62
7
  6
CONTINUOUS
 10
1825.5086090666
 20
1754.7505470459
 11
1836.5086090666
 21
1754.7505470459
  0
LINE
  5
5DB
100
AcDbEntity
  8
0
100
AcDbLine
 62
7
  6
CONTINUOUS
 10
1850.5086090666
 20
1754.7505470459
 11
1861.5086090666
 21
1754.7505470459
  0
LINE
  5
5DC
100
AcDbEntity
  8
0
100
AcDbLine
 62
7
  6
CONTINUOUS
 10
1875.5086090666
 20
1754.7505470459
 11
1886.5086090666
 21
1754.7505470459
  0
LINE
  5
5DD
100
AcDbEntity
  8
0
100
AcDbLine
 62
7
  6
CONTINUOUS
 10
1900.5086090666
 20
1754.7505470459
 11
1911.5086090666
 21
1754.7505470459
  0
LINE
  5
5DE
100
AcDbEntity
  8
0
100
AcDbLine
 62
7
  6
CONTINUOUS
 10
1925.5086090666
 20
1754.7505470459
 11
1936.5086090666
 21
1754.7505470459
  0
LINE
  5
5DF
100
AcDbEntity
  8
0
100
AcDbLine
 62
7
  6
CONTINUOUS
 10
1950.5086090666
 20
1754.7505470459
 11
1961.5086090666
 21
1754.7505470459
  0
LINE
  5
5E0
100
AcDbEntity
  8
0
100
AcDbLine
 62
7
  6
CONTINUOUS
 10
1975.5086090666
 20
1754.7505470459
 11
1986.5086090666
 21
1754.7505470459
  0
LINE
  5
5E1
100
AcDbEntity
  8
0
100
AcDbLine
 62
7
  6
CONTINUOUS
 10
2000.5086090666
 20
1754.7505470459
 11
2011.5086090666
 21
1754.7505470459
  0
LINE
  5
5E2
100
AcDbEntity
  8
0
100
AcDbLine
 62
7
  6
CONTINUOUS
 10
2025.5086090666
 20
1754.7505470459
 11
2036.5086090666
 21
1754.7505470459
  0
LINE
  5
5E3
100
AcDbEntity
  8
0
100
AcDbLine
 62
7
  6
CONTINUOUS
 10
2050.5086090666
 20
1754.7505470459
 11
2061.5086090666
 21
1754.7505470459
  0
LINE
  5
5E4
100
AcDbEntity
  8
0
100
AcDbLine
 62
7
  6
CONTINUOUS
 10
2075.5086090666
 20
1754.7505470459
 11
2086.5086090666
 21
1754.7505470459
  0
LINE
  5
5E5
100
AcDbEntity
  8
0
100
AcDbLine
 62
7
  6
CONTINUOUS
 10
2100.5086090666
 20
1754.7505470459
 11
2111.5086090666
 21
1754.7505470459
  0
LINE
  5
5E6
100
AcDbEntity
  8
0
100
AcDbLine
 62
7
  6
CONTINUOUS
 10
2125.5086090666
 20
1754.7505470459
 11
2136.5086090666
 21
1754.7505470459
  0
LINE
  5
5E7
100
AcDbEntity
  8
0
100
AcDbLine
 62
7
  6
CONTINUOUS
 10
2150.5086090666
 20
1754.7505470459
 11
2161.5086090666
 21
1754.7505470459
  0
LINE
  5
5E8
100
AcDbEntity
  8
0
100
AcDbLine
 62
7
  6
CONTINUOUS
 10
2207.0086090666
 20
1756.7505470459
 11
2198.5086090666
 21
1756.7505470459
  0
LINE
  5
5E9
100
AcDbEntity
  8
0
100
AcDbLine
 62
7
  6
CONTINUOUS
 10
280.0086090666
 20
1756.7505470459
 11
288.5086090666
 21
1756.7505470459
  0
LINE
  5
5EA
100
AcDbEntity
  8
0
100
AcDbLine
 62
7
  6
CONTINUOUS
 10
288.5086090666
 20
1761.2505470459
 11
290.0086090666
 21
1761.2505470459
  0
LINE
  5
5EB
100
AcDbEntity
  8
0
100
AcDbLine
 62
7
  6
CONTINUOUS
 10
2197.0086090666
 20
1761.2505470459
 11
2198.5086090666
 21
1761.2505470459
  0
LINE
  5
5EC
100
AcDbEntity
  8
0
100
AcDbLine
 62
7
  6
CONTINUOUS
 10
325.5086090666
 20
1764.7505470459
 11
336.5086090666
 21
1764.7505470459
  0
LINE
  5
5ED
100
AcDbEntity
  8
0
100
AcDbLine
 62
7
  6
CONTINUOUS
 10
350.5086090666
 20
1764.7505470459
 11
361.5086090666
 21
1764.7505470459
  0
LINE
  5
5EE
100
AcDbEntity
  8
0
100
AcDbLine
 62
7
  6
CONTINUOUS
 10
375.5086090666
 20
1764.7505470459
 11
386.5086090666
 21
1764.7505470459
  0
LINE
  5
5EF
100
AcDbEntity
  8
0
100
AcDbLine
 62
7
  6
CONTINUOUS
 10
400.5086090666
 20
1764.7505470459
 11
411.5086090666
 21
1764.7505470459
  0
LINE
  5
5F0
100
AcDbEntity
  8
0
100
AcDbLine
 62
7
  6
CONTINUOUS
 10
425.5086090666
 20
1764.7505470459
 11
436.5086090666
 21
1764.7505470459
  0
LINE
  5
5F1
100
AcDbEntity
  8
0
100
AcDbLine
 62
7
  6
CONTINUOUS
 10
450.5086090666
 20
1764.7505470459
 11
461.5086090666
 21
1764.7505470459
  0
LINE
  5
5F2
100
AcDbEntity
  8
0
100
AcDbLine
 62
7
  6
CONTINUOUS
 10
475.5086090666
 20
1764.7505470459
 11
486.5086090666
 21
1764.7505470459
  0
LINE
  5
5F3
100
AcDbEntity
  8
0
100
AcDbLine
 62
7
  6
CONTINUOUS
 10
500.5086090666
 20
1764.7505470459
 11
511.5086090666
 21
1764.7505470459
  0
LINE
  5
5F4
100
AcDbEntity
  8
0
100
AcDbLine
 62
7
  6
CONTINUOUS
 10
525.5086090666
 20
1764.7505470459
 11
536.5086090666
 21
1764.7505470459
  0
LINE
  5
5F5
100
AcDbEntity
  8
0
100
AcDbLine
 62
7
  6
CONTINUOUS
 10
550.5086090666
 20
1764.7505470459
 11
561.5086090666
 21
1764.7505470459
  0
LINE
  5
5F6
100
AcDbEntity
  8
0
100
AcDbLine
 62
7
  6
CONTINUOUS
 10
575.5086090666
 20
1764.7505470459
 11
586.5086090666
 21
1764.7505470459
  0
LINE
  5
5F7
100
AcDbEntity
  8
0
100
AcDbLine
 62
7
  6
CONTINUOUS
 10
600.5086090666
 20
1764.7505470459
 11
611.5086090666
 21
1764.7505470459
  0
LINE
  5
5F8
100
AcDbEntity
  8
0
100
AcDbLine
 62
7
  6
CONTINUOUS
 10
625.5086090666
 20
1764.7505470459
 11
636.5086090666
 21
1764.7505470459
  0
LINE
  5
5F9
100
AcDbEntity
  8
0
100
AcDbLine
 62
7
  6
CONTINUOUS
 10
650.5086090666
 20
1764.7505470459
 11
661.5086090666
 21
1764.7505470459
  0
LINE
  5
5FA
100
AcDbEntity
  8
0
100
AcDbLine
 62
7
  6
CONTINUOUS
 10
675.5086090666
 20
1764.7505470459
 11
686.5086090666
 21
1764.7505470459
  0
LINE
  5
5FB
100
AcDbEntity
  8
0
100
AcDbLine
 62
7
  6
CONTINUOUS
 10
700.5086090666
 20
1764.7505470459
 11
711.5086090666
 21
1764.7505470459
  0
LINE
  5
5FC
100
AcDbEntity
  8
0
100
AcDbLine
 62
7
  6
CONTINUOUS
 10
725.5086090666
 20
1764.7505470459
 11
736.5086090666
 21
1764.7505470459
  0
LINE
  5
5FD
100
AcDbEntity
  8
0
100
AcDbLine
 62
7
  6
CONTINUOUS
 10
750.5086090666
 20
1764.7505470459
 11
761.5086090666
 21
1764.7505470459
  0
LINE
  5
5FE
100
AcDbEntity
  8
0
100
AcDbLine
 62
7
  6
CONTINUOUS
 10
775.5086090666
 20
1764.7505470459
 11
786.5086090666
 21
1764.7505470459
  0
LINE
  5
5FF
100
AcDbEntity
  8
0
100
AcDbLine
 62
7
  6
CONTINUOUS
 10
800.5086090666
 20
1764.7505470459
 11
811.5086090666
 21
1764.7505470459
  0
LINE
  5
600
100
AcDbEntity
  8
0
100
AcDbLine
 62
7
  6
CONTINUOUS
 10
825.5086090666
 20
1764.7505470459
 11
836.5086090666
 21
1764.7505470459
  0
LINE
  5
601
100
AcDbEntity
  8
0
100
AcDbLine
 62
7
  6
CONTINUOUS
 10
850.5086090666
 20
1764.7505470459
 11
861.5086090666
 21
1764.7505470459
  0
LINE
  5
602
100
AcDbEntity
  8
0
100
AcDbLine
 62
7
  6
CONTINUOUS
 10
875.5086090666
 20
1764.7505470459
 11
886.5086090666
 21
1764.7505470459
  0
LINE
  5
603
100
AcDbEntity
  8
0
100
AcDbLine
 62
7
  6
CONTINUOUS
 10
900.5086090666
 20
1764.7505470459
 11
911.5086090666
 21
1764.7505470459
  0
LINE
  5
604
100
AcDbEntity
  8
0
100
AcDbLine
 62
7
  6
CONTINUOUS
 10
925.5086090666
 20
1764.7505470459
 11
936.5086090666
 21
1764.7505470459
  0
LINE
  5
605
100
AcDbEntity
  8
0
100
AcDbLine
 62
7
  6
CONTINUOUS
 10
950.5086090666
 20
1764.7505470459
 11
961.5086090666
 21
1764.7505470459
  0
LINE
  5
606
100
AcDbEntity
  8
0
100
AcDbLine
 62
7
  6
CONTINUOUS
 10
975.5086090666
 20
1764.7505470459
 11
986.5086090666
 21
1764.7505470459
  0
LINE
  5
607
100
AcDbEntity
  8
0
100
AcDbLine
 62
7
  6
CONTINUOUS
 10
1000.5086090666
 20
1764.7505470459
 11
1011.5086090666
 21
1764.7505470459
  0
LINE
  5
608
100
AcDbEntity
  8
0
100
AcDbLine
 62
7
  6
CONTINUOUS
 10
1025.5086090666
 20
1764.7505470459
 11
1036.5086090666
 21
1764.7505470459
  0
LINE
  5
609
100
AcDbEntity
  8
0
100
AcDbLine
 62
7
  6
CONTINUOUS
 10
1050.5086090666
 20
1764.7505470459
 11
1061.5086090666
 21
1764.7505470459
  0
LINE
  5
60A
100
AcDbEntity
  8
0
100
AcDbLine
 62
7
  6
CONTINUOUS
 10
1075.5086090666
 20
1764.7505470459
 11
1086.5086090666
 21
1764.7505470459
  0
LINE
  5
60B
100
AcDbEntity
  8
0
100
AcDbLine
 62
7
  6
CONTINUOUS
 10
1100.5086090666
 20
1764.7505470459
 11
1111.5086090666
 21
1764.7505470459
  0
LINE
  5
60C
100
AcDbEntity
  8
0
100
AcDbLine
 62
7
  6
CONTINUOUS
 10
1125.5086090666
 20
1764.7505470459
 11
1136.5086090666
 21
1764.7505470459
  0
LINE
  5
60D
100
AcDbEntity
  8
0
100
AcDbLine
 62
7
  6
CONTINUOUS
 10
1150.5086090666
 20
1764.7505470459
 11
1161.5086090666
 21
1764.7505470459
  0
LINE
  5
60E
100
AcDbEntity
  8
0
100
AcDbLine
 62
7
  6
CONTINUOUS
 10
1175.5086090666
 20
1764.7505470459
 11
1186.5086090666
 21
1764.7505470459
  0
LINE
  5
60F
100
AcDbEntity
  8
0
100
AcDbLine
 62
7
  6
CONTINUOUS
 10
1200.5086090666
 20
1764.7505470459
 11
1211.5086090666
 21
1764.7505470459
  0
LINE
  5
610
100
AcDbEntity
  8
0
100
AcDbLine
 62
7
  6
CONTINUOUS
 10
1225.5086090666
 20
1764.7505470459
 11
1236.5086090666
 21
1764.7505470459
  0
LINE
  5
611
100
AcDbEntity
  8
0
100
AcDbLine
 62
7
  6
CONTINUOUS
 10
1250.5086090666
 20
1764.7505470459
 11
1261.5086090666
 21
1764.7505470459
  0
LINE
  5
612
100
AcDbEntity
  8
0
100
AcDbLine
 62
7
  6
CONTINUOUS
 10
1275.5086090666
 20
1764.7505470459
 11
1286.5086090666
 21
1764.7505470459
  0
LINE
  5
613
100
AcDbEntity
  8
0
100
AcDbLine
 62
7
  6
CONTINUOUS
 10
1300.5086090666
 20
1764.7505470459
 11
1311.5086090666
 21
1764.7505470459
  0
LINE
  5
614
100
AcDbEntity
  8
0
100
AcDbLine
 62
7
  6
CONTINUOUS
 10
1325.5086090666
 20
1764.7505470459
 11
1336.5086090666
 21
1764.7505470459
  0
LINE
  5
615
100
AcDbEntity
  8
0
100
AcDbLine
 62
7
  6
CONTINUOUS
 10
1350.5086090666
 20
1764.7505470459
 11
1361.5086090666
 21
1764.7505470459
  0
LINE
  5
616
100
AcDbEntity
  8
0
100
AcDbLine
 62
7
  6
CONTINUOUS
 10
1375.5086090666
 20
1764.7505470459
 11
1386.5086090666
 21
1764.7505470459
  0
LINE
  5
617
100
AcDbEntity
  8
0
100
AcDbLine
 62
7
  6
CONTINUOUS
 10
1400.5086090666
 20
1764.7505470459
 11
1411.5086090666
 21
1764.7505470459
  0
LINE
  5
618
100
AcDbEntity
  8
0
100
AcDbLine
 62
7
  6
CONTINUOUS
 10
1425.5086090666
 20
1764.7505470459
 11
1436.5086090666
 21
1764.7505470459
  0
LINE
  5
619
100
AcDbEntity
  8
0
100
AcDbLine
 62
7
  6
CONTINUOUS
 10
1450.5086090666
 20
1764.7505470459
 11
1461.5086090666
 21
1764.7505470459
  0
LINE
  5
61A
100
AcDbEntity
  8
0
100
AcDbLine
 62
7
  6
CONTINUOUS
 10
1475.5086090666
 20
1764.7505470459
 11
1486.5086090666
 21
1764.7505470459
  0
LINE
  5
61B
100
AcDbEntity
  8
0
100
AcDbLine
 62
7
  6
CONTINUOUS
 10
1500.5086090666
 20
1764.7505470459
 11
1511.5086090666
 21
1764.7505470459
  0
LINE
  5
61C
100
AcDbEntity
  8
0
100
AcDbLine
 62
7
  6
CONTINUOUS
 10
1525.5086090666
 20
1764.7505470459
 11
1536.5086090666
 21
1764.7505470459
  0
LINE
  5
61D
100
AcDbEntity
  8
0
100
AcDbLine
 62
7
  6
CONTINUOUS
 10
1550.5086090666
 20
1764.7505470459
 11
1561.5086090666
 21
1764.7505470459
  0
LINE
  5
61E
100
AcDbEntity
  8
0
100
AcDbLine
 62
7
  6
CONTINUOUS
 10
1575.5086090666
 20
1764.7505470459
 11
1586.5086090666
 21
1764.7505470459
  0
LINE
  5
61F
100
AcDbEntity
  8
0
100
AcDbLine
 62
7
  6
CONTINUOUS
 10
1600.5086090666
 20
1764.7505470459
 11
1611.5086090666
 21
1764.7505470459
  0
LINE
  5
620
100
AcDbEntity
  8
0
100
AcDbLine
 62
7
  6
CONTINUOUS
 10
1625.5086090666
 20
1764.7505470459
 11
1636.5086090666
 21
1764.7505470459
  0
LINE
  5
621
100
AcDbEntity
  8
0
100
AcDbLine
 62
7
  6
CONTINUOUS
 10
1650.5086090666
 20
1764.7505470459
 11
1661.5086090666
 21
1764.7505470459
  0
LINE
  5
622
100
AcDbEntity
  8
0
100
AcDbLine
 62
7
  6
CONTINUOUS
 10
1675.5086090666
 20
1764.7505470459
 11
1686.5086090666
 21
1764.7505470459
  0
LINE
  5
623
100
AcDbEntity
  8
0
100
AcDbLine
 62
7
  6
CONTINUOUS
 10
1700.5086090666
 20
1764.7505470459
 11
1711.5086090666
 21
1764.7505470459
  0
LINE
  5
624
100
AcDbEntity
  8
0
100
AcDbLine
 62
7
  6
CONTINUOUS
 10
1725.5086090666
 20
1764.7505470459
 11
1736.5086090666
 21
1764.7505470459
  0
LINE
  5
625
100
AcDbEntity
  8
0
100
AcDbLine
 62
7
  6
CONTINUOUS
 10
1750.5086090666
 20
1764.7505470459
 11
1761.5086090666
 21
1764.7505470459
  0
LINE
  5
626
100
AcDbEntity
  8
0
100
AcDbLine
 62
7
  6
CONTINUOUS
 10
1775.5086090666
 20
1764.7505470459
 11
1786.5086090666
 21
1764.7505470459
  0
LINE
  5
627
100
AcDbEntity
  8
0
100
AcDbLine
 62
7
  6
CONTINUOUS
 10
1800.5086090666
 20
1764.7505470459
 11
1811.5086090666
 21
1764.7505470459
  0
LINE
  5
628
100
AcDbEntity
  8
0
100
AcDbLine
 62
7
  6
CONTINUOUS
 10
1825.5086090666
 20
1764.7505470459
 11
1836.5086090666
 21
1764.7505470459
  0
LINE
  5
629
100
AcDbEntity
  8
0
100
AcDbLine
 62
7
  6
CONTINUOUS
 10
1850.5086090666
 20
1764.7505470459
 11
1861.5086090666
 21
1764.7505470459
  0
LINE
  5
62A
100
AcDbEntity
  8
0
100
AcDbLine
 62
7
  6
CONTINUOUS
 10
1875.5086090666
 20
1764.7505470459
 11
1886.5086090666
 21
1764.7505470459
  0
LINE
  5
62B
100
AcDbEntity
  8
0
100
AcDbLine
 62
7
  6
CONTINUOUS
 10
1900.5086090666
 20
1764.7505470459
 11
1911.5086090666
 21
1764.7505470459
  0
LINE
  5
62C
100
AcDbEntity
  8
0
100
AcDbLine
 62
7
  6
CONTINUOUS
 10
1925.5086090666
 20
1764.7505470459
 11
1936.5086090666
 21
1764.7505470459
  0
LINE
  5
62D
100
AcDbEntity
  8
0
100
AcDbLine
 62
7
  6
CONTINUOUS
 10
1950.5086090666
 20
1764.7505470459
 11
1961.5086090666
 21
1764.7505470459
  0
LINE
  5
62E
100
AcDbEntity
  8
0
100
AcDbLine
 62
7
  6
CONTINUOUS
 10
1975.5086090666
 20
1764.7505470459
 11
1986.5086090666
 21
1764.7505470459
  0
LINE
  5
62F
100
AcDbEntity
  8
0
100
AcDbLine
 62
7
  6
CONTINUOUS
 10
2000.5086090666
 20
1764.7505470459
 11
2011.5086090666
 21
1764.7505470459
  0
LINE
  5
630
100
AcDbEntity
  8
0
100
AcDbLine
 62
7
  6
CONTINUOUS
 10
2025.5086090666
 20
1764.7505470459
 11
2036.5086090666
 21
1764.7505470459
  0
LINE
  5
631
100
AcDbEntity
  8
0
100
AcDbLine
 62
7
  6
CONTINUOUS
 10
2050.5086090666
 20
1764.7505470459
 11
2061.5086090666
 21
1764.7505470459
  0
LINE
  5
632
100
AcDbEntity
  8
0
100
AcDbLine
 62
7
  6
CONTINUOUS
 10
2075.5086090666
 20
1764.7505470459
 11
2086.5086090666
 21
1764.7505470459
  0
LINE
  5
633
100
AcDbEntity
  8
0
100
AcDbLine
 62
7
  6
CONTINUOUS
 10
2100.5086090666
 20
1764.7505470459
 11
2111.5086090666
 21
1764.7505470459
  0
LINE
  5
634
100
AcDbEntity
  8
0
100
AcDbLine
 62
7
  6
CONTINUOUS
 10
2125.5086090666
 20
1764.7505470459
 11
2136.5086090666
 21
1764.7505470459
  0
LINE
  5
635
100
AcDbEntity
  8
0
100
AcDbLine
 62
7
  6
CONTINUOUS
 10
2150.5086090666
 20
1764.7505470459
 11
2161.5086090666
 21
1764.7505470459
  0
LINE
  5
636
100
AcDbEntity
  8
0
100
AcDbLine
 62
7
  6
CONTINUOUS
 10
2161.5086090666
 20
1767.7505470459
 11
2150.5086090666
 21
1767.7505470459
  0
LINE
  5
637
100
AcDbEntity
  8
0
100
AcDbLine
 62
7
  6
CONTINUOUS
 10
2136.5086090666
 20
1767.7505470459
 11
2125.5086090666
 21
1767.7505470459
  0
LINE
  5
638
100
AcDbEntity
  8
0
100
AcDbLine
 62
7
  6
CONTINUOUS
 10
2111.5086090666
 20
1767.7505470459
 11
2100.5086090666
 21
1767.7505470459
  0
LINE
  5
639
100
AcDbEntity
  8
0
100
AcDbLine
 62
7
  6
CONTINUOUS
 10
2086.5086090666
 20
1767.7505470459
 11
2075.5086090666
 21
1767.7505470459
  0
LINE
  5
63A
100
AcDbEntity
  8
0
100
AcDbLine
 62
7
  6
CONTINUOUS
 10
2061.5086090666
 20
1767.7505470459
 11
2050.5086090666
 21
1767.7505470459
  0
LINE
  5
63B
100
AcDbEntity
  8
0
100
AcDbLine
 62
7
  6
CONTINUOUS
 10
2036.5086090666
 20
1767.7505470459
 11
2025.5086090666
 21
1767.7505470459
  0
LINE
  5
63C
100
AcDbEntity
  8
0
100
AcDbLine
 62
7
  6
CONTINUOUS
 10
2011.5086090666
 20
1767.7505470459
 11
2000.5086090666
 21
1767.7505470459
  0
LINE
  5
63D
100
AcDbEntity
  8
0
100
AcDbLine
 62
7
  6
CONTINUOUS
 10
1986.5086090666
 20
1767.7505470459
 11
1975.5086090666
 21
1767.7505470459
  0
LINE
  5
63E
100
AcDbEntity
  8
0
100
AcDbLine
 62
7
  6
CONTINUOUS
 10
1961.5086090666
 20
1767.7505470459
 11
1950.5086090666
 21
1767.7505470459
  0
LINE
  5
63F
100
AcDbEntity
  8
0
100
AcDbLine
 62
7
  6
CONTINUOUS
 10
1936.5086090666
 20
1767.7505470459
 11
1925.5086090666
 21
1767.7505470459
  0
LINE
  5
640
100
AcDbEntity
  8
0
100
AcDbLine
 62
7
  6
CONTINUOUS
 10
1911.5086090666
 20
1767.7505470459
 11
1900.5086090666
 21
1767.7505470459
  0
LINE
  5
641
100
AcDbEntity
  8
0
100
AcDbLine
 62
7
  6
CONTINUOUS
 10
1886.5086090666
 20
1767.7505470459
 11
1875.5086090666
 21
1767.7505470459
  0
LINE
  5
642
100
AcDbEntity
  8
0
100
AcDbLine
 62
7
  6
CONTINUOUS
 10
1861.5086090666
 20
1767.7505470459
 11
1850.5086090666
 21
1767.7505470459
  0
LINE
  5
643
100
AcDbEntity
  8
0
100
AcDbLine
 62
7
  6
CONTINUOUS
 10
1836.5086090666
 20
1767.7505470459
 11
1825.5086090666
 21
1767.7505470459
  0
LINE
  5
644
100
AcDbEntity
  8
0
100
AcDbLine
 62
7
  6
CONTINUOUS
 10
1811.5086090666
 20
1767.7505470459
 11
1800.5086090666
 21
1767.7505470459
  0
LINE
  5
645
100
AcDbEntity
  8
0
100
AcDbLine
 62
7
  6
CONTINUOUS
 10
1786.5086090666
 20
1767.7505470459
 11
1775.5086090666
 21
1767.7505470459
  0
LINE
  5
646
100
AcDbEntity
  8
0
100
AcDbLine
 62
7
  6
CONTINUOUS
 10
1761.5086090666
 20
1767.7505470459
 11
1750.5086090666
 21
1767.7505470459
  0
LINE
  5
647
100
AcDbEntity
  8
0
100
AcDbLine
 62
7
  6
CONTINUOUS
 10
1736.5086090666
 20
1767.7505470459
 11
1725.5086090666
 21
1767.7505470459
  0
LINE
  5
648
100
AcDbEntity
  8
0
100
AcDbLine
 62
7
  6
CONTINUOUS
 10
1711.5086090666
 20
1767.7505470459
 11
1700.5086090666
 21
1767.7505470459
  0
LINE
  5
649
100
AcDbEntity
  8
0
100
AcDbLine
 62
7
  6
CONTINUOUS
 10
1686.5086090666
 20
1767.7505470459
 11
1675.5086090666
 21
1767.7505470459
  0
LINE
  5
64A
100
AcDbEntity
  8
0
100
AcDbLine
 62
7
  6
CONTINUOUS
 10
1661.5086090666
 20
1767.7505470459
 11
1650.5086090666
 21
1767.7505470459
  0
LINE
  5
64B
100
AcDbEntity
  8
0
100
AcDbLine
 62
7
  6
CONTINUOUS
 10
1636.5086090666
 20
1767.7505470459
 11
1625.5086090666
 21
1767.7505470459
  0
LINE
  5
64C
100
AcDbEntity
  8
0
100
AcDbLine
 62
7
  6
CONTINUOUS
 10
1611.5086090666
 20
1767.7505470459
 11
1600.5086090666
 21
1767.7505470459
  0
LINE
  5
64D
100
AcDbEntity
  8
0
100
AcDbLine
 62
7
  6
CONTINUOUS
 10
1586.5086090666
 20
1767.7505470459
 11
1575.5086090666
 21
1767.7505470459
  0
LINE
  5
64E
100
AcDbEntity
  8
0
100
AcDbLine
 62
7
  6
CONTINUOUS
 10
1561.5086090666
 20
1767.7505470459
 11
1550.5086090666
 21
1767.7505470459
  0
LINE
  5
64F
100
AcDbEntity
  8
0
100
AcDbLine
 62
7
  6
CONTINUOUS
 10
1536.5086090666
 20
1767.7505470459
 11
1525.5086090666
 21
1767.7505470459
  0
LINE
  5
650
100
AcDbEntity
  8
0
100
AcDbLine
 62
7
  6
CONTINUOUS
 10
1511.5086090666
 20
1767.7505470459
 11
1500.5086090666
 21
1767.7505470459
  0
LINE
  5
651
100
AcDbEntity
  8
0
100
AcDbLine
 62
7
  6
CONTINUOUS
 10
1486.5086090666
 20
1767.7505470459
 11
1475.5086090666
 21
1767.7505470459
  0
LINE
  5
652
100
AcDbEntity
  8
0
100
AcDbLine
 62
7
  6
CONTINUOUS
 10
1461.5086090666
 20
1767.7505470459
 11
1450.5086090666
 21
1767.7505470459
  0
LINE
  5
653
100
AcDbEntity
  8
0
100
AcDbLine
 62
7
  6
CONTINUOUS
 10
1436.5086090666
 20
1767.7505470459
 11
1425.5086090666
 21
1767.7505470459
  0
LINE
  5
654
100
AcDbEntity
  8
0
100
AcDbLine
 62
7
  6
CONTINUOUS
 10
1411.5086090666
 20
1767.7505470459
 11
1400.5086090666
 21
1767.7505470459
  0
LINE
  5
655
100
AcDbEntity
  8
0
100
AcDbLine
 62
7
  6
CONTINUOUS
 10
1386.5086090666
 20
1767.7505470459
 11
1375.5086090666
 21
1767.7505470459
  0
LINE
  5
656
100
AcDbEntity
  8
0
100
AcDbLine
 62
7
  6
CONTINUOUS
 10
1361.5086090666
 20
1767.7505470459
 11
1350.5086090666
 21
1767.7505470459
  0
LINE
  5
657
100
AcDbEntity
  8
0
100
AcDbLine
 62
7
  6
CONTINUOUS
 10
1336.5086090666
 20
1767.7505470459
 11
1325.5086090666
 21
1767.7505470459
  0
LINE
  5
658
100
AcDbEntity
  8
0
100
AcDbLine
 62
7
  6
CONTINUOUS
 10
1311.5086090666
 20
1767.7505470459
 11
1300.5086090666
 21
1767.7505470459
  0
LINE
  5
659
100
AcDbEntity
  8
0
100
AcDbLine
 62
7
  6
CONTINUOUS
 10
1286.5086090666
 20
1767.7505470459
 11
1275.5086090666
 21
1767.7505470459
  0
LINE
  5
65A
100
AcDbEntity
  8
0
100
AcDbLine
 62
7
  6
CONTINUOUS
 10
1261.5086090666
 20
1767.7505470459
 11
1250.5086090666
 21
1767.7505470459
  0
LINE
  5
65B
100
AcDbEntity
  8
0
100
AcDbLine
 62
7
  6
CONTINUOUS
 10
1236.5086090666
 20
1767.7505470459
 11
1225.5086090666
 21
1767.7505470459
  0
LINE
  5
65C
100
AcDbEntity
  8
0
100
AcDbLine
 62
7
  6
CONTINUOUS
 10
1211.5086090666
 20
1767.7505470459
 11
1200.5086090666
 21
1767.7505470459
  0
LINE
  5
65D
100
AcDbEntity
  8
0
100
AcDbLine
 62
7
  6
CONTINUOUS
 10
1186.5086090666
 20
1767.7505470459
 11
1175.5086090666
 21
1767.7505470459
  0
LINE
  5
65E
100
AcDbEntity
  8
0
100
AcDbLine
 62
7
  6
CONTINUOUS
 10
1161.5086090666
 20
1767.7505470459
 11
1150.5086090666
 21
1767.7505470459
  0
LINE
  5
65F
100
AcDbEntity
  8
0
100
AcDbLine
 62
7
  6
CONTINUOUS
 10
1136.5086090666
 20
1767.7505470459
 11
1125.5086090666
 21
1767.7505470459
  0
LINE
  5
660
100
AcDbEntity
  8
0
100
AcDbLine
 62
7
  6
CONTINUOUS
 10
1111.5086090666
 20
1767.7505470459
 11
1100.5086090666
 21
1767.7505470459
  0
LINE
  5
661
100
AcDbEntity
  8
0
100
AcDbLine
 62
7
  6
CONTINUOUS
 10
1086.5086090666
 20
1767.7505470459
 11
1075.5086090666
 21
1767.7505470459
  0
LINE
  5
662
100
AcDbEntity
  8
0
100
AcDbLine
 62
7
  6
CONTINUOUS
 10
1061.5086090666
 20
1767.7505470459
 11
1050.5086090666
 21
1767.7505470459
  0
LINE
  5
663
100
AcDbEntity
  8
0
100
AcDbLine
 62
7
  6
CONTINUOUS
 10
1036.5086090666
 20
1767.7505470459
 11
1025.5086090666
 21
1767.7505470459
  0
LINE
  5
664
100
AcDbEntity
  8
0
100
AcDbLine
 62
7
  6
CONTINUOUS
 10
1011.5086090666
 20
1767.7505470459
 11
1000.5086090666
 21
1767.7505470459
  0
LINE
  5
665
100
AcDbEntity
  8
0
100
AcDbLine
 62
7
  6
CONTINUOUS
 10
986.5086090666
 20
1767.7505470459
 11
975.5086090666
 21
1767.7505470459
  0
LINE
  5
666
100
AcDbEntity
  8
0
100
AcDbLine
 62
7
  6
CONTINUOUS
 10
961.5086090666
 20
1767.7505470459
 11
950.5086090666
 21
1767.7505470459
  0
LINE
  5
667
100
AcDbEntity
  8
0
100
AcDbLine
 62
7
  6
CONTINUOUS
 10
936.5086090666
 20
1767.7505470459
 11
925.5086090666
 21
1767.7505470459
  0
LINE
  5
668
100
AcDbEntity
  8
0
100
AcDbLine
 62
7
  6
CONTINUOUS
 10
911.5086090666
 20
1767.7505470459
 11
900.5086090666
 21
1767.7505470459
  0
LINE
  5
669
100
AcDbEntity
  8
0
100
AcDbLine
 62
7
  6
CONTINUOUS
 10
886.5086090666
 20
1767.7505470459
 11
875.5086090666
 21
1767.7505470459
  0
LINE
  5
66A
100
AcDbEntity
  8
0
100
AcDbLine
 62
7
  6
CONTINUOUS
 10
861.5086090666
 20
1767.7505470459
 11
850.5086090666
 21
1767.7505470459
  0
LINE
  5
66B
100
AcDbEntity
  8
0
100
AcDbLine
 62
7
  6
CONTINUOUS
 10
836.5086090666
 20
1767.7505470459
 11
825.5086090666
 21
1767.7505470459
  0
LINE
  5
66C
100
AcDbEntity
  8
0
100
AcDbLine
 62
7
  6
CONTINUOUS
 10
811.5086090666
 20
1767.7505470459
 11
800.5086090666
 21
1767.7505470459
  0
LINE
  5
66D
100
AcDbEntity
  8
0
100
AcDbLine
 62
7
  6
CONTINUOUS
 10
786.5086090666
 20
1767.7505470459
 11
775.5086090666
 21
1767.7505470459
  0
LINE
  5
66E
100
AcDbEntity
  8
0
100
AcDbLine
 62
7
  6
CONTINUOUS
 10
761.5086090666
 20
1767.7505470459
 11
750.5086090666
 21
1767.7505470459
  0
LINE
  5
66F
100
AcDbEntity
  8
0
100
AcDbLine
 62
7
  6
CONTINUOUS
 10
736.5086090666
 20
1767.7505470459
 11
725.5086090666
 21
1767.7505470459
  0
LINE
  5
670
100
AcDbEntity
  8
0
100
AcDbLine
 62
7
  6
CONTINUOUS
 10
711.5086090666
 20
1767.7505470459
 11
700.5086090666
 21
1767.7505470459
  0
LINE
  5
671
100
AcDbEntity
  8
0
100
AcDbLine
 62
7
  6
CONTINUOUS
 10
686.5086090666
 20
1767.7505470459
 11
675.5086090666
 21
1767.7505470459
  0
LINE
  5
672
100
AcDbEntity
  8
0
100
AcDbLine
 62
7
  6
CONTINUOUS
 10
661.5086090666
 20
1767.7505470459
 11
650.5086090666
 21
1767.7505470459
  0
LINE
  5
673
100
AcDbEntity
  8
0
100
AcDbLine
 62
7
  6
CONTINUOUS
 10
636.5086090666
 20
1767.7505470459
 11
625.5086090666
 21
1767.7505470459
  0
LINE
  5
674
100
AcDbEntity
  8
0
100
AcDbLine
 62
7
  6
CONTINUOUS
 10
611.5086090666
 20
1767.7505470459
 11
600.5086090666
 21
1767.7505470459
  0
LINE
  5
675
100
AcDbEntity
  8
0
100
AcDbLine
 62
7
  6
CONTINUOUS
 10
586.5086090666
 20
1767.7505470459
 11
575.5086090666
 21
1767.7505470459
  0
LINE
  5
676
100
AcDbEntity
  8
0
100
AcDbLine
 62
7
  6
CONTINUOUS
 10
561.5086090666
 20
1767.7505470459
 11
550.5086090666
 21
1767.7505470459
  0
LINE
  5
677
100
AcDbEntity
  8
0
100
AcDbLine
 62
7
  6
CONTINUOUS
 10
536.5086090666
 20
1767.7505470459
 11
525.5086090666
 21
1767.7505470459
  0
LINE
  5
678
100
AcDbEntity
  8
0
100
AcDbLine
 62
7
  6
CONTINUOUS
 10
511.5086090666
 20
1767.7505470459
 11
500.5086090666
 21
1767.7505470459
  0
LINE
  5
679
100
AcDbEntity
  8
0
100
AcDbLine
 62
7
  6
CONTINUOUS
 10
486.5086090666
 20
1767.7505470459
 11
475.5086090666
 21
1767.7505470459
  0
LINE
  5
67A
100
AcDbEntity
  8
0
100
AcDbLine
 62
7
  6
CONTINUOUS
 10
461.5086090666
 20
1767.7505470459
 11
450.5086090666
 21
1767.7505470459
  0
LINE
  5
67B
100
AcDbEntity
  8
0
100
AcDbLine
 62
7
  6
CONTINUOUS
 10
436.5086090666
 20
1767.7505470459
 11
425.5086090666
 21
1767.7505470459
  0
LINE
  5
67C
100
AcDbEntity
  8
0
100
AcDbLine
 62
7
  6
CONTINUOUS
 10
411.5086090666
 20
1767.7505470459
 11
400.5086090666
 21
1767.7505470459
  0
LINE
  5
67D
100
AcDbEntity
  8
0
100
AcDbLine
 62
7
  6
CONTINUOUS
 10
386.5086090666
 20
1767.7505470459
 11
375.5086090666
 21
1767.7505470459
  0
LINE
  5
67E
100
AcDbEntity
  8
0
100
AcDbLine
 62
7
  6
CONTINUOUS
 10
361.5086090666
 20
1767.7505470459
 11
350.5086090666
 21
1767.7505470459
  0
LINE
  5
67F
100
AcDbEntity
  8
0
100
AcDbLine
 62
7
  6
CONTINUOUS
 10
336.5086090666
 20
1767.7505470459
 11
325.5086090666
 21
1767.7505470459
  0
LINE
  5
680
100
AcDbEntity
  8
0
100
AcDbLine
 62
7
  6
CONTINUOUS
 10
290.0086090666
 20
1771.2505470459
 11
2197.0086090666
 21
1771.2505470459
  0
LINE
  5
681
100
AcDbEntity
  8
0
100
AcDbLine
 62
7
  6
CONTINUOUS
 10
2197.0086090666
 20
1773.7505470459
 11
290.0086090666
 21
1773.7505470459
  0
LINE
  5
682
100
AcDbEntity
  8
0
100
AcDbLine
 62
7
  6
CONTINUOUS
 10
1325.5086090666
 20
1767.7505470459
 11
1325.5086090666
 21
1754.7505470459
  0
LINE
  5
683
100
AcDbEntity
  8
0
100
AcDbLine
 62
7
  6
CONTINUOUS
 10
1325.5086090666
 20
1742.7505470459
 11
1325.5086090666
 21
1729.7505470459
  0
LINE
  5
684
100
AcDbEntity
  8
0
100
AcDbLine
 62
7
  6
CONTINUOUS
 10
1325.5086090666
 20
1727.7505470459
 11
1325.5086090666
 21
1714.7505470459
  0
LINE
  5
685
100
AcDbEntity
  8
0
100
AcDbLine
 62
7
  6
CONTINUOUS
 10
1325.5086090666
 20
1702.7505470459
 11
1325.5086090666
 21
1689.7505470459
  0
LINE
  5
686
100
AcDbEntity
  8
0
100
AcDbLine
 62
7
  6
CONTINUOUS
 10
1336.5086090666
 20
1689.7505470459
 11
1336.5086090666
 21
1702.7505470459
  0
LINE
  5
687
100
AcDbEntity
  8
0
100
AcDbLine
 62
7
  6
CONTINUOUS
 10
1336.5086090666
 20
1714.7505470459
 11
1336.5086090666
 21
1727.7505470459
  0
LINE
  5
688
100
AcDbEntity
  8
0
100
AcDbLine
 62
7
  6
CONTINUOUS
 10
1336.5086090666
 20
1729.7505470459
 11
1336.5086090666
 21
1742.7505470459
  0
LINE
  5
689
100
AcDbEntity
  8
0
100
AcDbLine
 62
7
  6
CONTINUOUS
 10
1336.5086090666
 20
1754.7505470459
 11
1336.5086090666
 21
1767.7505470459
  0
LINE
  5
68A
100
AcDbEntity
  8
0
100
AcDbLine
 62
7
  6
CONTINUOUS
 10
1350.5086090666
 20
1767.7505470459
 11
1350.5086090666
 21
1754.7505470459
  0
LINE
  5
68B
100
AcDbEntity
  8
0
100
AcDbLine
 62
7
  6
CONTINUOUS
 10
1350.5086090666
 20
1742.7505470459
 11
1350.5086090666
 21
1729.7505470459
  0
LINE
  5
68C
100
AcDbEntity
  8
0
100
AcDbLine
 62
7
  6
CONTINUOUS
 10
1350.5086090666
 20
1727.7505470459
 11
1350.5086090666
 21
1714.7505470459
  0
LINE
  5
68D
100
AcDbEntity
  8
0
100
AcDbLine
 62
7
  6
CONTINUOUS
 10
1350.5086090666
 20
1702.7505470459
 11
1350.5086090666
 21
1689.7505470459
  0
LINE
  5
68E
100
AcDbEntity
  8
0
100
AcDbLine
 62
7
  6
CONTINUOUS
 10
1361.5086090666
 20
1689.7505470459
 11
1361.5086090666
 21
1702.7505470459
  0
LINE
  5
68F
100
AcDbEntity
  8
0
100
AcDbLine
 62
7
  6
CONTINUOUS
 10
1361.5086090666
 20
1714.7505470459
 11
1361.5086090666
 21
1727.7505470459
  0
LINE
  5
690
100
AcDbEntity
  8
0
100
AcDbLine
 62
7
  6
CONTINUOUS
 10
1361.5086090666
 20
1729.7505470459
 11
1361.5086090666
 21
1742.7505470459
  0
LINE
  5
691
100
AcDbEntity
  8
0
100
AcDbLine
 62
7
  6
CONTINUOUS
 10
1361.5086090666
 20
1754.7505470459
 11
1361.5086090666
 21
1767.7505470459
  0
LINE
  5
692
100
AcDbEntity
  8
0
100
AcDbLine
 62
7
  6
CONTINUOUS
 10
1375.5086090666
 20
1767.7505470459
 11
1375.5086090666
 21
1754.7505470459
  0
LINE
  5
693
100
AcDbEntity
  8
0
100
AcDbLine
 62
7
  6
CONTINUOUS
 10
1375.5086090666
 20
1742.7505470459
 11
1375.5086090666
 21
1729.7505470459
  0
LINE
  5
694
100
AcDbEntity
  8
0
100
AcDbLine
 62
7
  6
CONTINUOUS
 10
1375.5086090666
 20
1727.7505470459
 11
1375.5086090666
 21
1714.7505470459
  0
LINE
  5
695
100
AcDbEntity
  8
0
100
AcDbLine
 62
7
  6
CONTINUOUS
 10
1375.5086090666
 20
1702.7505470459
 11
1375.5086090666
 21
1689.7505470459
  0
LINE
  5
696
100
AcDbEntity
  8
0
100
AcDbLine
 62
7
  6
CONTINUOUS
 10
1386.5086090666
 20
1689.7505470459
 11
1386.5086090666
 21
1702.7505470459
  0
LINE
  5
697
100
AcDbEntity
  8
0
100
AcDbLine
 62
7
  6
CONTINUOUS
 10
1386.5086090666
 20
1714.7505470459
 11
1386.5086090666
 21
1727.7505470459
  0
LINE
  5
698
100
AcDbEntity
  8
0
100
AcDbLine
 62
7
  6
CONTINUOUS
 10
1386.5086090666
 20
1729.7505470459
 11
1386.5086090666
 21
1742.7505470459
  0
LINE
  5
699
100
AcDbEntity
  8
0
100
AcDbLine
 62
7
  6
CONTINUOUS
 10
1386.5086090666
 20
1754.7505470459
 11
1386.5086090666
 21
1767.7505470459
  0
LINE
  5
69A
100
AcDbEntity
  8
0
100
AcDbLine
 62
7
  6
CONTINUOUS
 10
1400.5086090666
 20
1767.7505470459
 11
1400.5086090666
 21
1754.7505470459
  0
LINE
  5
69B
100
AcDbEntity
  8
0
100
AcDbLine
 62
7
  6
CONTINUOUS
 10
1400.5086090666
 20
1742.7505470459
 11
1400.5086090666
 21
1729.7505470459
  0
LINE
  5
69C
100
AcDbEntity
  8
0
100
AcDbLine
 62
7
  6
CONTINUOUS
 10
1400.5086090666
 20
1727.7505470459
 11
1400.5086090666
 21
1714.7505470459
  0
LINE
  5
69D
100
AcDbEntity
  8
0
100
AcDbLine
 62
7
  6
CONTINUOUS
 10
1400.5086090666
 20
1702.7505470459
 11
1400.5086090666
 21
1689.7505470459
  0
LINE
  5
69E
100
AcDbEntity
  8
0
100
AcDbLine
 62
7
  6
CONTINUOUS
 10
1411.5086090666
 20
1689.7505470459
 11
1411.5086090666
 21
1702.7505470459
  0
LINE
  5
69F
100
AcDbEntity
  8
0
100
AcDbLine
 62
7
  6
CONTINUOUS
 10
1411.5086090666
 20
1714.7505470459
 11
1411.5086090666
 21
1727.7505470459
  0
LINE
  5
6A0
100
AcDbEntity
  8
0
100
AcDbLine
 62
7
  6
CONTINUOUS
 10
1411.5086090666
 20
1729.7505470459
 11
1411.5086090666
 21
1742.7505470459
  0
LINE
  5
6A1
100
AcDbEntity
  8
0
100
AcDbLine
 62
7
  6
CONTINUOUS
 10
1411.5086090666
 20
1754.7505470459
 11
1411.5086090666
 21
1767.7505470459
  0
LINE
  5
6A2
100
AcDbEntity
  8
0
100
AcDbLine
 62
7
  6
CONTINUOUS
 10
1425.5086090666
 20
1767.7505470459
 11
1425.5086090666
 21
1754.7505470459
  0
LINE
  5
6A3
100
AcDbEntity
  8
0
100
AcDbLine
 62
7
  6
CONTINUOUS
 10
1425.5086090666
 20
1742.7505470459
 11
1425.5086090666
 21
1729.7505470459
  0
LINE
  5
6A4
100
AcDbEntity
  8
0
100
AcDbLine
 62
7
  6
CONTINUOUS
 10
1425.5086090666
 20
1727.7505470459
 11
1425.5086090666
 21
1714.7505470459
  0
LINE
  5
6A5
100
AcDbEntity
  8
0
100
AcDbLine
 62
7
  6
CONTINUOUS
 10
1425.5086090666
 20
1702.7505470459
 11
1425.5086090666
 21
1689.7505470459
  0
LINE
  5
6A6
100
AcDbEntity
  8
0
100
AcDbLine
 62
7
  6
CONTINUOUS
 10
1436.5086090666
 20
1689.7505470459
 11
1436.5086090666
 21
1702.7505470459
  0
LINE
  5
6A7
100
AcDbEntity
  8
0
100
AcDbLine
 62
7
  6
CONTINUOUS
 10
1436.5086090666
 20
1714.7505470459
 11
1436.5086090666
 21
1727.7505470459
  0
LINE
  5
6A8
100
AcDbEntity
  8
0
100
AcDbLine
 62
7
  6
CONTINUOUS
 10
1436.5086090666
 20
1729.7505470459
 11
1436.5086090666
 21
1742.7505470459
  0
LINE
  5
6A9
100
AcDbEntity
  8
0
100
AcDbLine
 62
7
  6
CONTINUOUS
 10
1436.5086090666
 20
1754.7505470459
 11
1436.5086090666
 21
1767.7505470459
  0
LINE
  5
6AA
100
AcDbEntity
  8
0
100
AcDbLine
 62
7
  6
CONTINUOUS
 10
1450.5086090666
 20
1767.7505470459
 11
1450.5086090666
 21
1754.7505470459
  0
LINE
  5
6AB
100
AcDbEntity
  8
0
100
AcDbLine
 62
7
  6
CONTINUOUS
 10
1450.5086090666
 20
1742.7505470459
 11
1450.5086090666
 21
1729.7505470459
  0
LINE
  5
6AC
100
AcDbEntity
  8
0
100
AcDbLine
 62
7
  6
CONTINUOUS
 10
1450.5086090666
 20
1727.7505470459
 11
1450.5086090666
 21
1714.7505470459
  0
LINE
  5
6AD
100
AcDbEntity
  8
0
100
AcDbLine
 62
7
  6
CONTINUOUS
 10
1450.5086090666
 20
1702.7505470459
 11
1450.5086090666
 21
1689.7505470459
  0
LINE
  5
6AE
100
AcDbEntity
  8
0
100
AcDbLine
 62
7
  6
CONTINUOUS
 10
1461.5086090666
 20
1689.7505470459
 11
1461.5086090666
 21
1702.7505470459
  0
LINE
  5
6AF
100
AcDbEntity
  8
0
100
AcDbLine
 62
7
  6
CONTINUOUS
 10
1461.5086090666
 20
1714.7505470459
 11
1461.5086090666
 21
1727.7505470459
  0
LINE
  5
6B0
100
AcDbEntity
  8
0
100
AcDbLine
 62
7
  6
CONTINUOUS
 10
1461.5086090666
 20
1729.7505470459
 11
1461.5086090666
 21
1742.7505470459
  0
LINE
  5
6B1
100
AcDbEntity
  8
0
100
AcDbLine
 62
7
  6
CONTINUOUS
 10
1461.5086090666
 20
1754.7505470459
 11
1461.5086090666
 21
1767.7505470459
  0
LINE
  5
6B2
100
AcDbEntity
  8
0
100
AcDbLine
 62
7
  6
CONTINUOUS
 10
1475.5086090666
 20
1767.7505470459
 11
1475.5086090666
 21
1754.7505470459
  0
LINE
  5
6B3
100
AcDbEntity
  8
0
100
AcDbLine
 62
7
  6
CONTINUOUS
 10
1475.5086090666
 20
1742.7505470459
 11
1475.5086090666
 21
1729.7505470459
  0
LINE
  5
6B4
100
AcDbEntity
  8
0
100
AcDbLine
 62
7
  6
CONTINUOUS
 10
1475.5086090666
 20
1727.7505470459
 11
1475.5086090666
 21
1714.7505470459
  0
LINE
  5
6B5
100
AcDbEntity
  8
0
100
AcDbLine
 62
7
  6
CONTINUOUS
 10
1475.5086090666
 20
1702.7505470459
 11
1475.5086090666
 21
1689.7505470459
  0
LINE
  5
6B6
100
AcDbEntity
  8
0
100
AcDbLine
 62
7
  6
CONTINUOUS
 10
1486.5086090666
 20
1689.7505470459
 11
1486.5086090666
 21
1702.7505470459
  0
LINE
  5
6B7
100
AcDbEntity
  8
0
100
AcDbLine
 62
7
  6
CONTINUOUS
 10
1486.5086090666
 20
1714.7505470459
 11
1486.5086090666
 21
1727.7505470459
  0
LINE
  5
6B8
100
AcDbEntity
  8
0
100
AcDbLine
 62
7
  6
CONTINUOUS
 10
1486.5086090666
 20
1729.7505470459
 11
1486.5086090666
 21
1742.7505470459
  0
LINE
  5
6B9
100
AcDbEntity
  8
0
100
AcDbLine
 62
7
  6
CONTINUOUS
 10
1486.5086090666
 20
1754.7505470459
 11
1486.5086090666
 21
1767.7505470459
  0
LINE
  5
6BA
100
AcDbEntity
  8
0
100
AcDbLine
 62
7
  6
CONTINUOUS
 10
1500.5086090666
 20
1767.7505470459
 11
1500.5086090666
 21
1754.7505470459
  0
LINE
  5
6BB
100
AcDbEntity
  8
0
100
AcDbLine
 62
7
  6
CONTINUOUS
 10
1500.5086090666
 20
1742.7505470459
 11
1500.5086090666
 21
1729.7505470459
  0
LINE
  5
6BC
100
AcDbEntity
  8
0
100
AcDbLine
 62
7
  6
CONTINUOUS
 10
1500.5086090666
 20
1727.7505470459
 11
1500.5086090666
 21
1714.7505470459
  0
LINE
  5
6BD
100
AcDbEntity
  8
0
100
AcDbLine
 62
7
  6
CONTINUOUS
 10
1500.5086090666
 20
1702.7505470459
 11
1500.5086090666
 21
1689.7505470459
  0
LINE
  5
6BE
100
AcDbEntity
  8
0
100
AcDbLine
 62
7
  6
CONTINUOUS
 10
1511.5086090666
 20
1689.7505470459
 11
1511.5086090666
 21
1702.7505470459
  0
LINE
  5
6BF
100
AcDbEntity
  8
0
100
AcDbLine
 62
7
  6
CONTINUOUS
 10
1511.5086090666
 20
1714.7505470459
 11
1511.5086090666
 21
1727.7505470459
  0
LINE
  5
6C0
100
AcDbEntity
  8
0
100
AcDbLine
 62
7
  6
CONTINUOUS
 10
1511.5086090666
 20
1729.7505470459
 11
1511.5086090666
 21
1742.7505470459
  0
LINE
  5
6C1
100
AcDbEntity
  8
0
100
AcDbLine
 62
7
  6
CONTINUOUS
 10
1511.5086090666
 20
1754.7505470459
 11
1511.5086090666
 21
1767.7505470459
  0
LINE
  5
6C2
100
AcDbEntity
  8
0
100
AcDbLine
 62
7
  6
CONTINUOUS
 10
1525.5086090666
 20
1767.7505470459
 11
1525.5086090666
 21
1754.7505470459
  0
LINE
  5
6C3
100
AcDbEntity
  8
0
100
AcDbLine
 62
7
  6
CONTINUOUS
 10
1525.5086090666
 20
1742.7505470459
 11
1525.5086090666
 21
1729.7505470459
  0
LINE
  5
6C4
100
AcDbEntity
  8
0
100
AcDbLine
 62
7
  6
CONTINUOUS
 10
1525.5086090666
 20
1727.7505470459
 11
1525.5086090666
 21
1714.7505470459
  0
LINE
  5
6C5
100
AcDbEntity
  8
0
100
AcDbLine
 62
7
  6
CONTINUOUS
 10
1525.5086090666
 20
1702.7505470459
 11
1525.5086090666
 21
1689.7505470459
  0
LINE
  5
6C6
100
AcDbEntity
  8
0
100
AcDbLine
 62
7
  6
CONTINUOUS
 10
1536.5086090666
 20
1689.7505470459
 11
1536.5086090666
 21
1702.7505470459
  0
LINE
  5
6C7
100
AcDbEntity
  8
0
100
AcDbLine
 62
7
  6
CONTINUOUS
 10
1536.5086090666
 20
1714.7505470459
 11
1536.5086090666
 21
1727.7505470459
  0
LINE
  5
6C8
100
AcDbEntity
  8
0
100
AcDbLine
 62
7
  6
CONTINUOUS
 10
1536.5086090666
 20
1729.7505470459
 11
1536.5086090666
 21
1742.7505470459
  0
LINE
  5
6C9
100
AcDbEntity
  8
0
100
AcDbLine
 62
7
  6
CONTINUOUS
 10
1536.5086090666
 20
1754.7505470459
 11
1536.5086090666
 21
1767.7505470459
  0
LINE
  5
6CA
100
AcDbEntity
  8
0
100
AcDbLine
 62
7
  6
CONTINUOUS
 10
1550.5086090666
 20
1767.7505470459
 11
1550.5086090666
 21
1754.7505470459
  0
LINE
  5
6CB
100
AcDbEntity
  8
0
100
AcDbLine
 62
7
  6
CONTINUOUS
 10
1550.5086090666
 20
1742.7505470459
 11
1550.5086090666
 21
1729.7505470459
  0
LINE
  5
6CC
100
AcDbEntity
  8
0
100
AcDbLine
 62
7
  6
CONTINUOUS
 10
1550.5086090666
 20
1727.7505470459
 11
1550.5086090666
 21
1714.7505470459
  0
LINE
  5
6CD
100
AcDbEntity
  8
0
100
AcDbLine
 62
7
  6
CONTINUOUS
 10
1550.5086090666
 20
1702.7505470459
 11
1550.5086090666
 21
1689.7505470459
  0
LINE
  5
6CE
100
AcDbEntity
  8
0
100
AcDbLine
 62
7
  6
CONTINUOUS
 10
1561.5086090666
 20
1689.7505470459
 11
1561.5086090666
 21
1702.7505470459
  0
LINE
  5
6CF
100
AcDbEntity
  8
0
100
AcDbLine
 62
7
  6
CONTINUOUS
 10
1561.5086090666
 20
1714.7505470459
 11
1561.5086090666
 21
1727.7505470459
  0
LINE
  5
6D0
100
AcDbEntity
  8
0
100
AcDbLine
 62
7
  6
CONTINUOUS
 10
1561.5086090666
 20
1729.7505470459
 11
1561.5086090666
 21
1742.7505470459
  0
LINE
  5
6D1
100
AcDbEntity
  8
0
100
AcDbLine
 62
7
  6
CONTINUOUS
 10
1561.5086090666
 20
1754.7505470459
 11
1561.5086090666
 21
1767.7505470459
  0
LINE
  5
6D2
100
AcDbEntity
  8
0
100
AcDbLine
 62
7
  6
CONTINUOUS
 10
1575.5086090666
 20
1767.7505470459
 11
1575.5086090666
 21
1754.7505470459
  0
LINE
  5
6D3
100
AcDbEntity
  8
0
100
AcDbLine
 62
7
  6
CONTINUOUS
 10
1575.5086090666
 20
1742.7505470459
 11
1575.5086090666
 21
1729.7505470459
  0
LINE
  5
6D4
100
AcDbEntity
  8
0
100
AcDbLine
 62
7
  6
CONTINUOUS
 10
1575.5086090666
 20
1727.7505470459
 11
1575.5086090666
 21
1714.7505470459
  0
LINE
  5
6D5
100
AcDbEntity
  8
0
100
AcDbLine
 62
7
  6
CONTINUOUS
 10
1575.5086090666
 20
1702.7505470459
 11
1575.5086090666
 21
1689.7505470459
  0
LINE
  5
6D6
100
AcDbEntity
  8
0
100
AcDbLine
 62
7
  6
CONTINUOUS
 10
1586.5086090666
 20
1689.7505470459
 11
1586.5086090666
 21
1702.7505470459
  0
LINE
  5
6D7
100
AcDbEntity
  8
0
100
AcDbLine
 62
7
  6
CONTINUOUS
 10
1586.5086090666
 20
1714.7505470459
 11
1586.5086090666
 21
1727.7505470459
  0
LINE
  5
6D8
100
AcDbEntity
  8
0
100
AcDbLine
 62
7
  6
CONTINUOUS
 10
1586.5086090666
 20
1729.7505470459
 11
1586.5086090666
 21
1742.7505470459
  0
LINE
  5
6D9
100
AcDbEntity
  8
0
100
AcDbLine
 62
7
  6
CONTINUOUS
 10
1586.5086090666
 20
1754.7505470459
 11
1586.5086090666
 21
1767.7505470459
  0
LINE
  5
6DA
100
AcDbEntity
  8
0
100
AcDbLine
 62
7
  6
CONTINUOUS
 10
1600.5086090666
 20
1767.7505470459
 11
1600.5086090666
 21
1754.7505470459
  0
LINE
  5
6DB
100
AcDbEntity
  8
0
100
AcDbLine
 62
7
  6
CONTINUOUS
 10
1600.5086090666
 20
1742.7505470459
 11
1600.5086090666
 21
1729.7505470459
  0
LINE
  5
6DC
100
AcDbEntity
  8
0
100
AcDbLine
 62
7
  6
CONTINUOUS
 10
1600.5086090666
 20
1727.7505470459
 11
1600.5086090666
 21
1714.7505470459
  0
LINE
  5
6DD
100
AcDbEntity
  8
0
100
AcDbLine
 62
7
  6
CONTINUOUS
 10
1600.5086090666
 20
1702.7505470459
 11
1600.5086090666
 21
1689.7505470459
  0
LINE
  5
6DE
100
AcDbEntity
  8
0
100
AcDbLine
 62
7
  6
CONTINUOUS
 10
1611.5086090666
 20
1689.7505470459
 11
1611.5086090666
 21
1702.7505470459
  0
LINE
  5
6DF
100
AcDbEntity
  8
0
100
AcDbLine
 62
7
  6
CONTINUOUS
 10
1611.5086090666
 20
1714.7505470459
 11
1611.5086090666
 21
1727.7505470459
  0
LINE
  5
6E0
100
AcDbEntity
  8
0
100
AcDbLine
 62
7
  6
CONTINUOUS
 10
1611.5086090666
 20
1729.7505470459
 11
1611.5086090666
 21
1742.7505470459
  0
LINE
  5
6E1
100
AcDbEntity
  8
0
100
AcDbLine
 62
7
  6
CONTINUOUS
 10
1611.5086090666
 20
1754.7505470459
 11
1611.5086090666
 21
1767.7505470459
  0
LINE
  5
6E2
100
AcDbEntity
  8
0
100
AcDbLine
 62
7
  6
CONTINUOUS
 10
1625.5086090666
 20
1767.7505470459
 11
1625.5086090666
 21
1754.7505470459
  0
LINE
  5
6E3
100
AcDbEntity
  8
0
100
AcDbLine
 62
7
  6
CONTINUOUS
 10
1625.5086090666
 20
1742.7505470459
 11
1625.5086090666
 21
1729.7505470459
  0
LINE
  5
6E4
100
AcDbEntity
  8
0
100
AcDbLine
 62
7
  6
CONTINUOUS
 10
1625.5086090666
 20
1727.7505470459
 11
1625.5086090666
 21
1714.7505470459
  0
LINE
  5
6E5
100
AcDbEntity
  8
0
100
AcDbLine
 62
7
  6
CONTINUOUS
 10
1625.5086090666
 20
1702.7505470459
 11
1625.5086090666
 21
1689.7505470459
  0
LINE
  5
6E6
100
AcDbEntity
  8
0
100
AcDbLine
 62
7
  6
CONTINUOUS
 10
1636.5086090666
 20
1689.7505470459
 11
1636.5086090666
 21
1702.7505470459
  0
LINE
  5
6E7
100
AcDbEntity
  8
0
100
AcDbLine
 62
7
  6
CONTINUOUS
 10
1636.5086090666
 20
1714.7505470459
 11
1636.5086090666
 21
1727.7505470459
  0
LINE
  5
6E8
100
AcDbEntity
  8
0
100
AcDbLine
 62
7
  6
CONTINUOUS
 10
1636.5086090666
 20
1729.7505470459
 11
1636.5086090666
 21
1742.7505470459
  0
LINE
  5
6E9
100
AcDbEntity
  8
0
100
AcDbLine
 62
7
  6
CONTINUOUS
 10
1636.5086090666
 20
1754.7505470459
 11
1636.5086090666
 21
1767.7505470459
  0
LINE
  5
6EA
100
AcDbEntity
  8
0
100
AcDbLine
 62
7
  6
CONTINUOUS
 10
2207.0086090666
 20
1750.7505470459
 11
2210.5086090666
 21
1752.250547046
  0
LINE
  5
6EB
100
AcDbEntity
  8
0
100
AcDbLine
 62
7
  6
CONTINUOUS
 10
2210.5086090666
 20
1705.2505470459
 11
2207.0086090666
 21
1706.750547046
  0
LINE
  5
6EC
100
AcDbEntity
  8
0
100
AcDbLine
 62
7
  6
CONTINUOUS
 10
1650.5086090666
 20
1767.7505470459
 11
1650.5086090666
 21
1754.7505470459
  0
LINE
  5
6ED
100
AcDbEntity
  8
0
100
AcDbLine
 62
7
  6
CONTINUOUS
 10
1650.5086090666
 20
1742.7505470459
 11
1650.5086090666
 21
1729.7505470459
  0
LINE
  5
6EE
100
AcDbEntity
  8
0
100
AcDbLine
 62
7
  6
CONTINUOUS
 10
1650.5086090666
 20
1727.7505470459
 11
1650.5086090666
 21
1714.7505470459
  0
LINE
  5
6EF
100
AcDbEntity
  8
0
100
AcDbLine
 62
7
  6
CONTINUOUS
 10
1650.5086090666
 20
1702.7505470459
 11
1650.5086090666
 21
1689.7505470459
  0
LINE
  5
6F0
100
AcDbEntity
  8
0
100
AcDbLine
 62
7
  6
CONTINUOUS
 10
1661.5086090666
 20
1689.7505470459
 11
1661.5086090666
 21
1702.7505470459
  0
LINE
  5
6F1
100
AcDbEntity
  8
0
100
AcDbLine
 62
7
  6
CONTINUOUS
 10
1661.5086090666
 20
1714.7505470459
 11
1661.5086090666
 21
1727.7505470459
  0
LINE
  5
6F2
100
AcDbEntity
  8
0
100
AcDbLine
 62
7
  6
CONTINUOUS
 10
1661.5086090666
 20
1729.7505470459
 11
1661.5086090666
 21
1742.7505470459
  0
LINE
  5
6F3
100
AcDbEntity
  8
0
100
AcDbLine
 62
7
  6
CONTINUOUS
 10
1661.5086090666
 20
1754.7505470459
 11
1661.5086090666
 21
1767.7505470459
  0
LINE
  5
6F4
100
AcDbEntity
  8
0
100
AcDbLine
 62
7
  6
CONTINUOUS
 10
1675.5086090666
 20
1767.7505470459
 11
1675.5086090666
 21
1754.7505470459
  0
LINE
  5
6F5
100
AcDbEntity
  8
0
100
AcDbLine
 62
7
  6
CONTINUOUS
 10
1675.5086090666
 20
1742.7505470459
 11
1675.5086090666
 21
1729.7505470459
  0
LINE
  5
6F6
100
AcDbEntity
  8
0
100
AcDbLine
 62
7
  6
CONTINUOUS
 10
1675.5086090666
 20
1727.7505470459
 11
1675.5086090666
 21
1714.7505470459
  0
LINE
  5
6F7
100
AcDbEntity
  8
0
100
AcDbLine
 62
7
  6
CONTINUOUS
 10
1675.5086090666
 20
1702.7505470459
 11
1675.5086090666
 21
1689.7505470459
  0
LINE
  5
6F8
100
AcDbEntity
  8
0
100
AcDbLine
 62
7
  6
CONTINUOUS
 10
1686.5086090666
 20
1689.7505470459
 11
1686.5086090666
 21
1702.7505470459
  0
LINE
  5
6F9
100
AcDbEntity
  8
0
100
AcDbLine
 62
7
  6
CONTINUOUS
 10
1686.5086090666
 20
1714.7505470459
 11
1686.5086090666
 21
1727.7505470459
  0
LINE
  5
6FA
100
AcDbEntity
  8
0
100
AcDbLine
 62
7
  6
CONTINUOUS
 10
1686.5086090666
 20
1729.7505470459
 11
1686.5086090666
 21
1742.7505470459
  0
LINE
  5
6FB
100
AcDbEntity
  8
0
100
AcDbLine
 62
7
  6
CONTINUOUS
 10
1686.5086090666
 20
1754.7505470459
 11
1686.5086090666
 21
1767.7505470459
  0
LINE
  5
6FC
100
AcDbEntity
  8
0
100
AcDbLine
 62
7
  6
CONTINUOUS
 10
1700.5086090666
 20
1767.7505470459
 11
1700.5086090666
 21
1754.7505470459
  0
LINE
  5
6FD
100
AcDbEntity
  8
0
100
AcDbLine
 62
7
  6
CONTINUOUS
 10
1700.5086090666
 20
1742.7505470459
 11
1700.5086090666
 21
1729.7505470459
  0
LINE
  5
6FE
100
AcDbEntity
  8
0
100
AcDbLine
 62
7
  6
CONTINUOUS
 10
1700.5086090666
 20
1727.7505470459
 11
1700.5086090666
 21
1714.7505470459
  0
LINE
  5
6FF
100
AcDbEntity
  8
0
100
AcDbLine
 62
7
  6
CONTINUOUS
 10
1700.5086090666
 20
1702.7505470459
 11
1700.5086090666
 21
1689.7505470459
  0
LINE
  5
700
100
AcDbEntity
  8
0
100
AcDbLine
 62
7
  6
CONTINUOUS
 10
2188.0086090666
 20
1756.3486232573
 11
2187.2586090666
 21
1755.9156105554
  0
LINE
  5
701
100
AcDbEntity
  8
0
100
AcDbLine
 62
7
  6
CONTINUOUS
 10
2185.0086090666
 20
1754.6165724497
 11
2184.2586090666
 21
1754.1835597478
  0
LINE
  5
702
100
AcDbEntity
  8
0
100
AcDbLine
 62
7
  6
CONTINUOUS
 10
2186.0086090666
 20
1751.1524708346
 11
2186.7586090666
 21
1751.5854835365
  0
LINE
  5
703
100
AcDbEntity
  8
0
100
AcDbLine
 62
7
  6
CONTINUOUS
 10
2189.0086090666
 20
1752.8845216422
 11
2189.7586090666
 21
1753.3175343441
  0
LINE
  5
704
100
AcDbEntity
  8
0
100
AcDbLine
 62
7
  6
CONTINUOUS
 10
2207.0086090666
 20
1700.7505470459
 11
2210.5086090666
 21
1702.250547046
  0
LINE
  5
705
100
AcDbEntity
  8
0
100
AcDbLine
 62
7
  6
CONTINUOUS
 10
2210.5086090666
 20
1755.2505470459
 11
2207.0086090666
 21
1756.750547046
  0
LINE
  5
706
100
AcDbEntity
  8
0
100
AcDbLine
 62
7
  6
CONTINUOUS
 10
2184.2586090666
 20
1703.3175343441
 11
2185.0086090666
 21
1702.8845216422
  0
LINE
  5
707
100
AcDbEntity
  8
0
100
AcDbLine
 62
7
  6
CONTINUOUS
 10
2187.2586090666
 20
1701.5854835365
 11
2188.0086090666
 21
1701.1524708346
  0
LINE
  5
708
100
AcDbEntity
  8
0
100
AcDbLine
 62
7
  6
CONTINUOUS
 10
2189.7586090666
 20
1704.1835597478
 11
2189.0086090666
 21
1704.6165724497
  0
LINE
  5
709
100
AcDbEntity
  8
0
100
AcDbLine
 62
7
  6
CONTINUOUS
 10
2186.7586090666
 20
1705.9156105554
 11
2186.0086090666
 21
1706.3486232573
  0
LINE
  5
70A
100
AcDbEntity
  8
0
100
AcDbLine
 62
7
  6
CONTINUOUS
 10
1711.5086090666
 20
1689.7505470459
 11
1711.5086090666
 21
1702.7505470459
  0
LINE
  5
70B
100
AcDbEntity
  8
0
100
AcDbLine
 62
7
  6
CONTINUOUS
 10
1711.5086090666
 20
1714.7505470459
 11
1711.5086090666
 21
1727.7505470459
  0
LINE
  5
70C
100
AcDbEntity
  8
0
100
AcDbLine
 62
7
  6
CONTINUOUS
 10
1711.5086090666
 20
1729.7505470459
 11
1711.5086090666
 21
1742.7505470459
  0
LINE
  5
70D
100
AcDbEntity
  8
0
100
AcDbLine
 62
7
  6
CONTINUOUS
 10
1711.5086090666
 20
1754.7505470459
 11
1711.5086090666
 21
1767.7505470459
  0
LINE
  5
70E
100
AcDbEntity
  8
0
100
AcDbLine
 62
7
  6
CONTINUOUS
 10
1725.5086090666
 20
1767.7505470459
 11
1725.5086090666
 21
1754.7505470459
  0
LINE
  5
70F
100
AcDbEntity
  8
0
100
AcDbLine
 62
7
  6
CONTINUOUS
 10
1725.5086090666
 20
1742.7505470459
 11
1725.5086090666
 21
1729.7505470459
  0
LINE
  5
710
100
AcDbEntity
  8
0
100
AcDbLine
 62
7
  6
CONTINUOUS
 10
1725.5086090666
 20
1727.7505470459
 11
1725.5086090666
 21
1714.7505470459
  0
LINE
  5
711
100
AcDbEntity
  8
0
100
AcDbLine
 62
7
  6
CONTINUOUS
 10
1725.5086090666
 20
1702.7505470459
 11
1725.5086090666
 21
1689.7505470459
  0
LINE
  5
712
100
AcDbEntity
  8
0
100
AcDbLine
 62
7
  6
CONTINUOUS
 10
1736.5086090666
 20
1689.7505470459
 11
1736.5086090666
 21
1702.7505470459
  0
LINE
  5
713
100
AcDbEntity
  8
0
100
AcDbLine
 62
7
  6
CONTINUOUS
 10
1736.5086090666
 20
1714.7505470459
 11
1736.5086090666
 21
1727.7505470459
  0
LINE
  5
714
100
AcDbEntity
  8
0
100
AcDbLine
 62
7
  6
CONTINUOUS
 10
1736.5086090666
 20
1729.7505470459
 11
1736.5086090666
 21
1742.7505470459
  0
LINE
  5
715
100
AcDbEntity
  8
0
100
AcDbLine
 62
7
  6
CONTINUOUS
 10
1736.5086090666
 20
1754.7505470459
 11
1736.5086090666
 21
1767.7505470459
  0
LINE
  5
716
100
AcDbEntity
  8
0
100
AcDbLine
 62
7
  6
CONTINUOUS
 10
1750.5086090666
 20
1767.7505470459
 11
1750.5086090666
 21
1754.7505470459
  0
LINE
  5
717
100
AcDbEntity
  8
0
100
AcDbLine
 62
7
  6
CONTINUOUS
 10
1750.5086090666
 20
1742.7505470459
 11
1750.5086090666
 21
1729.7505470459
  0
LINE
  5
718
100
AcDbEntity
  8
0
100
AcDbLine
 62
7
  6
CONTINUOUS
 10
1750.5086090666
 20
1727.7505470459
 11
1750.5086090666
 21
1714.7505470459
  0
LINE
  5
719
100
AcDbEntity
  8
0
100
AcDbLine
 62
7
  6
CONTINUOUS
 10
1750.5086090666
 20
1702.7505470459
 11
1750.5086090666
 21
1689.7505470459
  0
LINE
  5
71A
100
AcDbEntity
  8
0
100
AcDbLine
 62
7
  6
CONTINUOUS
 10
1761.5086090666
 20
1689.7505470459
 11
1761.5086090666
 21
1702.7505470459
  0
LINE
  5
71B
100
AcDbEntity
  8
0
100
AcDbLine
 62
7
  6
CONTINUOUS
 10
1761.5086090666
 20
1714.7505470459
 11
1761.5086090666
 21
1727.7505470459
  0
LINE
  5
71C
100
AcDbEntity
  8
0
100
AcDbLine
 62
7
  6
CONTINUOUS
 10
1761.5086090666
 20
1729.7505470459
 11
1761.5086090666
 21
1742.7505470459
  0
LINE
  5
71D
100
AcDbEntity
  8
0
100
AcDbLine
 62
7
  6
CONTINUOUS
 10
1761.5086090666
 20
1754.7505470459
 11
1761.5086090666
 21
1767.7505470459
  0
LINE
  5
71E
100
AcDbEntity
  8
0
100
AcDbLine
 62
7
  6
CONTINUOUS
 10
2188.0086090666
 20
1706.3486232573
 11
2187.2586090666
 21
1705.9156105554
  0
LINE
  5
71F
100
AcDbEntity
  8
0
100
AcDbLine
 62
7
  6
CONTINUOUS
 10
2185.0086090666
 20
1704.6165724497
 11
2184.2586090666
 21
1704.1835597478
  0
LINE
  5
720
100
AcDbEntity
  8
0
100
AcDbLine
 62
7
  6
CONTINUOUS
 10
2186.0086090666
 20
1701.1524708346
 11
2186.7586090666
 21
1701.5854835365
  0
LINE
  5
721
100
AcDbEntity
  8
0
100
AcDbLine
 62
7
  6
CONTINUOUS
 10
2189.0086090666
 20
1702.8845216422
 11
2189.7586090666
 21
1703.3175343441
  0
LINE
  5
722
100
AcDbEntity
  8
0
100
AcDbLine
 62
7
  6
CONTINUOUS
 10
2184.2586090666
 20
1753.3175343441
 11
2185.0086090666
 21
1752.8845216422
  0
LINE
  5
723
100
AcDbEntity
  8
0
100
AcDbLine
 62
7
  6
CONTINUOUS
 10
2187.2586090666
 20
1751.5854835365
 11
2188.0086090666
 21
1751.1524708346
  0
LINE
  5
724
100
AcDbEntity
  8
0
100
AcDbLine
 62
7
  6
CONTINUOUS
 10
2189.7586090666
 20
1754.1835597478
 11
2189.0086090666
 21
1754.6165724497
  0
LINE
  5
725
100
AcDbEntity
  8
0
100
AcDbLine
 62
7
  6
CONTINUOUS
 10
2186.7586090666
 20
1755.9156105554
 11
2186.0086090666
 21
1756.3486232573
  0
LINE
  5
726
100
AcDbEntity
  8
0
100
AcDbLine
 62
7
  6
CONTINUOUS
 10
1775.5086090666
 20
1767.7505470459
 11
1775.5086090666
 21
1754.7505470459
  0
LINE
  5
727
100
AcDbEntity
  8
0
100
AcDbLine
 62
7
  6
CONTINUOUS
 10
1775.5086090666
 20
1742.7505470459
 11
1775.5086090666
 21
1729.7505470459
  0
LINE
  5
728
100
AcDbEntity
  8
0
100
AcDbLine
 62
7
  6
CONTINUOUS
 10
1775.5086090666
 20
1727.7505470459
 11
1775.5086090666
 21
1714.7505470459
  0
LINE
  5
729
100
AcDbEntity
  8
0
100
AcDbLine
 62
7
  6
CONTINUOUS
 10
1775.5086090666
 20
1702.7505470459
 11
1775.5086090666
 21
1689.7505470459
  0
LINE
  5
72A
100
AcDbEntity
  8
0
100
AcDbLine
 62
7
  6
CONTINUOUS
 10
1786.5086090666
 20
1689.7505470459
 11
1786.5086090666
 21
1702.7505470459
  0
LINE
  5
72B
100
AcDbEntity
  8
0
100
AcDbLine
 62
7
  6
CONTINUOUS
 10
1786.5086090666
 20
1714.7505470459
 11
1786.5086090666
 21
1727.7505470459
  0
LINE
  5
72C
100
AcDbEntity
  8
0
100
AcDbLine
 62
7
  6
CONTINUOUS
 10
1786.5086090666
 20
1729.7505470459
 11
1786.5086090666
 21
1742.7505470459
  0
LINE
  5
72D
100
AcDbEntity
  8
0
100
AcDbLine
 62
7
  6
CONTINUOUS
 10
1786.5086090666
 20
1754.7505470459
 11
1786.5086090666
 21
1767.7505470459
  0
LINE
  5
72E
100
AcDbEntity
  8
0
100
AcDbLine
 62
7
  6
CONTINUOUS
 10
1800.5086090666
 20
1767.7505470459
 11
1800.5086090666
 21
1754.7505470459
  0
LINE
  5
72F
100
AcDbEntity
  8
0
100
AcDbLine
 62
7
  6
CONTINUOUS
 10
1800.5086090666
 20
1742.7505470459
 11
1800.5086090666
 21
1729.7505470459
  0
LINE
  5
730
100
AcDbEntity
  8
0
100
AcDbLine
 62
7
  6
CONTINUOUS
 10
1800.5086090666
 20
1727.7505470459
 11
1800.5086090666
 21
1714.7505470459
  0
LINE
  5
731
100
AcDbEntity
  8
0
100
AcDbLine
 62
7
  6
CONTINUOUS
 10
1800.5086090666
 20
1702.7505470459
 11
1800.5086090666
 21
1689.7505470459
  0
LINE
  5
732
100
AcDbEntity
  8
0
100
AcDbLine
 62
7
  6
CONTINUOUS
 10
1811.5086090666
 20
1689.7505470459
 11
1811.5086090666
 21
1702.7505470459
  0
LINE
  5
733
100
AcDbEntity
  8
0
100
AcDbLine
 62
7
  6
CONTINUOUS
 10
1811.5086090666
 20
1714.7505470459
 11
1811.5086090666
 21
1727.7505470459
  0
LINE
  5
734
100
AcDbEntity
  8
0
100
AcDbLine
 62
7
  6
CONTINUOUS
 10
1811.5086090666
 20
1729.7505470459
 11
1811.5086090666
 21
1742.7505470459
  0
LINE
  5
735
100
AcDbEntity
  8
0
100
AcDbLine
 62
7
  6
CONTINUOUS
 10
1811.5086090666
 20
1754.7505470459
 11
1811.5086090666
 21
1767.7505470459
  0
LINE
  5
736
100
AcDbEntity
  8
0
100
AcDbLine
 62
7
  6
CONTINUOUS
 10
1825.5086090666
 20
1767.7505470459
 11
1825.5086090666
 21
1754.7505470459
  0
LINE
  5
737
100
AcDbEntity
  8
0
100
AcDbLine
 62
7
  6
CONTINUOUS
 10
1825.5086090666
 20
1742.7505470459
 11
1825.5086090666
 21
1729.7505470459
  0
LINE
  5
738
100
AcDbEntity
  8
0
100
AcDbLine
 62
7
  6
CONTINUOUS
 10
1825.5086090666
 20
1727.7505470459
 11
1825.5086090666
 21
1714.7505470459
  0
LINE
  5
739
100
AcDbEntity
  8
0
100
AcDbLine
 62
7
  6
CONTINUOUS
 10
1825.5086090666
 20
1702.7505470459
 11
1825.5086090666
 21
1689.7505470459
  0
LINE
  5
73A
100
AcDbEntity
  8
0
100
AcDbLine
 62
7
  6
CONTINUOUS
 10
1836.5086090666
 20
1689.7505470459
 11
1836.5086090666
 21
1702.7505470459
  0
LINE
  5
73B
100
AcDbEntity
  8
0
100
AcDbLine
 62
7
  6
CONTINUOUS
 10
1836.5086090666
 20
1714.7505470459
 11
1836.5086090666
 21
1727.7505470459
  0
LINE
  5
73C
100
AcDbEntity
  8
0
100
AcDbLine
 62
7
  6
CONTINUOUS
 10
1836.5086090666
 20
1729.7505470459
 11
1836.5086090666
 21
1742.7505470459
  0
LINE
  5
73D
100
AcDbEntity
  8
0
100
AcDbLine
 62
7
  6
CONTINUOUS
 10
1836.5086090666
 20
1754.7505470459
 11
1836.5086090666
 21
1767.7505470459
  0
LINE
  5
73E
100
AcDbEntity
  8
0
100
AcDbLine
 62
7
  6
CONTINUOUS
 10
1850.5086090666
 20
1767.7505470459
 11
1850.5086090666
 21
1754.7505470459
  0
LINE
  5
73F
100
AcDbEntity
  8
0
100
AcDbLine
 62
7
  6
CONTINUOUS
 10
1850.5086090666
 20
1742.7505470459
 11
1850.5086090666
 21
1729.7505470459
  0
LINE
  5
740
100
AcDbEntity
  8
0
100
AcDbLine
 62
7
  6
CONTINUOUS
 10
1850.5086090666
 20
1727.7505470459
 11
1850.5086090666
 21
1714.7505470459
  0
LINE
  5
741
100
AcDbEntity
  8
0
100
AcDbLine
 62
7
  6
CONTINUOUS
 10
1850.5086090666
 20
1702.7505470459
 11
1850.5086090666
 21
1689.7505470459
  0
LINE
  5
742
100
AcDbEntity
  8
0
100
AcDbLine
 62
7
  6
CONTINUOUS
 10
1861.5086090666
 20
1689.7505470459
 11
1861.5086090666
 21
1702.7505470459
  0
LINE
  5
743
100
AcDbEntity
  8
0
100
AcDbLine
 62
7
  6
CONTINUOUS
 10
1861.5086090666
 20
1714.7505470459
 11
1861.5086090666
 21
1727.7505470459
  0
LINE
  5
744
100
AcDbEntity
  8
0
100
AcDbLine
 62
7
  6
CONTINUOUS
 10
1861.5086090666
 20
1729.7505470459
 11
1861.5086090666
 21
1742.7505470459
  0
LINE
  5
745
100
AcDbEntity
  8
0
100
AcDbLine
 62
7
  6
CONTINUOUS
 10
1861.5086090666
 20
1754.7505470459
 11
1861.5086090666
 21
1767.7505470459
  0
LINE
  5
746
100
AcDbEntity
  8
0
100
AcDbLine
 62
7
  6
CONTINUOUS
 10
1875.5086090666
 20
1767.7505470459
 11
1875.5086090666
 21
1754.7505470459
  0
LINE
  5
747
100
AcDbEntity
  8
0
100
AcDbLine
 62
7
  6
CONTINUOUS
 10
1875.5086090666
 20
1742.7505470459
 11
1875.5086090666
 21
1729.7505470459
  0
LINE
  5
748
100
AcDbEntity
  8
0
100
AcDbLine
 62
7
  6
CONTINUOUS
 10
1875.5086090666
 20
1727.7505470459
 11
1875.5086090666
 21
1714.7505470459
  0
LINE
  5
749
100
AcDbEntity
  8
0
100
AcDbLine
 62
7
  6
CONTINUOUS
 10
1875.5086090666
 20
1702.7505470459
 11
1875.5086090666
 21
1689.7505470459
  0
LINE
  5
74A
100
AcDbEntity
  8
0
100
AcDbLine
 62
7
  6
CONTINUOUS
 10
1886.5086090666
 20
1689.7505470459
 11
1886.5086090666
 21
1702.7505470459
  0
LINE
  5
74B
100
AcDbEntity
  8
0
100
AcDbLine
 62
7
  6
CONTINUOUS
 10
1886.5086090666
 20
1714.7505470459
 11
1886.5086090666
 21
1727.7505470459
  0
LINE
  5
74C
100
AcDbEntity
  8
0
100
AcDbLine
 62
7
  6
CONTINUOUS
 10
1886.5086090666
 20
1729.7505470459
 11
1886.5086090666
 21
1742.7505470459
  0
LINE
  5
74D
100
AcDbEntity
  8
0
100
AcDbLine
 62
7
  6
CONTINUOUS
 10
1886.5086090666
 20
1754.7505470459
 11
1886.5086090666
 21
1767.7505470459
  0
LINE
  5
74E
100
AcDbEntity
  8
0
100
AcDbLine
 62
7
  6
CONTINUOUS
 10
2183.0236951061
 20
1716.6505470459
 11
2182.0320247994
 21
1717.5916070289
  0
LINE
  5
74F
100
AcDbEntity
  8
0
100
AcDbLine
 62
7
  6
CONTINUOUS
 10
1900.5086090666
 20
1767.7505470459
 11
1900.5086090666
 21
1754.7505470459
  0
LINE
  5
750
100
AcDbEntity
  8
0
100
AcDbLine
 62
7
  6
CONTINUOUS
 10
1900.5086090666
 20
1742.7505470459
 11
1900.5086090666
 21
1729.7505470459
  0
LINE
  5
751
100
AcDbEntity
  8
0
100
AcDbLine
 62
7
  6
CONTINUOUS
 10
1900.5086090666
 20
1727.7505470459
 11
1900.5086090666
 21
1714.7505470459
  0
LINE
  5
752
100
AcDbEntity
  8
0
100
AcDbLine
 62
7
  6
CONTINUOUS
 10
1900.5086090666
 20
1702.7505470459
 11
1900.5086090666
 21
1689.7505470459
  0
LINE
  5
753
100
AcDbEntity
  8
0
100
AcDbLine
 62
7
  6
CONTINUOUS
 10
1911.5086090666
 20
1689.7505470459
 11
1911.5086090666
 21
1702.7505470459
  0
LINE
  5
754
100
AcDbEntity
  8
0
100
AcDbLine
 62
7
  6
CONTINUOUS
 10
1911.5086090666
 20
1714.7505470459
 11
1911.5086090666
 21
1727.7505470459
  0
LINE
  5
755
100
AcDbEntity
  8
0
100
AcDbLine
 62
7
  6
CONTINUOUS
 10
1911.5086090666
 20
1729.7505470459
 11
1911.5086090666
 21
1742.7505470459
  0
LINE
  5
756
100
AcDbEntity
  8
0
100
AcDbLine
 62
7
  6
CONTINUOUS
 10
1911.5086090666
 20
1754.7505470459
 11
1911.5086090666
 21
1767.7505470459
  0
LINE
  5
757
100
AcDbEntity
  8
0
100
AcDbLine
 62
7
  6
CONTINUOUS
 10
1925.5086090666
 20
1767.7505470459
 11
1925.5086090666
 21
1754.7505470459
  0
LINE
  5
758
100
AcDbEntity
  8
0
100
AcDbLine
 62
7
  6
CONTINUOUS
 10
1925.5086090666
 20
1742.7505470459
 11
1925.5086090666
 21
1729.7505470459
  0
LINE
  5
759
100
AcDbEntity
  8
0
100
AcDbLine
 62
7
  6
CONTINUOUS
 10
1925.5086090666
 20
1727.7505470459
 11
1925.5086090666
 21
1714.7505470459
  0
LINE
  5
75A
100
AcDbEntity
  8
0
100
AcDbLine
 62
7
  6
CONTINUOUS
 10
1925.5086090666
 20
1702.7505470459
 11
1925.5086090666
 21
1689.7505470459
  0
LINE
  5
75B
100
AcDbEntity
  8
0
100
AcDbLine
 62
7
  6
CONTINUOUS
 10
1936.5086090666
 20
1689.7505470459
 11
1936.5086090666
 21
1702.7505470459
  0
LINE
  5
75C
100
AcDbEntity
  8
0
100
AcDbLine
 62
7
  6
CONTINUOUS
 10
1936.5086090666
 20
1714.7505470459
 11
1936.5086090666
 21
1727.7505470459
  0
LINE
  5
75D
100
AcDbEntity
  8
0
100
AcDbLine
 62
7
  6
CONTINUOUS
 10
1936.5086090666
 20
1729.7505470459
 11
1936.5086090666
 21
1742.7505470459
  0
LINE
  5
75E
100
AcDbEntity
  8
0
100
AcDbLine
 62
7
  6
CONTINUOUS
 10
1936.5086090666
 20
1754.7505470459
 11
1936.5086090666
 21
1767.7505470459
  0
LINE
  5
75F
100
AcDbEntity
  8
0
100
AcDbLine
 62
7
  6
CONTINUOUS
 10
1950.5086090666
 20
1767.7505470459
 11
1950.5086090666
 21
1754.7505470459
  0
LINE
  5
760
100
AcDbEntity
  8
0
100
AcDbLine
 62
7
  6
CONTINUOUS
 10
1950.5086090666
 20
1742.7505470459
 11
1950.5086090666
 21
1729.7505470459
  0
LINE
  5
761
100
AcDbEntity
  8
0
100
AcDbLine
 62
7
  6
CONTINUOUS
 10
1950.5086090666
 20
1727.7505470459
 11
1950.5086090666
 21
1714.7505470459
  0
LINE
  5
762
100
AcDbEntity
  8
0
100
AcDbLine
 62
7
  6
CONTINUOUS
 10
1950.5086090666
 20
1702.7505470459
 11
1950.5086090666
 21
1689.7505470459
  0
LINE
  5
763
100
AcDbEntity
  8
0
100
AcDbLine
 62
7
  6
CONTINUOUS
 10
1961.5086090666
 20
1689.7505470459
 11
1961.5086090666
 21
1702.7505470459
  0
LINE
  5
764
100
AcDbEntity
  8
0
100
AcDbLine
 62
7
  6
CONTINUOUS
 10
1961.5086090666
 20
1714.7505470459
 11
1961.5086090666
 21
1727.7505470459
  0
LINE
  5
765
100
AcDbEntity
  8
0
100
AcDbLine
 62
7
  6
CONTINUOUS
 10
1961.5086090666
 20
1729.7505470459
 11
1961.5086090666
 21
1742.7505470459
  0
LINE
  5
766
100
AcDbEntity
  8
0
100
AcDbLine
 62
7
  6
CONTINUOUS
 10
1961.5086090666
 20
1754.7505470459
 11
1961.5086090666
 21
1767.7505470459
  0
LINE
  5
767
100
AcDbEntity
  8
0
100
AcDbLine
 62
7
  6
CONTINUOUS
 10
2192.0720253856
 20
1717.5916070288
 11
2191.080355079
 21
1716.650547046
  0
LINE
  5
768
100
AcDbEntity
  8
0
100
AcDbLine
 62
7
  6
CONTINUOUS
 10
1975.5086090666
 20
1767.7505470459
 11
1975.5086090666
 21
1754.7505470459
  0
LINE
  5
769
100
AcDbEntity
  8
0
100
AcDbLine
 62
7
  6
CONTINUOUS
 10
1975.5086090666
 20
1742.7505470459
 11
1975.5086090666
 21
1729.7505470459
  0
LINE
  5
76A
100
AcDbEntity
  8
0
100
AcDbLine
 62
7
  6
CONTINUOUS
 10
1975.5086090666
 20
1727.7505470459
 11
1975.5086090666
 21
1714.7505470459
  0
LINE
  5
76B
100
AcDbEntity
  8
0
100
AcDbLine
 62
7
  6
CONTINUOUS
 10
1975.5086090666
 20
1702.7505470459
 11
1975.5086090666
 21
1689.7505470459
  0
LINE
  5
76C
100
AcDbEntity
  8
0
100
AcDbLine
 62
7
  6
CONTINUOUS
 10
1986.5086090666
 20
1689.7505470459
 11
1986.5086090666
 21
1702.7505470459
  0
LINE
  5
76D
100
AcDbEntity
  8
0
100
AcDbLine
 62
7
  6
CONTINUOUS
 10
1986.5086090666
 20
1714.7505470459
 11
1986.5086090666
 21
1727.7505470459
  0
LINE
  5
76E
100
AcDbEntity
  8
0
100
AcDbLine
 62
7
  6
CONTINUOUS
 10
1986.5086090666
 20
1729.7505470459
 11
1986.5086090666
 21
1742.7505470459
  0
LINE
  5
76F
100
AcDbEntity
  8
0
100
AcDbLine
 62
7
  6
CONTINUOUS
 10
1986.5086090666
 20
1754.7505470459
 11
1986.5086090666
 21
1767.7505470459
  0
LINE
  5
770
100
AcDbEntity
  8
0
100
AcDbLine
 62
7
  6
CONTINUOUS
 10
2000.5086090666
 20
1767.7505470459
 11
2000.5086090666
 21
1754.7505470459
  0
LINE
  5
771
100
AcDbEntity
  8
0
100
AcDbLine
 62
7
  6
CONTINUOUS
 10
2000.5086090666
 20
1742.7505470459
 11
2000.5086090666
 21
1729.7505470459
  0
LINE
  5
772
100
AcDbEntity
  8
0
100
AcDbLine
 62
7
  6
CONTINUOUS
 10
2000.5086090666
 20
1727.7505470459
 11
2000.5086090666
 21
1714.7505470459
  0
LINE
  5
773
100
AcDbEntity
  8
0
100
AcDbLine
 62
7
  6
CONTINUOUS
 10
2000.5086090666
 20
1702.7505470459
 11
2000.5086090666
 21
1689.7505470459
  0
LINE
  5
774
100
AcDbEntity
  8
0
100
AcDbLine
 62
7
  6
CONTINUOUS
 10
2011.5086090666
 20
1689.7505470459
 11
2011.5086090666
 21
1702.7505470459
  0
LINE
  5
775
100
AcDbEntity
  8
0
100
AcDbLine
 62
7
  6
CONTINUOUS
 10
2011.5086090666
 20
1714.7505470459
 11
2011.5086090666
 21
1727.7505470459
  0
LINE
  5
776
100
AcDbEntity
  8
0
100
AcDbLine
 62
7
  6
CONTINUOUS
 10
2011.5086090666
 20
1729.7505470459
 11
2011.5086090666
 21
1742.7505470459
  0
LINE
  5
777
100
AcDbEntity
  8
0
100
AcDbLine
 62
7
  6
CONTINUOUS
 10
2011.5086090666
 20
1754.7505470459
 11
2011.5086090666
 21
1767.7505470459
  0
LINE
  5
778
100
AcDbEntity
  8
0
100
AcDbLine
 62
7
  6
CONTINUOUS
 10
2025.5086090666
 20
1767.7505470459
 11
2025.5086090666
 21
1754.7505470459
  0
LINE
  5
779
100
AcDbEntity
  8
0
100
AcDbLine
 62
7
  6
CONTINUOUS
 10
2025.5086090666
 20
1742.7505470459
 11
2025.5086090666
 21
1729.7505470459
  0
LINE
  5
77A
100
AcDbEntity
  8
0
100
AcDbLine
 62
7
  6
CONTINUOUS
 10
2025.5086090666
 20
1727.7505470459
 11
2025.5086090666
 21
1714.7505470459
  0
LINE
  5
77B
100
AcDbEntity
  8
0
100
AcDbLine
 62
7
  6
CONTINUOUS
 10
2025.5086090666
 20
1702.7505470459
 11
2025.5086090666
 21
1689.7505470459
  0
LINE
  5
77C
100
AcDbEntity
  8
0
100
AcDbLine
 62
7
  6
CONTINUOUS
 10
2036.5086090666
 20
1689.7505470459
 11
2036.5086090666
 21
1702.7505470459
  0
LINE
  5
77D
100
AcDbEntity
  8
0
100
AcDbLine
 62
7
  6
CONTINUOUS
 10
2036.5086090666
 20
1714.7505470459
 11
2036.5086090666
 21
1727.7505470459
  0
LINE
  5
77E
100
AcDbEntity
  8
0
100
AcDbLine
 62
7
  6
CONTINUOUS
 10
2036.5086090666
 20
1729.7505470459
 11
2036.5086090666
 21
1742.7505470459
  0
LINE
  5
77F
100
AcDbEntity
  8
0
100
AcDbLine
 62
7
  6
CONTINUOUS
 10
2036.5086090666
 20
1754.7505470459
 11
2036.5086090666
 21
1767.7505470459
  0
LINE
  5
780
100
AcDbEntity
  8
0
100
AcDbLine
 62
7
  6
CONTINUOUS
 10
2050.5086090666
 20
1767.7505470459
 11
2050.5086090666
 21
1754.7505470459
  0
LINE
  5
781
100
AcDbEntity
  8
0
100
AcDbLine
 62
7
  6
CONTINUOUS
 10
2050.5086090666
 20
1742.7505470459
 11
2050.5086090666
 21
1729.7505470459
  0
LINE
  5
782
100
AcDbEntity
  8
0
100
AcDbLine
 62
7
  6
CONTINUOUS
 10
2050.5086090666
 20
1727.7505470459
 11
2050.5086090666
 21
1714.7505470459
  0
LINE
  5
783
100
AcDbEntity
  8
0
100
AcDbLine
 62
7
  6
CONTINUOUS
 10
2050.5086090666
 20
1702.7505470459
 11
2050.5086090666
 21
1689.7505470459
  0
LINE
  5
784
100
AcDbEntity
  8
0
100
AcDbLine
 62
7
  6
CONTINUOUS
 10
2061.5086090666
 20
1689.7505470459
 11
2061.5086090666
 21
1702.7505470459
  0
LINE
  5
785
100
AcDbEntity
  8
0
100
AcDbLine
 62
7
  6
CONTINUOUS
 10
2061.5086090666
 20
1714.7505470459
 11
2061.5086090666
 21
1727.7505470459
  0
LINE
  5
786
100
AcDbEntity
  8
0
100
AcDbLine
 62
7
  6
CONTINUOUS
 10
2061.5086090666
 20
1729.7505470459
 11
2061.5086090666
 21
1742.7505470459
  0
LINE
  5
787
100
AcDbEntity
  8
0
100
AcDbLine
 62
7
  6
CONTINUOUS
 10
2061.5086090666
 20
1754.7505470459
 11
2061.5086090666
 21
1767.7505470459
  0
LINE
  5
788
100
AcDbEntity
  8
0
100
AcDbLine
 62
7
  6
CONTINUOUS
 10
2075.5086090666
 20
1767.7505470459
 11
2075.5086090666
 21
1754.7505470459
  0
LINE
  5
789
100
AcDbEntity
  8
0
100
AcDbLine
 62
7
  6
CONTINUOUS
 10
2075.5086090666
 20
1742.7505470459
 11
2075.5086090666
 21
1729.7505470459
  0
LINE
  5
78A
100
AcDbEntity
  8
0
100
AcDbLine
 62
7
  6
CONTINUOUS
 10
2075.5086090666
 20
1727.7505470459
 11
2075.5086090666
 21
1714.7505470459
  0
LINE
  5
78B
100
AcDbEntity
  8
0
100
AcDbLine
 62
7
  6
CONTINUOUS
 10
2075.5086090666
 20
1702.7505470459
 11
2075.5086090666
 21
1689.7505470459
  0
LINE
  5
78C
100
AcDbEntity
  8
0
100
AcDbLine
 62
7
  6
CONTINUOUS
 10
2086.5086090666
 20
1689.7505470459
 11
2086.5086090666
 21
1702.7505470459
  0
LINE
  5
78D
100
AcDbEntity
  8
0
100
AcDbLine
 62
7
  6
CONTINUOUS
 10
2086.5086090666
 20
1714.7505470459
 11
2086.5086090666
 21
1727.7505470459
  0
LINE
  5
78E
100
AcDbEntity
  8
0
100
AcDbLine
 62
7
  6
CONTINUOUS
 10
2086.5086090666
 20
1729.7505470459
 11
2086.5086090666
 21
1742.7505470459
  0
LINE
  5
78F
100
AcDbEntity
  8
0
100
AcDbLine
 62
7
  6
CONTINUOUS
 10
2086.5086090666
 20
1754.7505470459
 11
2086.5086090666
 21
1767.7505470459
  0
LINE
  5
790
100
AcDbEntity
  8
0
100
AcDbLine
 62
7
  6
CONTINUOUS
 10
2182.0320247994
 20
1717.5916070289
 11
2181.5086090666
 21
1727.5789741707
  0
LINE
  5
791
100
AcDbEntity
  8
0
100
AcDbLine
 62
7
  6
CONTINUOUS
 10
2100.5086090666
 20
1767.7505470459
 11
2100.5086090666
 21
1754.7505470459
  0
LINE
  5
792
100
AcDbEntity
  8
0
100
AcDbLine
 62
7
  6
CONTINUOUS
 10
2100.5086090666
 20
1742.7505470459
 11
2100.5086090666
 21
1729.7505470459
  0
LINE
  5
793
100
AcDbEntity
  8
0
100
AcDbLine
 62
7
  6
CONTINUOUS
 10
2100.5086090666
 20
1727.7505470459
 11
2100.5086090666
 21
1714.7505470459
  0
LINE
  5
794
100
AcDbEntity
  8
0
100
AcDbLine
 62
7
  6
CONTINUOUS
 10
2100.5086090666
 20
1702.7505470459
 11
2100.5086090666
 21
1689.7505470459
  0
LINE
  5
795
100
AcDbEntity
  8
0
100
AcDbLine
 62
7
  6
CONTINUOUS
 10
2111.5086090666
 20
1689.7505470459
 11
2111.5086090666
 21
1702.7505470459
  0
LINE
  5
796
100
AcDbEntity
  8
0
100
AcDbLine
 62
7
  6
CONTINUOUS
 10
2111.5086090666
 20
1714.7505470459
 11
2111.5086090666
 21
1727.7505470459
  0
LINE
  5
797
100
AcDbEntity
  8
0
100
AcDbLine
 62
7
  6
CONTINUOUS
 10
2111.5086090666
 20
1729.7505470459
 11
2111.5086090666
 21
1742.7505470459
  0
LINE
  5
798
100
AcDbEntity
  8
0
100
AcDbLine
 62
7
  6
CONTINUOUS
 10
2111.5086090666
 20
1754.7505470459
 11
2111.5086090666
 21
1767.7505470459
  0
LINE
  5
799
100
AcDbEntity
  8
0
100
AcDbLine
 62
7
  6
CONTINUOUS
 10
2125.5086090666
 20
1767.7505470459
 11
2125.5086090666
 21
1754.7505470459
  0
LINE
  5
79A
100
AcDbEntity
  8
0
100
AcDbLine
 62
7
  6
CONTINUOUS
 10
2125.5086090666
 20
1742.7505470459
 11
2125.5086090666
 21
1729.7505470459
  0
LINE
  5
79B
100
AcDbEntity
  8
0
100
AcDbLine
 62
7
  6
CONTINUOUS
 10
2125.5086090666
 20
1727.7505470459
 11
2125.5086090666
 21
1714.7505470459
  0
LINE
  5
79C
100
AcDbEntity
  8
0
100
AcDbLine
 62
7
  6
CONTINUOUS
 10
2125.5086090666
 20
1702.7505470459
 11
2125.5086090666
 21
1689.7505470459
  0
LINE
  5
79D
100
AcDbEntity
  8
0
100
AcDbLine
 62
7
  6
CONTINUOUS
 10
2136.5086090666
 20
1689.7505470459
 11
2136.5086090666
 21
1702.7505470459
  0
LINE
  5
79E
100
AcDbEntity
  8
0
100
AcDbLine
 62
7
  6
CONTINUOUS
 10
2136.5086090666
 20
1714.7505470459
 11
2136.5086090666
 21
1727.7505470459
  0
LINE
  5
79F
100
AcDbEntity
  8
0
100
AcDbLine
 62
7
  6
CONTINUOUS
 10
2136.5086090666
 20
1729.7505470459
 11
2136.5086090666
 21
1742.7505470459
  0
LINE
  5
7A0
100
AcDbEntity
  8
0
100
AcDbLine
 62
7
  6
CONTINUOUS
 10
2136.5086090666
 20
1754.7505470459
 11
2136.5086090666
 21
1767.7505470459
  0
LINE
  5
7A1
100
AcDbEntity
  8
0
100
AcDbLine
 62
7
  6
CONTINUOUS
 10
2150.5086090666
 20
1767.7505470459
 11
2150.5086090666
 21
1754.7505470459
  0
LINE
  5
7A2
100
AcDbEntity
  8
0
100
AcDbLine
 62
7
  6
CONTINUOUS
 10
2150.5086090666
 20
1742.7505470459
 11
2150.5086090666
 21
1729.7505470459
  0
LINE
  5
7A3
100
AcDbEntity
  8
0
100
AcDbLine
 62
7
  6
CONTINUOUS
 10
2150.5086090666
 20
1727.7505470459
 11
2150.5086090666
 21
1714.7505470459
  0
LINE
  5
7A4
100
AcDbEntity
  8
0
100
AcDbLine
 62
7
  6
CONTINUOUS
 10
2150.5086090666
 20
1702.7505470459
 11
2150.5086090666
 21
1689.7505470459
  0
LINE
  5
7A5
100
AcDbEntity
  8
0
100
AcDbLine
 62
7
  6
CONTINUOUS
 10
2161.5086090666
 20
1689.7505470459
 11
2161.5086090666
 21
1702.7505470459
  0
LINE
  5
7A6
100
AcDbEntity
  8
0
100
AcDbLine
 62
7
  6
CONTINUOUS
 10
2161.5086090666
 20
1714.7505470459
 11
2161.5086090666
 21
1727.7505470459
  0
LINE
  5
7A7
100
AcDbEntity
  8
0
100
AcDbLine
 62
7
  6
CONTINUOUS
 10
2161.5086090666
 20
1729.7505470459
 11
2161.5086090666
 21
1742.7505470459
  0
LINE
  5
7A8
100
AcDbEntity
  8
0
100
AcDbLine
 62
7
  6
CONTINUOUS
 10
2161.5086090666
 20
1754.7505470459
 11
2161.5086090666
 21
1767.7505470459
  0
LINE
  5
7A9
100
AcDbEntity
  8
0
100
AcDbLine
 62
7
  6
CONTINUOUS
 10
2185.2586090666
 20
1755.9156105554
 11
2185.2586090666
 21
1755.0495851516
  0
LINE
  5
7AA
100
AcDbEntity
  8
0
100
AcDbLine
 62
7
  6
CONTINUOUS
 10
2185.2586090666
 20
1752.4515089403
 11
2185.2586090666
 21
1751.5854835365
  0
LINE
  5
7AB
100
AcDbEntity
  8
0
100
AcDbLine
 62
7
  6
CONTINUOUS
 10
2185.2586090666
 20
1705.9156105554
 11
2185.2586090666
 21
1705.0495851516
  0
LINE
  5
7AC
100
AcDbEntity
  8
0
100
AcDbLine
 62
7
  6
CONTINUOUS
 10
2185.2586090666
 20
1702.4515089403
 11
2185.2586090666
 21
1701.5854835365
  0
LINE
  5
7AD
100
AcDbEntity
  8
0
100
AcDbLine
 62
7
  6
CONTINUOUS
 10
2188.7586090666
 20
1701.5854835365
 11
2188.7586090666
 21
1702.4515089403
  0
LINE
  5
7AE
100
AcDbEntity
  8
0
100
AcDbLine
 62
7
  6
CONTINUOUS
 10
2188.7586090666
 20
1705.0495851516
 11
2188.7586090666
 21
1705.9156105554
  0
LINE
  5
7AF
100
AcDbEntity
  8
0
100
AcDbLine
 62
7
  6
CONTINUOUS
 10
2188.7586090666
 20
1751.5854835365
 11
2188.7586090666
 21
1752.4515089403
  0
LINE
  5
7B0
100
AcDbEntity
  8
0
100
AcDbLine
 62
7
  6
CONTINUOUS
 10
2188.7586090666
 20
1755.0495851516
 11
2188.7586090666
 21
1755.9156105554
  0
LINE
  5
7B1
100
AcDbEntity
  8
0
100
AcDbLine
 62
7
  6
CONTINUOUS
 10
2197.0086090666
 20
1773.7505470459
 11
2197.0086090666
 21
1683.7505470459
  0
LINE
  5
7B2
100
AcDbEntity
  8
0
100
AcDbLine
 62
7
  6
CONTINUOUS
 10
2198.5086090666
 20
1696.2505470459
 11
2198.5086090666
 21
1761.2505470459
  0
LINE
  5
7B3
100
AcDbEntity
  8
0
100
AcDbLine
 62
7
  6
CONTINUOUS
 10
2207.0086090666
 20
1756.7505470459
 11
2207.0086090666
 21
1750.7505470459
  0
LINE
  5
7B4
100
AcDbEntity
  8
0
100
AcDbLine
 62
7
  6
CONTINUOUS
 10
2207.0086090666
 20
1706.7505470459
 11
2207.0086090666
 21
1700.7505470459
  0
LINE
  5
7B5
100
AcDbEntity
  8
0
100
AcDbLine
 62
7
  6
CONTINUOUS
 10
2210.5086090666
 20
1755.2505470459
 11
2210.5086090666
 21
1752.2505470459
  0
LINE
  5
7B6
100
AcDbEntity
  8
0
100
AcDbLine
 62
7
  6
CONTINUOUS
 10
2210.5086090666
 20
1705.2505470459
 11
2210.5086090666
 21
1702.2505470459
  0
LINE
  5
7B7
100
AcDbEntity
  8
0
100
AcDbLine
 62
7
  6
CONTINUOUS
 10
2192.5954411184
 20
1727.5789741705
 11
2192.0720253856
 21
1717.5916070288
  0
CIRCLE
  5
7B8
100
AcDbEntity
  8
0
100
AcDbCircle
 62
7
  6
CONTINUOUS
 10
300.0086090666
 20
1703.7505470459
 40
6.0
  0
ARC
  5
7B9
100
AcDbEntity
  8
0
100
AcDbCircle
 62
7
  6
CONTINUOUS
 10
300.0306202285
 20
1703.7050065642
 40
5.5933017813
100
AcDbArc
 50
115.6298589918
 51
120.7676685013
  0
ARC
  5
7BA
100
AcDbEntity
  8
0
100
AcDbCircle
 62
7
  6
CONTINUOUS
 10
300.0086090666
 20
1703.7505470459
 40
5.5434781454
100
AcDbArc
 50
180.0
 51
360.0
  0
ARC
  5
7BB
100
AcDbEntity
  8
0
100
AcDbCircle
 62
7
  6
CONTINUOUS
 10
300.0249168273
 20
1703.7657965965
 40
5.5214080437
100
AcDbArc
 50
30.9702176088
 51
61.1154277294
  0
ARC
  5
7BC
100
AcDbEntity
  8
0
100
AcDbCircle
 62
7
  6
CONTINUOUS
 10
299.9824952108
 20
1703.7830022527
 40
5.5018241796
100
AcDbArc
 50
120.7557545806
 51
154.3064527429
  0
ARC
  5
7BD
100
AcDbEntity
  8
0
100
AcDbCircle
 62
7
  6
CONTINUOUS
 10
300.1170203813
 20
1703.8171667712
 40
5.4168441724
100
AcDbArc
 50
25.8900103246
 51
30.9575667644
  0
CIRCLE
  5
7BE
100
AcDbEntity
  8
0
100
AcDbCircle
 62
7
  6
CONTINUOUS
 10
1218.5086090666
 20
1703.7505470459
 40
2.6
  0
CIRCLE
  5
7BF
100
AcDbEntity
  8
0
100
AcDbCircle
 62
7
  6
CONTINUOUS
 10
1193.5086090666
 20
1703.7505470459
 40
2.6
  0
CIRCLE
  5
7C0
100
AcDbEntity
  8
0
100
AcDbCircle
 62
7
  6
CONTINUOUS
 10
1168.5086090666
 20
1703.7505470459
 40
2.6
  0
CIRCLE
  5
7C1
100
AcDbEntity
  8
0
100
AcDbCircle
 62
7
  6
CONTINUOUS
 10
1143.5086090666
 20
1703.7505470459
 40
2.6
  0
CIRCLE
  5
7C2
100
AcDbEntity
  8
0
100
AcDbCircle
 62
7
  6
CONTINUOUS
 10
1118.5086090666
 20
1703.7505470459
 40
2.6
  0
CIRCLE
  5
7C3
100
AcDbEntity
  8
0
100
AcDbCircle
 62
7
  6
CONTINUOUS
 10
1093.5086090666
 20
1703.7505470459
 40
2.6
  0
CIRCLE
  5
7C4
100
AcDbEntity
  8
0
100
AcDbCircle
 62
7
  6
CONTINUOUS
 10
1068.5086090666
 20
1703.7505470459
 40
2.6
  0
CIRCLE
  5
7C5
100
AcDbEntity
  8
0
100
AcDbCircle
 62
7
  6
CONTINUOUS
 10
1043.5086090666
 20
1703.7505470459
 40
2.6
  0
CIRCLE
  5
7C6
100
AcDbEntity
  8
0
100
AcDbCircle
 62
7
  6
CONTINUOUS
 10
1018.5086090666
 20
1703.7505470459
 40
2.6
  0
CIRCLE
  5
7C7
100
AcDbEntity
  8
0
100
AcDbCircle
 62
7
  6
CONTINUOUS
 10
993.5086090666
 20
1703.7505470459
 40
2.6
  0
CIRCLE
  5
7C8
100
AcDbEntity
  8
0
100
AcDbCircle
 62
7
  6
CONTINUOUS
 10
968.5086090666
 20
1703.7505470459
 40
2.6
  0
CIRCLE
  5
7C9
100
AcDbEntity
  8
0
100
AcDbCircle
 62
7
  6
CONTINUOUS
 10
943.5086090666
 20
1703.7505470459
 40
2.6
  0
CIRCLE
  5
7CA
100
AcDbEntity
  8
0
100
AcDbCircle
 62
7
  6
CONTINUOUS
 10
918.5086090666
 20
1703.7505470459
 40
2.6
  0
CIRCLE
  5
7CB
100
AcDbEntity
  8
0
100
AcDbCircle
 62
7
  6
CONTINUOUS
 10
893.5086090666
 20
1703.7505470459
 40
2.6
  0
CIRCLE
  5
7CC
100
AcDbEntity
  8
0
100
AcDbCircle
 62
7
  6
CONTINUOUS
 10
868.5086090666
 20
1703.7505470459
 40
2.6
  0
CIRCLE
  5
7CD
100
AcDbEntity
  8
0
100
AcDbCircle
 62
7
  6
CONTINUOUS
 10
843.5086090666
 20
1703.7505470459
 40
2.6
  0
CIRCLE
  5
7CE
100
AcDbEntity
  8
0
100
AcDbCircle
 62
7
  6
CONTINUOUS
 10
818.5086090666
 20
1703.7505470459
 40
2.6
  0
CIRCLE
  5
7CF
100
AcDbEntity
  8
0
100
AcDbCircle
 62
7
  6
CONTINUOUS
 10
793.5086090666
 20
1703.7505470459
 40
2.6
  0
CIRCLE
  5
7D0
100
AcDbEntity
  8
0
100
AcDbCircle
 62
7
  6
CONTINUOUS
 10
768.5086090666
 20
1703.7505470459
 40
2.6
  0
CIRCLE
  5
7D1
100
AcDbEntity
  8
0
100
AcDbCircle
 62
7
  6
CONTINUOUS
 10
743.5086090666
 20
1703.7505470459
 40
2.6
  0
CIRCLE
  5
7D2
100
AcDbEntity
  8
0
100
AcDbCircle
 62
7
  6
CONTINUOUS
 10
718.5086090666
 20
1703.7505470459
 40
2.6
  0
CIRCLE
  5
7D3
100
AcDbEntity
  8
0
100
AcDbCircle
 62
7
  6
CONTINUOUS
 10
693.5086090666
 20
1703.7505470459
 40
2.6
  0
CIRCLE
  5
7D4
100
AcDbEntity
  8
0
100
AcDbCircle
 62
7
  6
CONTINUOUS
 10
668.5086090666
 20
1703.7505470459
 40
2.6
  0
CIRCLE
  5
7D5
100
AcDbEntity
  8
0
100
AcDbCircle
 62
7
  6
CONTINUOUS
 10
643.5086090666
 20
1703.7505470459
 40
2.6
  0
CIRCLE
  5
7D6
100
AcDbEntity
  8
0
100
AcDbCircle
 62
7
  6
CONTINUOUS
 10
618.5086090666
 20
1703.7505470459
 40
2.6
  0
CIRCLE
  5
7D7
100
AcDbEntity
  8
0
100
AcDbCircle
 62
7
  6
CONTINUOUS
 10
593.5086090666
 20
1703.7505470459
 40
2.6
  0
CIRCLE
  5
7D8
100
AcDbEntity
  8
0
100
AcDbCircle
 62
7
  6
CONTINUOUS
 10
568.5086090666
 20
1703.7505470459
 40
2.6
  0
CIRCLE
  5
7D9
100
AcDbEntity
  8
0
100
AcDbCircle
 62
7
  6
CONTINUOUS
 10
543.5086090666
 20
1703.7505470459
 40
2.6
  0
CIRCLE
  5
7DA
100
AcDbEntity
  8
0
100
AcDbCircle
 62
7
  6
CONTINUOUS
 10
518.5086090666
 20
1703.7505470459
 40
2.6
  0
CIRCLE
  5
7DB
100
AcDbEntity
  8
0
100
AcDbCircle
 62
7
  6
CONTINUOUS
 10
493.5086090666
 20
1703.7505470459
 40
2.6
  0
CIRCLE
  5
7DC
100
AcDbEntity
  8
0
100
AcDbCircle
 62
7
  6
CONTINUOUS
 10
468.5086090666
 20
1703.7505470459
 40
2.6
  0
CIRCLE
  5
7DD
100
AcDbEntity
  8
0
100
AcDbCircle
 62
7
  6
CONTINUOUS
 10
443.5086090666
 20
1703.7505470459
 40
2.6
  0
CIRCLE
  5
7DE
100
AcDbEntity
  8
0
100
AcDbCircle
 62
7
  6
CONTINUOUS
 10
418.5086090666
 20
1703.7505470459
 40
2.6
  0
CIRCLE
  5
7DF
100
AcDbEntity
  8
0
100
AcDbCircle
 62
7
  6
CONTINUOUS
 10
393.5086090666
 20
1703.7505470459
 40
2.6
  0
CIRCLE
  5
7E0
100
AcDbEntity
  8
0
100
AcDbCircle
 62
7
  6
CONTINUOUS
 10
368.5086090666
 20
1703.7505470459
 40
2.6
  0
CIRCLE
  5
7E1
100
AcDbEntity
  8
0
100
AcDbCircle
 62
7
  6
CONTINUOUS
 10
343.5086090666
 20
1703.7505470459
 40
2.6
  0
CIRCLE
  5
7E2
100
AcDbEntity
  8
0
100
AcDbCircle
 62
7
  6
CONTINUOUS
 10
318.5086090666
 20
1703.7505470459
 40
2.6
  0
CIRCLE
  5
7E3
100
AcDbEntity
  8
0
100
AcDbCircle
 62
7
  6
CONTINUOUS
 10
1193.5086090666
 20
1696.2505470459
 40
1.5
  0
ARC
  5
7E4
100
AcDbEntity
  8
0
100
AcDbCircle
 62
7
  6
CONTINUOUS
 10
302.2586090666
 20
1705.0495851516
 40
0.5
100
AcDbArc
 50
180.0
 51
239.9999999999
  0
ARC
  5
7E5
100
AcDbEntity
  8
0
100
AcDbCircle
 62
7
  6
CONTINUOUS
 10
300.0086090666
 20
1706.3486232573
 40
0.5
100
AcDbArc
 50
239.9999999998
 51
300.0000000002
  0
ARC
  5
7E6
100
AcDbEntity
  8
0
100
AcDbCircle
 62
7
  6
CONTINUOUS
 10
297.7586090666
 20
1705.0495851516
 40
0.5
100
AcDbArc
 50
300.0000000002
 51
360.0
  0
ARC
  5
7E7
100
AcDbEntity
  8
0
100
AcDbCircle
 62
7
  6
CONTINUOUS
 10
297.5086090666
 20
1703.7505470459
 40
0.5
100
AcDbArc
 50
120.0000000001
 51
239.9999999998
  0
ARC
  5
7E8
100
AcDbEntity
  8
0
100
AcDbCircle
 62
7
  6
CONTINUOUS
 10
297.7586090666
 20
1702.4515089403
 40
0.5
100
AcDbArc
 50
0.0000000002
 51
59.9999999999
  0
ARC
  5
7E9
100
AcDbEntity
  8
0
100
AcDbCircle
 62
7
  6
CONTINUOUS
 10
300.0086090666
 20
1701.1524708346
 40
0.5
100
AcDbArc
 50
59.9999999999
 51
120.0
  0
ARC
  5
7EA
100
AcDbEntity
  8
0
100
AcDbCircle
 62
7
  6
CONTINUOUS
 10
302.2586090666
 20
1702.4515089403
 40
0.5
100
AcDbArc
 50
120.0
 51
179.9999999998
  0
ARC
  5
7EB
100
AcDbEntity
  8
0
100
AcDbCircle
 62
7
  6
CONTINUOUS
 10
302.5086090666
 20
1703.7505470459
 40
0.5
100
AcDbArc
 50
300.0000000002
 51
59.9999999999
  0
ARC
  5
7EC
100
AcDbEntity
  8
0
100
AcDbCircle
 62
7
  6
CONTINUOUS
 10
298.7586090666
 20
1705.9156105554
 40
0.5
100
AcDbArc
 50
60.0000000004
 51
179.9999999999
  0
ARC
  5
7ED
100
AcDbEntity
  8
0
100
AcDbCircle
 62
7
  6
CONTINUOUS
 10
301.2586090666
 20
1705.9156105554
 40
0.5
100
AcDbArc
 50
0.0000000001
 51
119.9999999995
  0
ARC
  5
7EE
100
AcDbEntity
  8
0
100
AcDbCircle
 62
7
  6
CONTINUOUS
 10
301.2586090666
 20
1701.5854835365
 40
0.5
100
AcDbArc
 50
240.0000000004
 51
360.0
  0
ARC
  5
7EF
100
AcDbEntity
  8
0
100
AcDbCircle
 62
7
  6
CONTINUOUS
 10
298.7586090666
 20
1701.5854835365
 40
0.5
100
AcDbArc
 50
179.9999999999
 51
299.9999999997
  0
CIRCLE
  5
7F0
100
AcDbEntity
  8
0
100
AcDbCircle
 62
7
  6
CONTINUOUS
 10
743.5086090666
 20
1728.7505470459
 40
2.6
  0
CIRCLE
  5
7F1
100
AcDbEntity
  8
0
100
AcDbCircle
 62
7
  6
CONTINUOUS
 10
718.5086090666
 20
1728.7505470459
 40
2.6
  0
CIRCLE
  5
7F2
100
AcDbEntity
  8
0
100
AcDbCircle
 62
7
  6
CONTINUOUS
 10
693.5086090666
 20
1728.7505470459
 40
2.6
  0
CIRCLE
  5
7F3
100
AcDbEntity
  8
0
100
AcDbCircle
 62
7
  6
CONTINUOUS
 10
668.5086090666
 20
1728.7505470459
 40
2.6
  0
CIRCLE
  5
7F4
100
AcDbEntity
  8
0
100
AcDbCircle
 62
7
  6
CONTINUOUS
 10
643.5086090666
 20
1728.7505470459
 40
2.6
  0
CIRCLE
  5
7F5
100
AcDbEntity
  8
0
100
AcDbCircle
 62
7
  6
CONTINUOUS
 10
618.5086090666
 20
1728.7505470459
 40
2.6
  0
CIRCLE
  5
7F6
100
AcDbEntity
  8
0
100
AcDbCircle
 62
7
  6
CONTINUOUS
 10
593.5086090666
 20
1728.7505470459
 40
2.6
  0
CIRCLE
  5
7F7
100
AcDbEntity
  8
0
100
AcDbCircle
 62
7
  6
CONTINUOUS
 10
568.5086090666
 20
1728.7505470459
 40
2.6
  0
CIRCLE
  5
7F8
100
AcDbEntity
  8
0
100
AcDbCircle
 62
7
  6
CONTINUOUS
 10
543.5086090666
 20
1728.7505470459
 40
2.6
  0
CIRCLE
  5
7F9
100
AcDbEntity
  8
0
100
AcDbCircle
 62
7
  6
CONTINUOUS
 10
518.5086090666
 20
1728.7505470459
 40
2.6
  0
CIRCLE
  5
7FA
100
AcDbEntity
  8
0
100
AcDbCircle
 62
7
  6
CONTINUOUS
 10
493.5086090666
 20
1728.7505470459
 40
2.6
  0
CIRCLE
  5
7FB
100
AcDbEntity
  8
0
100
AcDbCircle
 62
7
  6
CONTINUOUS
 10
468.5086090666
 20
1728.7505470459
 40
2.6
  0
CIRCLE
  5
7FC
100
AcDbEntity
  8
0
100
AcDbCircle
 62
7
  6
CONTINUOUS
 10
443.5086090666
 20
1728.7505470459
 40
2.6
  0
CIRCLE
  5
7FD
100
AcDbEntity
  8
0
100
AcDbCircle
 62
7
  6
CONTINUOUS
 10
418.5086090666
 20
1728.7505470459
 40
2.6
  0
CIRCLE
  5
7FE
100
AcDbEntity
  8
0
100
AcDbCircle
 62
7
  6
CONTINUOUS
 10
393.5086090666
 20
1728.7505470459
 40
2.6
  0
CIRCLE
  5
7FF
100
AcDbEntity
  8
0
100
AcDbCircle
 62
7
  6
CONTINUOUS
 10
368.5086090666
 20
1728.7505470459
 40
2.6
  0
CIRCLE
  5
800
100
AcDbEntity
  8
0
100
AcDbCircle
 62
7
  6
CONTINUOUS
 10
343.5086090666
 20
1728.7505470459
 40
2.6
  0
CIRCLE
  5
801
100
AcDbEntity
  8
0
100
AcDbCircle
 62
7
  6
CONTINUOUS
 10
318.5086090666
 20
1728.7505470459
 40
2.6
  0
CIRCLE
  5
802
100
AcDbEntity
  8
0
100
AcDbCircle
 62
7
  6
CONTINUOUS
 10
300.0086090666
 20
1753.7505470459
 40
6.0
  0
ARC
  5
803
100
AcDbEntity
  8
0
100
AcDbCircle
 62
7
  6
CONTINUOUS
 10
300.0306202284
 20
1753.7050065643
 40
5.5933017812
100
AcDbArc
 50
115.6298589917
 51
120.7676685014
  0
ARC
  5
804
100
AcDbEntity
  8
0
100
AcDbCircle
 62
7
  6
CONTINUOUS
 10
300.0086090666
 20
1753.7505470459
 40
5.5434781454
100
AcDbArc
 50
180.0
 51
360.0
  0
ARC
  5
805
100
AcDbEntity
  8
0
100
AcDbCircle
 62
7
  6
CONTINUOUS
 10
300.0249168272
 20
1753.7657965964
 40
5.5214080438
100
AcDbArc
 50
30.9702176088
 51
61.1154277294
  0
ARC
  5
806
100
AcDbEntity
  8
0
100
AcDbCircle
 62
7
  6
CONTINUOUS
 10
299.9824952108
 20
1753.7830022527
 40
5.5018241797
100
AcDbArc
 50
120.7557545806
 51
154.3064527428
  0
ARC
  5
807
100
AcDbEntity
  8
0
100
AcDbCircle
 62
7
  6
CONTINUOUS
 10
300.1170203812
 20
1753.8171667712
 40
5.4168441724
100
AcDbArc
 50
25.8900103246
 51
30.9575667643
  0
CIRCLE
  5
808
100
AcDbEntity
  8
0
100
AcDbCircle
 62
7
  6
CONTINUOUS
 10
743.5086090666
 20
1753.7505470459
 40
2.6
  0
CIRCLE
  5
809
100
AcDbEntity
  8
0
100
AcDbCircle
 62
7
  6
CONTINUOUS
 10
718.5086090666
 20
1753.7505470459
 40
2.6
  0
CIRCLE
  5
80A
100
AcDbEntity
  8
0
100
AcDbCircle
 62
7
  6
CONTINUOUS
 10
693.5086090666
 20
1753.7505470459
 40
2.6
  0
CIRCLE
  5
80B
100
AcDbEntity
  8
0
100
AcDbCircle
 62
7
  6
CONTINUOUS
 10
668.5086090666
 20
1753.7505470459
 40
2.6
  0
CIRCLE
  5
80C
100
AcDbEntity
  8
0
100
AcDbCircle
 62
7
  6
CONTINUOUS
 10
643.5086090666
 20
1753.7505470459
 40
2.6
  0
CIRCLE
  5
80D
100
AcDbEntity
  8
0
100
AcDbCircle
 62
7
  6
CONTINUOUS
 10
618.5086090666
 20
1753.7505470459
 40
2.6
  0
CIRCLE
  5
80E
100
AcDbEntity
  8
0
100
AcDbCircle
 62
7
  6
CONTINUOUS
 10
593.5086090666
 20
1753.7505470459
 40
2.6
  0
CIRCLE
  5
80F
100
AcDbEntity
  8
0
100
AcDbCircle
 62
7
  6
CONTINUOUS
 10
568.5086090666
 20
1753.7505470459
 40
2.6
  0
CIRCLE
  5
810
100
AcDbEntity
  8
0
100
AcDbCircle
 62
7
  6
CONTINUOUS
 10
543.5086090666
 20
1753.7505470459
 40
2.6
  0
CIRCLE
  5
811
100
AcDbEntity
  8
0
100
AcDbCircle
 62
7
  6
CONTINUOUS
 10
518.5086090666
 20
1753.7505470459
 40
2.6
  0
CIRCLE
  5
812
100
AcDbEntity
  8
0
100
AcDbCircle
 62
7
  6
CONTINUOUS
 10
493.5086090666
 20
1753.7505470459
 40
2.6
  0
CIRCLE
  5
813
100
AcDbEntity
  8
0
100
AcDbCircle
 62
7
  6
CONTINUOUS
 10
468.5086090666
 20
1753.7505470459
 40
2.6
  0
CIRCLE
  5
814
100
AcDbEntity
  8
0
100
AcDbCircle
 62
7
  6
CONTINUOUS
 10
443.5086090666
 20
1753.7505470459
 40
2.6
  0
CIRCLE
  5
815
100
AcDbEntity
  8
0
100
AcDbCircle
 62
7
  6
CONTINUOUS
 10
418.5086090666
 20
1753.7505470459
 40
2.6
  0
CIRCLE
  5
816
100
AcDbEntity
  8
0
100
AcDbCircle
 62
7
  6
CONTINUOUS
 10
393.5086090666
 20
1753.7505470459
 40
2.6
  0
CIRCLE
  5
817
100
AcDbEntity
  8
0
100
AcDbCircle
 62
7
  6
CONTINUOUS
 10
368.5086090666
 20
1753.7505470459
 40
2.6
  0
CIRCLE
  5
818
100
AcDbEntity
  8
0
100
AcDbCircle
 62
7
  6
CONTINUOUS
 10
343.5086090666
 20
1753.7505470459
 40
2.6
  0
CIRCLE
  5
819
100
AcDbEntity
  8
0
100
AcDbCircle
 62
7
  6
CONTINUOUS
 10
318.5086090666
 20
1753.7505470459
 40
2.6
  0
ARC
  5
81A
100
AcDbEntity
  8
0
100
AcDbCircle
 62
7
  6
CONTINUOUS
 10
302.2586090666
 20
1755.0495851516
 40
0.5
100
AcDbArc
 50
180.0
 51
239.9999999999
  0
ARC
  5
81B
100
AcDbEntity
  8
0
100
AcDbCircle
 62
7
  6
CONTINUOUS
 10
300.0086090666
 20
1756.3486232573
 40
0.5
100
AcDbArc
 50
239.9999999998
 51
300.0000000002
  0
ARC
  5
81C
100
AcDbEntity
  8
0
100
AcDbCircle
 62
7
  6
CONTINUOUS
 10
297.7586090666
 20
1755.0495851516
 40
0.5
100
AcDbArc
 50
300.0000000002
 51
360.0
  0
ARC
  5
81D
100
AcDbEntity
  8
0
100
AcDbCircle
 62
7
  6
CONTINUOUS
 10
297.5086090666
 20
1753.7505470459
 40
0.5
100
AcDbArc
 50
120.0000000001
 51
239.9999999998
  0
ARC
  5
81E
100
AcDbEntity
  8
0
100
AcDbCircle
 62
7
  6
CONTINUOUS
 10
297.7586090666
 20
1752.4515089403
 40
0.5
100
AcDbArc
 50
0.0000000002
 51
59.9999999999
  0
ARC
  5
81F
100
AcDbEntity
  8
0
100
AcDbCircle
 62
7
  6
CONTINUOUS
 10
300.0086090666
 20
1751.1524708346
 40
0.5
100
AcDbArc
 50
59.9999999999
 51
120.0
  0
ARC
  5
820
100
AcDbEntity
  8
0
100
AcDbCircle
 62
7
  6
CONTINUOUS
 10
302.2586090666
 20
1752.4515089403
 40
0.5
100
AcDbArc
 50
120.0
 51
179.9999999998
  0
ARC
  5
821
100
AcDbEntity
  8
0
100
AcDbCircle
 62
7
  6
CONTINUOUS
 10
302.5086090666
 20
1753.7505470459
 40
0.5
100
AcDbArc
 50
300.0000000002
 51
59.9999999999
  0
ARC
  5
822
100
AcDbEntity
  8
0
100
AcDbCircle
 62
7
  6
CONTINUOUS
 10
298.7586090666
 20
1755.9156105554
 40
0.5
100
AcDbArc
 50
60.0000000004
 51
179.9999999999
  0
ARC
  5
823
100
AcDbEntity
  8
0
100
AcDbCircle
 62
7
  6
CONTINUOUS
 10
301.2586090666
 20
1755.9156105554
 40
0.5
100
AcDbArc
 50
0.0000000001
 51
119.9999999995
  0
ARC
  5
824
100
AcDbEntity
  8
0
100
AcDbCircle
 62
7
  6
CONTINUOUS
 10
301.2586090666
 20
1751.5854835365
 40
0.5
100
AcDbArc
 50
240.0000000004
 51
360.0
  0
ARC
  5
825
100
AcDbEntity
  8
0
100
AcDbCircle
 62
7
  6
CONTINUOUS
 10
298.7586090666
 20
1751.5854835365
 40
0.5
100
AcDbArc
 50
179.9999999999
 51
299.9999999996
  0
CIRCLE
  5
826
100
AcDbEntity
  8
0
100
AcDbCircle
 62
7
  6
CONTINUOUS
 10
1218.5086090666
 20
1728.7505470459
 40
2.6
  0
CIRCLE
  5
827
100
AcDbEntity
  8
0
100
AcDbCircle
 62
7
  6
CONTINUOUS
 10
1193.5086090666
 20
1728.7505470459
 40
2.6
  0
CIRCLE
  5
828
100
AcDbEntity
  8
0
100
AcDbCircle
 62
7
  6
CONTINUOUS
 10
1168.5086090666
 20
1728.7505470459
 40
2.6
  0
CIRCLE
  5
829
100
AcDbEntity
  8
0
100
AcDbCircle
 62
7
  6
CONTINUOUS
 10
1143.5086090666
 20
1728.7505470459
 40
2.6
  0
CIRCLE
  5
82A
100
AcDbEntity
  8
0
100
AcDbCircle
 62
7
  6
CONTINUOUS
 10
1118.5086090666
 20
1728.7505470459
 40
2.6
  0
CIRCLE
  5
82B
100
AcDbEntity
  8
0
100
AcDbCircle
 62
7
  6
CONTINUOUS
 10
1093.5086090666
 20
1728.7505470459
 40
2.6
  0
CIRCLE
  5
82C
100
AcDbEntity
  8
0
100
AcDbCircle
 62
7
  6
CONTINUOUS
 10
1068.5086090666
 20
1728.7505470459
 40
2.6
  0
CIRCLE
  5
82D
100
AcDbEntity
  8
0
100
AcDbCircle
 62
7
  6
CONTINUOUS
 10
1043.5086090666
 20
1728.7505470459
 40
2.6
  0
CIRCLE
  5
82E
100
AcDbEntity
  8
0
100
AcDbCircle
 62
7
  6
CONTINUOUS
 10
1018.5086090666
 20
1728.7505470459
 40
2.6
  0
CIRCLE
  5
82F
100
AcDbEntity
  8
0
100
AcDbCircle
 62
7
  6
CONTINUOUS
 10
993.5086090666
 20
1728.7505470459
 40
2.6
  0
CIRCLE
  5
830
100
AcDbEntity
  8
0
100
AcDbCircle
 62
7
  6
CONTINUOUS
 10
968.5086090666
 20
1728.7505470459
 40
2.6
  0
CIRCLE
  5
831
100
AcDbEntity
  8
0
100
AcDbCircle
 62
7
  6
CONTINUOUS
 10
943.5086090666
 20
1728.7505470459
 40
2.6
  0
CIRCLE
  5
832
100
AcDbEntity
  8
0
100
AcDbCircle
 62
7
  6
CONTINUOUS
 10
918.5086090666
 20
1728.7505470459
 40
2.6
  0
CIRCLE
  5
833
100
AcDbEntity
  8
0
100
AcDbCircle
 62
7
  6
CONTINUOUS
 10
893.5086090666
 20
1728.7505470459
 40
2.6
  0
CIRCLE
  5
834
100
AcDbEntity
  8
0
100
AcDbCircle
 62
7
  6
CONTINUOUS
 10
868.5086090666
 20
1728.7505470459
 40
2.6
  0
CIRCLE
  5
835
100
AcDbEntity
  8
0
100
AcDbCircle
 62
7
  6
CONTINUOUS
 10
843.5086090666
 20
1728.7505470459
 40
2.6
  0
CIRCLE
  5
836
100
AcDbEntity
  8
0
100
AcDbCircle
 62
7
  6
CONTINUOUS
 10
818.5086090666
 20
1728.7505470459
 40
2.6
  0
CIRCLE
  5
837
100
AcDbEntity
  8
0
100
AcDbCircle
 62
7
  6
CONTINUOUS
 10
793.5086090666
 20
1728.7505470459
 40
2.6
  0
CIRCLE
  5
838
100
AcDbEntity
  8
0
100
AcDbCircle
 62
7
  6
CONTINUOUS
 10
768.5086090666
 20
1728.7505470459
 40
2.6
  0
CIRCLE
  5
839
100
AcDbEntity
  8
0
100
AcDbCircle
 62
7
  6
CONTINUOUS
 10
1218.5086090666
 20
1753.7505470459
 40
2.6
  0
CIRCLE
  5
83A
100
AcDbEntity
  8
0
100
AcDbCircle
 62
7
  6
CONTINUOUS
 10
1193.5086090666
 20
1753.7505470459
 40
2.6
  0
CIRCLE
  5
83B
100
AcDbEntity
  8
0
100
AcDbCircle
 62
7
  6
CONTINUOUS
 10
1168.5086090666
 20
1753.7505470459
 40
2.6
  0
CIRCLE
  5
83C
100
AcDbEntity
  8
0
100
AcDbCircle
 62
7
  6
CONTINUOUS
 10
1143.5086090666
 20
1753.7505470459
 40
2.6
  0
CIRCLE
  5
83D
100
AcDbEntity
  8
0
100
AcDbCircle
 62
7
  6
CONTINUOUS
 10
1118.5086090666
 20
1753.7505470459
 40
2.6
  0
CIRCLE
  5
83E
100
AcDbEntity
  8
0
100
AcDbCircle
 62
7
  6
CONTINUOUS
 10
1093.5086090666
 20
1753.7505470459
 40
2.6
  0
CIRCLE
  5
83F
100
AcDbEntity
  8
0
100
AcDbCircle
 62
7
  6
CONTINUOUS
 10
1068.5086090666
 20
1753.7505470459
 40
2.6
  0
CIRCLE
  5
840
100
AcDbEntity
  8
0
100
AcDbCircle
 62
7
  6
CONTINUOUS
 10
1043.5086090666
 20
1753.7505470459
 40
2.6
  0
CIRCLE
  5
841
100
AcDbEntity
  8
0
100
AcDbCircle
 62
7
  6
CONTINUOUS
 10
1018.5086090666
 20
1753.7505470459
 40
2.6
  0
CIRCLE
  5
842
100
AcDbEntity
  8
0
100
AcDbCircle
 62
7
  6
CONTINUOUS
 10
993.5086090666
 20
1753.7505470459
 40
2.6
  0
CIRCLE
  5
843
100
AcDbEntity
  8
0
100
AcDbCircle
 62
7
  6
CONTINUOUS
 10
968.5086090666
 20
1753.7505470459
 40
2.6
  0
CIRCLE
  5
844
100
AcDbEntity
  8
0
100
AcDbCircle
 62
7
  6
CONTINUOUS
 10
943.5086090666
 20
1753.7505470459
 40
2.6
  0
CIRCLE
  5
845
100
AcDbEntity
  8
0
100
AcDbCircle
 62
7
  6
CONTINUOUS
 10
918.5086090666
 20
1753.7505470459
 40
2.6
  0
CIRCLE
  5
846
100
AcDbEntity
  8
0
100
AcDbCircle
 62
7
  6
CONTINUOUS
 10
893.5086090666
 20
1753.7505470459
 40
2.6
  0
CIRCLE
  5
847
100
AcDbEntity
  8
0
100
AcDbCircle
 62
7
  6
CONTINUOUS
 10
868.5086090666
 20
1753.7505470459
 40
2.6
  0
CIRCLE
  5
848
100
AcDbEntity
  8
0
100
AcDbCircle
 62
7
  6
CONTINUOUS
 10
843.5086090666
 20
1753.7505470459
 40
2.6
  0
CIRCLE
  5
849
100
AcDbEntity
  8
0
100
AcDbCircle
 62
7
  6
CONTINUOUS
 10
818.5086090666
 20
1753.7505470459
 40
2.6
  0
CIRCLE
  5
84A
100
AcDbEntity
  8
0
100
AcDbCircle
 62
7
  6
CONTINUOUS
 10
793.5086090666
 20
1753.7505470459
 40
2.6
  0
CIRCLE
  5
84B
100
AcDbEntity
  8
0
100
AcDbCircle
 62
7
  6
CONTINUOUS
 10
768.5086090666
 20
1753.7505470459
 40
2.6
  0
CIRCLE
  5
84C
100
AcDbEntity
  8
0
100
AcDbCircle
 62
7
  6
CONTINUOUS
 10
1193.5086090666
 20
1761.2505470459
 40
1.5
  0
CIRCLE
  5
84D
100
AcDbEntity
  8
0
100
AcDbCircle
 62
7
  6
CONTINUOUS
 10
2187.0086090666
 20
1703.7505470459
 40
6.0
  0
ARC
  5
84E
100
AcDbEntity
  8
0
100
AcDbCircle
 62
7
  6
CONTINUOUS
 10
2187.0306202285
 20
1703.7050065642
 40
5.5933017813
100
AcDbArc
 50
115.6298589918
 51
120.7676685014
  0
ARC
  5
84F
100
AcDbEntity
  8
0
100
AcDbCircle
 62
7
  6
CONTINUOUS
 10
2187.0086090666
 20
1703.7505470459
 40
5.5434781454
100
AcDbArc
 50
180.0
 51
360.0
  0
ARC
  5
850
100
AcDbEntity
  8
0
100
AcDbCircle
 62
7
  6
CONTINUOUS
 10
2187.0249168272
 20
1703.7657965964
 40
5.5214080438
100
AcDbArc
 50
30.9702176088
 51
64.5946755942
  0
ARC
  5
851
100
AcDbEntity
  8
0
100
AcDbCircle
 62
7
  6
CONTINUOUS
 10
2186.9824952109
 20
1703.7830022526
 40
5.5018241798
100
AcDbArc
 50
120.7557545807
 51
154.306452743
  0
ARC
  5
852
100
AcDbEntity
  8
0
100
AcDbCircle
 62
7
  6
CONTINUOUS
 10
2187.1170203812
 20
1703.8171667712
 40
5.4168441724
100
AcDbArc
 50
25.8900103246
 51
30.9575667643
  0
CIRCLE
  5
853
100
AcDbEntity
  8
0
100
AcDbCircle
 62
7
  6
CONTINUOUS
 10
2143.5086090666
 20
1703.7505470459
 40
2.6
  0
CIRCLE
  5
854
100
AcDbEntity
  8
0
100
AcDbCircle
 62
7
  6
CONTINUOUS
 10
2118.5086090666
 20
1703.7505470459
 40
2.6
  0
CIRCLE
  5
855
100
AcDbEntity
  8
0
100
AcDbCircle
 62
7
  6
CONTINUOUS
 10
2093.5086090666
 20
1703.7505470459
 40
2.6
  0
CIRCLE
  5
856
100
AcDbEntity
  8
0
100
AcDbCircle
 62
7
  6
CONTINUOUS
 10
2068.5086090666
 20
1703.7505470459
 40
2.6
  0
CIRCLE
  5
857
100
AcDbEntity
  8
0
100
AcDbCircle
 62
7
  6
CONTINUOUS
 10
2043.5086090666
 20
1703.7505470459
 40
2.6
  0
CIRCLE
  5
858
100
AcDbEntity
  8
0
100
AcDbCircle
 62
7
  6
CONTINUOUS
 10
2018.5086090666
 20
1703.7505470459
 40
2.6
  0
CIRCLE
  5
859
100
AcDbEntity
  8
0
100
AcDbCircle
 62
7
  6
CONTINUOUS
 10
1993.5086090666
 20
1703.7505470459
 40
2.6
  0
CIRCLE
  5
85A
100
AcDbEntity
  8
0
100
AcDbCircle
 62
7
  6
CONTINUOUS
 10
1968.5086090666
 20
1703.7505470459
 40
2.6
  0
CIRCLE
  5
85B
100
AcDbEntity
  8
0
100
AcDbCircle
 62
7
  6
CONTINUOUS
 10
1943.5086090666
 20
1703.7505470459
 40
2.6
  0
CIRCLE
  5
85C
100
AcDbEntity
  8
0
100
AcDbCircle
 62
7
  6
CONTINUOUS
 10
1918.5086090666
 20
1703.7505470459
 40
2.6
  0
CIRCLE
  5
85D
100
AcDbEntity
  8
0
100
AcDbCircle
 62
7
  6
CONTINUOUS
 10
1893.5086090666
 20
1703.7505470459
 40
2.6
  0
CIRCLE
  5
85E
100
AcDbEntity
  8
0
100
AcDbCircle
 62
7
  6
CONTINUOUS
 10
1868.5086090666
 20
1703.7505470459
 40
2.6
  0
CIRCLE
  5
85F
100
AcDbEntity
  8
0
100
AcDbCircle
 62
7
  6
CONTINUOUS
 10
1843.5086090666
 20
1703.7505470459
 40
2.6
  0
CIRCLE
  5
860
100
AcDbEntity
  8
0
100
AcDbCircle
 62
7
  6
CONTINUOUS
 10
1818.5086090666
 20
1703.7505470459
 40
2.6
  0
CIRCLE
  5
861
100
AcDbEntity
  8
0
100
AcDbCircle
 62
7
  6
CONTINUOUS
 10
1793.5086090666
 20
1703.7505470459
 40
2.6
  0
CIRCLE
  5
862
100
AcDbEntity
  8
0
100
AcDbCircle
 62
7
  6
CONTINUOUS
 10
1768.5086090666
 20
1703.7505470459
 40
2.6
  0
CIRCLE
  5
863
100
AcDbEntity
  8
0
100
AcDbCircle
 62
7
  6
CONTINUOUS
 10
1743.5086090666
 20
1703.7505470459
 40
2.6
  0
CIRCLE
  5
864
100
AcDbEntity
  8
0
100
AcDbCircle
 62
7
  6
CONTINUOUS
 10
1718.5086090666
 20
1703.7505470459
 40
2.6
  0
CIRCLE
  5
865
100
AcDbEntity
  8
0
100
AcDbCircle
 62
7
  6
CONTINUOUS
 10
1693.5086090666
 20
1703.7505470459
 40
2.6
  0
CIRCLE
  5
866
100
AcDbEntity
  8
0
100
AcDbCircle
 62
7
  6
CONTINUOUS
 10
1668.5086090666
 20
1703.7505470459
 40
2.6
  0
CIRCLE
  5
867
100
AcDbEntity
  8
0
100
AcDbCircle
 62
7
  6
CONTINUOUS
 10
1643.5086090666
 20
1703.7505470459
 40
2.6
  0
CIRCLE
  5
868
100
AcDbEntity
  8
0
100
AcDbCircle
 62
7
  6
CONTINUOUS
 10
1618.5086090666
 20
1703.7505470459
 40
2.6
  0
CIRCLE
  5
869
100
AcDbEntity
  8
0
100
AcDbCircle
 62
7
  6
CONTINUOUS
 10
1593.5086090666
 20
1703.7505470459
 40
2.6
  0
CIRCLE
  5
86A
100
AcDbEntity
  8
0
100
AcDbCircle
 62
7
  6
CONTINUOUS
 10
1568.5086090666
 20
1703.7505470459
 40
2.6
  0
CIRCLE
  5
86B
100
AcDbEntity
  8
0
100
AcDbCircle
 62
7
  6
CONTINUOUS
 10
1543.5086090666
 20
1703.7505470459
 40
2.6
  0
CIRCLE
  5
86C
100
AcDbEntity
  8
0
100
AcDbCircle
 62
7
  6
CONTINUOUS
 10
1518.5086090666
 20
1703.7505470459
 40
2.6
  0
CIRCLE
  5
86D
100
AcDbEntity
  8
0
100
AcDbCircle
 62
7
  6
CONTINUOUS
 10
1493.5086090666
 20
1703.7505470459
 40
2.6
  0
CIRCLE
  5
86E
100
AcDbEntity
  8
0
100
AcDbCircle
 62
7
  6
CONTINUOUS
 10
1468.5086090666
 20
1703.7505470459
 40
2.6
  0
CIRCLE
  5
86F
100
AcDbEntity
  8
0
100
AcDbCircle
 62
7
  6
CONTINUOUS
 10
1443.5086090666
 20
1703.7505470459
 40
2.6
  0
CIRCLE
  5
870
100
AcDbEntity
  8
0
100
AcDbCircle
 62
7
  6
CONTINUOUS
 10
1418.5086090666
 20
1703.7505470459
 40
2.6
  0
CIRCLE
  5
871
100
AcDbEntity
  8
0
100
AcDbCircle
 62
7
  6
CONTINUOUS
 10
1393.5086090666
 20
1703.7505470459
 40
2.6
  0
CIRCLE
  5
872
100
AcDbEntity
  8
0
100
AcDbCircle
 62
7
  6
CONTINUOUS
 10
1368.5086090666
 20
1703.7505470459
 40
2.6
  0
CIRCLE
  5
873
100
AcDbEntity
  8
0
100
AcDbCircle
 62
7
  6
CONTINUOUS
 10
1343.5086090666
 20
1703.7505470459
 40
2.6
  0
CIRCLE
  5
874
100
AcDbEntity
  8
0
100
AcDbCircle
 62
7
  6
CONTINUOUS
 10
1318.5086090666
 20
1703.7505470459
 40
2.6
  0
CIRCLE
  5
875
100
AcDbEntity
  8
0
100
AcDbCircle
 62
7
  6
CONTINUOUS
 10
1293.5086090666
 20
1703.7505470459
 40
2.6
  0
CIRCLE
  5
876
100
AcDbEntity
  8
0
100
AcDbCircle
 62
7
  6
CONTINUOUS
 10
1268.5086090666
 20
1703.7505470459
 40
2.6
  0
CIRCLE
  5
877
100
AcDbEntity
  8
0
100
AcDbCircle
 62
7
  6
CONTINUOUS
 10
1243.5086090666
 20
1703.7505470459
 40
2.6
  0
CIRCLE
  5
878
100
AcDbEntity
  8
0
100
AcDbCircle
 62
7
  6
CONTINUOUS
 10
2168.5086090666
 20
1703.7505470459
 40
2.6
  0
CIRCLE
  5
879
100
AcDbEntity
  8
0
100
AcDbCircle
 62
7
  6
CONTINUOUS
 10
1293.5086090666
 20
1696.2505470459
 40
1.5
  0
ARC
  5
87A
100
AcDbEntity
  8
0
100
AcDbCircle
 62
7
  6
CONTINUOUS
 10
2189.5086090666
 20
1703.7505470459
 40
0.5
100
AcDbArc
 50
300.0000000003
 51
59.9999999999
  0
ARC
  5
87B
100
AcDbEntity
  8
0
100
AcDbCircle
 62
7
  6
CONTINUOUS
 10
2188.2586090666
 20
1705.9156105554
 40
0.5
100
AcDbArc
 50
0.0000000001
 51
119.9999999994
  0
ARC
  5
87C
100
AcDbEntity
  8
0
100
AcDbCircle
 62
7
  6
CONTINUOUS
 10
2185.7586090666
 20
1705.9156105554
 40
0.5
100
AcDbArc
 50
60.0000000004
 51
179.9999999999
  0
ARC
  5
87D
100
AcDbEntity
  8
0
100
AcDbCircle
 62
7
  6
CONTINUOUS
 10
2185.7586090666
 20
1701.5854835365
 40
0.5
100
AcDbArc
 50
179.9999999999
 51
299.9999999998
  0
ARC
  5
87E
100
AcDbEntity
  8
0
100
AcDbCircle
 62
7
  6
CONTINUOUS
 10
2188.2586090666
 20
1701.5854835365
 40
0.5
100
AcDbArc
 50
240.0000000004
 51
360.0
  0
ARC
  5
87F
100
AcDbEntity
  8
0
100
AcDbCircle
 62
7
  6
CONTINUOUS
 10
2189.2586090666
 20
1705.0495851516
 40
0.5
100
AcDbArc
 50
180.0
 51
239.9999999999
  0
ARC
  5
880
100
AcDbEntity
  8
0
100
AcDbCircle
 62
7
  6
CONTINUOUS
 10
2189.2586090666
 20
1702.4515089403
 40
0.5
100
AcDbArc
 50
120.0
 51
179.9999999998
  0
ARC
  5
881
100
AcDbEntity
  8
0
100
AcDbCircle
 62
7
  6
CONTINUOUS
 10
2187.0086090666
 20
1701.1524708346
 40
0.5
100
AcDbArc
 50
59.9999999998
 51
120.0
  0
ARC
  5
882
100
AcDbEntity
  8
0
100
AcDbCircle
 62
7
  6
CONTINUOUS
 10
2184.7586090666
 20
1702.4515089403
 40
0.5
100
AcDbArc
 50
0.0000000002
 51
59.9999999999
  0
ARC
  5
883
100
AcDbEntity
  8
0
100
AcDbCircle
 62
7
  6
CONTINUOUS
 10
2187.0086090666
 20
1706.3486232573
 40
0.5
100
AcDbArc
 50
239.9999999999
 51
300.0000000003
  0
ARC
  5
884
100
AcDbEntity
  8
0
100
AcDbCircle
 62
7
  6
CONTINUOUS
 10
2184.7586090666
 20
1705.0495851516
 40
0.5
100
AcDbArc
 50
300.0000000002
 51
360.0
  0
ARC
  5
885
100
AcDbEntity
  8
0
100
AcDbCircle
 62
7
  6
CONTINUOUS
 10
2184.5086090666
 20
1703.7505470459
 40
0.5
100
AcDbArc
 50
120.0
 51
239.9999999999
  0
CIRCLE
  5
886
100
AcDbEntity
  8
0
100
AcDbCircle
 62
7
  6
CONTINUOUS
 10
1693.5086090666
 20
1728.7505470459
 40
2.6
  0
CIRCLE
  5
887
100
AcDbEntity
  8
0
100
AcDbCircle
 62
7
  6
CONTINUOUS
 10
1668.5086090666
 20
1728.7505470459
 40
2.6
  0
CIRCLE
  5
888
100
AcDbEntity
  8
0
100
AcDbCircle
 62
7
  6
CONTINUOUS
 10
1643.5086090666
 20
1728.7505470459
 40
2.6
  0
CIRCLE
  5
889
100
AcDbEntity
  8
0
100
AcDbCircle
 62
7
  6
CONTINUOUS
 10
1618.5086090666
 20
1728.7505470459
 40
2.6
  0
CIRCLE
  5
88A
100
AcDbEntity
  8
0
100
AcDbCircle
 62
7
  6
CONTINUOUS
 10
1593.5086090666
 20
1728.7505470459
 40
2.6
  0
CIRCLE
  5
88B
100
AcDbEntity
  8
0
100
AcDbCircle
 62
7
  6
CONTINUOUS
 10
1568.5086090666
 20
1728.7505470459
 40
2.6
  0
CIRCLE
  5
88C
100
AcDbEntity
  8
0
100
AcDbCircle
 62
7
  6
CONTINUOUS
 10
1543.5086090666
 20
1728.7505470459
 40
2.6
  0
CIRCLE
  5
88D
100
AcDbEntity
  8
0
100
AcDbCircle
 62
7
  6
CONTINUOUS
 10
1518.5086090666
 20
1728.7505470459
 40
2.6
  0
CIRCLE
  5
88E
100
AcDbEntity
  8
0
100
AcDbCircle
 62
7
  6
CONTINUOUS
 10
1493.5086090666
 20
1728.7505470459
 40
2.6
  0
CIRCLE
  5
88F
100
AcDbEntity
  8
0
100
AcDbCircle
 62
7
  6
CONTINUOUS
 10
1468.5086090666
 20
1728.7505470459
 40
2.6
  0
CIRCLE
  5
890
100
AcDbEntity
  8
0
100
AcDbCircle
 62
7
  6
CONTINUOUS
 10
1443.5086090666
 20
1728.7505470459
 40
2.6
  0
CIRCLE
  5
891
100
AcDbEntity
  8
0
100
AcDbCircle
 62
7
  6
CONTINUOUS
 10
1418.5086090666
 20
1728.7505470459
 40
2.6
  0
CIRCLE
  5
892
100
AcDbEntity
  8
0
100
AcDbCircle
 62
7
  6
CONTINUOUS
 10
1393.5086090666
 20
1728.7505470459
 40
2.6
  0
CIRCLE
  5
893
100
AcDbEntity
  8
0
100
AcDbCircle
 62
7
  6
CONTINUOUS
 10
1368.5086090666
 20
1728.7505470459
 40
2.6
  0
CIRCLE
  5
894
100
AcDbEntity
  8
0
100
AcDbCircle
 62
7
  6
CONTINUOUS
 10
1343.5086090666
 20
1728.7505470459
 40
2.6
  0
CIRCLE
  5
895
100
AcDbEntity
  8
0
100
AcDbCircle
 62
7
  6
CONTINUOUS
 10
1318.5086090666
 20
1728.7505470459
 40
2.6
  0
CIRCLE
  5
896
100
AcDbEntity
  8
0
100
AcDbCircle
 62
7
  6
CONTINUOUS
 10
1293.5086090666
 20
1728.7505470459
 40
2.6
  0
CIRCLE
  5
897
100
AcDbEntity
  8
0
100
AcDbCircle
 62
7
  6
CONTINUOUS
 10
1268.5086090666
 20
1728.7505470459
 40
2.6
  0
CIRCLE
  5
898
100
AcDbEntity
  8
0
100
AcDbCircle
 62
7
  6
CONTINUOUS
 10
1243.5086090666
 20
1728.7505470459
 40
2.6
  0
CIRCLE
  5
899
100
AcDbEntity
  8
0
100
AcDbCircle
 62
7
  6
CONTINUOUS
 10
1693.5086090666
 20
1753.7505470459
 40
2.6
  0
CIRCLE
  5
89A
100
AcDbEntity
  8
0
100
AcDbCircle
 62
7
  6
CONTINUOUS
 10
1668.5086090666
 20
1753.7505470459
 40
2.6
  0
CIRCLE
  5
89B
100
AcDbEntity
  8
0
100
AcDbCircle
 62
7
  6
CONTINUOUS
 10
1643.5086090666
 20
1753.7505470459
 40
2.6
  0
CIRCLE
  5
89C
100
AcDbEntity
  8
0
100
AcDbCircle
 62
7
  6
CONTINUOUS
 10
1618.5086090666
 20
1753.7505470459
 40
2.6
  0
CIRCLE
  5
89D
100
AcDbEntity
  8
0
100
AcDbCircle
 62
7
  6
CONTINUOUS
 10
1593.5086090666
 20
1753.7505470459
 40
2.6
  0
CIRCLE
  5
89E
100
AcDbEntity
  8
0
100
AcDbCircle
 62
7
  6
CONTINUOUS
 10
1568.5086090666
 20
1753.7505470459
 40
2.6
  0
CIRCLE
  5
89F
100
AcDbEntity
  8
0
100
AcDbCircle
 62
7
  6
CONTINUOUS
 10
1543.5086090666
 20
1753.7505470459
 40
2.6
  0
CIRCLE
  5
8A0
100
AcDbEntity
  8
0
100
AcDbCircle
 62
7
  6
CONTINUOUS
 10
1518.5086090666
 20
1753.7505470459
 40
2.6
  0
CIRCLE
  5
8A1
100
AcDbEntity
  8
0
100
AcDbCircle
 62
7
  6
CONTINUOUS
 10
1493.5086090666
 20
1753.7505470459
 40
2.6
  0
CIRCLE
  5
8A2
100
AcDbEntity
  8
0
100
AcDbCircle
 62
7
  6
CONTINUOUS
 10
1468.5086090666
 20
1753.7505470459
 40
2.6
  0
CIRCLE
  5
8A3
100
AcDbEntity
  8
0
100
AcDbCircle
 62
7
  6
CONTINUOUS
 10
1443.5086090666
 20
1753.7505470459
 40
2.6
  0
CIRCLE
  5
8A4
100
AcDbEntity
  8
0
100
AcDbCircle
 62
7
  6
CONTINUOUS
 10
1418.5086090666
 20
1753.7505470459
 40
2.6
  0
CIRCLE
  5
8A5
100
AcDbEntity
  8
0
100
AcDbCircle
 62
7
  6
CONTINUOUS
 10
1393.5086090666
 20
1753.7505470459
 40
2.6
  0
CIRCLE
  5
8A6
100
AcDbEntity
  8
0
100
AcDbCircle
 62
7
  6
CONTINUOUS
 10
1368.5086090666
 20
1753.7505470459
 40
2.6
  0
CIRCLE
  5
8A7
100
AcDbEntity
  8
0
100
AcDbCircle
 62
7
  6
CONTINUOUS
 10
1343.5086090666
 20
1753.7505470459
 40
2.6
  0
CIRCLE
  5
8A8
100
AcDbEntity
  8
0
100
AcDbCircle
 62
7
  6
CONTINUOUS
 10
1318.5086090666
 20
1753.7505470459
 40
2.6
  0
CIRCLE
  5
8A9
100
AcDbEntity
  8
0
100
AcDbCircle
 62
7
  6
CONTINUOUS
 10
1293.5086090666
 20
1753.7505470459
 40
2.6
  0
CIRCLE
  5
8AA
100
AcDbEntity
  8
0
100
AcDbCircle
 62
7
  6
CONTINUOUS
 10
1268.5086090666
 20
1753.7505470459
 40
2.6
  0
CIRCLE
  5
8AB
100
AcDbEntity
  8
0
100
AcDbCircle
 62
7
  6
CONTINUOUS
 10
1243.5086090666
 20
1753.7505470459
 40
2.6
  0
CIRCLE
  5
8AC
100
AcDbEntity
  8
0
100
AcDbCircle
 62
7
  6
CONTINUOUS
 10
1293.5086090666
 20
1761.2505470459
 40
1.5
  0
CIRCLE
  5
8AD
100
AcDbEntity
  8
0
100
AcDbCircle
 62
7
  6
CONTINUOUS
 10
2168.5086090666
 20
1728.7505470459
 40
2.6
  0
CIRCLE
  5
8AE
100
AcDbEntity
  8
0
100
AcDbCircle
 62
7
  6
CONTINUOUS
 10
2143.5086090666
 20
1728.7505470459
 40
2.6
  0
CIRCLE
  5
8AF
100
AcDbEntity
  8
0
100
AcDbCircle
 62
7
  6
CONTINUOUS
 10
2118.5086090666
 20
1728.7505470459
 40
2.6
  0
CIRCLE
  5
8B0
100
AcDbEntity
  8
0
100
AcDbCircle
 62
7
  6
CONTINUOUS
 10
2093.5086090666
 20
1728.7505470459
 40
2.6
  0
CIRCLE
  5
8B1
100
AcDbEntity
  8
0
100
AcDbCircle
 62
7
  6
CONTINUOUS
 10
2068.5086090666
 20
1728.7505470459
 40
2.6
  0
CIRCLE
  5
8B2
100
AcDbEntity
  8
0
100
AcDbCircle
 62
7
  6
CONTINUOUS
 10
2043.5086090666
 20
1728.7505470459
 40
2.6
  0
CIRCLE
  5
8B3
100
AcDbEntity
  8
0
100
AcDbCircle
 62
7
  6
CONTINUOUS
 10
2018.5086090666
 20
1728.7505470459
 40
2.6
  0
CIRCLE
  5
8B4
100
AcDbEntity
  8
0
100
AcDbCircle
 62
7
  6
CONTINUOUS
 10
1993.5086090666
 20
1728.7505470459
 40
2.6
  0
CIRCLE
  5
8B5
100
AcDbEntity
  8
0
100
AcDbCircle
 62
7
  6
CONTINUOUS
 10
1968.5086090666
 20
1728.7505470459
 40
2.6
  0
CIRCLE
  5
8B6
100
AcDbEntity
  8
0
100
AcDbCircle
 62
7
  6
CONTINUOUS
 10
1943.5086090666
 20
1728.7505470459
 40
2.6
  0
CIRCLE
  5
8B7
100
AcDbEntity
  8
0
100
AcDbCircle
 62
7
  6
CONTINUOUS
 10
1918.5086090666
 20
1728.7505470459
 40
2.6
  0
CIRCLE
  5
8B8
100
AcDbEntity
  8
0
100
AcDbCircle
 62
7
  6
CONTINUOUS
 10
1893.5086090666
 20
1728.7505470459
 40
2.6
  0
CIRCLE
  5
8B9
100
AcDbEntity
  8
0
100
AcDbCircle
 62
7
  6
CONTINUOUS
 10
1868.5086090666
 20
1728.7505470459
 40
2.6
  0
CIRCLE
  5
8BA
100
AcDbEntity
  8
0
100
AcDbCircle
 62
7
  6
CONTINUOUS
 10
1843.5086090666
 20
1728.7505470459
 40
2.6
  0
CIRCLE
  5
8BB
100
AcDbEntity
  8
0
100
AcDbCircle
 62
7
  6
CONTINUOUS
 10
1818.5086090666
 20
1728.7505470459
 40
2.6
  0
CIRCLE
  5
8BC
100
AcDbEntity
  8
0
100
AcDbCircle
 62
7
  6
CONTINUOUS
 10
1793.5086090666
 20
1728.7505470459
 40
2.6
  0
CIRCLE
  5
8BD
100
AcDbEntity
  8
0
100
AcDbCircle
 62
7
  6
CONTINUOUS
 10
1768.5086090666
 20
1728.7505470459
 40
2.6
  0
CIRCLE
  5
8BE
100
AcDbEntity
  8
0
100
AcDbCircle
 62
7
  6
CONTINUOUS
 10
1743.5086090666
 20
1728.7505470459
 40
2.6
  0
CIRCLE
  5
8BF
100
AcDbEntity
  8
0
100
AcDbCircle
 62
7
  6
CONTINUOUS
 10
1718.5086090666
 20
1728.7505470459
 40
2.6
  0
CIRCLE
  5
8C0
100
AcDbEntity
  8
0
100
AcDbCircle
 62
7
  6
CONTINUOUS
 10
2187.0086090666
 20
1753.7505470459
 40
6.0
  0
ARC
  5
8C1
100
AcDbEntity
  8
0
100
AcDbCircle
 62
7
  6
CONTINUOUS
 10
2187.0306202286
 20
1753.7050065639
 40
5.5933017816
100
AcDbArc
 50
115.6298589919
 51
120.7676685012
  0
ARC
  5
8C2
100
AcDbEntity
  8
0
100
AcDbCircle
 62
7
  6
CONTINUOUS
 10
2187.0086090666
 20
1753.7505470459
 40
5.5434781454
100
AcDbArc
 50
180.0
 51
360.0
  0
ARC
  5
8C3
100
AcDbEntity
  8
0
100
AcDbCircle
 62
7
  6
CONTINUOUS
 10
2187.0249168272
 20
1753.7657965964
 40
5.5214080438
100
AcDbArc
 50
30.9702176089
 51
61.1154277293
  0
ARC
  5
8C4
100
AcDbEntity
  8
0
100
AcDbCircle
 62
7
  6
CONTINUOUS
 10
2186.9824952108
 20
1753.7830022526
 40
5.5018241797
100
AcDbArc
 50
120.7557545806
 51
154.3064527426
  0
ARC
  5
8C5
100
AcDbEntity
  8
0
100
AcDbCircle
 62
7
  6
CONTINUOUS
 10
2187.1170203811
 20
1753.8171667712
 40
5.4168441725
100
AcDbArc
 50
25.8900103246
 51
30.9575667643
  0
CIRCLE
  5
8C6
100
AcDbEntity
  8
0
100
AcDbCircle
 62
7
  6
CONTINUOUS
 10
2168.5086090666
 20
1753.7505470459
 40
2.6
  0
CIRCLE
  5
8C7
100
AcDbEntity
  8
0
100
AcDbCircle
 62
7
  6
CONTINUOUS
 10
2143.5086090666
 20
1753.7505470459
 40
2.6
  0
CIRCLE
  5
8C8
100
AcDbEntity
  8
0
100
AcDbCircle
 62
7
  6
CONTINUOUS
 10
2118.5086090666
 20
1753.7505470459
 40
2.6
  0
CIRCLE
  5
8C9
100
AcDbEntity
  8
0
100
AcDbCircle
 62
7
  6
CONTINUOUS
 10
2093.5086090666
 20
1753.7505470459
 40
2.6
  0
CIRCLE
  5
8CA
100
AcDbEntity
  8
0
100
AcDbCircle
 62
7
  6
CONTINUOUS
 10
2068.5086090666
 20
1753.7505470459
 40
2.6
  0
CIRCLE
  5
8CB
100
AcDbEntity
  8
0
100
AcDbCircle
 62
7
  6
CONTINUOUS
 10
2043.5086090666
 20
1753.7505470459
 40
2.6
  0
CIRCLE
  5
8CC
100
AcDbEntity
  8
0
100
AcDbCircle
 62
7
  6
CONTINUOUS
 10
2018.5086090666
 20
1753.7505470459
 40
2.6
  0
CIRCLE
  5
8CD
100
AcDbEntity
  8
0
100
AcDbCircle
 62
7
  6
CONTINUOUS
 10
1993.5086090666
 20
1753.7505470459
 40
2.6
  0
CIRCLE
  5
8CE
100
AcDbEntity
  8
0
100
AcDbCircle
 62
7
  6
CONTINUOUS
 10
1968.5086090666
 20
1753.7505470459
 40
2.6
  0
CIRCLE
  5
8CF
100
AcDbEntity
  8
0
100
AcDbCircle
 62
7
  6
CONTINUOUS
 10
1943.5086090666
 20
1753.7505470459
 40
2.6
  0
CIRCLE
  5
8D0
100
AcDbEntity
  8
0
100
AcDbCircle
 62
7
  6
CONTINUOUS
 10
1918.5086090666
 20
1753.7505470459
 40
2.6
  0
CIRCLE
  5
8D1
100
AcDbEntity
  8
0
100
AcDbCircle
 62
7
  6
CONTINUOUS
 10
1893.5086090666
 20
1753.7505470459
 40
2.6
  0
CIRCLE
  5
8D2
100
AcDbEntity
  8
0
100
AcDbCircle
 62
7
  6
CONTINUOUS
 10
1868.5086090666
 20
1753.7505470459
 40
2.6
  0
CIRCLE
  5
8D3
100
AcDbEntity
  8
0
100
AcDbCircle
 62
7
  6
CONTINUOUS
 10
1843.5086090666
 20
1753.7505470459
 40
2.6
  0
CIRCLE
  5
8D4
100
AcDbEntity
  8
0
100
AcDbCircle
 62
7
  6
CONTINUOUS
 10
1818.5086090666
 20
1753.7505470459
 40
2.6
  0
CIRCLE
  5
8D5
100
AcDbEntity
  8
0
100
AcDbCircle
 62
7
  6
CONTINUOUS
 10
1793.5086090666
 20
1753.7505470459
 40
2.6
  0
CIRCLE
  5
8D6
100
AcDbEntity
  8
0
100
AcDbCircle
 62
7
  6
CONTINUOUS
 10
1768.5086090666
 20
1753.7505470459
 40
2.6
  0
CIRCLE
  5
8D7
100
AcDbEntity
  8
0
100
AcDbCircle
 62
7
  6
CONTINUOUS
 10
1743.5086090666
 20
1753.7505470459
 40
2.6
  0
CIRCLE
  5
8D8
100
AcDbEntity
  8
0
100
AcDbCircle
 62
7
  6
CONTINUOUS
 10
1718.5086090666
 20
1753.7505470459
 40
2.6
  0
ARC
  5
8D9
100
AcDbEntity
  8
0
100
AcDbCircle
 62
7
  6
CONTINUOUS
 10
2189.2586090666
 20
1755.0495851516
 40
0.5
100
AcDbArc
 50
180.0
 51
239.9999999999
  0
ARC
  5
8DA
100
AcDbEntity
  8
0
100
AcDbCircle
 62
7
  6
CONTINUOUS
 10
2187.0086090666
 20
1756.3486232573
 40
0.5
100
AcDbArc
 50
239.9999999999
 51
300.0000000003
  0
ARC
  5
8DB
100
AcDbEntity
  8
0
100
AcDbCircle
 62
7
  6
CONTINUOUS
 10
2184.7586090666
 20
1755.0495851516
 40
0.5
100
AcDbArc
 50
300.0000000002
 51
360.0
  0
ARC
  5
8DC
100
AcDbEntity
  8
0
100
AcDbCircle
 62
7
  6
CONTINUOUS
 10
2184.5086090666
 20
1753.7505470459
 40
0.5
100
AcDbArc
 50
120.0
 51
239.9999999999
  0
ARC
  5
8DD
100
AcDbEntity
  8
0
100
AcDbCircle
 62
7
  6
CONTINUOUS
 10
2184.7586090666
 20
1752.4515089403
 40
0.5
100
AcDbArc
 50
0.0000000002
 51
59.9999999999
  0
ARC
  5
8DE
100
AcDbEntity
  8
0
100
AcDbCircle
 62
7
  6
CONTINUOUS
 10
2187.0086090666
 20
1751.1524708346
 40
0.5
100
AcDbArc
 50
59.9999999998
 51
120.0
  0
ARC
  5
8DF
100
AcDbEntity
  8
0
100
AcDbCircle
 62
7
  6
CONTINUOUS
 10
2189.2586090666
 20
1752.4515089403
 40
0.5
100
AcDbArc
 50
120.0
 51
179.9999999998
  0
ARC
  5
8E0
100
AcDbEntity
  8
0
100
AcDbCircle
 62
7
  6
CONTINUOUS
 10
2189.5086090666
 20
1753.7505470459
 40
0.5
100
AcDbArc
 50
300.0000000003
 51
59.9999999999
  0
ARC
  5
8E1
100
AcDbEntity
  8
0
100
AcDbCircle
 62
7
  6
CONTINUOUS
 10
2185.7586090666
 20
1755.9156105554
 40
0.5
100
AcDbArc
 50
60.0000000003
 51
179.9999999999
  0
ARC
  5
8E2
100
AcDbEntity
  8
0
100
AcDbCircle
 62
7
  6
CONTINUOUS
 10
2188.2586090666
 20
1755.9156105554
 40
0.5
100
AcDbArc
 50
0.0000000001
 51
119.9999999994
  0
ARC
  5
8E3
100
AcDbEntity
  8
0
100
AcDbCircle
 62
7
  6
CONTINUOUS
 10
2188.2586090666
 20
1751.5854835365
 40
0.5
100
AcDbArc
 50
240.0000000004
 51
360.0
  0
ARC
  5
8E4
100
AcDbEntity
  8
0
100
AcDbCircle
 62
7
  6
CONTINUOUS
 10
2185.7586090666
 20
1751.5854835365
 40
0.5
100
AcDbArc
 50
179.9999999999
 51
299.9999999997
  0
SPLINE
  5
8E5
100
AcDbEntity
  8
0
100
AcDbSpline
 62
7
  6
CONTINUOUS
 70
0
 71
3
 72
8
 73
4
 74
0
 42
0.0000001
 43
0.0000001
 44
0.0000000001
 40
0.0
 40
0.0
 40
0.0
 40
0.0
 40
1.0
 40
1.0
 40
1.0
 40
1.0
 10
2192.552087212
 20
1753.7505470459
 30
0.0
 10
2192.5472732351
 20
1754.5825087136
 30
0.0
 10
2192.3533751179
 20
1755.4338823956
 30
0.0
 10
2191.9901971536
 20
1756.1824043773
 30
0.0
  0
SPLINE
  5
8E6
100
AcDbEntity
  8
0
100
AcDbSpline
 62
7
  6
CONTINUOUS
 70
0
 71
3
 72
8
 73
4
 74
0
 42
0.0000001
 43
0.0000001
 44
0.0000000001
 40
0.0
 40
0.0
 40
0.0
 40
0.0
 40
1.0
 40
1.0
 40
1.0
 40
1.0
 10
2189.6893300764
 20
1758.6017713782
 30
0.0
 10
2188.2067305866
 20
1759.4200220876
 30
0.0
 10
2186.1379797023
 20
1759.4804957105
 30
0.0
 10
2184.6112058343
 20
1758.7479678773
 30
0.0
  0
SPLINE
  5
8E7
100
AcDbEntity
  8
0
100
AcDbSpline
 62
7
  6
CONTINUOUS
 70
0
 71
3
 72
8
 73
4
 74
0
 42
0.0000001
 43
0.0000001
 44
0.0000000001
 40
0.0
 40
0.0
 40
0.0
 40
0.0
 40
1.0
 40
1.0
 40
1.0
 40
1.0
 10
2182.0119694799
 20
1756.1513266671
 30
0.0
 10
2181.6561876314
 20
1755.4116909696
 30
0.0
 10
2181.4603818585
 20
1754.5712900844
 30
0.0
 10
2181.4651309212
 20
1753.7505470459
 30
0.0
  0
SPLINE
  5
8E8
100
AcDbEntity
  8
0
100
AcDbSpline
 62
7
  6
CONTINUOUS
 70
0
 71
3
 72
8
 73
4
 74
0
 42
0.0000001
 43
0.0000001
 44
0.0000000001
 40
0.0
 40
0.0
 40
0.0
 40
0.0
 40
1.0
 40
1.0
 40
1.0
 40
1.0
 10
305.552087212
 20
1753.7505470459
 30
0.0
 10
305.5472732351
 20
1754.5825087136
 30
0.0
 10
305.3533751179
 20
1755.4338823956
 30
0.0
 10
304.9901971536
 20
1756.1824043773
 30
0.0
  0
SPLINE
  5
8E9
100
AcDbEntity
  8
0
100
AcDbSpline
 62
7
  6
CONTINUOUS
 70
0
 71
3
 72
8
 73
4
 74
0
 42
0.0000001
 43
0.0000001
 44
0.0000000001
 40
0.0
 40
0.0
 40
0.0
 40
0.0
 40
1.0
 40
1.0
 40
1.0
 40
1.0
 10
302.6893300764
 20
1758.6017713782
 30
0.0
 10
301.2067305866
 20
1759.4200220876
 30
0.0
 10
299.1379797023
 20
1759.4804957105
 30
0.0
 10
297.6112058343
 20
1758.7479678773
 30
0.0
  0
SPLINE
  5
8EA
100
AcDbEntity
  8
0
100
AcDbSpline
 62
7
  6
CONTINUOUS
 70
0
 71
3
 72
8
 73
4
 74
0
 42
0.0000001
 43
0.0000001
 44
0.0000000001
 40
0.0
 40
0.0
 40
0.0
 40
0.0
 40
1.0
 40
1.0
 40
1.0
 40
1.0
 10
295.0119694799
 20
1756.1513266671
 30
0.0
 10
294.6561876314
 20
1755.4116909696
 30
0.0
 10
294.4603818585
 20
1754.5712900844
 30
0.0
 10
294.4651309212
 20
1753.7505470459
 30
0.0
  0
SPLINE
  5
8EB
100
AcDbEntity
  8
0
100
AcDbSpline
 62
7
  6
CONTINUOUS
 70
0
 71
3
 72
8
 73
4
 74
0
 42
0.0000001
 43
0.0000001
 44
0.0000000001
 40
0.0
 40
0.0
 40
0.0
 40
0.0
 40
1.0
 40
1.0
 40
1.0
 40
1.0
 10
2197.0408908255
 20
1745.6080957445
 30
0.0
 10
2197.7256157848
 20
1746.0449104586
 30
0.0
 10
2198.3241344257
 20
1746.7827311855
 30
0.0
 10
2198.4697024053
 20
1747.5817714396
 30
0.0
  0
SPLINE
  5
8EC
100
AcDbEntity
  8
0
100
AcDbSpline
 62
7
  6
CONTINUOUS
 70
0
 71
3
 72
9
 73
5
 74
0
 42
0.0000001
 43
0.0000001
 44
0.0000000001
 40
0.0
 40
0.0
 40
0.0
 40
0.0
 40
0.5048496526
 40
1.0
 40
1.0
 40
1.0
 40
1.0
 10
2198.4697024053
 20
1747.5817714396
 30
0.0
 10
2198.4825335306
 20
1747.6522030393
 30
0.0
 10
2198.5019320952
 20
1747.792884007
 30
0.0
 10
2198.5086241536
 20
1747.9347578629
 30
0.0
 10
2198.5086263422
 20
1748.0049732783
 30
0.0
  0
SPLINE
  5
8ED
100
AcDbEntity
  8
0
100
AcDbSpline
 62
7
  6
CONTINUOUS
 70
0
 71
3
 72
9
 73
5
 74
0
 42
0.0000001
 43
0.0000001
 44
0.0000000001
 40
0.0
 40
0.0
 40
0.0
 40
0.0
 40
0.5145225051
 40
1.0
 40
1.0
 40
1.0
 40
1.0
 10
2198.5086090661
 20
1748.0049794758
 30
0.0
 10
2198.5086172273
 20
1747.6236969878
 30
0.0
 10
2198.3041663913
 20
1746.8039194079
 30
0.0
 10
2197.4955541486
 20
1746.5229039398
 30
0.0
 10
2197.1357952167
 20
1746.5229250586
 30
0.0
  0
SPLINE
  5
8EE
100
AcDbEntity
  8
0
100
AcDbSpline
 62
7
  6
CONTINUOUS
 70
0
 71
3
 72
8
 73
4
 74
0
 42
0.0000001
 43
0.0000001
 44
0.0000000001
 40
0.0
 40
0.0
 40
0.0
 40
0.0
 40
1.0
 40
1.0
 40
1.0
 40
1.0
 10
289.9965110669
 20
1714.9022118176
 30
0.0
 10
289.6005952537
 20
1714.23918017
 30
0.0
 10
289.6125438864
 20
1713.259318443
 30
0.0
 10
289.9897921328
 20
1712.5854905291
 30
0.0
  0
SPLINE
  5
8EF
100
AcDbEntity
  8
0
100
AcDbSpline
 62
7
  6
CONTINUOUS
 70
0
 71
3
 72
8
 73
4
 74
0
 42
0.0000001
 43
0.0000001
 44
0.0000000001
 40
0.0
 40
0.0
 40
0.0
 40
0.0
 40
1.0
 40
1.0
 40
1.0
 40
1.0
 10
289.88145268
 20
1746.5229311131
 30
0.0
 10
289.4062684977
 20
1746.5229004085
 30
0.0
 10
288.8570906779
 20
1746.8238244832
 30
0.0
 10
288.6585569454
 20
1747.2555470388
 30
0.0
  0
SPLINE
  5
8F0
100
AcDbEntity
  8
0
100
AcDbSpline
 62
7
  6
CONTINUOUS
 70
0
 71
3
 72
9
 73
5
 74
0
 42
0.0000001
 43
0.0000001
 44
0.0000000001
 40
0.0
 40
0.0
 40
0.0
 40
0.0
 40
0.4777909634
 40
1.0
 40
1.0
 40
1.0
 40
1.0
 10
288.6585569454
 20
1747.2555470388
 30
0.0
 10
288.6074033575
 20
1747.3667833381
 30
0.0
 10
288.5303122939
 20
1747.6140279104
 30
0.0
 10
288.5086076518
 20
1747.8711540908
 30
0.0
 10
288.5086090667
 20
1748.0049707614
 30
0.0
  0
SPLINE
  5
8F1
100
AcDbEntity
  8
0
100
AcDbSpline
 62
7
  6
CONTINUOUS
 70
0
 71
3
 72
8
 73
4
 74
0
 42
0.0000001
 43
0.0000001
 44
0.0000000001
 40
0.0
 40
0.0
 40
0.0
 40
0.0
 40
1.0
 40
1.0
 40
1.0
 40
1.0
 10
288.5086024425
 20
1748.0049811976
 30
0.0
 10
288.5086182088
 20
1747.3007137539
 30
0.0
 10
288.8720475151
 20
1746.5695076804
 30
0.0
 10
289.3775491755
 20
1746.0791397533
 30
0.0
  0
SPLINE
  5
8F2
100
AcDbEntity
  8
0
100
AcDbSpline
 62
7
  6
CONTINUOUS
 70
0
 71
3
 72
9
 73
5
 74
0
 42
0.0000001
 43
0.0000001
 44
0.0000000001
 40
0.0
 40
0.0
 40
0.0
 40
0.0
 40
0.4967813556
 40
1.0
 40
1.0
 40
1.0
 40
1.0
 10
289.3775491755
 20
1746.0791397533
 30
0.0
 10
289.4682166135
 20
1745.9911867214
 30
0.0
 10
289.6604973362
 20
1745.8240039649
 30
0.0
 10
289.8684533471
 20
1745.6769113558
 30
0.0
 10
289.9763269262
 20
1745.6080941049
 30
0.0
  0
SPLINE
  5
8F3
100
AcDbEntity
  8
0
100
AcDbSpline
 62
7
  6
CONTINUOUS
 70
0
 71
3
 72
8
 73
4
 74
0
 42
0.0000001
 43
0.0000001
 44
0.0000000001
 40
0.0
 40
0.0
 40
0.0
 40
0.0
 40
1.0
 40
1.0
 40
1.0
 40
1.0
 10
289.9965110669
 20
1744.9022118176
 30
0.0
 10
289.6005952537
 20
1744.23918017
 30
0.0
 10
289.6125438864
 20
1743.259318443
 30
0.0
 10
289.9897921328
 20
1742.5854905291
 30
0.0
  0
SPLINE
  5
8F4
100
AcDbEntity
  8
0
100
AcDbSpline
 62
7
  6
CONTINUOUS
 70
0
 71
3
 72
8
 73
4
 74
0
 42
0.0000001
 43
0.0000001
 44
0.0000000001
 40
0.0
 40
0.0
 40
0.0
 40
0.0
 40
1.0
 40
1.0
 40
1.0
 40
1.0
 10
289.9763273896
 20
1741.8929983996
 30
0.0
 10
289.2916026883
 20
1741.4561838735
 30
0.0
 10
288.6930842315
 20
1740.7183636663
 30
0.0
 10
288.5475159358
 20
1739.9193237938
 30
0.0
  0
SPLINE
  5
8F5
100
AcDbEntity
  8
0
100
AcDbSpline
 62
7
  6
CONTINUOUS
 70
0
 71
3
 72
9
 73
5
 74
0
 42
0.0000001
 43
0.0000001
 44
0.0000000001
 40
0.0
 40
0.0
 40
0.0
 40
0.0
 40
0.5048496654
 40
1.0
 40
1.0
 40
1.0
 40
1.0
 10
288.5475159358
 20
1739.9193237938
 30
0.0
 10
288.5346847422
 20
1739.848892006
 30
0.0
 10
288.5152860741
 20
1739.7082106601
 30
0.0
 10
288.5085939795
 20
1739.5663364163
 30
0.0
 10
288.5085917909
 20
1739.4961208111
 30
0.0
  0
SPLINE
  5
8F6
100
AcDbEntity
  8
0
100
AcDbSpline
 62
7
  6
CONTINUOUS
 70
0
 71
3
 72
8
 73
4
 74
0
 42
0.0000001
 43
0.0000001
 44
0.0000000001
 40
0.0
 40
0.0
 40
0.0
 40
0.0
 40
1.0
 40
1.0
 40
1.0
 40
1.0
 10
289.9993954584
 20
1740.9744885903
 30
0.0
 10
289.5002745939
 20
1741.0051870712
 30
0.0
 10
288.8917661364
 20
1740.7241272382
 30
0.0
 10
288.6723892582
 20
1740.2747523174
 30
0.0
  0
SPLINE
  5
8F7
100
AcDbEntity
  8
0
100
AcDbSpline
 62
7
  6
CONTINUOUS
 70
0
 71
3
 72
8
 73
4
 74
0
 42
0.0000001
 43
0.0000001
 44
0.0000000001
 40
0.0
 40
0.0
 40
0.0
 40
0.0
 40
1.0
 40
1.0
 40
1.0
 40
1.0
 10
288.6723892582
 20
1740.2747523174
 30
0.0
 10
288.5560354992
 20
1740.0364115147
 30
0.0
 10
288.5086033898
 20
1739.7613399313
 30
0.0
 10
288.5086090671
 20
1739.4961144885
 30
0.0
  0
SPLINE
  5
8F8
100
AcDbEntity
  8
0
100
AcDbSpline
 62
7
  6
CONTINUOUS
 70
0
 71
3
 72
8
 73
4
 74
0
 42
0.0000001
 43
0.0000001
 44
0.0000000001
 40
0.0
 40
0.0
 40
0.0
 40
0.0
 40
1.0
 40
1.0
 40
1.0
 40
1.0
 10
289.88145268
 20
1716.5229311131
 30
0.0
 10
289.4062684977
 20
1716.5229004085
 30
0.0
 10
288.8570906779
 20
1716.8238244832
 30
0.0
 10
288.6585569454
 20
1717.2555470388
 30
0.0
  0
SPLINE
  5
8F9
100
AcDbEntity
  8
0
100
AcDbSpline
 62
7
  6
CONTINUOUS
 70
0
 71
3
 72
9
 73
5
 74
0
 42
0.0000001
 43
0.0000001
 44
0.0000000001
 40
0.0
 40
0.0
 40
0.0
 40
0.0
 40
0.4777909634
 40
1.0
 40
1.0
 40
1.0
 40
1.0
 10
288.6585569454
 20
1717.2555470388
 30
0.0
 10
288.6074033575
 20
1717.3667833381
 30
0.0
 10
288.5303122939
 20
1717.6140279104
 30
0.0
 10
288.5086076518
 20
1717.8711540908
 30
0.0
 10
288.5086090667
 20
1718.0049707614
 30
0.0
  0
SPLINE
  5
8FA
100
AcDbEntity
  8
0
100
AcDbSpline
 62
7
  6
CONTINUOUS
 70
0
 71
3
 72
8
 73
4
 74
0
 42
0.0000001
 43
0.0000001
 44
0.0000000001
 40
0.0
 40
0.0
 40
0.0
 40
0.0
 40
1.0
 40
1.0
 40
1.0
 40
1.0
 10
288.5086024425
 20
1718.0049811976
 30
0.0
 10
288.5086182088
 20
1717.3007137539
 30
0.0
 10
288.8720475151
 20
1716.5695076804
 30
0.0
 10
289.3775491755
 20
1716.0791397533
 30
0.0
  0
SPLINE
  5
8FB
100
AcDbEntity
  8
0
100
AcDbSpline
 62
7
  6
CONTINUOUS
 70
0
 71
3
 72
9
 73
5
 74
0
 42
0.0000001
 43
0.0000001
 44
0.0000000001
 40
0.0
 40
0.0
 40
0.0
 40
0.0
 40
0.4967813556
 40
1.0
 40
1.0
 40
1.0
 40
1.0
 10
289.3775491755
 20
1716.0791397533
 30
0.0
 10
289.4682166135
 20
1715.9911867214
 30
0.0
 10
289.6604973362
 20
1715.8240039649
 30
0.0
 10
289.8684533471
 20
1715.6769113558
 30
0.0
 10
289.9763269262
 20
1715.6080941049
 30
0.0
  0
SPLINE
  5
8FC
100
AcDbEntity
  8
0
100
AcDbSpline
 62
7
  6
CONTINUOUS
 70
0
 71
3
 72
8
 73
4
 74
0
 42
0.0000001
 43
0.0000001
 44
0.0000000001
 40
0.0
 40
0.0
 40
0.0
 40
0.0
 40
1.0
 40
1.0
 40
1.0
 40
1.0
 10
289.9763273077
 20
1711.8929983474
 30
0.0
 10
289.2916023484
 20
1711.4561836333
 30
0.0
 10
288.6930837075
 20
1710.7183629064
 30
0.0
 10
288.5475157279
 20
1709.9193226523
 30
0.0
  0
SPLINE
  5
8FD
100
AcDbEntity
  8
0
100
AcDbSpline
 62
7
  6
CONTINUOUS
 70
0
 71
3
 72
9
 73
5
 74
0
 42
0.0000001
 43
0.0000001
 44
0.0000000001
 40
0.0
 40
0.0
 40
0.0
 40
0.0
 40
0.5048496526
 40
1.0
 40
1.0
 40
1.0
 40
1.0
 10
288.5475157279
 20
1709.9193226523
 30
0.0
 10
288.5346846025
 20
1709.8488910526
 30
0.0
 10
288.515286038
 20
1709.7082100849
 30
0.0
 10
288.5085939796
 20
1709.566336229
 30
0.0
 10
288.508591791
 20
1709.4961208136
 30
0.0
  0
SPLINE
  5
8FE
100
AcDbEntity
  8
0
100
AcDbSpline
 62
7
  6
CONTINUOUS
 70
0
 71
3
 72
9
 73
5
 74
0
 42
0.0000001
 43
0.0000001
 44
0.0000000001
 40
0.0
 40
0.0
 40
0.0
 40
0.0
 40
0.5145225051
 40
1.0
 40
1.0
 40
1.0
 40
1.0
 10
288.5086090671
 20
1709.4961146161
 30
0.0
 10
288.5086009059
 20
1709.8773971041
 30
0.0
 10
288.7130517419
 20
1710.697174684
 30
0.0
 10
289.5216639846
 20
1710.9781901521
 30
0.0
 10
289.8814229164
 20
1710.9781690333
 30
0.0
  0
SPLINE
  5
8FF
100
AcDbEntity
  8
0
100
AcDbSpline
 62
7
  6
CONTINUOUS
 70
0
 71
3
 72
8
 73
4
 74
0
 42
0.0000001
 43
0.0000001
 44
0.0000000001
 40
0.0
 40
0.0
 40
0.0
 40
0.0
 40
1.0
 40
1.0
 40
1.0
 40
1.0
 10
2192.552087212
 20
1703.7505470459
 30
0.0
 10
2192.5472732351
 20
1704.5825087136
 30
0.0
 10
2192.3533751179
 20
1705.4338823956
 30
0.0
 10
2191.9901971536
 20
1706.1824043773
 30
0.0
  0
SPLINE
  5
900
100
AcDbEntity
  8
0
100
AcDbSpline
 62
7
  6
CONTINUOUS
 70
0
 71
3
 72
8
 73
4
 74
0
 42
0.0000001
 43
0.0000001
 44
0.0000000001
 40
0.0
 40
0.0
 40
0.0
 40
0.0
 40
1.0
 40
1.0
 40
1.0
 40
1.0
 10
2189.3857789727
 20
1708.7574406379
 30
0.0
 10
2187.9481686078
 20
1709.4402555905
 30
0.0
 10
2186.0461232168
 20
1709.4364240679
 30
0.0
 10
2184.6112058343
 20
1708.7479678773
 30
0.0
  0
SPLINE
  5
901
100
AcDbEntity
  8
0
100
AcDbSpline
 62
7
  6
CONTINUOUS
 70
0
 71
3
 72
8
 73
4
 74
0
 42
0.0000001
 43
0.0000001
 44
0.0000000001
 40
0.0
 40
0.0
 40
0.0
 40
0.0
 40
1.0
 40
1.0
 40
1.0
 40
1.0
 10
2182.0119694799
 20
1706.1513266671
 30
0.0
 10
2181.6561876314
 20
1705.4116909696
 30
0.0
 10
2181.4603818585
 20
1704.5712900844
 30
0.0
 10
2181.4651309212
 20
1703.7505470459
 30
0.0
  0
SPLINE
  5
902
100
AcDbEntity
  8
0
100
AcDbSpline
 62
7
  6
CONTINUOUS
 70
0
 71
3
 72
8
 73
4
 74
0
 42
0.0000001
 43
0.0000001
 44
0.0000000001
 40
0.0
 40
0.0
 40
0.0
 40
0.0
 40
1.0
 40
1.0
 40
1.0
 40
1.0
 10
2197.0207070663
 20
1742.5988822743
 30
0.0
 10
2197.4166228795
 20
1743.2619139219
 30
0.0
 10
2197.4046742468
 20
1744.2417756489
 30
0.0
 10
2197.0274260004
 20
1744.9156035628
 30
0.0
  0
SPLINE
  5
903
100
AcDbEntity
  8
0
100
AcDbSpline
 62
7
  6
CONTINUOUS
 70
0
 71
3
 72
8
 73
4
 74
0
 42
0.0000001
 43
0.0000001
 44
0.0000000001
 40
0.0
 40
0.0
 40
0.0
 40
0.0
 40
1.0
 40
1.0
 40
1.0
 40
1.0
 10
2197.1357654532
 20
1710.9781629788
 30
0.0
 10
2197.6109496354
 20
1710.9781936834
 30
0.0
 10
2198.1601274553
 20
1710.6772696087
 30
0.0
 10
2198.3586611878
 20
1710.2455470531
 30
0.0
  0
SPLINE
  5
904
100
AcDbEntity
  8
0
100
AcDbSpline
 62
7
  6
CONTINUOUS
 70
0
 71
3
 72
9
 73
5
 74
0
 42
0.0000001
 43
0.0000001
 44
0.0000000001
 40
0.0
 40
0.0
 40
0.0
 40
0.0
 40
0.4777909634
 40
1.0
 40
1.0
 40
1.0
 40
1.0
 10
2198.3586611878
 20
1710.2455470531
 30
0.0
 10
2198.4098147756
 20
1710.1343107538
 30
0.0
 10
2198.4869058393
 20
1709.8870661815
 30
0.0
 10
2198.5086104814
 20
1709.6299400011
 30
0.0
 10
2198.5086090665
 20
1709.4961233305
 30
0.0
  0
SPLINE
  5
905
100
AcDbEntity
  8
0
100
AcDbSpline
 62
7
  6
CONTINUOUS
 70
0
 71
3
 72
8
 73
4
 74
0
 42
0.0000001
 43
0.0000001
 44
0.0000000001
 40
0.0
 40
0.0
 40
0.0
 40
0.0
 40
1.0
 40
1.0
 40
1.0
 40
1.0
 10
2198.5086156907
 20
1709.4961128943
 30
0.0
 10
2198.5085999244
 20
1710.200380338
 30
0.0
 10
2198.1451706181
 20
1710.9315864115
 30
0.0
 10
2197.6396689577
 20
1711.4219543386
 30
0.0
  0
SPLINE
  5
906
100
AcDbEntity
  8
0
100
AcDbSpline
 62
7
  6
CONTINUOUS
 70
0
 71
3
 72
9
 73
5
 74
0
 42
0.0000001
 43
0.0000001
 44
0.0000000001
 40
0.0
 40
0.0
 40
0.0
 40
0.0
 40
0.4967813556
 40
1.0
 40
1.0
 40
1.0
 40
1.0
 10
2197.6396689577
 20
1711.4219543386
 30
0.0
 10
2197.5490015196
 20
1711.5099073705
 30
0.0
 10
2197.356720797
 20
1711.677090127
 30
0.0
 10
2197.1487647861
 20
1711.8241827361
 30
0.0
 10
2197.040891207
 20
1711.892999987
 30
0.0
  0
SPLINE
  5
907
100
AcDbEntity
  8
0
100
AcDbSpline
 62
7
  6
CONTINUOUS
 70
0
 71
3
 72
8
 73
4
 74
0
 42
0.0000001
 43
0.0000001
 44
0.0000000001
 40
0.0
 40
0.0
 40
0.0
 40
0.0
 40
1.0
 40
1.0
 40
1.0
 40
1.0
 10
305.552087212
 20
1703.7505470459
 30
0.0
 10
305.5472732351
 20
1704.5825087136
 30
0.0
 10
305.3533751179
 20
1705.4338823956
 30
0.0
 10
304.9901971536
 20
1706.1824043773
 30
0.0
  0
SPLINE
  5
908
100
AcDbEntity
  8
0
100
AcDbSpline
 62
7
  6
CONTINUOUS
 70
0
 71
3
 72
8
 73
4
 74
0
 42
0.0000001
 43
0.0000001
 44
0.0000000001
 40
0.0
 40
0.0
 40
0.0
 40
0.0
 40
1.0
 40
1.0
 40
1.0
 40
1.0
 10
302.6893300764
 20
1708.6017713782
 30
0.0
 10
301.2067305866
 20
1709.4200220876
 30
0.0
 10
299.1379797023
 20
1709.4804957105
 30
0.0
 10
297.6112058343
 20
1708.7479678773
 30
0.0
  0
SPLINE
  5
909
100
AcDbEntity
  8
0
100
AcDbSpline
 62
7
  6
CONTINUOUS
 70
0
 71
3
 72
8
 73
4
 74
0
 42
0.0000001
 43
0.0000001
 44
0.0000000001
 40
0.0
 40
0.0
 40
0.0
 40
0.0
 40
1.0
 40
1.0
 40
1.0
 40
1.0
 10
295.0119694799
 20
1706.1513266671
 30
0.0
 10
294.6561876314
 20
1705.4116909696
 30
0.0
 10
294.4603818585
 20
1704.5712900844
 30
0.0
 10
294.4651309212
 20
1703.7505470459
 30
0.0
  0
SPLINE
  5
90A
100
AcDbEntity
  8
0
100
AcDbSpline
 62
7
  6
CONTINUOUS
 70
0
 71
3
 72
8
 73
4
 74
0
 42
0.0000001
 43
0.0000001
 44
0.0000000001
 40
0.0
 40
0.0
 40
0.0
 40
0.0
 40
1.0
 40
1.0
 40
1.0
 40
1.0
 10
2197.0207070663
 20
1712.5988822743
 30
0.0
 10
2197.4166228795
 20
1713.2619139219
 30
0.0
 10
2197.4046742468
 20
1714.2417756489
 30
0.0
 10
2197.0274260004
 20
1714.9156035628
 30
0.0
  0
SPLINE
  5
90B
100
AcDbEntity
  8
0
100
AcDbSpline
 62
7
  6
CONTINUOUS
 70
0
 71
3
 72
8
 73
4
 74
0
 42
0.0000001
 43
0.0000001
 44
0.0000000001
 40
0.0
 40
0.0
 40
0.0
 40
0.0
 40
1.0
 40
1.0
 40
1.0
 40
1.0
 10
2197.0408907436
 20
1715.6080956923
 30
0.0
 10
2197.7256154448
 20
1716.0449102184
 30
0.0
 10
2198.3241339016
 20
1716.7827304256
 30
0.0
 10
2198.4697021974
 20
1717.5817702981
 30
0.0
  0
SPLINE
  5
90C
100
AcDbEntity
  8
0
100
AcDbSpline
 62
7
  6
CONTINUOUS
 70
0
 71
3
 72
9
 73
5
 74
0
 42
0.0000001
 43
0.0000001
 44
0.0000000001
 40
0.0
 40
0.0
 40
0.0
 40
0.0
 40
0.5048496654
 40
1.0
 40
1.0
 40
1.0
 40
1.0
 10
2198.4697021974
 20
1717.5817702981
 30
0.0
 10
2198.482533391
 20
1717.6522020859
 30
0.0
 10
2198.5019320591
 20
1717.7928834318
 30
0.0
 10
2198.5086241537
 20
1717.9347576756
 30
0.0
 10
2198.5086263422
 20
1718.0049732808
 30
0.0
  0
SPLINE
  5
90D
100
AcDbEntity
  8
0
100
AcDbSpline
 62
7
  6
CONTINUOUS
 70
0
 71
3
 72
8
 73
4
 74
0
 42
0.0000001
 43
0.0000001
 44
0.0000000001
 40
0.0
 40
0.0
 40
0.0
 40
0.0
 40
1.0
 40
1.0
 40
1.0
 40
1.0
 10
2197.0178226748
 20
1716.5266055016
 30
0.0
 10
2197.5169435393
 20
1716.4959070207
 30
0.0
 10
2198.1254519968
 20
1716.7769668537
 30
0.0
 10
2198.344828875
 20
1717.2263417745
 30
0.0
  0
SPLINE
  5
90E
100
AcDbEntity
  8
0
100
AcDbSpline
 62
7
  6
CONTINUOUS
 70
0
 71
3
 72
8
 73
4
 74
0
 42
0.0000001
 43
0.0000001
 44
0.0000000001
 40
0.0
 40
0.0
 40
0.0
 40
0.0
 40
1.0
 40
1.0
 40
1.0
 40
1.0
 10
2198.344828875
 20
1717.2263417745
 30
0.0
 10
2198.461182634
 20
1717.4646825772
 30
0.0
 10
2198.5086147434
 20
1717.7397541606
 30
0.0
 10
2198.5086090661
 20
1718.0049796034
 30
0.0
  0
SPLINE
  5
90F
100
AcDbEntity
  8
0
100
AcDbSpline
 62
7
  6
CONTINUOUS
 70
0
 71
3
 72
8
 73
4
 74
0
 42
0.0000001
 43
0.0000001
 44
0.0000000001
 40
0.0
 40
0.0
 40
0.0
 40
0.0
 40
1.0
 40
1.0
 40
1.0
 40
1.0
 10
2197.1357654532
 20
1740.9781629788
 30
0.0
 10
2197.6109496354
 20
1740.9781936834
 30
0.0
 10
2198.1601274553
 20
1740.6772696087
 30
0.0
 10
2198.3586611878
 20
1740.2455470531
 30
0.0
  0
SPLINE
  5
910
100
AcDbEntity
  8
0
100
AcDbSpline
 62
7
  6
CONTINUOUS
 70
0
 71
3
 72
9
 73
5
 74
0
 42
0.0000001
 43
0.0000001
 44
0.0000000001
 40
0.0
 40
0.0
 40
0.0
 40
0.0
 40
0.4777909634
 40
1.0
 40
1.0
 40
1.0
 40
1.0
 10
2198.3586611878
 20
1740.2455470531
 30
0.0
 10
2198.4098147756
 20
1740.1343107538
 30
0.0
 10
2198.4869058393
 20
1739.8870661815
 30
0.0
 10
2198.5086104814
 20
1739.6299400011
 30
0.0
 10
2198.5086090665
 20
1739.4961233305
 30
0.0
  0
SPLINE
  5
911
100
AcDbEntity
  8
0
100
AcDbSpline
 62
7
  6
CONTINUOUS
 70
0
 71
3
 72
8
 73
4
 74
0
 42
0.0000001
 43
0.0000001
 44
0.0000000001
 40
0.0
 40
0.0
 40
0.0
 40
0.0
 40
1.0
 40
1.0
 40
1.0
 40
1.0
 10
2198.5086156907
 20
1739.4961128943
 30
0.0
 10
2198.5085999244
 20
1740.200380338
 30
0.0
 10
2198.1451706181
 20
1740.9315864115
 30
0.0
 10
2197.6396689577
 20
1741.4219543386
 30
0.0
  0
SPLINE
  5
912
100
AcDbEntity
  8
0
100
AcDbSpline
 62
7
  6
CONTINUOUS
 70
0
 71
3
 72
9
 73
5
 74
0
 42
0.0000001
 43
0.0000001
 44
0.0000000001
 40
0.0
 40
0.0
 40
0.0
 40
0.0
 40
0.4967813556
 40
1.0
 40
1.0
 40
1.0
 40
1.0
 10
2197.6396689577
 20
1741.4219543386
 30
0.0
 10
2197.5490015196
 20
1741.5099073705
 30
0.0
 10
2197.356720797
 20
1741.677090127
 30
0.0
 10
2197.1487647861
 20
1741.8241827361
 30
0.0
 10
2197.040891207
 20
1741.892999987
 30
0.0
  0
ENDSEC
  0
SECTION
  2
OBJECTS
  0
DICTIONARY
  5
C
100
AcDbDictionary
280
0
281
1
  3
ACAD_GROUP
350
D
  3
ACAD_MLINESTYLE
350
17
  3
ACAD_LAYOUT
350
1A
  3
ACAD_PLOTSETTINGS
350
19
  3
ACAD_PLOTSTYLENAME
350
E
  0
DICTIONARY
  5
D
102
{ACAD_REACTORS
330
C
102
}
100
AcDbDictionary
280
0
281
1
  0
ACDBDICTIONARYWDFLT
  5
E
102
{ACAD_REACTORS
330
C
102
}
100
AcDbDictionary
281
1
  3
Normal
350
F
100
AcDbDictionaryWithDefault
340
F
  0
DICTIONARY
  5
17
102
{ACAD_REACTORS
330
C
102
}
100
AcDbDictionary
280
0
281
1
  3
Standard
350
18
  0
DICTIONARY
  5
19
102
{ACAD_REACTORS
330
C
102
}
100
AcDbDictionary
281
1
  0
DICTIONARY
  5
1A
102
{ACAD_REACTORS
330
C
102
}
100
AcDbDictionary
281
1
  3
Model
350
913
  3
Layout1
350
914
  0
ACDBPLACEHOLDER
  5
F
102
{ACAD_REACTORS
330
E
102
}
  0
MLINESTYLE
  5
18
102
{ACAD_REACTORS
330
17
102
}
100
AcDbMlineStyle
  2
STANDARD
 70
0
  3

 62
256
 51
90.0
 52
90.0
 71
2
 49
0.5
 62
256
  6
BYLAYER
 49
-0.5
 62
256
  6
BYLAYER
  0
LAYOUT
  5
913
102
{ACAD_REACTORS
330
1A
102
}
100
AcDbPlotSettings
  1

  2
none_device
  4

  6

 40
0.0
 41
0.0
 42
0.0
 43
0.0
 44
210.0
 45
297.0
 46
0.0
 47
0.0
 48
0.0
 49
0.0
140
0.0
141
0.0
142
1.0
143
1.0
 70
1024
 72
1
 73
0
 74
0
  7

 75
0
147
1.0
148
0.0
149
0.0
100
AcDbLayout
  1
Model
 70
0
 71
0
 10
0.0
 20
0.0
 11
210.0
 21
297.0
 12
0.0
 22
0.0
 32
0.0
 14
0.0
 24
0.0
 34
0.0
 15
0.0
 25
0.0
 35
0.0
146
0.0
 13
0.0
 23
0.0
 33
0.0
 16
1.0
 26
0.0
 36
0.0
 17
0.0
 27
1.0
 37
0.0
 76
0
330
211
345
0
346
0
  0
LAYOUT
  5
914
102
{ACAD_REACTORS
330
1A
102
}
100
AcDbPlotSettings
  1

  2
none_device
  4

  6

 40
0.0
 41
0.0
 42
0.0
 43
0.0
 44
210.0
 45
297.0
 46
0.0
 47
0.0
 48
0.0
 49
0.0
140
0.0
141
0.0
142
1.0
143
1.0
 70
0
 72
1
 73
0
 74
0
  7

 75
0
147
1.0
148
0.0
149
0.0
100
AcDbLayout
  1
Layout1
 70
0
 71
1
 10
0.0
 20
0.0
 11
210.0
 21
297.0
 12
0.0
 22
0.0
 32
0.0
 14
0.0
 24
0.0
 34
0.0
 15
0.0
 25
0.0
 35
0.0
146
0.0
 13
0.0
 23
0.0
 33
0.0
 16
1.0
 26
0.0
 36
0.0
 17
0.0
 27
1.0
 37
0.0
 76
0
330
212
345
0
346
0
  0
ENDSEC
  0
EOF
