999
DXF file: C:\Users\sesa63760\Dev\_Creo\CAD\MCADID0004266_3D-CAD\drw0001_2.dxf
999
Pro/ENGINEER 2019471 by Parametric Technology Corporation
  0
SECTION
  2
HEADER
  9
$ACADVER
  1
AC1024
  9
$DWGCODEPAGE
  3
ANSI_1252
  9
$EXTMAX
 10
4692.9808451655
 20
6637.2157667341
 30
0.0
  9
$EXTMIN
 10
0.0
 20
0.0
 30
0.0
  9
$LIMMIN
 10
0.0
 20
0.0
  9
$LIMMAX
 10
4692.9808451655
 20
6637.2157667341
  9
$VIEWCTR
 10
2346.4904225827
 20
3318.607883367
  9
$VIEWSIZE
 40
6637.2157667341
  9
$CLAYER
  8
0
  9
$LTSCALE
 40
432.6481388686
  9
$CELTYPE
  6
BYLAYER
  9
$DIMSCALE
 40
1.0
  9
$DIMASZ
 40
55.8688195853
  9
$DIMEXO
 40
1.0
  9
$DIMDLI
 40
298.9205323092
  9
$DIMEXE
 40
1.0
  9
$DIMCEN
 40
70.7969681785
  9
$DIMLFAC
 40
1.0
  9
$DIMBLK
  1
_FILLED
  9
$DIMALT
 70
0
  9
$DIMALTF
 40
0.0393700787
  9
$DIMTXT
 40
78.2163474194
  9
$DIMTOL
 70
1
  9
$DIMLIM
 70
0
  9
$DIMTFAC
 40
1.0
  9
$DIMTP
 40
0.01
  9
$DIMTM
 40
0.01
  9
$DIMGAP
 40
0.625
  9
$DIMDSEP
 70
46
  9
$AUNITS
 70
0
  9
$PDMODE
 70
3
  9
$PDSIZE
 40
0.3125
  9
$HANDSEED
  5
2A4
  9
$TILEMODE
 70
1
  9
$MEASUREMENT
 70
1
  9
$INSUNITS
 70
4
  0
ENDSEC
  0
SECTION
  2
CLASSES
  0
CLASS
  1
ACDBDICTIONARYWDFLT
  2
AcDbDictionaryWithDefault
  3
AutoCAD 2000
 90
0
 91
1
280
0
281
0
  0
CLASS
  1
ACDBPLACEHOLDER
  2
AcDbPlaceHolder
  3
AutoCAD 2000
 90
0
 91
1
280
0
281
0
  0
CLASS
  1
LAYOUT
  2
AcDbLayout
  3
AutoCAD 2000
 90
0
 91
0
280
0
281
0
  0
ENDSEC
  0
SECTION
  2
TABLES
  0
TABLE
  2
VPORT
  5
8
100
AcDbSymbolTable
 70
2
  0
VPORT
  5
1F4
100
AcDbSymbolTableRecord
100
AcDbViewportTableRecord
  2
*ACTIVE
 70
0
 10
0.0
 20
0.0
 11
1.0
 21
1.0
 12
2346.4904225827
 22
3318.607883367
 13
0.0
 23
0.0
 14
1.0
 24
1.0
 15
0.0
 25
0.0
 16
0.0
 26
0.0
 36
1.0
 17
0.0
 27
0.0
 37
0.0
 40
6637.2157667341
 41
0.7070707071
 42
50.0
 43
0.0
 44
0.0
 50
0.0
 51
0.0
 71
0
 72
100
 73
1
 74
1
 75
0
 76
0
 77
0
 78
0
  0
ENDTAB
  0
TABLE
  2
LTYPE
  5
5
100
AcDbSymbolTable
 70
6
  0
LTYPE
  5
14
100
AcDbSymbolTableRecord
100
AcDbLinetypeTableRecord
  2
BYBLOCK
 70
0
  3

 72
65
 73
0
 40
0.0
  0
LTYPE
  5
15
100
AcDbSymbolTableRecord
100
AcDbLinetypeTableRecord
  2
BYLAYER
 70
0
  3

 72
65
 73
0
 40
0.0
  0
LTYPE
  5
16
100
AcDbSymbolTableRecord
100
AcDbLinetypeTableRecord
  2
CONTINUOUS
 70
64
  3
Solid line
 72
65
 73
0
 40
0.0
  0
LTYPE
  5
1F5
100
AcDbSymbolTableRecord
100
AcDbLinetypeTableRecord
  2
CENTER
 70
64
  3
____ _ ____ _ ____ _ ____ _ ____ _ ____ _ ____
 72
65
 73
4
 40
0.6
 49
0.375
 74
0
 49
-0.075
 74
0
 49
0.075
 74
0
 49
-0.075
 74
0
  0
LTYPE
  5
1F6
100
AcDbSymbolTableRecord
100
AcDbLinetypeTableRecord
  2
HIDDEN
 70
64
  3
- - - - - - - - - - - - - - - - - - - -
 72
65
 73
2
 40
0.2
 49
0.1
 74
0
 49
-0.1
 74
0
  0
LTYPE
  5
1F7
100
AcDbSymbolTableRecord
100
AcDbLinetypeTableRecord
  2
PHANTOM
 70
64
  3
_____ _ _ _____ _ _ _____ _ _ _____
 72
65
 73
6
 40
0.8
 49
0.45
 74
0
 49
-0.05
 74
0
 49
0.1
 74
0
 49
-0.05
 74
0
 49
0.1
 74
0
 49
-0.05
 74
0
  0
LTYPE
  5
1F8
100
AcDbSymbolTableRecord
100
AcDbLinetypeTableRecord
  2
DOT
 70
64
  3
. . . . . . . . . . . . . . . . . . . .
 72
65
 73
2
 40
0.2
 49
0.1
 74
0
 49
-0.1
 74
0
  0
LTYPE
  5
1F9
100
AcDbSymbolTableRecord
100
AcDbLinetypeTableRecord
  2
DASHED
 70
64
  3
- - - - - - - - - - - - - - - - - - - -
 72
65
 73
2
 40
0.2
 49
0.1
 74
0
 49
-0.1
 74
0
  0
ENDTAB
  0
TABLE
  2
LAYER
  5
2
100
AcDbSymbolTable
 70
36
  0
LAYER
  5
10
100
AcDbSymbolTableRecord
100
AcDbLayerTableRecord
  2
0
 70
0
 62
7
  6
CONTINUOUS
370
-3
390
F
  0
LAYER
  5
1FA
100
AcDbSymbolTableRecord
100
AcDbLayerTableRecord
  2
DEFAULT_1
 70
0
 62
7
  6
CENTER
370
-3
390
F
  0
LAYER
  5
1FB
100
AcDbSymbolTableRecord
100
AcDbLayerTableRecord
  2
DEFAULT_2
 70
0
 62
7
  6
HIDDEN
370
-3
390
F
  0
LAYER
  5
1FC
100
AcDbSymbolTableRecord
100
AcDbLayerTableRecord
  2
DEFAULT_3
 70
0
 62
7
  6
PHANTOM
370
-3
390
F
  0
LAYER
  5
1FD
100
AcDbSymbolTableRecord
100
AcDbLayerTableRecord
  2
00_COMPONENTS
 70
0
 62
7
  6
CONTINUOUS
370
-3
390
F
  0
LAYER
  5
1FE
100
AcDbSymbolTableRecord
100
AcDbLayerTableRecord
  2
01_1_DEFAULT_DATUMS
 70
0
 62
7
  6
CONTINUOUS
370
-3
390
F
  0
LAYER
  5
1FF
100
AcDbSymbolTableRecord
100
AcDbLayerTableRecord
  2
01_PLANES
 70
0
 62
7
  6
CONTINUOUS
370
-3
390
F
  0
LAYER
  5
200
100
AcDbSymbolTableRecord
100
AcDbLayerTableRecord
  2
02_COORD_SYS
 70
0
 62
7
  6
CONTINUOUS
370
-3
390
F
  0
LAYER
  5
201
100
AcDbSymbolTableRecord
100
AcDbLayerTableRecord
  2
03_AXES
 70
0
 62
7
  6
CONTINUOUS
370
-3
390
F
  0
LAYER
  5
202
100
AcDbSymbolTableRecord
100
AcDbLayerTableRecord
  2
04_POINTS
 70
0
 62
7
  6
CONTINUOUS
370
-3
390
F
  0
LAYER
  5
203
100
AcDbSymbolTableRecord
100
AcDbLayerTableRecord
  2
05_CURVES
 70
0
 62
7
  6
CONTINUOUS
370
-3
390
F
  0
LAYER
  5
204
100
AcDbSymbolTableRecord
100
AcDbLayerTableRecord
  2
06_SURFS
 70
0
 62
7
  6
CONTINUOUS
370
-3
390
F
  0
LAYER
  5
205
100
AcDbSymbolTableRecord
100
AcDbLayerTableRecord
  2
07_COSMETICS
 70
0
 62
7
  6
CONTINUOUS
370
-3
390
F
  0
LAYER
  5
206
100
AcDbSymbolTableRecord
100
AcDbLayerTableRecord
  2
10_NOTES
 70
0
 62
7
  6
CONTINUOUS
370
-3
390
F
  0
LAYER
  5
207
100
AcDbSymbolTableRecord
100
AcDbLayerTableRecord
  2
11_NOTES_PUB
 70
0
 62
7
  6
CONTINUOUS
370
-3
390
F
  0
LAYER
  5
208
100
AcDbSymbolTableRecord
100
AcDbLayerTableRecord
  2
13_REF_GTOL
 70
0
 62
7
  6
CONTINUOUS
370
-3
390
F
  0
LAYER
  5
209
100
AcDbSymbolTableRecord
100
AcDbLayerTableRecord
  2
16_MISC
 70
0
 62
7
  6
CONTINUOUS
370
-3
390
F
  0
LAYER
  5
20A
100
AcDbSymbolTableRecord
100
AcDbLayerTableRecord
  2
17_NO_PRINT
 70
0
 62
7
  6
CONTINUOUS
370
-3
390
F
  0
LAYER
  5
20B
100
AcDbSymbolTableRecord
100
AcDbLayerTableRecord
  2
18_DATUM_CAMS_JOINTS
 70
0
 62
7
  6
CONTINUOUS
370
-3
390
F
  0
LAYER
  5
20C
100
AcDbSymbolTableRecord
100
AcDbLayerTableRecord
  2
19_DATUM_FUNCTIONAL
 70
0
 62
7
  6
CONTINUOUS
370
-3
390
F
  0
LAYER
  5
20D
100
AcDbSymbolTableRecord
100
AcDbLayerTableRecord
  2
20_DATUM_KINEMATIC_SCHEME
 70
0
 62
7
  6
CONTINUOUS
370
-3
390
F
  0
ENDTAB
  0
TABLE
  2
STYLE
  5
3
100
AcDbSymbolTable
 70
1
  0
STYLE
  5
11
100
AcDbSymbolTableRecord
100
AcDbTextStyleTableRecord
  2
STANDARD
 70
0
 40
0.0
 41
1.0
 50
0.0
 71
0
 42
0.2
  3
ARIAL.TTF
  4

  0
STYLE
  5
20E
100
AcDbSymbolTableRecord
100
AcDbTextStyleTableRecord
  2
TEXTSTYLE_1
 70
0
 40
0.0
 41
0.8
 50
0.0
 71
0
 42
0.2
  3
gdt
  4

  0
ENDTAB
  0
TABLE
  2
VIEW
  5
6
100
AcDbSymbolTable
 70
0
  0
ENDTAB
  0
TABLE
  2
UCS
  5
7
100
AcDbSymbolTable
 70
0
  0
ENDTAB
  0
TABLE
  2
APPID
  5
9
100
AcDbSymbolTable
 70
1
  0
APPID
  5
20F
100
AcDbSymbolTableRecord
100
AcDbRegAppTableRecord
  2
ACAD
 70
0
  0
ENDTAB
  0
TABLE
  2
BLOCK_RECORD
  5
1
100
AcDbSymbolTable
 70
0
  0
BLOCK_RECORD
  5
210
100
AcDbSymbolTableRecord
100
AcDbBlockTableRecord
  2
*Model_Space
  0
BLOCK_RECORD
  5
211
100
AcDbSymbolTableRecord
100
AcDbBlockTableRecord
  2
*Paper_Space
  0
BLOCK_RECORD
  5
212
100
AcDbSymbolTableRecord
100
AcDbBlockTableRecord
  2
_FILLED
  0
ENDTAB
  0
TABLE
  2
DIMSTYLE
  5
A
100
AcDbSymbolTable
 70
1
100
AcDbDimStyleTable
 71
0
  0
DIMSTYLE
105
213
100
AcDbSymbolTableRecord
100
AcDbDimStyleTableRecord
  2
STANDARD
 70
0
  3

  4

 40
1.0
 41
55.8688195853
 42
1.0
 43
0.38
 44
1.0
 45
0.0
 46
0.0
 47
0.01
 48
0.01
140
78.2163474194
141
0.09
142
0.0
143
25.4
144
1.0
145
0.0
146
1.0
147
0.625
 71
1
 72
0
 73
0
 74
0
 75
0
 76
0
 77
1
 78
8
 79
2
170
0
171
1
172
0
173
0
174
0
175
0
176
0
177
0
178
0
270
2
179
2
271
2
272
2
273
2
274
2
275
0
280
0
281
0
282
0
283
1
284
8
285
0
286
0
287
3
288
0
340
11
278
46
341
212
342
212
343
212
344
212
  0
ENDTAB
  0
ENDSEC
  0
SECTION
  2
BLOCKS
  0
BLOCK
  5
20
100
AcDbEntity
  8
0
100
AcDbBlockBegin
  2
*Model_Space
 70
0
 10
0.0
 20
0.0
 30
0.0
  3
*Model_Space
  1

  0
ENDBLK
  5
21
100
AcDbEntity
  8
0
100
AcDbBlockEnd
  0
BLOCK
  5
1C
100
AcDbEntity
  8
0
100
AcDbBlockBegin
  2
*Paper_Space
 70
0
 10
0.0
 20
0.0
 30
0.0
  3
*Paper_Space
  1

  0
ENDBLK
  5
1D
100
AcDbEntity
  8
0
100
AcDbBlockEnd
  0
BLOCK
  5
214
100
AcDbEntity
  8
0
100
AcDbBlockBegin
  2
_FILLED
 70
64
 10
0.0
 20
0.0
  3
_FILLED
  1

  0
SOLID
  5
215
100
AcDbEntity
  8
0
  6
BYBLOCK
 62
0
100
AcDbTrace
 10
0.0
 20
0.0
 11
-1.0
 21
0.25
 12
-1.0
 22
-0.25
 13
-1.0
 23
-0.25
  0
ENDBLK
  5
216
100
AcDbEntity
  8
0
  6
BYBLOCK
 62
0
100
AcDbBlockEnd
  0
ENDSEC
  0
SECTION
  2
ENTITIES
  0
LINE
  5
217
100
AcDbEntity
  8
0
100
AcDbLine
 62
7
  6
BYLAYER
 10
514.5538798673
 20
3041.309552706
 11
514.5538798673
 21
3063.534552706
  0
LINE
  5
218
100
AcDbEntity
  8
0
100
AcDbLine
 62
7
  6
BYLAYER
 10
518.1880785273
 20
3549.309552706
 11
518.1880785273
 21
3571.5345527059
  0
LINE
  5
219
100
AcDbEntity
  8
0
100
AcDbLine
 62
7
  6
BYLAYER
 10
1311.1656534253
 20
2943.6469834762
 11
1311.1656534253
 21
3161.197121936
  0
LINE
  5
21A
100
AcDbEntity
  8
0
100
AcDbLine
 62
7
  6
BYLAYER
 10
1311.1656534253
 20
3451.6469834762
 11
1311.1656534253
 21
3669.197121936
  0
LINE
  5
21B
100
AcDbEntity
  8
0
100
AcDbLine
 62
7
  6
BYLAYER
 10
1323.8656534253
 20
2930.9469834762
 11
1323.8656534253
 21
3173.897121936
  0
LINE
  5
21C
100
AcDbEntity
  8
0
100
AcDbLine
 62
7
  6
BYLAYER
 10
1323.8656534253
 20
3438.9469834763
 11
1323.8656534253
 21
3681.897121936
  0
LINE
  5
21D
100
AcDbEntity
  8
0
100
AcDbLine
 62
7
  6
BYLAYER
 10
1417.8456534253
 20
3560.4220527059
 11
1417.8456534253
 21
3438.9469834763
  0
LINE
  5
21E
100
AcDbEntity
  8
0
100
AcDbLine
 62
7
  6
BYLAYER
 10
1430.5456534253
 20
3681.897121936
 11
1430.5456534253
 21
3438.946983476
  0
LINE
  5
21F
100
AcDbEntity
  8
0
100
AcDbLine
 62
7
  6
BYLAYER
 10
1430.5456534253
 20
3173.897121936
 11
1430.5456534253
 21
2930.946983476
  0
LINE
  5
220
100
AcDbEntity
  8
0
100
AcDbLine
 62
7
  6
BYLAYER
 10
1694.4151533033
 20
2915.8932953173
 11
1694.4151533033
 21
3187.3549051168
  0
LINE
  5
221
100
AcDbEntity
  8
0
100
AcDbLine
 62
7
  6
BYLAYER
 10
1694.4151533033
 20
3423.8932953173
 11
1694.4151533033
 21
3695.3549051168
  0
LINE
  5
222
100
AcDbEntity
  8
0
100
AcDbLine
 62
7
  6
BYLAYER
 10
1721.8959501293
 20
3695.3549051169
 11
1721.8959501293
 21
3423.8923603604
  0
LINE
  5
223
100
AcDbEntity
  8
0
100
AcDbLine
 62
7
  6
BYLAYER
 10
1721.8959501293
 20
3187.3549051169
 11
1721.8959501293
 21
2915.8923603604
  0
LINE
  5
224
100
AcDbEntity
  8
0
100
AcDbLine
 62
7
  6
BYLAYER
 10
3443.0731946343
 20
2798.422052706
 11
2784.0479437863
 21
2798.422052706
  0
LINE
  5
225
100
AcDbEntity
  8
0
100
AcDbLine
 62
7
  6
BYLAYER
 10
2359.6976959663
 20
2798.422052706
 11
2281.1190422469
 21
2798.422052706
  0
LINE
  5
226
100
AcDbEntity
  8
0
100
AcDbLine
 62
7
  6
BYLAYER
 10
4205.3180621573
 20
2798.422052706
 11
4243.4180621573
 21
2798.422052706
  0
LINE
  5
227
100
AcDbEntity
  8
0
100
AcDbLine
 62
7
  6
BYLAYER
 10
2055.7585770383
 20
2891.068552706
 11
2024.1457557883
 21
2891.068552706
  0
LINE
  5
228
100
AcDbEntity
  8
0
100
AcDbLine
 62
7
  6
BYLAYER
 10
2331.1993224293
 20
2900.022052706
 11
2280.3364590373
 21
2900.022052706
  0
LINE
  5
229
100
AcDbEntity
  8
0
100
AcDbLine
 62
7
  6
BYLAYER
 10
1721.8959501293
 20
2915.8921680906
 11
1694.4151533033
 21
2915.8921680906
  0
LINE
  5
22A
100
AcDbEntity
  8
0
100
AcDbLine
 62
7
  6
BYLAYER
 10
1323.8656534253
 20
2930.9469834762
 11
1430.5456534253
 21
2930.9469834763
  0
LINE
  5
22B
100
AcDbEntity
  8
0
100
AcDbLine
 62
7
  6
BYLAYER
 10
2024.1457557883
 20
2891.0698866638
 11
2024.1457557883
 21
3213.7742187481
  0
LINE
  5
22C
100
AcDbEntity
  8
0
100
AcDbLine
 62
7
  6
BYLAYER
 10
2024.1457557883
 20
3399.0698866638
 11
2024.1457557883
 21
3721.7742187481
  0
LINE
  5
22D
100
AcDbEntity
  8
0
100
AcDbLine
 62
7
  6
BYLAYER
 10
2055.7585770383
 20
3721.7742187481
 11
2055.7585770383
 21
3399.0698866638
  0
LINE
  5
22E
100
AcDbEntity
  8
0
100
AcDbLine
 62
7
  6
BYLAYER
 10
2055.7585770383
 20
3213.7742187481
 11
2055.7585770383
 21
2891.0698866638
  0
LINE
  5
22F
100
AcDbEntity
  8
0
100
AcDbLine
 62
7
  6
BYLAYER
 10
2872.9479437863
 20
2982.572052706
 11
3126.9479437863
 21
2982.572052706
  0
LINE
  5
230
100
AcDbEntity
  8
0
100
AcDbLine
 62
7
  6
BYLAYER
 10
3434.5326841186
 20
2982.572052706
 11
3443.0734380682
 21
2982.572052706
  0
LINE
  5
231
100
AcDbEntity
  8
0
100
AcDbLine
 62
7
  6
BYLAYER
 10
3875.1180621573
 20
2988.922052706
 11
4205.3180621573
 21
2988.922052706
  0
LINE
  5
232
100
AcDbEntity
  8
0
100
AcDbLine
 62
7
  6
BYLAYER
 10
514.5538798673
 20
3041.309552706
 11
1311.1656534253
 21
3041.309552706
  0
LINE
  5
233
100
AcDbEntity
  8
0
100
AcDbLine
 62
7
  6
BYLAYER
 10
1430.5456534253
 20
3041.309552706
 11
1694.4151533033
 21
3041.309552706
  0
LINE
  5
234
100
AcDbEntity
  8
0
100
AcDbLine
 62
7
  6
BYLAYER
 10
1721.8959501293
 20
3041.309552706
 11
2024.1457557883
 21
3041.309552706
  0
LINE
  5
235
100
AcDbEntity
  8
0
100
AcDbLine
 62
7
  6
BYLAYER
 10
2055.7585770383
 20
3041.309552706
 11
2269.9593417767
 21
3041.309552706
  0
LINE
  5
236
100
AcDbEntity
  8
0
100
AcDbLine
 62
7
  6
BYLAYER
 10
2357.2566230117
 20
3041.309552706
 11
2682.4479437863
 21
3041.309552706
  0
LINE
  5
237
100
AcDbEntity
  8
0
100
AcDbLine
 62
7
  6
BYLAYER
 10
2804.3562692364
 20
3041.309552706
 11
3195.5396183361
 21
3041.309552706
  0
LINE
  5
238
100
AcDbEntity
  8
0
100
AcDbLine
 62
7
  6
BYLAYER
 10
3423.17647988
 20
3041.309552706
 11
3875.1180621573
 21
3041.309552706
  0
LINE
  5
239
100
AcDbEntity
  8
0
100
AcDbLine
 62
7
  6
BYLAYER
 10
1430.5456534253
 20
3052.4220527061
 11
1311.1656534253
 21
3052.422052706
  0
LINE
  5
23A
100
AcDbEntity
  8
0
100
AcDbLine
 62
7
  6
BYLAYER
 10
514.5538798673
 20
3063.534552706
 11
1311.1656534253
 21
3063.534552706
  0
LINE
  5
23B
100
AcDbEntity
  8
0
100
AcDbLine
 62
7
  6
BYLAYER
 10
1430.5456534253
 20
3063.534552706
 11
1694.4151533033
 21
3063.534552706
  0
LINE
  5
23C
100
AcDbEntity
  8
0
100
AcDbLine
 62
7
  6
BYLAYER
 10
1721.8959501293
 20
3063.534552706
 11
2024.1457557883
 21
3063.534552706
  0
LINE
  5
23D
100
AcDbEntity
  8
0
100
AcDbLine
 62
7
  6
BYLAYER
 10
2055.7585770383
 20
3063.534552706
 11
2269.9593416113
 21
3063.534552706
  0
LINE
  5
23E
100
AcDbEntity
  8
0
100
AcDbLine
 62
7
  6
BYLAYER
 10
2357.2568987464
 20
3063.534552706
 11
2682.4479437863
 21
3063.534552706
  0
LINE
  5
23F
100
AcDbEntity
  8
0
100
AcDbLine
 62
7
  6
BYLAYER
 10
2804.3562692364
 20
3063.534552706
 11
3195.5396183361
 21
3063.534552706
  0
LINE
  5
240
100
AcDbEntity
  8
0
100
AcDbLine
 62
7
  6
BYLAYER
 10
3423.1762144086
 20
3063.534552706
 11
3875.1180621573
 21
3063.534552706
  0
LINE
  5
241
100
AcDbEntity
  8
0
100
AcDbLine
 62
7
  6
BYLAYER
 10
3875.1180621573
 20
3115.922052706
 11
4205.3180621573
 21
3115.922052706
  0
LINE
  5
242
100
AcDbEntity
  8
0
100
AcDbLine
 62
7
  6
BYLAYER
 10
3443.0734380682
 20
3122.272052706
 11
3434.5326841186
 21
3122.272052706
  0
LINE
  5
243
100
AcDbEntity
  8
0
100
AcDbLine
 62
7
  6
BYLAYER
 10
3126.9479437863
 20
3122.272052706
 11
2872.9479437863
 21
3122.272052706
  0
LINE
  5
244
100
AcDbEntity
  8
0
100
AcDbLine
 62
7
  6
BYLAYER
 10
1721.8959501293
 20
3126.2570225143
 11
1694.4151533033
 21
3126.2570225143
  0
LINE
  5
245
100
AcDbEntity
  8
0
100
AcDbLine
 62
7
  6
BYLAYER
 10
1721.8959501293
 20
3136.3179061262
 11
1694.4151533033
 21
3136.3179061262
  0
LINE
  5
246
100
AcDbEntity
  8
0
100
AcDbLine
 62
7
  6
BYLAYER
 10
1323.8656534253
 20
3173.897121936
 11
1430.5456534253
 21
3173.897121936
  0
LINE
  5
247
100
AcDbEntity
  8
0
100
AcDbLine
 62
7
  6
BYLAYER
 10
1694.4151533033
 20
3187.3549051162
 11
1721.8959501293
 21
3187.3549051162
  0
LINE
  5
248
100
AcDbEntity
  8
0
100
AcDbLine
 62
7
  6
BYLAYER
 10
2269.9593431943
 20
2850.8351122163
 11
2269.9593364129
 21
3762.009536206
  0
LINE
  5
249
100
AcDbEntity
  8
0
100
AcDbLine
 62
7
  6
BYLAYER
 10
2280.3364590373
 20
3712.822052706
 11
2280.3364590373
 21
2900.022052706
  0
LINE
  5
24A
100
AcDbEntity
  8
0
100
AcDbLine
 62
7
  6
BYLAYER
 10
2331.1993224293
 20
2900.022052706
 11
2331.1993224293
 21
3712.822052706
  0
LINE
  5
24B
100
AcDbEntity
  8
0
100
AcDbLine
 62
7
  6
BYLAYER
 10
2346.1529243368
 20
3762.0089813256
 11
2346.1523939726
 21
2850.836011676
  0
LINE
  5
24C
100
AcDbEntity
  8
0
100
AcDbLine
 62
7
  6
BYLAYER
 10
2359.6976959663
 20
2798.422052706
 11
2359.6976959663
 21
2982.572052706
  0
LINE
  5
24D
100
AcDbEntity
  8
0
100
AcDbLine
 62
7
  6
BYLAYER
 10
2359.6976959663
 20
3122.272052826
 11
2359.6976959663
 21
3490.572052706
  0
LINE
  5
24E
100
AcDbEntity
  8
0
100
AcDbLine
 62
7
  6
BYLAYER
 10
2359.6976959663
 20
3630.2720993611
 11
2359.6976959663
 21
3814.422052706
  0
LINE
  5
24F
100
AcDbEntity
  8
0
100
AcDbLine
 62
7
  6
BYLAYER
 10
2055.7585770383
 20
3213.775552706
 11
2024.1457557883
 21
3213.775552706
  0
LINE
  5
250
100
AcDbEntity
  8
0
100
AcDbLine
 62
7
  6
BYLAYER
 10
2055.7585770383
 20
3399.068552706
 11
2024.1457557883
 21
3399.068552706
  0
LINE
  5
251
100
AcDbEntity
  8
0
100
AcDbLine
 62
7
  6
BYLAYER
 10
1721.8959501293
 20
3423.8921680906
 11
1694.4151533033
 21
3423.8921680906
  0
LINE
  5
252
100
AcDbEntity
  8
0
100
AcDbLine
 62
7
  6
BYLAYER
 10
1323.8656534253
 20
3438.9469834763
 11
1430.5456534253
 21
3438.946983476
  0
LINE
  5
253
100
AcDbEntity
  8
0
100
AcDbLine
 62
7
  6
BYLAYER
 10
2872.9479437863
 20
3490.572052706
 11
3126.9479437863
 21
3490.572052706
  0
LINE
  5
254
100
AcDbEntity
  8
0
100
AcDbLine
 62
7
  6
BYLAYER
 10
3434.5326841186
 20
3490.572052706
 11
3443.0734380682
 21
3490.572052706
  0
LINE
  5
255
100
AcDbEntity
  8
0
100
AcDbLine
 62
7
  6
BYLAYER
 10
3875.1180621573
 20
3496.922052706
 11
4205.3180621573
 21
3496.922052706
  0
LINE
  5
256
100
AcDbEntity
  8
0
100
AcDbLine
 62
7
  6
BYLAYER
 10
518.1880785273
 20
3549.309552706
 11
1311.1656534253
 21
3549.309552706
  0
LINE
  5
257
100
AcDbEntity
  8
0
100
AcDbLine
 62
7
  6
BYLAYER
 10
1430.5456534253
 20
3549.309552706
 11
1694.4151533033
 21
3549.309552706
  0
LINE
  5
258
100
AcDbEntity
  8
0
100
AcDbLine
 62
7
  6
BYLAYER
 10
1721.8959501293
 20
3549.309552706
 11
2024.1457557883
 21
3549.309552706
  0
LINE
  5
259
100
AcDbEntity
  8
0
100
AcDbLine
 62
7
  6
BYLAYER
 10
2055.7585770383
 20
3549.309552706
 11
2269.9593379959
 21
3549.309552706
  0
LINE
  5
25A
100
AcDbEntity
  8
0
100
AcDbLine
 62
7
  6
BYLAYER
 10
2357.2566230117
 20
3549.309552706
 11
2682.4479437863
 21
3549.309552706
  0
LINE
  5
25B
100
AcDbEntity
  8
0
100
AcDbLine
 62
7
  6
BYLAYER
 10
2804.3562692364
 20
3549.309552706
 11
3195.5396183361
 21
3549.309552706
  0
LINE
  5
25C
100
AcDbEntity
  8
0
100
AcDbLine
 62
7
  6
BYLAYER
 10
3423.1764559964
 20
3549.309552706
 11
3875.1180621573
 21
3549.309552706
  0
LINE
  5
25D
100
AcDbEntity
  8
0
100
AcDbLine
 62
7
  6
BYLAYER
 10
1311.1656534253
 20
3560.422052706
 11
1417.8456534253
 21
3560.4220527059
  0
LINE
  5
25E
100
AcDbEntity
  8
0
100
AcDbLine
 62
7
  6
BYLAYER
 10
518.1880785273
 20
3571.5345527059
 11
1311.1656534253
 21
3571.5345527059
  0
LINE
  5
25F
100
AcDbEntity
  8
0
100
AcDbLine
 62
7
  6
BYLAYER
 10
1430.5456534253
 20
3571.5345527059
 11
1694.4151533033
 21
3571.5345527059
  0
LINE
  5
260
100
AcDbEntity
  8
0
100
AcDbLine
 62
7
  6
BYLAYER
 10
1721.8959501293
 20
3571.5345527059
 11
2024.1457557883
 21
3571.5345527059
  0
LINE
  5
261
100
AcDbEntity
  8
0
100
AcDbLine
 62
7
  6
BYLAYER
 10
2055.7585770383
 20
3571.5345527059
 11
2269.9593378305
 21
3571.5345527059
  0
LINE
  5
262
100
AcDbEntity
  8
0
100
AcDbLine
 62
7
  6
BYLAYER
 10
2357.2572014683
 20
3571.5345527059
 11
2682.4479437863
 21
3571.5345527059
  0
LINE
  5
263
100
AcDbEntity
  8
0
100
AcDbLine
 62
7
  6
BYLAYER
 10
2804.3562692364
 20
3571.5345527059
 11
3195.5396183361
 21
3571.5345527059
  0
LINE
  5
264
100
AcDbEntity
  8
0
100
AcDbLine
 62
7
  6
BYLAYER
 10
3423.1762541473
 20
3571.5345527059
 11
3875.1180621573
 21
3571.5345527059
  0
LINE
  5
265
100
AcDbEntity
  8
0
100
AcDbLine
 62
7
  6
BYLAYER
 10
2682.4479437863
 20
2900.022052706
 11
2682.4479437863
 21
3712.822052706
  0
LINE
  5
266
100
AcDbEntity
  8
0
100
AcDbLine
 62
7
  6
BYLAYER
 10
3875.1180621573
 20
3623.922052706
 11
4205.3180621573
 21
3623.922052706
  0
LINE
  5
267
100
AcDbEntity
  8
0
100
AcDbLine
 62
7
  6
BYLAYER
 10
3443.0734380682
 20
3630.272052706
 11
3434.5326841186
 21
3630.272052706
  0
LINE
  5
268
100
AcDbEntity
  8
0
100
AcDbLine
 62
7
  6
BYLAYER
 10
3126.9479437863
 20
3630.272052706
 11
2872.9479437863
 21
3630.272052706
  0
LINE
  5
269
100
AcDbEntity
  8
0
100
AcDbLine
 62
7
  6
BYLAYER
 10
1721.8959501293
 20
3634.2570225143
 11
1694.4151533033
 21
3634.2570225143
  0
LINE
  5
26A
100
AcDbEntity
  8
0
100
AcDbLine
 62
7
  6
BYLAYER
 10
1721.8959501293
 20
3644.3179061262
 11
1694.4151533033
 21
3644.3179061262
  0
LINE
  5
26B
100
AcDbEntity
  8
0
100
AcDbLine
 62
7
  6
BYLAYER
 10
1323.8656534253
 20
3681.897121936
 11
1430.5456534253
 21
3681.897121936
  0
LINE
  5
26C
100
AcDbEntity
  8
0
100
AcDbLine
 62
7
  6
BYLAYER
 10
1694.4151533033
 20
3695.3549051162
 11
1721.8959501293
 21
3695.3549051162
  0
LINE
  5
26D
100
AcDbEntity
  8
0
100
AcDbLine
 62
7
  6
BYLAYER
 10
2280.3364590373
 20
3712.822052706
 11
2331.1993224293
 21
3712.822052706
  0
LINE
  5
26E
100
AcDbEntity
  8
0
100
AcDbLine
 62
7
  6
BYLAYER
 10
2055.7585770383
 20
3721.775552706
 11
2024.1457557883
 21
3721.775552706
  0
LINE
  5
26F
100
AcDbEntity
  8
0
100
AcDbLine
 62
7
  6
BYLAYER
 10
2281.1190422469
 20
3814.422052706
 11
2359.6976959663
 21
3814.422052706
  0
LINE
  5
270
100
AcDbEntity
  8
0
100
AcDbLine
 62
7
  6
BYLAYER
 10
2784.0479437863
 20
3814.422052706
 11
3443.0731946343
 21
3814.422052706
  0
LINE
  5
271
100
AcDbEntity
  8
0
100
AcDbLine
 62
7
  6
BYLAYER
 10
4205.3180621573
 20
3814.422052706
 11
4243.4180621573
 21
3814.422052706
  0
LINE
  5
272
100
AcDbEntity
  8
0
100
AcDbLine
 62
7
  6
BYLAYER
 10
3282.9282138163
 20
3814.422052706
 11
3282.9282138163
 21
2798.422052706
  0
LINE
  5
273
100
AcDbEntity
  8
0
100
AcDbLine
 62
7
  6
BYLAYER
 10
3391.4170095869
 20
3814.422052706
 11
3391.4170095869
 21
2798.422052706
  0
LINE
  5
274
100
AcDbEntity
  8
0
100
AcDbLine
 62
7
  6
BYLAYER
 10
3443.0734888233
 20
2798.422052706
 11
3443.0734888233
 21
2982.572052706
  0
LINE
  5
275
100
AcDbEntity
  8
0
100
AcDbLine
 62
7
  6
BYLAYER
 10
3443.0734888233
 20
3122.272052706
 11
3443.0734888233
 21
3490.572052706
  0
LINE
  5
276
100
AcDbEntity
  8
0
100
AcDbLine
 62
7
  6
BYLAYER
 10
3443.0734888233
 20
3630.272052706
 11
3443.0734888233
 21
3814.422052706
  0
LINE
  5
277
100
AcDbEntity
  8
0
100
AcDbLine
 62
7
  6
BYLAYER
 10
3875.1180621573
 20
2988.9245646999
 11
3875.1180621573
 21
3115.919540712
  0
LINE
  5
278
100
AcDbEntity
  8
0
100
AcDbLine
 62
7
  6
BYLAYER
 10
3875.1180621573
 20
3496.9245646999
 11
3875.1180621573
 21
3623.919540712
  0
LINE
  5
279
100
AcDbEntity
  8
0
100
AcDbLine
 62
7
  6
BYLAYER
 10
4205.3180621573
 20
2798.422052706
 11
4205.3180621573
 21
3814.422052706
  0
LINE
  5
27A
100
AcDbEntity
  8
0
100
AcDbLine
 62
7
  6
BYLAYER
 10
4243.4180621573
 20
2798.422052706
 11
4243.4180621573
 21
3814.422052706
  0
ARC
  5
27B
100
AcDbEntity
  8
0
100
AcDbCircle
 62
7
  6
BYLAYER
 10
3298.0313144217
 20
3052.4640476088
 40
940.9329336221
100
AcDbArc
 50
180.0025571647
 51
184.2598232087
  0
ARC
  5
27C
100
AcDbEntity
  8
0
100
AcDbCircle
 62
7
  6
BYLAYER
 10
3298.0313144216
 20
3560.4640476088
 40
940.932933622
100
AcDbArc
 50
180.0025571647
 51
184.2598232087
  0
ARC
  5
27D
100
AcDbEntity
  8
0
100
AcDbCircle
 62
7
  6
BYLAYER
 10
2784.0479437863
 20
2900.022052706
 40
101.6
100
AcDbArc
 50
180.0
 51
270.0
  0
ARC
  5
27E
100
AcDbEntity
  8
0
100
AcDbCircle
 62
7
  6
BYLAYER
 10
2784.0479437863
 20
3712.822052706
 40
101.6
100
AcDbArc
 50
90.0
 51
180.0
  0
ARC
  5
27F
100
AcDbEntity
  8
0
100
AcDbCircle
 62
7
  6
BYLAYER
 10
2872.9479437863
 20
3052.422052706
 40
69.85
100
AcDbArc
 50
90.0
 51
270.0
  0
ARC
  5
280
100
AcDbEntity
  8
0
100
AcDbCircle
 62
7
  6
BYLAYER
 10
3126.9479437863
 20
3052.422052706
 40
69.85
100
AcDbArc
 50
270.0
 51
90.0
  0
ARC
  5
281
100
AcDbEntity
  8
0
100
AcDbCircle
 62
7
  6
BYLAYER
 10
2872.9479437863
 20
3560.422052706
 40
69.85
100
AcDbArc
 50
90.0
 51
270.0
  0
ARC
  5
282
100
AcDbEntity
  8
0
100
AcDbCircle
 62
7
  6
BYLAYER
 10
3126.9479437863
 20
3560.422052706
 40
69.85
100
AcDbArc
 50
270.0
 51
90.0
  0
ARC
  5
283
100
AcDbEntity
  8
0
100
AcDbCircle
 62
7
  6
BYLAYER
 10
1323.8656534253
 20
2943.646983476
 40
12.7
100
AcDbArc
 50
179.9999999996
 51
270.0
  0
ARC
  5
284
100
AcDbEntity
  8
0
100
AcDbCircle
 62
7
  6
BYLAYER
 10
1323.8656534253
 20
3161.197121936
 40
12.7
100
AcDbArc
 50
90.0
 51
179.9999999997
  0
ARC
  5
285
100
AcDbEntity
  8
0
100
AcDbCircle
 62
7
  6
BYLAYER
 10
1323.8656534253
 20
3669.197121936
 40
12.7
100
AcDbArc
 50
90.0
 51
179.9999999997
  0
ARC
  5
286
100
AcDbEntity
  8
0
100
AcDbCircle
 62
7
  6
BYLAYER
 10
1323.8656534253
 20
3451.646983476
 40
12.7
100
AcDbArc
 50
179.9999999995
 51
270.0
  0
SPLINE
  5
287
100
AcDbEntity
  8
0
100
AcDbSpline
 62
7
  6
BYLAYER
 70
0
 71
3
 72
12
 73
8
 74
0
 42
0.0000001
 43
0.0000001
 44
0.0000000001
 40
0.0
 40
0.0
 40
0.0
 40
0.0
 40
0.4100919415
 40
0.7187972493
 40
0.9151077905
 40
0.9701065294
 40
1.0
 40
1.0
 40
1.0
 40
1.0
 10
2272.8104520787
 20
3784.6635314983
 30
0.0
 10
2273.4747448529
 20
3788.8887017569
 30
0.0
 10
2274.7870304997
 20
3796.2896308181
 30
0.0
 10
2276.9275723956
 20
3805.5424468814
 30
0.0
 10
2278.7443690028
 20
3811.204899673
 30
0.0
 10
2280.0571938012
 20
3813.7396322909
 30
0.0
 10
2280.8072669447
 20
3814.4220527059
 30
0.0
 10
2281.1190422469
 20
3814.422052706
 30
0.0
  0
SPLINE
  5
288
100
AcDbEntity
  8
0
100
AcDbSpline
 62
7
  6
BYLAYER
 70
0
 71
3
 72
9
 73
5
 74
0
 42
0.0000001
 43
0.0000001
 44
0.0000000001
 40
0.0
 40
0.0
 40
0.0
 40
0.0
 40
0.2685022726
 40
1.0
 40
1.0
 40
1.0
 40
1.0
 10
2269.9593446985
 20
3762.0096643624
 30
0.0
 10
2270.1586504416
 20
3764.0436141352
 30
0.0
 10
2270.9534640619
 20
3771.6134337381
 30
0.0
 10
2271.9456967402
 20
3779.1633383918
 30
0.0
 10
2272.8104520787
 20
3784.6635314983
 30
0.0
  0
SPLINE
  5
289
100
AcDbEntity
  8
0
100
AcDbSpline
 62
7
  6
BYLAYER
 70
0
 71
3
 72
12
 73
8
 74
0
 42
0.0000001
 43
0.0000001
 44
0.0000000001
 40
0.0
 40
0.0
 40
0.0
 40
0.0
 40
0.4101403704
 40
0.7188592872
 40
0.9151557696
 40
0.9701200852
 40
1.0
 40
1.0
 40
1.0
 40
1.0
 10
2272.8108967453
 20
2828.1800037374
 30
0.0
 10
2273.4752692151
 20
2823.9542968342
 30
0.0
 10
2274.7858386869
 20
2816.5524355373
 30
0.0
 10
2276.9272439131
 20
2807.2988513854
 30
0.0
 10
2278.7432894528
 20
2801.6371731608
 30
0.0
 10
2280.0568947108
 20
2799.10258
 30
0.0
 10
2280.807405599
 20
2798.422052706
 30
0.0
 10
2281.1190422463
 20
2798.422052706
 30
0.0
  0
SPLINE
  5
28A
100
AcDbEntity
  8
0
100
AcDbSpline
 62
7
  6
BYLAYER
 70
0
 71
3
 72
9
 73
5
 74
0
 42
0.0000001
 43
0.0000001
 44
0.0000000001
 40
0.0
 40
0.0
 40
0.0
 40
0.0
 40
0.0762914358
 40
1.0
 40
1.0
 40
1.0
 40
1.0
 10
2359.6976959683
 20
3122.272052706
 30
0.0
 10
2359.565969367
 20
3120.499386863
 30
0.0
 10
2357.9044934523
 20
3097.257945866
 30
0.0
 10
2357.09838174
 20
3073.9449910837
 30
0.0
 10
2357.0983817358
 20
3052.4220528848
 30
0.0
  0
SPLINE
  5
28B
100
AcDbEntity
  8
0
100
AcDbSpline
 62
7
  6
BYLAYER
 70
0
 71
3
 72
9
 73
5
 74
0
 42
0.0000001
 43
0.0000001
 44
0.0000000001
 40
0.0
 40
0.0
 40
0.0
 40
0.0
 40
0.2685492751
 40
1.0
 40
1.0
 40
1.0
 40
1.0
 10
2269.9592633148
 20
2850.8349147636
 30
0.0
 10
2270.1585977256
 20
2848.8005145146
 30
0.0
 10
2270.9590896195
 20
2841.2309517627
 30
0.0
 10
2271.9461695978
 20
2833.6800955803
 30
0.0
 10
2272.8109029277
 20
2828.1800037374
 30
0.0
  0
SPLINE
  5
28C
100
AcDbEntity
  8
0
100
AcDbSpline
 62
7
  6
BYLAYER
 70
0
 71
3
 72
9
 73
5
 74
0
 42
0.0000001
 43
0.0000001
 44
0.0000000001
 40
0.0
 40
0.0
 40
0.0
 40
0.0
 40
0.0762912418
 40
1.0
 40
1.0
 40
1.0
 40
1.0
 10
2359.697523273
 20
3630.272052706
 30
0.0
 10
2359.5657975269
 20
3628.4993914475
 30
0.0
 10
2357.9043404007
 20
3605.2579511732
 30
0.0
 10
2357.09838174
 20
3581.9449937257
 30
0.0
 10
2357.0983817358
 20
3560.4220528848
 30
0.0
  0
SPLINE
  5
28D
100
AcDbEntity
  8
0
100
AcDbSpline
 62
7
  6
BYLAYER
 70
0
 71
3
 72
9
 73
5
 74
0
 42
0.0000001
 43
0.0000001
 44
0.0000000001
 40
0.0
 40
0.0
 40
0.0
 40
0.0
 40
0.2302423939
 40
1.0
 40
1.0
 40
1.0
 40
1.0
 10
2348.8929462087
 20
2828.1800037374
 30
0.0
 10
2348.6305450445
 20
2829.9118399072
 30
0.0
 10
2347.5445418923
 20
2837.4417723146
 30
0.0
 10
2346.699986204
 20
2845.005632839
 30
0.0
 10
2346.1524205
 20
2850.8360192785
 30
0.0
  0
SPLINE
  5
28E
100
AcDbEntity
  8
0
100
AcDbSpline
 62
7
  6
BYLAYER
 70
0
 71
3
 72
9
 73
5
 74
0
 42
0.0000001
 43
0.0000001
 44
0.0000000001
 40
0.0
 40
0.0
 40
0.0
 40
0.0
 40
0.4893549211
 40
1.0
 40
1.0
 40
1.0
 40
1.0
 10
2346.1523939726
 20
2850.836011676
 30
0.0
 10
2341.5266547047
 20
2857.936714007
 30
0.0
 10
2333.9173269278
 20
2873.7567359471
 30
0.0
 10
2331.1993224293
 20
2891.1788385383
 30
0.0
 10
2331.1993224293
 20
2900.022052706
 30
0.0
  0
SPLINE
  5
28F
100
AcDbEntity
  8
0
100
AcDbSpline
 62
7
  6
BYLAYER
 70
0
 71
3
 72
9
 73
5
 74
0
 42
0.0000001
 43
0.0000001
 44
0.0000000001
 40
0.0
 40
0.0
 40
0.0
 40
0.0
 40
0.2366902582
 40
1.0
 40
1.0
 40
1.0
 40
1.0
 10
2269.9593431943
 20
2850.8351122163
 30
0.0
 10
2271.5999436109
 20
2854.4640492646
 30
0.0
 10
2277.7053110077
 20
2870.1596053908
 30
0.0
 10
2280.3364590379
 20
2887.1785839398
 30
0.0
 10
2280.3364590379
 20
2900.022052706
 30
0.0
  0
SPLINE
  5
290
100
AcDbEntity
  8
0
100
AcDbSpline
 62
7
  6
BYLAYER
 70
0
 71
3
 72
12
 73
8
 74
0
 42
0.0000001
 43
0.0000001
 44
0.0000000001
 40
0.0
 40
0.0
 40
0.0
 40
0.0
 40
0.0300690474
 40
0.0850304051
 40
0.2811802075
 40
0.5897946047
 40
1.0
 40
1.0
 40
1.0
 40
1.0
 10
2357.0349990973
 20
2798.422052706
 30
0.0
 10
2356.7217386283
 20
2798.422052706
 30
0.0
 10
2355.9668932002
 20
2799.0982017197
 30
0.0
 10
2354.6614361781
 20
2801.6384383407
 30
0.0
 10
2352.8794686673
 20
2807.2981310522
 30
0.0
 10
2350.7986787668
 20
2816.5545787685
 30
0.0
 10
2349.5330636149
 20
2823.9546937925
 30
0.0
 10
2348.8928608822
 20
2828.1800037374
 30
0.0
  0
SPLINE
  5
291
100
AcDbEntity
  8
0
100
AcDbSpline
 62
7
  6
BYLAYER
 70
0
 71
3
 72
12
 73
8
 74
0
 42
0.0000001
 43
0.0000001
 44
0.0000000001
 40
0.0
 40
0.0
 40
0.0
 40
0.0
 40
0.4102043798
 40
0.7188195002
 40
0.9149694645
 40
0.9699309214
 40
1.0
 40
1.0
 40
1.0
 40
1.0
 10
2348.8931755514
 20
3784.6641016745
 30
0.0
 10
2349.5333745088
 20
3788.8893941955
 30
0.0
 10
2350.7984960288
 20
3796.2895817634
 30
0.0
 10
2352.8795135664
 20
3805.5459646223
 30
0.0
 10
2354.6614317527
 20
3811.2056714363
 30
0.0
 10
2355.9668940939
 20
3813.7459033684
 30
0.0
 10
2356.7217388319
 20
3814.4220527059
 30
0.0
 10
2357.0349990973
 20
3814.422052706
 30
0.0
  0
SPLINE
  5
292
100
AcDbEntity
  8
0
100
AcDbSpline
 62
7
  6
BYLAYER
 70
0
 71
3
 72
9
 73
5
 74
0
 42
0.0000001
 43
0.0000001
 44
0.0000000001
 40
0.0
 40
0.0
 40
0.0
 40
0.0
 40
0.2685873235
 40
1.0
 40
1.0
 40
1.0
 40
1.0
 10
2346.1528123036
 20
3762.0087749056
 30
0.0
 10
2346.3438674114
 20
3764.0430634608
 30
0.0
 10
2347.1111491135
 20
3771.6115994226
 30
0.0
 10
2348.0596409019
 20
3779.1627707591
 30
0.0
 10
2348.8931799524
 20
3784.6641016745
 30
0.0
  0
SPLINE
  5
293
100
AcDbEntity
  8
0
100
AcDbSpline
 62
7
  6
BYLAYER
 70
0
 71
3
 72
9
 73
5
 74
0
 42
0.0000001
 43
0.0000001
 44
0.0000000001
 40
0.0
 40
0.0
 40
0.0
 40
0.0
 40
0.5106486294
 40
1.0
 40
1.0
 40
1.0
 40
1.0
 10
2331.1993224293
 20
3712.822052706
 30
0.0
 10
2331.1993224293
 20
3721.6655039575
 30
0.0
 10
2333.9174439311
 20
3739.0879605673
 30
0.0
 10
2341.5270673832
 20
3754.9082282155
 30
0.0
 10
2346.1529243368
 20
3762.0089813256
 30
0.0
  0
SPLINE
  5
294
100
AcDbEntity
  8
0
100
AcDbSpline
 62
7
  6
BYLAYER
 70
0
 71
3
 72
9
 73
5
 74
0
 42
0.0000001
 43
0.0000001
 44
0.0000000001
 40
0.0
 40
0.0
 40
0.0
 40
0.0
 40
0.2366953347
 40
1.0
 40
1.0
 40
1.0
 40
1.0
 10
2269.9593364129
 20
3762.009536206
 30
0.0
 10
2271.6000835228
 20
3758.3805563927
 30
0.0
 10
2277.7007596239
 20
3742.6831472802
 30
0.0
 10
2280.3364590379
 20
3725.6654811499
 30
0.0
 10
2280.3364590379
 20
3712.822052706
 30
0.0
  0
SPLINE
  5
295
100
AcDbEntity
  8
0
100
AcDbSpline
 62
7
  6
BYLAYER
 70
0
 71
3
 72
13
 73
9
 74
0
 42
0.0000001
 43
0.0000001
 44
0.0000000001
 40
0.0
 40
0.0
 40
0.0
 40
0.0
 40
0.3736678078
 40
0.6908772254
 40
0.8136263281
 40
0.9067714837
 40
0.9681011451
 40
1.0
 40
1.0
 40
1.0
 40
1.0
 10
3422.9300492119
 20
3560.422052706
 30
0.0
 10
3422.9300492119
 20
3569.3862032012
 30
0.0
 10
3423.5602790485
 20
3585.9564119732
 30
0.0
 10
3425.8737150067
 20
3605.4006290178
 30
0.0
 10
3428.4233926891
 20
3617.8927692912
 30
0.0
 10
3430.3829444069
 20
3624.3582653904
 30
0.0
 10
3431.9920032005
 20
3628.325493504
 30
0.0
 10
3433.7674425594
 20
3630.272052706
 30
0.0
 10
3434.5326841186
 20
3630.272052706
 30
0.0
  0
SPLINE
  5
296
100
AcDbEntity
  8
0
100
AcDbSpline
 62
7
  6
BYLAYER
 70
0
 71
3
 72
13
 73
9
 74
0
 42
0.0000001
 43
0.0000001
 44
0.0000000001
 40
0.0
 40
0.0
 40
0.0
 40
0.0
 40
0.0318990673
 40
0.0932194165
 40
0.1863706178
 40
0.3091198838
 40
0.6263393327
 40
1.0
 40
1.0
 40
1.0
 40
1.0
 10
3434.5326841186
 20
3490.572052706
 30
0.0
 10
3433.7674381738
 20
3490.572052706
 30
0.0
 10
3431.9923966023
 20
3492.5186968073
 30
0.0
 10
3430.3825898752
 20
3496.4853815493
 30
0.0
 10
3428.4237791677
 20
3502.9511448033
 30
0.0
 10
3425.8733921962
 20
3515.4434196851
 30
0.0
 10
3423.5607363104
 20
3534.8878898042
 30
0.0
 10
3422.9300492119
 20
3551.4580818288
 30
0.0
 10
3422.9300492119
 20
3560.422052706
 30
0.0
  0
SPLINE
  5
297
100
AcDbEntity
  8
0
100
AcDbSpline
 62
7
  6
BYLAYER
 70
0
 71
3
 72
13
 73
9
 74
0
 42
0.0000001
 43
0.0000001
 44
0.0000000001
 40
0.0
 40
0.0
 40
0.0
 40
0.0
 40
0.3736671918
 40
0.690876472
 40
0.8136253617
 40
0.9067725263
 40
0.9681012679
 40
1.0
 40
1.0
 40
1.0
 40
1.0
 10
3422.9300492119
 20
3052.4220527059
 30
0.0
 10
3422.9300492119
 20
3061.3861893707
 30
0.0
 10
3423.5603330473
 20
3077.9563731537
 30
0.0
 10
3425.87365562
 20
3097.4005941846
 30
0.0
 10
3428.4234600435
 20
3109.8927423913
 30
0.0
 10
3430.3828805889
 20
3116.3583033887
 30
0.0
 10
3431.9920179288
 20
3120.3255319491
 30
0.0
 10
3433.7674454232
 20
3122.272052706
 30
0.0
 10
3434.5326841186
 20
3122.272052706
 30
0.0
  0
SPLINE
  5
298
100
AcDbEntity
  8
0
100
AcDbSpline
 62
7
  6
BYLAYER
 70
0
 71
3
 72
13
 73
9
 74
0
 42
0.0000001
 43
0.0000001
 44
0.0000000001
 40
0.0
 40
0.0
 40
0.0
 40
0.0
 40
0.031899049
 40
0.0932203941
 40
0.1863696715
 40
0.309119281
 40
0.6263387036
 40
1.0
 40
1.0
 40
1.0
 40
1.0
 10
3434.5326841186
 20
2982.5720527059
 30
0.0
 10
3433.767438627
 20
2982.5720527059
 30
0.0
 10
3431.9923705725
 20
2984.5187118126
 30
0.0
 10
3430.3826605109
 20
2988.4854159354
 30
0.0
 10
3428.423709379
 20
2994.9511130685
 30
0.0
 10
3425.8734601141
 20
3007.4433884404
 30
0.0
 10
3423.5606682467
 20
3026.8878499633
 30
0.0
 10
3422.9300492119
 20
3043.4580669056
 30
0.0
 10
3422.9300492119
 20
3052.4220527059
 30
0.0
  0
SPLINE
  5
299
100
AcDbEntity
  8
0
100
AcDbSpline
 62
7
  6
BYLAYER
 70
0
 71
3
 72
11
 73
7
 74
0
 42
0.0000001
 43
0.0000001
 44
0.0000000001
 40
0.0
 40
0.0
 40
0.0
 40
0.0
 40
0.3412234837
 40
0.6363735554
 40
0.8614462699
 40
1.0
 40
1.0
 40
1.0
 40
1.0
 10
3424.8660666802
 20
3041.2550766473
 30
0.0
 10
3425.0703811718
 20
3034.679660442
 30
0.0
 10
3425.7961514651
 20
3022.4322183308
 30
0.0
 10
3427.7390477715
 20
3005.8978675379
 30
0.0
 10
3430.242918744
 20
2993.4945883915
 30
0.0
 10
3432.2579209783
 20
2986.6613321697
 30
0.0
 10
3433.6230988155
 20
2984.3652950629
 30
0.0
  0
SPLINE
  5
29A
100
AcDbEntity
  8
0
100
AcDbSpline
 62
7
  6
BYLAYER
 70
0
 71
3
 72
9
 73
5
 74
0
 42
0.0000001
 43
0.0000001
 44
0.0000000001
 40
0.0
 40
0.0
 40
0.0
 40
0.0
 40
0.3091086589
 40
1.0
 40
1.0
 40
1.0
 40
1.0
 10
3433.6230988155
 20
2984.3652950629
 30
0.0
 10
3433.7371907007
 20
2984.1734085592
 30
0.0
 10
3434.1254111562
 20
2983.5703391629
 30
0.0
 10
3434.6119303659
 20
2982.9903886292
 30
0.0
 10
3435.047215835
 20
2982.7464630969
 30
0.0
  0
SPLINE
  5
29B
100
AcDbEntity
  8
0
100
AcDbSpline
 62
7
  6
BYLAYER
 70
0
 71
3
 72
9
 73
5
 74
0
 42
0.0000001
 43
0.0000001
 44
0.0000000001
 40
0.0
 40
0.0
 40
0.0
 40
0.0
 40
0.6918471741
 40
1.0
 40
1.0
 40
1.0
 40
1.0
 10
3435.042148694
 20
3122.0947271424
 30
0.0
 10
3434.6159061115
 20
3121.8539206321
 30
0.0
 10
3434.1376983166
 20
3121.2884500763
 30
0.0
 10
3433.7550841443
 20
3120.6987531793
 30
0.0
 10
3433.6429235244
 20
3120.5117575279
 30
0.0
  0
SPLINE
  5
29C
100
AcDbEntity
  8
0
100
AcDbSpline
 62
7
  6
BYLAYER
 70
0
 71
3
 72
11
 73
7
 74
0
 42
0.0000001
 43
0.0000001
 44
0.0000000001
 40
0.0
 40
0.0
 40
0.0
 40
0.0
 40
0.1381265167
 40
0.3630972329
 40
0.6584333
 40
1.0
 40
1.0
 40
1.0
 40
1.0
 10
3433.6429235244
 20
3120.5117575279
 30
0.0
 10
3432.2722602314
 20
3118.2265697712
 30
0.0
 10
3430.2554648155
 20
3111.3969114644
 30
0.0
 10
3427.7452145883
 20
3098.995034663
 30
0.0
 10
3425.7987503795
 20
3082.440962395
 30
0.0
 10
3425.070625091
 20
3070.1756543705
 30
0.0
 10
3424.8660007052
 20
3063.589337241
 30
0.0
  0
SPLINE
  5
29D
100
AcDbEntity
  8
0
100
AcDbSpline
 62
7
  6
BYLAYER
 70
0
 71
3
 72
11
 73
7
 74
0
 42
0.0000001
 43
0.0000001
 44
0.0000000001
 40
0.0
 40
0.0
 40
0.0
 40
0.0
 40
0.3412234837
 40
0.6363735554
 40
0.8614462699
 40
1.0
 40
1.0
 40
1.0
 40
1.0
 10
3424.8660666802
 20
3549.2550766473
 30
0.0
 10
3425.0703811718
 20
3542.679660442
 30
0.0
 10
3425.7961514651
 20
3530.4322183308
 30
0.0
 10
3427.7390477715
 20
3513.8978675379
 30
0.0
 10
3430.242918744
 20
3501.4945883915
 30
0.0
 10
3432.2579209783
 20
3494.6613321697
 30
0.0
 10
3433.6230988155
 20
3492.3652950629
 30
0.0
  0
SPLINE
  5
29E
100
AcDbEntity
  8
0
100
AcDbSpline
 62
7
  6
BYLAYER
 70
0
 71
3
 72
9
 73
5
 74
0
 42
0.0000001
 43
0.0000001
 44
0.0000000001
 40
0.0
 40
0.0
 40
0.0
 40
0.0
 40
0.3091086589
 40
1.0
 40
1.0
 40
1.0
 40
1.0
 10
3433.6230988155
 20
3492.3652950629
 30
0.0
 10
3433.7371907007
 20
3492.1734085593
 30
0.0
 10
3434.1254111562
 20
3491.5703391629
 30
0.0
 10
3434.6119303659
 20
3490.9903886292
 30
0.0
 10
3435.047215835
 20
3490.7464630969
 30
0.0
  0
SPLINE
  5
29F
100
AcDbEntity
  8
0
100
AcDbSpline
 62
7
  6
BYLAYER
 70
0
 71
3
 72
9
 73
5
 74
0
 42
0.0000001
 43
0.0000001
 44
0.0000000001
 40
0.0
 40
0.0
 40
0.0
 40
0.0
 40
0.6918471741
 40
1.0
 40
1.0
 40
1.0
 40
1.0
 10
3435.0421486937
 20
3630.0947271423
 30
0.0
 10
3434.6159061111
 20
3629.853920632
 30
0.0
 10
3434.1376983161
 20
3629.2884500764
 30
0.0
 10
3433.7550841435
 20
3628.6987531795
 30
0.0
 10
3433.6429235236
 20
3628.5117575283
 30
0.0
  0
SPLINE
  5
2A0
100
AcDbEntity
  8
0
100
AcDbSpline
 62
7
  6
BYLAYER
 70
0
 71
3
 72
11
 73
7
 74
0
 42
0.0000001
 43
0.0000001
 44
0.0000000001
 40
0.0
 40
0.0
 40
0.0
 40
0.0
 40
0.1381265166
 40
0.3630972329
 40
0.6584333
 40
1.0
 40
1.0
 40
1.0
 40
1.0
 10
3433.6429235236
 20
3628.5117575283
 30
0.0
 10
3432.2722602299
 20
3626.2265697728
 30
0.0
 10
3430.255464814
 20
3619.3969114648
 30
0.0
 10
3427.7452145891
 20
3606.9950346628
 30
0.0
 10
3425.7987503791
 20
3590.4409623942
 30
0.0
 10
3425.070625091
 20
3578.1756543702
 30
0.0
 10
3424.8660007052
 20
3571.5893372411
 30
0.0
  0
ELLIPSE
  5
2A1
100
AcDbEntity
  8
0
100
AcDbEllipse
 62
7
  6
BYLAYER
 10
1417.8456534253
 20
3573.1220527095
 30
0.0
 11
12.7
 21
0.0
 31
0.0
 40
1.0
 41
4.7123889805
 42
6.2831853069
  0
ENDSEC
  0
SECTION
  2
OBJECTS
  0
DICTIONARY
  5
C
100
AcDbDictionary
280
0
281
1
  3
ACAD_GROUP
350
D
  3
ACAD_MLINESTYLE
350
17
  3
ACAD_LAYOUT
350
1A
  3
ACAD_PLOTSETTINGS
350
19
  3
ACAD_PLOTSTYLENAME
350
E
  0
DICTIONARY
  5
D
102
{ACAD_REACTORS
330
C
102
}
100
AcDbDictionary
280
0
281
1
  0
ACDBDICTIONARYWDFLT
  5
E
102
{ACAD_REACTORS
330
C
102
}
100
AcDbDictionary
281
1
  3
Normal
350
F
100
AcDbDictionaryWithDefault
340
F
  0
DICTIONARY
  5
17
102
{ACAD_REACTORS
330
C
102
}
100
AcDbDictionary
280
0
281
1
  3
Standard
350
18
  0
DICTIONARY
  5
19
102
{ACAD_REACTORS
330
C
102
}
100
AcDbDictionary
281
1
  0
DICTIONARY
  5
1A
102
{ACAD_REACTORS
330
C
102
}
100
AcDbDictionary
281
1
  3
Model
350
2A2
  3
Layout1
350
2A3
  0
ACDBPLACEHOLDER
  5
F
102
{ACAD_REACTORS
330
E
102
}
  0
MLINESTYLE
  5
18
102
{ACAD_REACTORS
330
17
102
}
100
AcDbMlineStyle
  2
STANDARD
 70
0
  3

 62
256
 51
90.0
 52
90.0
 71
2
 49
0.5
 62
256
  6
BYLAYER
 49
-0.5
 62
256
  6
BYLAYER
  0
LAYOUT
  5
2A2
102
{ACAD_REACTORS
330
1A
102
}
100
AcDbPlotSettings
  1

  2
none_device
  4

  6

 40
0.0
 41
0.0
 42
0.0
 43
0.0
 44
210.0
 45
297.0
 46
0.0
 47
0.0
 48
0.0
 49
0.0
140
0.0
141
0.0
142
1.0
143
1.0
 70
1024
 72
1
 73
0
 74
0
  7

 75
0
147
1.0
148
0.0
149
0.0
100
AcDbLayout
  1
Model
 70
0
 71
0
 10
0.0
 20
0.0
 11
210.0
 21
297.0
 12
0.0
 22
0.0
 32
0.0
 14
0.0
 24
0.0
 34
0.0
 15
0.0
 25
0.0
 35
0.0
146
0.0
 13
0.0
 23
0.0
 33
0.0
 16
1.0
 26
0.0
 36
0.0
 17
0.0
 27
1.0
 37
0.0
 76
0
330
210
345
0
346
0
  0
LAYOUT
  5
2A3
102
{ACAD_REACTORS
330
1A
102
}
100
AcDbPlotSettings
  1

  2
none_device
  4

  6

 40
0.0
 41
0.0
 42
0.0
 43
0.0
 44
210.0
 45
297.0
 46
0.0
 47
0.0
 48
0.0
 49
0.0
140
0.0
141
0.0
142
1.0
143
1.0
 70
0
 72
1
 73
0
 74
0
  7

 75
0
147
1.0
148
0.0
149
0.0
100
AcDbLayout
  1
Layout1
 70
0
 71
1
 10
0.0
 20
0.0
 11
210.0
 21
297.0
 12
0.0
 22
0.0
 32
0.0
 14
0.0
 24
0.0
 34
0.0
 15
0.0
 25
0.0
 35
0.0
146
0.0
 13
0.0
 23
0.0
 33
0.0
 16
1.0
 26
0.0
 36
0.0
 17
0.0
 27
1.0
 37
0.0
 76
0
330
211
345
0
346
0
  0
ENDSEC
  0
EOF
