999
DXF file: C:\Users\sesa63760\Dev\_Creo\CAD\MCADPD0004621_3D-CAD\drw0001_1.dxf
999
Pro/ENGINEER 2019471 by Parametric Technology Corporation
  0
SECTION
  2
HEADER
  9
$ACADVER
  1
AC1024
  9
$DWGCODEPAGE
  3
ANSI_1252
  9
$EXTMAX
 10
43.9810536452
 20
62.2017758696
 30
0.0
  9
$EXTMIN
 10
0.0
 20
0.0
 30
0.0
  9
$LIMMIN
 10
0.0
 20
0.0
  9
$LIMMAX
 10
43.9810536452
 20
62.2017758696
  9
$VIEWCTR
 10
21.9905268226
 20
31.1008879348
  9
$VIEWSIZE
 40
62.2017758696
  9
$CLAYER
  8
0
  9
$LTSCALE
 40
4.0546342789
  9
$CELTYPE
  6
BYLAYER
  9
$DIMSCALE
 40
1.0
  9
$DIMASZ
 40
0.523583972
  9
$DIMEXO
 40
1.0
  9
$DIMDLI
 40
2.8013836836
  9
$DIMEXE
 40
1.0
  9
$DIMCEN
 40
0.6634856093
  9
$DIMLFAC
 40
1.0
  9
$DIMBLK
  1
_FILLED
  9
$DIMALT
 70
0
  9
$DIMALTF
 40
0.0393700787
  9
$DIMTXT
 40
0.7330175608
  9
$DIMTOL
 70
1
  9
$DIMLIM
 70
0
  9
$DIMTFAC
 40
1.0
  9
$DIMTP
 40
0.01
  9
$DIMTM
 40
0.01
  9
$DIMGAP
 40
0.625
  9
$DIMDSEP
 70
46
  9
$AUNITS
 70
0
  9
$PDMODE
 70
3
  9
$PDSIZE
 40
0.3125
  9
$HANDSEED
  5
281
  9
$TILEMODE
 70
1
  9
$MEASUREMENT
 70
1
  9
$INSUNITS
 70
4
  0
ENDSEC
  0
SECTION
  2
CLASSES
  0
CLASS
  1
ACDBDICTIONARYWDFLT
  2
AcDbDictionaryWithDefault
  3
AutoCAD 2000
 90
0
 91
1
280
0
281
0
  0
CLASS
  1
ACDBPLACEHOLDER
  2
AcDbPlaceHolder
  3
AutoCAD 2000
 90
0
 91
1
280
0
281
0
  0
CLASS
  1
LAYOUT
  2
AcDbLayout
  3
AutoCAD 2000
 90
0
 91
0
280
0
281
0
  0
ENDSEC
  0
SECTION
  2
TABLES
  0
TABLE
  2
VPORT
  5
8
100
AcDbSymbolTable
 70
2
  0
VPORT
  5
1F4
100
AcDbSymbolTableRecord
100
AcDbViewportTableRecord
  2
*ACTIVE
 70
0
 10
0.0
 20
0.0
 11
1.0
 21
1.0
 12
21.9905268226
 22
31.1008879348
 13
0.0
 23
0.0
 14
1.0
 24
1.0
 15
0.0
 25
0.0
 16
0.0
 26
0.0
 36
1.0
 17
0.0
 27
0.0
 37
0.0
 40
62.2017758696
 41
0.7070707071
 42
50.0
 43
0.0
 44
0.0
 50
0.0
 51
0.0
 71
0
 72
100
 73
1
 74
1
 75
0
 76
0
 77
0
 78
0
  0
ENDTAB
  0
TABLE
  2
LTYPE
  5
5
100
AcDbSymbolTable
 70
6
  0
LTYPE
  5
14
100
AcDbSymbolTableRecord
100
AcDbLinetypeTableRecord
  2
BYBLOCK
 70
0
  3

 72
65
 73
0
 40
0.0
  0
LTYPE
  5
15
100
AcDbSymbolTableRecord
100
AcDbLinetypeTableRecord
  2
BYLAYER
 70
0
  3

 72
65
 73
0
 40
0.0
  0
LTYPE
  5
16
100
AcDbSymbolTableRecord
100
AcDbLinetypeTableRecord
  2
CONTINUOUS
 70
64
  3
Solid line
 72
65
 73
0
 40
0.0
  0
LTYPE
  5
1F5
100
AcDbSymbolTableRecord
100
AcDbLinetypeTableRecord
  2
CENTER
 70
64
  3
____ _ ____ _ ____ _ ____ _ ____ _ ____ _ ____
 72
65
 73
4
 40
0.6
 49
0.375
 74
0
 49
-0.075
 74
0
 49
0.075
 74
0
 49
-0.075
 74
0
  0
LTYPE
  5
1F6
100
AcDbSymbolTableRecord
100
AcDbLinetypeTableRecord
  2
HIDDEN
 70
64
  3
- - - - - - - - - - - - - - - - - - - -
 72
65
 73
2
 40
0.2
 49
0.1
 74
0
 49
-0.1
 74
0
  0
LTYPE
  5
1F7
100
AcDbSymbolTableRecord
100
AcDbLinetypeTableRecord
  2
PHANTOM
 70
64
  3
_____ _ _ _____ _ _ _____ _ _ _____
 72
65
 73
6
 40
0.8
 49
0.45
 74
0
 49
-0.05
 74
0
 49
0.1
 74
0
 49
-0.05
 74
0
 49
0.1
 74
0
 49
-0.05
 74
0
  0
LTYPE
  5
1F8
100
AcDbSymbolTableRecord
100
AcDbLinetypeTableRecord
  2
DOT
 70
64
  3
. . . . . . . . . . . . . . . . . . . .
 72
65
 73
2
 40
0.2
 49
0.1
 74
0
 49
-0.1
 74
0
  0
LTYPE
  5
1F9
100
AcDbSymbolTableRecord
100
AcDbLinetypeTableRecord
  2
DASHED
 70
64
  3
- - - - - - - - - - - - - - - - - - - -
 72
65
 73
2
 40
0.2
 49
0.1
 74
0
 49
-0.1
 74
0
  0
ENDTAB
  0
TABLE
  2
LAYER
  5
2
100
AcDbSymbolTable
 70
36
  0
LAYER
  5
10
100
AcDbSymbolTableRecord
100
AcDbLayerTableRecord
  2
0
 70
0
 62
7
  6
CONTINUOUS
370
-3
390
F
  0
LAYER
  5
1FA
100
AcDbSymbolTableRecord
100
AcDbLayerTableRecord
  2
DEFAULT_1
 70
0
 62
7
  6
CENTER
370
-3
390
F
  0
LAYER
  5
1FB
100
AcDbSymbolTableRecord
100
AcDbLayerTableRecord
  2
DEFAULT_2
 70
0
 62
7
  6
HIDDEN
370
-3
390
F
  0
LAYER
  5
1FC
100
AcDbSymbolTableRecord
100
AcDbLayerTableRecord
  2
DEFAULT_3
 70
0
 62
7
  6
PHANTOM
370
-3
390
F
  0
LAYER
  5
1FD
100
AcDbSymbolTableRecord
100
AcDbLayerTableRecord
  2
00_COMPONENTS
 70
0
 62
7
  6
CONTINUOUS
370
-3
390
F
  0
LAYER
  5
1FE
100
AcDbSymbolTableRecord
100
AcDbLayerTableRecord
  2
01_1_DEFAULT_DATUMS
 70
0
 62
7
  6
CONTINUOUS
370
-3
390
F
  0
LAYER
  5
1FF
100
AcDbSymbolTableRecord
100
AcDbLayerTableRecord
  2
01_PLANES
 70
0
 62
7
  6
CONTINUOUS
370
-3
390
F
  0
LAYER
  5
200
100
AcDbSymbolTableRecord
100
AcDbLayerTableRecord
  2
02_COORD_SYS
 70
0
 62
7
  6
CONTINUOUS
370
-3
390
F
  0
LAYER
  5
201
100
AcDbSymbolTableRecord
100
AcDbLayerTableRecord
  2
03_AXES
 70
0
 62
7
  6
CONTINUOUS
370
-3
390
F
  0
LAYER
  5
202
100
AcDbSymbolTableRecord
100
AcDbLayerTableRecord
  2
04_POINTS
 70
0
 62
7
  6
CONTINUOUS
370
-3
390
F
  0
LAYER
  5
203
100
AcDbSymbolTableRecord
100
AcDbLayerTableRecord
  2
05_CURVES
 70
0
 62
7
  6
CONTINUOUS
370
-3
390
F
  0
LAYER
  5
204
100
AcDbSymbolTableRecord
100
AcDbLayerTableRecord
  2
06_SURFS
 70
0
 62
7
  6
CONTINUOUS
370
-3
390
F
  0
LAYER
  5
205
100
AcDbSymbolTableRecord
100
AcDbLayerTableRecord
  2
07_COSMETICS
 70
0
 62
7
  6
CONTINUOUS
370
-3
390
F
  0
LAYER
  5
206
100
AcDbSymbolTableRecord
100
AcDbLayerTableRecord
  2
10_NOTES
 70
0
 62
7
  6
CONTINUOUS
370
-3
390
F
  0
LAYER
  5
207
100
AcDbSymbolTableRecord
100
AcDbLayerTableRecord
  2
11_NOTES_PUB
 70
0
 62
7
  6
CONTINUOUS
370
-3
390
F
  0
LAYER
  5
208
100
AcDbSymbolTableRecord
100
AcDbLayerTableRecord
  2
13_REF_GTOL
 70
0
 62
7
  6
CONTINUOUS
370
-3
390
F
  0
LAYER
  5
209
100
AcDbSymbolTableRecord
100
AcDbLayerTableRecord
  2
16_MISC
 70
0
 62
7
  6
CONTINUOUS
370
-3
390
F
  0
LAYER
  5
20A
100
AcDbSymbolTableRecord
100
AcDbLayerTableRecord
  2
17_NO_PRINT
 70
0
 62
7
  6
CONTINUOUS
370
-3
390
F
  0
LAYER
  5
20B
100
AcDbSymbolTableRecord
100
AcDbLayerTableRecord
  2
18_DATUM_CAMS_JOINTS
 70
0
 62
7
  6
CONTINUOUS
370
-3
390
F
  0
LAYER
  5
20C
100
AcDbSymbolTableRecord
100
AcDbLayerTableRecord
  2
19_DATUM_FUNCTIONAL
 70
0
 62
7
  6
CONTINUOUS
370
-3
390
F
  0
LAYER
  5
20D
100
AcDbSymbolTableRecord
100
AcDbLayerTableRecord
  2
20_DATUM_KINEMATIC_SCHEME
 70
0
 62
7
  6
CONTINUOUS
370
-3
390
F
  0
ENDTAB
  0
TABLE
  2
STYLE
  5
3
100
AcDbSymbolTable
 70
1
  0
STYLE
  5
11
100
AcDbSymbolTableRecord
100
AcDbTextStyleTableRecord
  2
STANDARD
 70
0
 40
0.0
 41
1.0
 50
0.0
 71
0
 42
0.2
  3
ARIAL.TTF
  4

  0
STYLE
  5
20E
100
AcDbSymbolTableRecord
100
AcDbTextStyleTableRecord
  2
TEXTSTYLE_1
 70
0
 40
0.0
 41
0.8
 50
0.0
 71
0
 42
0.2
  3
gdt
  4

  0
ENDTAB
  0
TABLE
  2
VIEW
  5
6
100
AcDbSymbolTable
 70
0
  0
ENDTAB
  0
TABLE
  2
UCS
  5
7
100
AcDbSymbolTable
 70
0
  0
ENDTAB
  0
TABLE
  2
APPID
  5
9
100
AcDbSymbolTable
 70
1
  0
APPID
  5
20F
100
AcDbSymbolTableRecord
100
AcDbRegAppTableRecord
  2
ACAD
 70
0
  0
ENDTAB
  0
TABLE
  2
BLOCK_RECORD
  5
1
100
AcDbSymbolTable
 70
0
  0
BLOCK_RECORD
  5
210
100
AcDbSymbolTableRecord
100
AcDbBlockTableRecord
  2
*Model_Space
  0
BLOCK_RECORD
  5
211
100
AcDbSymbolTableRecord
100
AcDbBlockTableRecord
  2
*Paper_Space
  0
BLOCK_RECORD
  5
212
100
AcDbSymbolTableRecord
100
AcDbBlockTableRecord
  2
_FILLED
  0
ENDTAB
  0
TABLE
  2
DIMSTYLE
  5
A
100
AcDbSymbolTable
 70
1
100
AcDbDimStyleTable
 71
0
  0
DIMSTYLE
105
213
100
AcDbSymbolTableRecord
100
AcDbDimStyleTableRecord
  2
STANDARD
 70
0
  3

  4

 40
1.0
 41
0.523583972
 42
1.0
 43
0.38
 44
1.0
 45
0.0
 46
0.0
 47
0.01
 48
0.01
140
0.7330175608
141
0.09
142
0.0
143
25.4
144
1.0
145
0.0
146
1.0
147
0.625
 71
1
 72
0
 73
0
 74
0
 75
0
 76
0
 77
1
 78
8
 79
2
170
0
171
1
172
0
173
0
174
0
175
0
176
0
177
0
178
0
270
2
179
2
271
2
272
2
273
2
274
2
275
0
280
0
281
0
282
0
283
1
284
8
285
0
286
0
287
3
288
0
340
11
278
46
341
212
342
212
343
212
344
212
  0
ENDTAB
  0
ENDSEC
  0
SECTION
  2
BLOCKS
  0
BLOCK
  5
20
100
AcDbEntity
  8
0
100
AcDbBlockBegin
  2
*Model_Space
 70
0
 10
0.0
 20
0.0
 30
0.0
  3
*Model_Space
  1

  0
ENDBLK
  5
21
100
AcDbEntity
  8
0
100
AcDbBlockEnd
  0
BLOCK
  5
1C
100
AcDbEntity
  8
0
100
AcDbBlockBegin
  2
*Paper_Space
 70
0
 10
0.0
 20
0.0
 30
0.0
  3
*Paper_Space
  1

  0
ENDBLK
  5
1D
100
AcDbEntity
  8
0
100
AcDbBlockEnd
  0
BLOCK
  5
214
100
AcDbEntity
  8
0
100
AcDbBlockBegin
  2
_FILLED
 70
64
 10
0.0
 20
0.0
  3
_FILLED
  1

  0
SOLID
  5
215
100
AcDbEntity
  8
0
  6
BYBLOCK
 62
0
100
AcDbTrace
 10
0.0
 20
0.0
 11
-1.0
 21
0.25
 12
-1.0
 22
-0.25
 13
-1.0
 23
-0.25
  0
ENDBLK
  5
216
100
AcDbEntity
  8
0
  6
BYBLOCK
 62
0
100
AcDbBlockEnd
  0
ENDSEC
  0
SECTION
  2
ENTITIES
  0
LINE
  5
217
100
AcDbEntity
  8
0
100
AcDbLine
 62
7
  6
BYLAYER
 10
14.2821342922
 20
50.5721094643
 11
7.2110959201
 21
46.4896679256
  0
LINE
  5
218
100
AcDbEntity
  8
0
100
AcDbLine
 62
7
  6
BYLAYER
 10
15.5321286961
 20
50.4482987668
 11
8.461090324
 21
46.3658572281
  0
LINE
  5
219
100
AcDbEntity
  8
0
100
AcDbLine
 62
7
  6
BYLAYER
 10
10.9359575814
 20
14.7672003744
 11
9.7338769366
 21
15.4612271658
  0
LINE
  5
21A
100
AcDbEntity
  8
0
100
AcDbLine
 62
7
  6
BYLAYER
 10
16.3099914925
 20
11.6645706401
 11
15.1079108477
 21
12.3585974315
  0
LINE
  5
21B
100
AcDbEntity
  8
0
100
AcDbLine
 62
7
  6
BYLAYER
 10
5.1023082369
 20
25.3612504995
 11
5.1023082369
 21
35.0581650509
  0
LINE
  5
21C
100
AcDbEntity
  8
0
100
AcDbLine
 62
7
  6
BYLAYER
 10
12.6683619826
 20
15.7673985514
 11
12.2440996803
 21
16.0123409645
  0
LINE
  5
21D
100
AcDbEntity
  8
0
100
AcDbLine
 62
7
  6
BYLAYER
 10
17.6181335914
 20
12.9097112302
 11
18.0423958937
 21
12.6647688171
  0
LINE
  5
21E
100
AcDbEntity
  8
0
100
AcDbLine
 62
7
  6
BYLAYER
 10
5.5972850445
 20
34.4652597684
 11
5.5972850445
 21
25.0754819714
  0
LINE
  5
21F
100
AcDbEntity
  8
0
100
AcDbLine
 62
7
  6
BYLAYER
 10
6.6933160111
 20
26.728947961
 11
6.6933160111
 21
45.3452030716
  0
LINE
  5
220
100
AcDbEntity
  8
0
100
AcDbLine
 62
7
  6
BYLAYER
 10
9.7338769366
 20
21.6218104392
 11
10.2288537442
 21
21.3360419111
  0
LINE
  5
221
100
AcDbEntity
  8
0
100
AcDbLine
 62
7
  6
BYLAYER
 10
15.1079108477
 20
18.5191807049
 11
15.6028876553
 21
18.2334121767
  0
LINE
  5
222
100
AcDbEntity
  8
0
100
AcDbLine
 62
7
  6
BYLAYER
 10
6.3043888817
 20
24.6672237081
 11
5.1023082369
 21
25.3612504995
  0
LINE
  5
223
100
AcDbEntity
  8
0
100
AcDbLine
 62
7
  6
BYLAYER
 10
9.7338769366
 20
15.4612271658
 11
9.7338769366
 21
21.6218104392
  0
LINE
  5
224
100
AcDbEntity
  8
0
100
AcDbLine
 62
7
  6
BYLAYER
 10
10.2288537442
 20
21.3360419111
 11
10.2288537442
 21
15.1754586377
  0
LINE
  5
225
100
AcDbEntity
  8
0
100
AcDbLine
 62
7
  6
BYLAYER
 10
16.0625198693
 20
41.977269117
 11
23.1335582415
 21
46.0597106557
  0
LINE
  5
226
100
AcDbEntity
  8
0
100
AcDbLine
 62
7
  6
BYLAYER
 10
5.1023082369
 20
35.0581650509
 11
6.6933160111
 21
35.9767283346
  0
LINE
  5
227
100
AcDbEntity
  8
0
100
AcDbLine
 62
7
  6
BYLAYER
 10
16.0625198693
 20
19.2785019208
 11
8.461090324
 21
23.6670900319
  0
LINE
  5
228
100
AcDbEntity
  8
0
100
AcDbLine
 62
7
  6
BYLAYER
 10
12.2440996803
 20
21.237968979
 11
12.2440996803
 21
15.5224520591
  0
LINE
  5
229
100
AcDbEntity
  8
0
100
AcDbLine
 62
7
  6
BYLAYER
 10
12.6683619826
 20
21.2380755589
 11
12.6683619826
 21
15.7673985514
  0
LINE
  5
22A
100
AcDbEntity
  8
0
100
AcDbLine
 62
7
  6
BYLAYER
 10
24.9013325543
 20
42.9978527266
 11
17.8302941822
 21
38.9154111879
  0
LINE
  5
22B
100
AcDbEntity
  8
0
100
AcDbLine
 62
7
  6
BYLAYER
 10
14.6836079186
 20
20.0745990966
 11
14.6836079186
 21
17.7473968071
  0
LINE
  5
22C
100
AcDbEntity
  8
0
100
AcDbLine
 62
7
  6
BYLAYER
 10
15.1079108477
 20
18.5191807049
 11
15.1079108477
 21
12.3585974315
  0
LINE
  5
22D
100
AcDbEntity
  8
0
100
AcDbLine
 62
7
  6
BYLAYER
 10
15.6028876553
 20
12.0728289033
 11
15.6028876553
 21
18.2334121767
  0
LINE
  5
22E
100
AcDbEntity
  8
0
100
AcDbLine
 62
7
  6
BYLAYER
 10
19.9869608857
 20
39.5073539235
 11
22.7446658508
 21
41.0995061236
  0
LINE
  5
22F
100
AcDbEntity
  8
0
100
AcDbLine
 62
7
  6
BYLAYER
 10
21.401180336
 20
38.6908724144
 11
24.1588853011
 21
40.2830246145
  0
LINE
  5
230
100
AcDbEntity
  8
0
100
AcDbLine
 62
7
  6
BYLAYER
 10
10.3013203712
 20
22.6046567542
 11
9.7338769366
 21
21.6218104392
  0
LINE
  5
231
100
AcDbEntity
  8
0
100
AcDbLine
 62
7
  6
BYLAYER
 10
10.2288537442
 20
21.3360419111
 11
10.7962971788
 21
22.3188882261
  0
LINE
  5
232
100
AcDbEntity
  8
0
100
AcDbLine
 62
7
  6
BYLAYER
 10
21.1435576319
 20
37.9823197745
 11
26.5882571785
 21
41.1257997593
  0
LINE
  5
233
100
AcDbEntity
  8
0
100
AcDbLine
 62
7
  6
BYLAYER
 10
19.8785444871
 20
26.1399660366
 11
18.643463595
 21
27.0514454535
  0
LINE
  5
234
100
AcDbEntity
  8
0
100
AcDbLine
 62
7
  6
BYLAYER
 10
17.6181335914
 20
18.1353392446
 11
17.6181335914
 21
12.4198223247
  0
LINE
  5
235
100
AcDbEntity
  8
0
100
AcDbLine
 62
7
  6
BYLAYER
 10
17.8302941822
 20
38.9154111879
 11
17.8302941822
 21
20.2991560773
  0
LINE
  5
236
100
AcDbEntity
  8
0
100
AcDbLine
 62
7
  6
BYLAYER
 10
18.0423958937
 20
18.380285737
 11
18.0423958937
 21
12.6647688171
  0
LINE
  5
237
100
AcDbEntity
  8
0
100
AcDbLine
 62
7
  6
BYLAYER
 10
18.643463595
 20
27.0514454535
 11
18.643463595
 21
29.5245469683
  0
LINE
  5
238
100
AcDbEntity
  8
0
100
AcDbLine
 62
7
  6
BYLAYER
 10
18.643463595
 20
29.5245469683
 11
19.9257429068
 21
28.5782355105
  0
LINE
  5
239
100
AcDbEntity
  8
0
100
AcDbLine
 62
7
  6
BYLAYER
 10
19.9642210246
 20
28.8753672947
 11
18.890949938
 21
29.6674324222
  0
LINE
  5
23A
100
AcDbEntity
  8
0
100
AcDbLine
 62
7
  6
BYLAYER
 10
19.9869608857
 20
39.5073539235
 11
19.9869608857
 21
37.0578466721
  0
LINE
  5
23B
100
AcDbEntity
  8
0
100
AcDbLine
 62
7
  6
BYLAYER
 10
20.0576418298
 20
14.6447670727
 11
20.0576418298
 21
20.7395818964
  0
LINE
  5
23C
100
AcDbEntity
  8
0
100
AcDbLine
 62
7
  6
BYLAYER
 10
19.9257429068
 20
28.5782355105
 11
21.1435576319
 21
37.9823197745
  0
LINE
  5
23D
100
AcDbEntity
  8
0
100
AcDbLine
 62
7
  6
BYLAYER
 10
21.3480376916
 20
37.4875361029
 11
19.8785444871
 21
26.1399660366
  0
LINE
  5
23E
100
AcDbEntity
  8
0
100
AcDbLine
 62
7
  6
BYLAYER
 10
6.3043888817
 20
24.6672237081
 11
7.1305223603
 21
25.1441892473
  0
LINE
  5
23F
100
AcDbEntity
  8
0
100
AcDbLine
 62
7
  6
BYLAYER
 10
25.6253363547
 20
35.7199302598
 11
24.3171942559
 21
34.9646785752
  0
LINE
  5
240
100
AcDbEntity
  8
0
100
AcDbLine
 62
7
  6
BYLAYER
 10
28.4537517036
 20
37.3529068753
 11
29.7618938024
 21
38.10815856
  0
LINE
  5
241
100
AcDbEntity
  8
0
100
AcDbLine
 62
7
  6
BYLAYER
 10
25.5491675906
 20
35.4920005333
 11
24.2410254918
 21
34.7367488486
  0
LINE
  5
242
100
AcDbEntity
  8
0
100
AcDbLine
 62
7
  6
BYLAYER
 10
28.5741251751
 20
37.2384501841
 11
29.6857250383
 21
37.8802288334
  0
LINE
  5
243
100
AcDbEntity
  8
0
100
AcDbLine
 62
7
  6
BYLAYER
 10
15.6753542823
 20
19.5020270199
 11
15.1079108477
 21
18.5191807049
  0
LINE
  5
244
100
AcDbEntity
  8
0
100
AcDbLine
 62
7
  6
BYLAYER
 10
14.6836079186
 20
17.7473968071
 11
13.9765040814
 21
16.5226502361
  0
LINE
  5
245
100
AcDbEntity
  8
0
100
AcDbLine
 62
7
  6
BYLAYER
 10
18.643463595
 20
29.5245469683
 11
18.890949938
 21
29.6674324222
  0
LINE
  5
246
100
AcDbEntity
  8
0
100
AcDbLine
 62
7
  6
BYLAYER
 10
24.3171942559
 20
34.9646785752
 11
24.2410254918
 21
34.7367488486
  0
LINE
  5
247
100
AcDbEntity
  8
0
100
AcDbLine
 62
7
  6
BYLAYER
 10
25.6253363547
 20
35.7199302598
 11
25.5491675906
 21
35.4920005333
  0
LINE
  5
248
100
AcDbEntity
  8
0
100
AcDbLine
 62
7
  6
BYLAYER
 10
15.6028876553
 20
18.2334121767
 11
16.1703306298
 21
19.2162576948
  0
LINE
  5
249
100
AcDbEntity
  8
0
100
AcDbLine
 62
7
  6
BYLAYER
 10
24.9013325543
 20
42.9978527266
 11
24.9013325543
 21
40.1518591871
  0
LINE
  5
24A
100
AcDbEntity
  8
0
100
AcDbLine
 62
7
  6
BYLAYER
 10
24.9013325543
 20
29.0398567693
 11
24.9013325543
 21
24.381597616
  0
LINE
  5
24B
100
AcDbEntity
  8
0
100
AcDbLine
 62
7
  6
BYLAYER
 10
25.3232440336
 20
29.2834460214
 11
26.0638660201
 21
35.0026013455
  0
LINE
  5
24C
100
AcDbEntity
  8
0
100
AcDbLine
 62
7
  6
BYLAYER
 10
19.8785444871
 20
26.1399660366
 11
25.3232440336
 21
29.2834460214
  0
LINE
  5
24D
100
AcDbEntity
  8
0
100
AcDbLine
 62
7
  6
BYLAYER
 10
12.2440996803
 20
21.237968979
 11
12.4563213673
 21
21.3604944957
  0
LINE
  5
24E
100
AcDbEntity
  8
0
100
AcDbLine
 62
7
  6
BYLAYER
 10
29.6857250383
 20
37.8802288334
 11
29.7618938024
 21
38.10815856
  0
LINE
  5
24F
100
AcDbEntity
  8
0
100
AcDbLine
 62
7
  6
BYLAYER
 10
20.9517109026
 20
36.5008605908
 11
19.9869608857
 21
37.0578466721
  0
LINE
  5
250
100
AcDbEntity
  8
0
100
AcDbLine
 62
7
  6
BYLAYER
 10
24.2410254918
 20
34.7367488486
 11
21.3480376916
 21
37.4875361029
  0
LINE
  5
251
100
AcDbEntity
  8
0
100
AcDbLine
 62
7
  6
BYLAYER
 10
21.1435576319
 20
37.9823197745
 11
24.3171942559
 21
34.9646785752
  0
LINE
  5
252
100
AcDbEntity
  8
0
100
AcDbLine
 62
7
  6
BYLAYER
 10
25.5491675906
 20
35.4920005333
 11
35.3992814762
 21
26.1260544591
  0
LINE
  5
253
100
AcDbEntity
  8
0
100
AcDbLine
 62
7
  6
BYLAYER
 10
20.0576418298
 20
14.6447670727
 11
19.3505379925
 21
13.4200205017
  0
LINE
  5
254
100
AcDbEntity
  8
0
100
AcDbLine
 62
7
  6
BYLAYER
 10
17.8302941822
 20
20.2991560773
 11
24.9013325543
 21
24.381597616
  0
LINE
  5
255
100
AcDbEntity
  8
0
100
AcDbLine
 62
7
  6
BYLAYER
 10
6.6933160111
 20
34.6700039807
 11
5.5972850445
 21
34.4652597684
  0
LINE
  5
256
100
AcDbEntity
  8
0
100
AcDbLine
 62
7
  6
BYLAYER
 10
5.1023082369
 20
35.0581650509
 11
6.6933160111
 21
35.3553734724
  0
LINE
  5
257
100
AcDbEntity
  8
0
100
AcDbLine
 62
7
  6
BYLAYER
 10
19.9869608857
 20
39.5073539235
 11
21.401180336
 21
38.6908724144
  0
LINE
  5
258
100
AcDbEntity
  8
0
100
AcDbLine
 62
7
  6
BYLAYER
 10
8.461090324
 20
46.3658572281
 11
16.0625198693
 21
41.977269117
  0
LINE
  5
259
100
AcDbEntity
  8
0
100
AcDbLine
 62
7
  6
BYLAYER
 10
25.6253363547
 20
35.7199302598
 11
35.2399744891
 21
26.5778854738
  0
LINE
  5
25A
100
AcDbEntity
  8
0
100
AcDbLine
 62
7
  6
BYLAYER
 10
36.4979732623
 20
30.3423592686
 11
39.3263886111
 21
31.9753358841
  0
LINE
  5
25B
100
AcDbEntity
  8
0
100
AcDbLine
 62
7
  6
BYLAYER
 10
24.3835526454
 20
23.237132762
 11
17.3125142732
 21
19.1546912232
  0
LINE
  5
25C
100
AcDbEntity
  8
0
100
AcDbLine
 62
7
  6
BYLAYER
 10
36.7334490135
 20
30.1184579804
 11
39.5618643623
 21
31.7514345959
  0
LINE
  5
25D
100
AcDbEntity
  8
0
100
AcDbLine
 62
7
  6
BYLAYER
 10
13.9765040814
 20
16.5226502361
 11
12.6683619826
 21
15.7673985514
  0
LINE
  5
25E
100
AcDbEntity
  8
0
100
AcDbLine
 62
7
  6
BYLAYER
 10
12.2440996803
 20
15.5224520591
 11
10.9359575814
 21
14.7672003744
  0
LINE
  5
25F
100
AcDbEntity
  8
0
100
AcDbLine
 62
7
  6
BYLAYER
 10
22.7446658508
 20
41.0995061236
 11
24.1588853011
 21
40.2830246145
  0
LINE
  5
260
100
AcDbEntity
  8
0
100
AcDbLine
 62
7
  6
BYLAYER
 10
28.4537517036
 20
37.3529068753
 11
36.3361098857
 21
29.857994377
  0
LINE
  5
261
100
AcDbEntity
  8
0
100
AcDbLine
 62
7
  6
BYLAYER
 10
17.6181335914
 20
18.1353392446
 11
18.0423958937
 21
18.380285737
  0
LINE
  5
262
100
AcDbEntity
  8
0
100
AcDbLine
 62
7
  6
BYLAYER
 10
36.4979732623
 20
30.3423592686
 11
36.7334490135
 21
30.1184579804
  0
LINE
  5
263
100
AcDbEntity
  8
0
100
AcDbLine
 62
7
  6
BYLAYER
 10
29.7618938024
 20
38.10815856
 11
26.5882571785
 21
41.1257997593
  0
LINE
  5
264
100
AcDbEntity
  8
0
100
AcDbLine
 62
7
  6
BYLAYER
 10
35.3992814762
 20
26.1260544591
 11
38.227696825
 21
27.7590310746
  0
LINE
  5
265
100
AcDbEntity
  8
0
100
AcDbLine
 62
7
  6
BYLAYER
 10
39.3263886111
 20
31.9753358841
 11
39.5618643623
 21
31.7514345959
  0
LINE
  5
266
100
AcDbEntity
  8
0
100
AcDbLine
 62
7
  6
BYLAYER
 10
35.2399744891
 20
26.5778854738
 11
36.4979732623
 21
30.3423592686
  0
LINE
  5
267
100
AcDbEntity
  8
0
100
AcDbLine
 62
7
  6
BYLAYER
 10
36.7334490135
 20
30.1184579804
 11
35.3992814762
 21
26.1260544591
  0
LINE
  5
268
100
AcDbEntity
  8
0
100
AcDbLine
 62
7
  6
BYLAYER
 10
19.3505379925
 20
13.4200205017
 11
18.0423958937
 21
12.6647688171
  0
LINE
  5
269
100
AcDbEntity
  8
0
100
AcDbLine
 62
7
  6
BYLAYER
 10
17.6181335914
 20
12.4198223247
 11
16.3099914925
 21
11.6645706401
  0
LINE
  5
26A
100
AcDbEntity
  8
0
100
AcDbLine
 62
7
  6
BYLAYER
 10
15.5321286961
 20
50.4482987668
 11
23.1335582415
 21
46.0597106557
  0
LINE
  5
26B
100
AcDbEntity
  8
0
100
AcDbLine
 62
7
  6
BYLAYER
 10
39.5618643623
 20
31.7514345959
 11
38.227696825
 21
27.7590310746
  0
SPLINE
  5
26C
100
AcDbEntity
  8
0
100
AcDbSpline
 62
7
  6
BYLAYER
 70
0
 71
3
 72
15
 73
11
 74
0
 42
0.0000001
 43
0.0000001
 44
0.0000000001
 40
0.0
 40
0.0
 40
0.0
 40
0.0
 40
0.1484798001
 40
0.2894737872
 40
0.4227544065
 40
0.5486612341
 40
0.667997612
 40
0.7819338438
 40
0.8919884058
 40
1.0
 40
1.0
 40
1.0
 40
1.0
 10
15.5321286961
 20
50.4482987668
 30
0.0
 10
15.4757849793
 20
50.480828091
 30
0.0
 10
15.3632228273
 20
50.5397142437
 30
0.0
 10
15.1915330309
 20
50.6100262278
 30
0.0
 10
15.0228468353
 20
50.6592146426
 30
0.0
 10
14.8588522129
 20
50.6867176209
 30
0.0
 10
14.7010617265
 20
50.6921930725
 30
0.0
 10
14.5509698449
 20
50.6754263169
 30
0.0
 10
14.410146407
 20
50.6365339287
 30
0.0
 10
14.3231305325
 20
50.595757295
 30
0.0
 10
14.2821434807
 20
50.5720935494
 30
0.0
  0
SPLINE
  5
26D
100
AcDbEntity
  8
0
100
AcDbSpline
 62
7
  6
BYLAYER
 70
0
 71
3
 72
15
 73
11
 74
0
 42
0.0000001
 43
0.0000001
 44
0.0000000001
 40
0.0
 40
0.0
 40
0.0
 40
0.0
 40
0.1141474765
 40
0.2373368178
 40
0.3669776594
 40
0.5000010819
 40
0.633024354
 40
0.7626647561
 40
0.8858534048
 40
1.0
 40
1.0
 40
1.0
 40
1.0
 10
24.9013325543
 20
42.9978527266
 30
0.0
 10
24.9013325543
 20
43.1375827699
 30
0.0
 10
24.8757205747
 20
43.4283802084
 30
0.0
 10
24.7737108465
 20
43.867073325
 30
0.0
 10
24.6102197991
 20
44.3114244888
 30
0.0
 10
24.3914801574
 20
44.7447366151
 30
0.0
 10
24.1255890363
 20
45.1508250563
 30
0.0
 10
23.8225142505
 20
45.5145852494
 30
0.0
 10
23.4935995651
 20
45.8222710642
 30
0.0
 10
23.2545677587
 20
45.9898473588
 30
0.0
 10
23.1335582415
 20
46.0597106557
 30
0.0
  0
SPLINE
  5
26E
100
AcDbEntity
  8
0
100
AcDbSpline
 62
7
  6
BYLAYER
 70
0
 71
3
 72
13
 73
9
 74
0
 42
0.0000001
 43
0.0000001
 44
0.0000000001
 40
0.0
 40
0.0
 40
0.0
 40
0.0
 40
0.1081024583
 40
0.2182384672
 40
0.3322417187
 40
0.4516702562
 40
0.7107052391
 40
1.0
 40
1.0
 40
1.0
 40
1.0
 10
16.8125130493
 20
20.0207238823
 30
0.0
 10
16.8371055173
 20
20.0349267423
 30
0.0
 10
16.8843728726
 20
20.0679468932
 30
0.0
 10
16.9468572548
 20
20.1294141995
 30
0.0
 10
17.0006049939
 20
20.202370504
 30
0.0
 10
17.0615357761
 20
20.3169466933
 30
0.0
 10
17.1116988628
 20
20.4869202246
 30
0.0
 10
17.1231844571
 20
20.6313974482
 30
0.0
 10
17.1231844571
 20
20.7073968318
 30
0.0
  0
SPLINE
  5
26F
100
AcDbEntity
  8
0
100
AcDbSpline
 62
7
  6
BYLAYER
 70
0
 71
3
 72
13
 73
9
 74
0
 42
0.0000001
 43
0.0000001
 44
0.0000000001
 40
0.0
 40
0.0
 40
0.0
 40
0.0
 40
0.1081024583
 40
0.2182384672
 40
0.3322417187
 40
0.4516702562
 40
0.7107052391
 40
1.0
 40
1.0
 40
1.0
 40
1.0
 10
9.2110835039
 20
43.025567104
 30
0.0
 10
9.235675972
 20
43.0397699639
 30
0.0
 10
9.2829433273
 20
43.0727901148
 30
0.0
 10
9.3454277094
 20
43.1342574212
 30
0.0
 10
9.3991754486
 20
43.2072137257
 30
0.0
 10
9.4601062308
 20
43.3217899149
 30
0.0
 10
9.5102693175
 20
43.4917634462
 30
0.0
 10
9.5217549117
 20
43.6362406699
 30
0.0
 10
9.5217549117
 20
43.7122400535
 30
0.0
  0
SPLINE
  5
270
100
AcDbEntity
  8
0
100
AcDbSpline
 62
7
  6
BYLAYER
 70
0
 71
3
 72
15
 73
11
 74
0
 42
0.0000001
 43
0.0000001
 44
0.0000000001
 40
0.0
 40
0.0
 40
0.0
 40
0.0
 40
0.1080115942
 40
0.2180661562
 40
0.332002388
 40
0.4513387659
 40
0.5772455935
 40
0.7105262128
 40
0.8515201999
 40
1.0
 40
1.0
 40
1.0
 40
1.0
 10
17.3125050848
 20
19.1547071382
 30
0.0
 10
17.271518033
 20
19.1310433926
 30
0.0
 10
17.1845021585
 20
19.0902667588
 30
0.0
 10
17.0436787205
 20
19.0513743706
 30
0.0
 10
16.893586839
 20
19.0346076151
 30
0.0
 10
16.7357963526
 20
19.0400830667
 30
0.0
 10
16.5718017302
 20
19.067586045
 30
0.0
 10
16.4031155346
 20
19.1167744598
 30
0.0
 10
16.2314257382
 20
19.1870864438
 30
0.0
 10
16.1188635862
 20
19.2459725966
 30
0.0
 10
16.0625198693
 20
19.2785019208
 30
0.0
  0
SPLINE
  5
271
100
AcDbEntity
  8
0
100
AcDbSpline
 62
7
  6
BYLAYER
 70
0
 71
3
 72
15
 73
11
 74
0
 42
0.0000001
 43
0.0000001
 44
0.0000000001
 40
0.0
 40
0.0
 40
0.0
 40
0.0
 40
0.1080110861
 40
0.2180652169
 40
0.3320011628
 40
0.4513374338
 40
0.5772443465
 40
0.7105252324
 40
0.8515196519
 40
1.0
 40
1.0
 40
1.0
 40
1.0
 10
24.3835434569
 20
23.2371486769
 30
0.0
 10
24.4245314141
 20
23.2608129452
 30
0.0
 10
24.5033549228
 20
23.3157835785
 30
0.0
 10
24.6074508307
 20
23.418296477
 30
0.0
 10
24.6970189842
 20
23.5398997743
 30
0.0
 10
24.7711734946
 20
23.6792921133
 30
0.0
 10
24.8293529869
 20
23.8350718211
 30
0.0
 10
24.8710974451
 20
24.0057578204
 30
0.0
 10
24.8960494431
 20
24.1896072376
 30
0.0
 10
24.9013325543
 20
24.3165358804
 30
0.0
 10
24.9013325543
 20
24.381597616
 30
0.0
  0
SPLINE
  5
272
100
AcDbEntity
  8
0
100
AcDbSpline
 62
7
  6
BYLAYER
 70
0
 71
3
 72
15
 73
11
 74
0
 42
0.0000001
 43
0.0000001
 44
0.0000000001
 40
0.0
 40
0.0
 40
0.0
 40
0.0
 40
0.1141465952
 40
0.2373352439
 40
0.366975646
 40
0.4999989181
 40
0.6330223406
 40
0.7626631822
 40
0.8858525235
 40
1.0
 40
1.0
 40
1.0
 40
1.0
 10
8.461090324
 20
23.6670900319
 30
0.0
 10
8.3400808067
 20
23.7369533287
 30
0.0
 10
8.1010490004
 20
23.9045296234
 30
0.0
 10
7.772134315
 20
24.2122154382
 30
0.0
 10
7.4690595292
 20
24.5759756313
 30
0.0
 10
7.2031684081
 20
24.9820640725
 30
0.0
 10
6.9844287664
 20
25.4153761988
 30
0.0
 10
6.820937719
 20
25.8597273625
 30
0.0
 10
6.7189279908
 20
26.2984204792
 30
0.0
 10
6.6933160111
 20
26.5892179177
 30
0.0
 10
6.6933160111
 20
26.728947961
 30
0.0
  0
SPLINE
  5
273
100
AcDbEntity
  8
0
100
AcDbSpline
 62
7
  6
BYLAYER
 70
0
 71
3
 72
15
 73
11
 74
0
 42
0.0000001
 43
0.0000001
 44
0.0000000001
 40
0.0
 40
0.0
 40
0.0
 40
0.0
 40
0.1484803481
 40
0.2894747676
 40
0.4227556535
 40
0.5486625662
 40
0.6679988372
 40
0.7819347831
 40
0.8919889139
 40
1.0
 40
1.0
 40
1.0
 40
1.0
 10
6.6933160111
 20
45.3452030716
 30
0.0
 10
6.6933160111
 20
45.4102648072
 30
0.0
 10
6.6985991224
 20
45.5371934499
 30
0.0
 10
6.7235511204
 20
45.7210428671
 30
0.0
 10
6.7652955786
 20
45.8917288665
 30
0.0
 10
6.8234750708
 20
46.0475085743
 30
0.0
 10
6.8976295813
 20
46.1869009133
 30
0.0
 10
6.9871977347
 20
46.3085042106
 30
0.0
 10
7.0912936427
 20
46.4110171091
 30
0.0
 10
7.1701171514
 20
46.4659877424
 30
0.0
 10
7.2111051086
 20
46.4896520107
 30
0.0
  0
SPLINE
  5
274
100
AcDbEntity
  8
0
100
AcDbSpline
 62
7
  6
BYLAYER
 70
0
 71
3
 72
21
 73
17
 74
0
 42
0.0000001
 43
0.0000001
 44
0.0000000001
 40
0.0
 40
0.0
 40
0.0
 40
0.0
 40
0.0623711543
 40
0.1287900918
 40
0.1984177232
 40
0.2704146203
 40
0.4174559661
 40
0.5616826335
 40
0.6303108501
 40
0.6954246608
 40
0.7563979411
 40
0.8128595831
 40
0.8647811301
 40
0.9125792054
 40
0.9571719799
 40
1.0
 40
1.0
 40
1.0
 40
1.0
 10
9.5217549117
 20
43.7122400535
 30
0.0
 10
9.5217549117
 20
43.7744296374
 30
0.0
 10
9.5132763742
 20
43.9029264532
 30
0.0
 10
9.478656977
 20
44.0980449761
 30
0.0
 10
9.4222198578
 20
44.2980018851
 30
0.0
 10
9.318965205
 20
44.5670163141
 30
0.0
 10
9.1457002483
 20
44.8871563834
 30
0.0
 10
8.9235949016
 20
45.1715495047
 30
0.0
 10
8.7237206545
 20
45.3641315646
 30
0.0
 10
8.570525409
 20
45.4840286645
 30
0.0
 10
8.4148784221
 20
45.5792685767
 30
0.0
 10
8.2598926478
 20
45.6477655091
 30
0.0
 10
8.1086643653
 20
45.6879286575
 30
0.0
 10
7.9641657472
 20
45.6985972142
 30
0.0
 10
7.8296083394
 20
45.6788395792
 30
0.0
 10
7.7480764634
 20
45.6449918905
 30
0.0
 10
7.7110971441
 20
45.6236352665
 30
0.0
  0
SPLINE
  5
275
100
AcDbEntity
  8
0
100
AcDbSpline
 62
7
  6
BYLAYER
 70
0
 71
3
 72
21
 73
17
 74
0
 42
0.0000001
 43
0.0000001
 44
0.0000000001
 40
0.0
 40
0.0
 40
0.0
 40
0.0
 40
0.0623711543
 40
0.1287900918
 40
0.1984177232
 40
0.2704146203
 40
0.4174559661
 40
0.5616826335
 40
0.6303108501
 40
0.6954246608
 40
0.7563979411
 40
0.8128595831
 40
0.8647811301
 40
0.9125792054
 40
0.9571719799
 40
1.0
 40
1.0
 40
1.0
 40
1.0
 10
17.1231844571
 20
20.7073968318
 30
0.0
 10
17.1231844571
 20
20.7695864158
 30
0.0
 10
17.1147059195
 20
20.8980832316
 30
0.0
 10
17.0800865224
 20
21.0932017545
 30
0.0
 10
17.0236494032
 20
21.2931586634
 30
0.0
 10
16.9203947503
 20
21.5621730924
 30
0.0
 10
16.7471297936
 20
21.8823131617
 30
0.0
 10
16.5250244469
 20
22.1667062831
 30
0.0
 10
16.3251501999
 20
22.359288343
 30
0.0
 10
16.1719549543
 20
22.4791854429
 30
0.0
 10
16.0163079674
 20
22.5744253551
 30
0.0
 10
15.8613221932
 20
22.6429222874
 30
0.0
 10
15.7100939106
 20
22.6830854359
 30
0.0
 10
15.5655952925
 20
22.6937539926
 30
0.0
 10
15.4310378848
 20
22.6739963575
 30
0.0
 10
15.3495060087
 20
22.6401486689
 30
0.0
 10
15.3125266894
 20
22.6187920449
 30
0.0
  0
SPLINE
  5
276
100
AcDbEntity
  8
0
100
AcDbSpline
 62
7
  6
BYLAYER
 70
0
 71
3
 72
10
 73
6
 74
0
 42
0.0000001
 43
0.0000001
 44
0.0000000001
 40
0.0
 40
0.0
 40
0.0
 40
0.0
 40
0.5229732986
 40
0.7686987648
 40
1.0
 40
1.0
 40
1.0
 40
1.0
 10
24.5340339553
 20
39.9420432546
 30
0.0
 10
24.4798737202
 20
40.0124708416
 30
0.0
 10
24.3916707605
 20
40.1100315674
 30
0.0
 10
24.2606086869
 20
40.2184338869
 30
0.0
 10
24.1929153774
 20
40.2633777853
 30
0.0
 10
24.1588853011
 20
40.2830246145
 30
0.0
  0
SPLINE
  5
277
100
AcDbEntity
  8
0
100
AcDbSpline
 62
7
  6
BYLAYER
 70
0
 71
3
 72
13
 73
9
 74
0
 42
0.0000001
 43
0.0000001
 44
0.0000000001
 40
0.0
 40
0.0
 40
0.0
 40
0.0
 40
0.1081024583
 40
0.2182384672
 40
0.3322417187
 40
0.4516702562
 40
0.7107052391
 40
1.0
 40
1.0
 40
1.0
 40
1.0
 10
7.7110971441
 20
45.6236352665
 30
0.0
 10
7.686504676
 20
45.6094324066
 30
0.0
 10
7.6392373207
 20
45.5764122557
 30
0.0
 10
7.5767529386
 20
45.5149449493
 30
0.0
 10
7.5230051994
 20
45.4419886449
 30
0.0
 10
7.4620744172
 20
45.3274124556
 30
0.0
 10
7.4119113306
 20
45.1574389243
 30
0.0
 10
7.4004257363
 20
45.0129617006
 30
0.0
 10
7.4004257363
 20
44.936962317
 30
0.0
  0
SPLINE
  5
278
100
AcDbEntity
  8
0
100
AcDbSpline
 62
7
  6
BYLAYER
 70
0
 71
3
 72
13
 73
9
 74
0
 42
0.0000001
 43
0.0000001
 44
0.0000000001
 40
0.0
 40
0.0
 40
0.0
 40
0.0
 40
0.1081024583
 40
0.2182384672
 40
0.3322417187
 40
0.4516702562
 40
0.7107052391
 40
1.0
 40
1.0
 40
1.0
 40
1.0
 10
15.3125266894
 20
22.6187920449
 30
0.0
 10
15.2879342213
 20
22.6045891849
 30
0.0
 10
15.2406668661
 20
22.5715690341
 30
0.0
 10
15.1781824839
 20
22.5101017277
 30
0.0
 10
15.1244347447
 20
22.4371454232
 30
0.0
 10
15.0635039625
 20
22.322569234
 30
0.0
 10
15.0133408759
 20
22.1525957026
 30
0.0
 10
15.0018552816
 20
22.008118479
 30
0.0
 10
15.0018552816
 20
21.9321190954
 30
0.0
  0
SPLINE
  5
279
100
AcDbEntity
  8
0
100
AcDbSpline
 62
7
  6
BYLAYER
 70
0
 71
3
 72
21
 73
17
 74
0
 42
0.0000001
 43
0.0000001
 44
0.0000000001
 40
0.0
 40
0.0
 40
0.0
 40
0.0
 40
0.0623711543
 40
0.1287900918
 40
0.1984177232
 40
0.2704146203
 40
0.4174559661
 40
0.5616826335
 40
0.6303108501
 40
0.6954246608
 40
0.7563979411
 40
0.8128595831
 40
0.8647811301
 40
0.9125792054
 40
0.9571719799
 40
1.0
 40
1.0
 40
1.0
 40
1.0
 10
7.4004257363
 20
44.936962317
 30
0.0
 10
7.4004257363
 20
44.8747727331
 30
0.0
 10
7.4089042738
 20
44.7462759173
 30
0.0
 10
7.443523671
 20
44.5511573944
 30
0.0
 10
7.4999607902
 20
44.3512004854
 30
0.0
 10
7.603215443
 20
44.0821860564
 30
0.0
 10
7.7764803997
 20
43.7620459871
 30
0.0
 10
7.9985857464
 20
43.4776528658
 30
0.0
 10
8.1984599935
 20
43.2850708059
 30
0.0
 10
8.351655239
 20
43.165173706
 30
0.0
 10
8.5073022259
 20
43.0699337938
 30
0.0
 10
8.6622880002
 20
43.0014368614
 30
0.0
 10
8.8135162827
 20
42.961273713
 30
0.0
 10
8.9580149008
 20
42.9506051563
 30
0.0
 10
9.0925723086
 20
42.9703627914
 30
0.0
 10
9.1741041846
 20
43.00421048
 30
0.0
 10
9.2110835039
 20
43.025567104
 30
0.0
  0
SPLINE
  5
27A
100
AcDbEntity
  8
0
100
AcDbSpline
 62
7
  6
BYLAYER
 70
0
 71
3
 72
21
 73
17
 74
0
 42
0.0000001
 43
0.0000001
 44
0.0000000001
 40
0.0
 40
0.0
 40
0.0
 40
0.0
 40
0.0623711543
 40
0.1287900918
 40
0.1984177232
 40
0.2704146203
 40
0.4174559661
 40
0.5616826335
 40
0.6303108501
 40
0.6954246608
 40
0.7563979411
 40
0.8128595831
 40
0.8647811301
 40
0.9125792054
 40
0.9571719799
 40
1.0
 40
1.0
 40
1.0
 40
1.0
 10
15.0018552816
 20
21.9321190954
 30
0.0
 10
15.0018552816
 20
21.8699295114
 30
0.0
 10
15.0103338192
 20
21.7414326957
 30
0.0
 10
15.0449532163
 20
21.5463141727
 30
0.0
 10
15.1013903355
 20
21.3463572638
 30
0.0
 10
15.2046449883
 20
21.0773428348
 30
0.0
 10
15.3779099451
 20
20.7572027655
 30
0.0
 10
15.6000152918
 20
20.4728096442
 30
0.0
 10
15.7998895388
 20
20.2802275843
 30
0.0
 10
15.9530847844
 20
20.1603304844
 30
0.0
 10
16.1087317712
 20
20.0650905721
 30
0.0
 10
16.2637175455
 20
19.9965936398
 30
0.0
 10
16.4149458281
 20
19.9564304913
 30
0.0
 10
16.5594444461
 20
19.9457619347
 30
0.0
 10
16.6940018539
 20
19.9655195697
 30
0.0
 10
16.77553373
 20
19.9993672583
 30
0.0
 10
16.8125130493
 20
20.0207238823
 30
0.0
  0
SPLINE
  5
27B
100
AcDbEntity
  8
0
100
AcDbSpline
 62
7
  6
BYLAYER
 70
0
 71
3
 72
10
 73
6
 74
0
 42
0.0000001
 43
0.0000001
 44
0.0000000001
 40
0.0
 40
0.0
 40
0.0
 40
0.0
 40
0.2313012855
 40
0.477026701
 40
1.0
 40
1.0
 40
1.0
 40
1.0
 10
21.401180336
 20
38.6908724144
 30
0.0
 10
21.4352103161
 20
38.6712256407
 30
0.0
 10
21.5029034329
 20
38.6262819008
 30
0.0
 10
21.6339651459
 20
38.5178799577
 30
0.0
 10
21.7221679046
 20
38.4203196082
 30
0.0
 10
21.7763280411
 20
38.3498922862
 30
0.0
  0
SPLINE
  5
27C
100
AcDbEntity
  8
0
100
AcDbSpline
 62
7
  6
BYLAYER
 70
0
 71
3
 72
15
 73
11
 74
0
 42
0.0000001
 43
0.0000001
 44
0.0000000001
 40
0.0
 40
0.0
 40
0.0
 40
0.0
 40
0.1080115942
 40
0.2180661562
 40
0.332002388
 40
0.4513387659
 40
0.5772455935
 40
0.7105262128
 40
0.8515201999
 40
1.0
 40
1.0
 40
1.0
 40
1.0
 10
7.2111051086
 20
46.4896520107
 30
0.0
 10
7.2520921603
 20
46.5133157563
 30
0.0
 10
7.3391080349
 20
46.55409239
 30
0.0
 10
7.4799314728
 20
46.5929847782
 30
0.0
 10
7.6300233543
 20
46.6097515338
 30
0.0
 10
7.7878138408
 20
46.6042760822
 30
0.0
 10
7.9518084632
 20
46.5767731039
 30
0.0
 10
8.1204946587
 20
46.5275846891
 30
0.0
 10
8.2921844551
 20
46.457272705
 30
0.0
 10
8.4047466071
 20
46.3983865523
 30
0.0
 10
8.461090324
 20
46.3658572281
 30
0.0
  0
SPLINE
  5
27D
100
AcDbEntity
  8
0
100
AcDbSpline
 62
7
  6
BYLAYER
 70
0
 71
3
 72
15
 73
11
 74
0
 42
0.0000001
 43
0.0000001
 44
0.0000000001
 40
0.0
 40
0.0
 40
0.0
 40
0.0
 40
0.1141465952
 40
0.2373352439
 40
0.366975646
 40
0.4999989181
 40
0.6330223406
 40
0.7626631822
 40
0.8858525235
 40
1.0
 40
1.0
 40
1.0
 40
1.0
 10
16.0625198693
 20
41.977269117
 30
0.0
 10
16.1835293866
 20
41.9074058201
 30
0.0
 10
16.4225611929
 20
41.7398295255
 30
0.0
 10
16.7514758784
 20
41.4321437107
 30
0.0
 10
17.0545506641
 20
41.0683835176
 30
0.0
 10
17.3204417852
 20
40.6622950764
 30
0.0
 10
17.539181427
 20
40.2289829501
 30
0.0
 10
17.7026724743
 20
39.7846317863
 30
0.0
 10
17.8046822025
 20
39.3459386697
 30
0.0
 10
17.8302941822
 20
39.0551412312
 30
0.0
 10
17.8302941822
 20
38.9154111879
 30
0.0
  0
SPLINE
  5
27E
100
AcDbEntity
  8
0
100
AcDbSpline
 62
7
  6
BYLAYER
 70
0
 71
3
 72
15
 73
11
 74
0
 42
0.0000001
 43
0.0000001
 44
0.0000000001
 40
0.0
 40
0.0
 40
0.0
 40
0.0
 40
0.1484803481
 40
0.2894747676
 40
0.4227556535
 40
0.5486625662
 40
0.6679988372
 40
0.7819347831
 40
0.8919889139
 40
1.0
 40
1.0
 40
1.0
 40
1.0
 10
17.8302941822
 20
20.2991560773
 30
0.0
 10
17.8302941822
 20
20.2340943417
 30
0.0
 10
17.825011071
 20
20.1071656989
 30
0.0
 10
17.8000590729
 20
19.9233162817
 30
0.0
 10
17.7583146147
 20
19.7526302824
 30
0.0
 10
17.7001351225
 20
19.5968505746
 30
0.0
 10
17.625980612
 20
19.4574582355
 30
0.0
 10
17.5364124586
 20
19.3358549383
 30
0.0
 10
17.4323165507
 20
19.2333420398
 30
0.0
 10
17.353493042
 20
19.1783714065
 30
0.0
 10
17.3125050848
 20
19.1547071382
 30
0.0
  0
ENDSEC
  0
SECTION
  2
OBJECTS
  0
DICTIONARY
  5
C
100
AcDbDictionary
280
0
281
1
  3
ACAD_GROUP
350
D
  3
ACAD_MLINESTYLE
350
17
  3
ACAD_LAYOUT
350
1A
  3
ACAD_PLOTSETTINGS
350
19
  3
ACAD_PLOTSTYLENAME
350
E
  0
DICTIONARY
  5
D
102
{ACAD_REACTORS
330
C
102
}
100
AcDbDictionary
280
0
281
1
  0
ACDBDICTIONARYWDFLT
  5
E
102
{ACAD_REACTORS
330
C
102
}
100
AcDbDictionary
281
1
  3
Normal
350
F
100
AcDbDictionaryWithDefault
340
F
  0
DICTIONARY
  5
17
102
{ACAD_REACTORS
330
C
102
}
100
AcDbDictionary
280
0
281
1
  3
Standard
350
18
  0
DICTIONARY
  5
19
102
{ACAD_REACTORS
330
C
102
}
100
AcDbDictionary
281
1
  0
DICTIONARY
  5
1A
102
{ACAD_REACTORS
330
C
102
}
100
AcDbDictionary
281
1
  3
Model
350
27F
  3
Layout1
350
280
  0
ACDBPLACEHOLDER
  5
F
102
{ACAD_REACTORS
330
E
102
}
  0
MLINESTYLE
  5
18
102
{ACAD_REACTORS
330
17
102
}
100
AcDbMlineStyle
  2
STANDARD
 70
0
  3

 62
256
 51
90.0
 52
90.0
 71
2
 49
0.5
 62
256
  6
BYLAYER
 49
-0.5
 62
256
  6
BYLAYER
  0
LAYOUT
  5
27F
102
{ACAD_REACTORS
330
1A
102
}
100
AcDbPlotSettings
  1

  2
none_device
  4

  6

 40
0.0
 41
0.0
 42
0.0
 43
0.0
 44
210.0
 45
297.0
 46
0.0
 47
0.0
 48
0.0
 49
0.0
140
0.0
141
0.0
142
1.0
143
1.0
 70
1024
 72
1
 73
0
 74
0
  7

 75
0
147
1.0
148
0.0
149
0.0
100
AcDbLayout
  1
Model
 70
0
 71
0
 10
0.0
 20
0.0
 11
210.0
 21
297.0
 12
0.0
 22
0.0
 32
0.0
 14
0.0
 24
0.0
 34
0.0
 15
0.0
 25
0.0
 35
0.0
146
0.0
 13
0.0
 23
0.0
 33
0.0
 16
1.0
 26
0.0
 36
0.0
 17
0.0
 27
1.0
 37
0.0
 76
0
330
210
345
0
346
0
  0
LAYOUT
  5
280
102
{ACAD_REACTORS
330
1A
102
}
100
AcDbPlotSettings
  1

  2
none_device
  4

  6

 40
0.0
 41
0.0
 42
0.0
 43
0.0
 44
210.0
 45
297.0
 46
0.0
 47
0.0
 48
0.0
 49
0.0
140
0.0
141
0.0
142
1.0
143
1.0
 70
0
 72
1
 73
0
 74
0
  7

 75
0
147
1.0
148
0.0
149
0.0
100
AcDbLayout
  1
Layout1
 70
0
 71
1
 10
0.0
 20
0.0
 11
210.0
 21
297.0
 12
0.0
 22
0.0
 32
0.0
 14
0.0
 24
0.0
 34
0.0
 15
0.0
 25
0.0
 35
0.0
146
0.0
 13
0.0
 23
0.0
 33
0.0
 16
1.0
 26
0.0
 36
0.0
 17
0.0
 27
1.0
 37
0.0
 76
0
330
211
345
0
346
0
  0
ENDSEC
  0
EOF
