999
DXF file: C:\Users\sesa63760\Dev\_Creo\CAD\MCADUE0001293_3D-CAD\drw0001_2.dxf
999
Pro/ENGINEER 2019471 by Parametric Technology Corporation
  0
SECTION
  2
HEADER
  9
$ACADVER
  1
AC1024
  9
$DWGCODEPAGE
  3
ANSI_1252
  9
$EXTMAX
 10
377.5665148215
 20
533.9869281047
 30
0.0
  9
$EXTMIN
 10
0.0
 20
0.0
 30
0.0
  9
$LIMMIN
 10
0.0
 20
0.0
  9
$LIMMAX
 10
377.5665148215
 20
533.9869281047
  9
$VIEWCTR
 10
188.7832574107
 20
266.9934640523
  9
$VIEWSIZE
 40
533.9869281047
  9
$CLAYER
  8
0
  9
$LTSCALE
 40
34.808036795
  9
$CELTYPE
  6
BYLAYER
  9
$DIMSCALE
 40
1.0
  9
$DIMASZ
 40
4.4948394622
  9
$DIMEXO
 40
1.0
  9
$DIMDLI
 40
24.0491890583
  9
$DIMEXE
 40
1.0
  9
$DIMCEN
 40
5.6958605664
  9
$DIMLFAC
 40
1.0
  9
$DIMBLK
  1
_FILLED
  9
$DIMALT
 70
0
  9
$DIMALTF
 40
0.0393700787
  9
$DIMTXT
 40
6.292775247
  9
$DIMTOL
 70
1
  9
$DIMLIM
 70
0
  9
$DIMTFAC
 40
1.0
  9
$DIMTP
 40
0.01
  9
$DIMTM
 40
0.01
  9
$DIMGAP
 40
0.625
  9
$DIMDSEP
 70
46
  9
$AUNITS
 70
0
  9
$PDMODE
 70
3
  9
$PDSIZE
 40
0.3125
  9
$HANDSEED
  5
24F
  9
$TILEMODE
 70
1
  9
$MEASUREMENT
 70
1
  9
$INSUNITS
 70
4
  0
ENDSEC
  0
SECTION
  2
CLASSES
  0
CLASS
  1
ACDBDICTIONARYWDFLT
  2
AcDbDictionaryWithDefault
  3
AutoCAD 2000
 90
0
 91
1
280
0
281
0
  0
CLASS
  1
ACDBPLACEHOLDER
  2
AcDbPlaceHolder
  3
AutoCAD 2000
 90
0
 91
1
280
0
281
0
  0
CLASS
  1
LAYOUT
  2
AcDbLayout
  3
AutoCAD 2000
 90
0
 91
0
280
0
281
0
  0
ENDSEC
  0
SECTION
  2
TABLES
  0
TABLE
  2
VPORT
  5
8
100
AcDbSymbolTable
 70
2
  0
VPORT
  5
1F4
100
AcDbSymbolTableRecord
100
AcDbViewportTableRecord
  2
*ACTIVE
 70
0
 10
0.0
 20
0.0
 11
1.0
 21
1.0
 12
188.7832574107
 22
266.9934640523
 13
0.0
 23
0.0
 14
1.0
 24
1.0
 15
0.0
 25
0.0
 16
0.0
 26
0.0
 36
1.0
 17
0.0
 27
0.0
 37
0.0
 40
533.9869281047
 41
0.7070707071
 42
50.0
 43
0.0
 44
0.0
 50
0.0
 51
0.0
 71
0
 72
100
 73
1
 74
1
 75
0
 76
0
 77
0
 78
0
  0
ENDTAB
  0
TABLE
  2
LTYPE
  5
5
100
AcDbSymbolTable
 70
6
  0
LTYPE
  5
14
100
AcDbSymbolTableRecord
100
AcDbLinetypeTableRecord
  2
BYBLOCK
 70
0
  3

 72
65
 73
0
 40
0.0
  0
LTYPE
  5
15
100
AcDbSymbolTableRecord
100
AcDbLinetypeTableRecord
  2
BYLAYER
 70
0
  3

 72
65
 73
0
 40
0.0
  0
LTYPE
  5
16
100
AcDbSymbolTableRecord
100
AcDbLinetypeTableRecord
  2
CONTINUOUS
 70
64
  3
Solid line
 72
65
 73
0
 40
0.0
  0
LTYPE
  5
1F5
100
AcDbSymbolTableRecord
100
AcDbLinetypeTableRecord
  2
CENTER
 70
64
  3
____ _ ____ _ ____ _ ____ _ ____ _ ____ _ ____
 72
65
 73
4
 40
0.6
 49
0.375
 74
0
 49
-0.075
 74
0
 49
0.075
 74
0
 49
-0.075
 74
0
  0
LTYPE
  5
1F6
100
AcDbSymbolTableRecord
100
AcDbLinetypeTableRecord
  2
HIDDEN
 70
64
  3
- - - - - - - - - - - - - - - - - - - -
 72
65
 73
2
 40
0.2
 49
0.1
 74
0
 49
-0.1
 74
0
  0
LTYPE
  5
1F7
100
AcDbSymbolTableRecord
100
AcDbLinetypeTableRecord
  2
PHANTOM
 70
64
  3
_____ _ _ _____ _ _ _____ _ _ _____
 72
65
 73
6
 40
0.8
 49
0.45
 74
0
 49
-0.05
 74
0
 49
0.1
 74
0
 49
-0.05
 74
0
 49
0.1
 74
0
 49
-0.05
 74
0
  0
LTYPE
  5
1F8
100
AcDbSymbolTableRecord
100
AcDbLinetypeTableRecord
  2
DOT
 70
64
  3
. . . . . . . . . . . . . . . . . . . .
 72
65
 73
2
 40
0.2
 49
0.1
 74
0
 49
-0.1
 74
0
  0
LTYPE
  5
1F9
100
AcDbSymbolTableRecord
100
AcDbLinetypeTableRecord
  2
DASHED
 70
64
  3
- - - - - - - - - - - - - - - - - - - -
 72
65
 73
2
 40
0.2
 49
0.1
 74
0
 49
-0.1
 74
0
  0
ENDTAB
  0
TABLE
  2
LAYER
  5
2
100
AcDbSymbolTable
 70
36
  0
LAYER
  5
10
100
AcDbSymbolTableRecord
100
AcDbLayerTableRecord
  2
0
 70
0
 62
7
  6
CONTINUOUS
370
-3
390
F
  0
LAYER
  5
1FA
100
AcDbSymbolTableRecord
100
AcDbLayerTableRecord
  2
DEFAULT_1
 70
0
 62
7
  6
CENTER
370
-3
390
F
  0
LAYER
  5
1FB
100
AcDbSymbolTableRecord
100
AcDbLayerTableRecord
  2
DEFAULT_2
 70
0
 62
8
  6
HIDDEN
370
-3
390
F
  0
LAYER
  5
1FC
100
AcDbSymbolTableRecord
100
AcDbLayerTableRecord
  2
DEFAULT_3
 70
0
 62
7
  6
PHANTOM
370
-3
390
F
  0
LAYER
  5
1FD
100
AcDbSymbolTableRecord
100
AcDbLayerTableRecord
  2
00_COMPONENTS
 70
0
 62
7
  6
CONTINUOUS
370
-3
390
F
  0
LAYER
  5
1FE
100
AcDbSymbolTableRecord
100
AcDbLayerTableRecord
  2
01_1_DEFAULT_DATUMS
 70
0
 62
7
  6
CONTINUOUS
370
-3
390
F
  0
LAYER
  5
1FF
100
AcDbSymbolTableRecord
100
AcDbLayerTableRecord
  2
01_PLANES
 70
0
 62
7
  6
CONTINUOUS
370
-3
390
F
  0
LAYER
  5
200
100
AcDbSymbolTableRecord
100
AcDbLayerTableRecord
  2
02_COORD_SYS
 70
0
 62
7
  6
CONTINUOUS
370
-3
390
F
  0
LAYER
  5
201
100
AcDbSymbolTableRecord
100
AcDbLayerTableRecord
  2
03_AXES
 70
0
 62
7
  6
CONTINUOUS
370
-3
390
F
  0
LAYER
  5
202
100
AcDbSymbolTableRecord
100
AcDbLayerTableRecord
  2
04_POINTS
 70
0
 62
7
  6
CONTINUOUS
370
-3
390
F
  0
LAYER
  5
203
100
AcDbSymbolTableRecord
100
AcDbLayerTableRecord
  2
05_CURVES
 70
0
 62
7
  6
CONTINUOUS
370
-3
390
F
  0
LAYER
  5
204
100
AcDbSymbolTableRecord
100
AcDbLayerTableRecord
  2
06_SURFS
 70
0
 62
7
  6
CONTINUOUS
370
-3
390
F
  0
LAYER
  5
205
100
AcDbSymbolTableRecord
100
AcDbLayerTableRecord
  2
07_COSMETICS
 70
0
 62
7
  6
CONTINUOUS
370
-3
390
F
  0
LAYER
  5
206
100
AcDbSymbolTableRecord
100
AcDbLayerTableRecord
  2
10_NOTES
 70
0
 62
7
  6
CONTINUOUS
370
-3
390
F
  0
LAYER
  5
207
100
AcDbSymbolTableRecord
100
AcDbLayerTableRecord
  2
11_NOTES_PUB
 70
0
 62
7
  6
CONTINUOUS
370
-3
390
F
  0
LAYER
  5
208
100
AcDbSymbolTableRecord
100
AcDbLayerTableRecord
  2
13_REF_GTOL
 70
0
 62
7
  6
CONTINUOUS
370
-3
390
F
  0
LAYER
  5
209
100
AcDbSymbolTableRecord
100
AcDbLayerTableRecord
  2
16_MISC
 70
0
 62
7
  6
CONTINUOUS
370
-3
390
F
  0
LAYER
  5
20A
100
AcDbSymbolTableRecord
100
AcDbLayerTableRecord
  2
17_NO_PRINT
 70
0
 62
7
  6
CONTINUOUS
370
-3
390
F
  0
LAYER
  5
20B
100
AcDbSymbolTableRecord
100
AcDbLayerTableRecord
  2
18_DATUM_CAMS_JOINTS
 70
0
 62
7
  6
CONTINUOUS
370
-3
390
F
  0
LAYER
  5
20C
100
AcDbSymbolTableRecord
100
AcDbLayerTableRecord
  2
19_DATUM_FUNCTIONAL
 70
0
 62
7
  6
CONTINUOUS
370
-3
390
F
  0
LAYER
  5
20D
100
AcDbSymbolTableRecord
100
AcDbLayerTableRecord
  2
20_DATUM_KINEMATIC_SCHEME
 70
0
 62
7
  6
CONTINUOUS
370
-3
390
F
  0
ENDTAB
  0
TABLE
  2
STYLE
  5
3
100
AcDbSymbolTable
 70
1
  0
STYLE
  5
11
100
AcDbSymbolTableRecord
100
AcDbTextStyleTableRecord
  2
STANDARD
 70
0
 40
0.0
 41
0.8
 50
0.0
 71
0
 42
0.2
  3
txt
  4

  0
STYLE
  5
20E
100
AcDbSymbolTableRecord
100
AcDbTextStyleTableRecord
  2
TEXTSTYLE_1
 70
0
 40
0.0
 41
0.8
 50
0.0
 71
0
 42
0.2
  3
gdt
  4

  0
ENDTAB
  0
TABLE
  2
VIEW
  5
6
100
AcDbSymbolTable
 70
0
  0
ENDTAB
  0
TABLE
  2
UCS
  5
7
100
AcDbSymbolTable
 70
0
  0
ENDTAB
  0
TABLE
  2
APPID
  5
9
100
AcDbSymbolTable
 70
1
  0
APPID
  5
20F
100
AcDbSymbolTableRecord
100
AcDbRegAppTableRecord
  2
ACAD
 70
0
  0
ENDTAB
  0
TABLE
  2
BLOCK_RECORD
  5
1
100
AcDbSymbolTable
 70
0
  0
BLOCK_RECORD
  5
210
100
AcDbSymbolTableRecord
100
AcDbBlockTableRecord
  2
*Model_Space
  0
BLOCK_RECORD
  5
211
100
AcDbSymbolTableRecord
100
AcDbBlockTableRecord
  2
*Paper_Space
  0
BLOCK_RECORD
  5
212
100
AcDbSymbolTableRecord
100
AcDbBlockTableRecord
  2
_FILLED
  0
ENDTAB
  0
TABLE
  2
DIMSTYLE
  5
A
100
AcDbSymbolTable
 70
1
100
AcDbDimStyleTable
 71
0
  0
DIMSTYLE
105
213
100
AcDbSymbolTableRecord
100
AcDbDimStyleTableRecord
  2
STANDARD
 70
0
  3

  4

 40
1.0
 41
4.4948394622
 42
1.0
 43
0.38
 44
1.0
 45
0.0
 46
0.0
 47
0.01
 48
0.01
140
6.292775247
141
0.09
142
0.0
143
25.4
144
1.0
145
0.0
146
1.0
147
0.625
 71
1
 72
0
 73
0
 74
0
 75
0
 76
0
 77
1
 78
8
 79
2
170
0
171
1
172
0
173
0
174
0
175
0
176
0
177
0
178
0
270
2
179
2
271
2
272
2
273
2
274
2
275
0
280
0
281
0
282
0
283
1
284
8
285
0
286
0
287
3
288
0
340
11
278
46
341
212
342
212
343
212
344
212
  0
ENDTAB
  0
ENDSEC
  0
SECTION
  2
BLOCKS
  0
BLOCK
  5
20
100
AcDbEntity
  8
0
100
AcDbBlockBegin
  2
*Model_Space
 70
0
 10
0.0
 20
0.0
 30
0.0
  3
*Model_Space
  1

  0
ENDBLK
  5
21
100
AcDbEntity
  8
0
100
AcDbBlockEnd
  0
BLOCK
  5
1C
100
AcDbEntity
  8
0
100
AcDbBlockBegin
  2
*Paper_Space
 70
0
 10
0.0
 20
0.0
 30
0.0
  3
*Paper_Space
  1

  0
ENDBLK
  5
1D
100
AcDbEntity
  8
0
100
AcDbBlockEnd
  0
BLOCK
  5
214
100
AcDbEntity
  8
0
100
AcDbBlockBegin
  2
_FILLED
 70
64
 10
0.0
 20
0.0
  3
_FILLED
  1

  0
SOLID
  5
215
100
AcDbEntity
  8
0
  6
BYBLOCK
 62
0
100
AcDbTrace
 10
0.0
 20
0.0
 11
-1.0
 21
0.25
 12
-1.0
 22
-0.25
 13
-1.0
 23
-0.25
  0
ENDBLK
  5
216
100
AcDbEntity
  8
0
  6
BYBLOCK
 62
0
100
AcDbBlockEnd
  0
ENDSEC
  0
SECTION
  2
ENTITIES
  0
LINE
  5
217
100
AcDbEntity
  8
0
100
AcDbLine
 62
7
  6
CONTINUOUS
 10
41.3976364957
 20
66.0130718955
 11
341.3976364957
 21
66.0130718955
  0
LINE
  5
218
100
AcDbEntity
  8
0
100
AcDbLine
 62
7
  6
CONTINUOUS
 10
339.1976364957
 20
68.2130718955
 11
43.5976364957
 21
68.2130718955
  0
LINE
  5
219
100
AcDbEntity
  8
0
100
AcDbLine
 62
7
  6
CONTINUOUS
 10
41.3976364957
 20
466.0130718904
 11
41.3976364957
 21
66.0130719006
  0
LINE
  5
21A
100
AcDbEntity
  8
0
100
AcDbLine
 62
7
  6
CONTINUOUS
 10
43.5976364957
 20
68.2130718955
 11
43.5976364957
 21
463.8130718955
  0
LINE
  5
21B
100
AcDbEntity
  8
0
100
AcDbLine
 62
7
  6
CONTINUOUS
 10
339.1976364957
 20
463.8130718955
 11
339.1976364957
 21
68.2130718955
  0
LINE
  5
21C
100
AcDbEntity
  8
0
100
AcDbLine
 62
7
  6
CONTINUOUS
 10
341.3976364957
 20
66.0130719006
 11
341.3976364957
 21
466.0130718904
  0
LINE
  5
21D
100
AcDbEntity
  8
0
100
AcDbLine
 62
7
  6
CONTINUOUS
 10
43.5976364957
 20
463.8130718955
 11
339.1976364957
 21
463.8130718955
  0
LINE
  5
21E
100
AcDbEntity
  8
0
100
AcDbLine
 62
7
  6
CONTINUOUS
 10
341.3976364957
 20
466.0130718955
 11
41.3976364957
 21
466.0130718955
  0
CIRCLE
  5
21F
100
AcDbEntity
  8
0
100
AcDbCircle
 62
7
  6
CONTINUOUS
 10
63.3976364957
 20
444.0130718955
 40
6.5
  0
CIRCLE
  5
220
100
AcDbEntity
  8
0
100
AcDbCircle
 62
7
  6
CONTINUOUS
 10
319.3976364957
 20
444.0130718955
 40
6.5
  0
CIRCLE
  5
221
100
AcDbEntity
  8
0
100
AcDbCircle
 62
7
  6
CONTINUOUS
 10
63.3976364957
 20
88.0130718955
 40
6.5
  0
CIRCLE
  5
222
100
AcDbEntity
  8
0
100
AcDbCircle
 62
7
  6
CONTINUOUS
 10
319.3976364957
 20
88.0130718955
 40
6.5
  0
ARC
  5
223
100
AcDbEntity
  8
0
100
AcDbCircle
 62
7
  6
CONTINUOUS
 10
343.8141666737
 20
69.8177439443
 40
4.7279511714
100
AcDbArc
 50
219.5742244801
 51
221.949520503
  0
ARC
  5
224
100
AcDbEntity
  8
0
100
AcDbCircle
 62
7
  6
CONTINUOUS
 10
38.9811063176
 20
462.2083998466
 40
4.7279511715
100
AcDbArc
 50
39.5742244804
 51
41.9495205033
  0
ARC
  5
225
100
AcDbEntity
  8
0
100
AcDbCircle
 62
7
  6
CONTINUOUS
 10
40.932203457
 20
69.9110734458
 40
2.9887850075
100
AcDbArc
 50
296.2700542297
 51
299.3417089298
  0
ARC
  5
226
100
AcDbEntity
  8
0
100
AcDbCircle
 62
7
  6
CONTINUOUS
 10
341.8630695347
 20
462.1150703448
 40
2.9887850079
100
AcDbArc
 50
116.2700542353
 51
119.3417089302
  0
SPLINE
  5
227
100
AcDbEntity
  8
0
100
AcDbSpline
 62
7
  6
CONTINUOUS
 70
0
 71
3
 72
9
 73
5
 74
0
 42
0.0000001
 43
0.0000001
 44
0.0000000001
 40
0.0
 40
0.0
 40
0.0
 40
0.0
 40
0.2409056119
 40
1.0
 40
1.0
 40
1.0
 40
1.0
 10
41.3976364957
 20
67.0130718955
 30
0.0
 10
41.4690528416
 20
67.0130718955
 30
0.0
 10
41.7656067312
 20
67.0330970899
 30
0.0
 10
42.0531776048
 20
67.1315355658
 30
0.0
 10
42.2550474113
 20
67.2309764898
 30
0.0
  0
SPLINE
  5
228
100
AcDbEntity
  8
0
100
AcDbSpline
 62
7
  6
CONTINUOUS
 70
0
 71
3
 72
8
 73
4
 74
0
 42
0.0000001
 43
0.0000001
 44
0.0000000001
 40
0.0
 40
0.0
 40
0.0
 40
0.0
 40
1.0
 40
1.0
 40
1.0
 40
1.0
 10
42.3967593742
 20
67.3057113239
 30
0.0
 10
42.4704706091
 20
67.3470711194
 30
0.0
 10
42.5426142388
 20
67.3912945362
 30
0.0
 10
42.6133638432
 20
67.4375381554
 30
0.0
  0
SPLINE
  5
229
100
AcDbEntity
  8
0
100
AcDbSpline
 62
7
  6
CONTINUOUS
 70
0
 71
3
 72
8
 73
4
 74
0
 42
0.0000001
 43
0.0000001
 44
0.0000000001
 40
0.0
 40
0.0
 40
0.0
 40
0.0
 40
1.0
 40
1.0
 40
1.0
 40
1.0
 10
42.6133638432
 20
67.4375381554
 30
0.0
 10
42.6988913374
 20
67.4934409538
 30
0.0
 10
42.782484017
 20
67.5523561596
 30
0.0
 10
42.8645377595
 20
67.6132434199
 30
0.0
  0
SPLINE
  5
22A
100
AcDbEntity
  8
0
100
AcDbSpline
 62
7
  6
CONTINUOUS
 70
0
 71
3
 72
9
 73
5
 74
0
 42
0.0000001
 43
0.0000001
 44
0.0000000001
 40
0.0
 40
0.0
 40
0.0
 40
0.0
 40
0.2443022134
 40
1.0
 40
1.0
 40
1.0
 40
1.0
 10
42.8645377595
 20
67.6132434199
 30
0.0
 10
42.9264918939
 20
67.6592159423
 30
0.0
 10
43.1765883224
 20
67.8521339743
 30
0.0
 10
43.4164161147
 20
68.0578026362
 30
0.0
 10
43.5976364957
 20
68.2130718955
 30
0.0
  0
SPLINE
  5
22B
100
AcDbEntity
  8
0
100
AcDbSpline
 62
7
  6
CONTINUOUS
 70
0
 71
3
 72
9
 73
5
 74
0
 42
0.0000001
 43
0.0000001
 44
0.0000000001
 40
0.0
 40
0.0
 40
0.0
 40
0.0
 40
0.2573227311
 40
1.0
 40
1.0
 40
1.0
 40
1.0
 10
339.1976364957
 20
68.2130718955
 30
0.0
 10
339.2792683127
 20
68.1431299184
 30
0.0
 10
339.596501646
 20
67.8716503575
 30
0.0
 10
339.9220816142
 20
67.6073812081
 30
0.0
 10
340.1817758939
 20
67.4376252692
 30
0.0
  0
SPLINE
  5
22C
100
AcDbEntity
  8
0
100
AcDbSpline
 62
7
  6
CONTINUOUS
 70
0
 71
3
 72
8
 73
4
 74
0
 42
0.0000001
 43
0.0000001
 44
0.0000000001
 40
0.0
 40
0.0
 40
0.0
 40
0.0
 40
1.0
 40
1.0
 40
1.0
 40
1.0
 10
340.1817758939
 20
67.4376252692
 30
0.0
 10
340.2525681922
 20
67.3913500372
 30
0.0
 10
340.3247561169
 20
67.3470970845
 30
0.0
 10
340.3985136004
 20
67.3057113355
 30
0.0
  0
SPLINE
  5
22D
100
AcDbEntity
  8
0
100
AcDbSpline
 62
7
  6
CONTINUOUS
 70
0
 71
3
 72
8
 73
4
 74
0
 42
0.0000001
 43
0.0000001
 44
0.0000000001
 40
0.0
 40
0.0
 40
0.0
 40
0.0
 40
1.0
 40
1.0
 40
1.0
 40
1.0
 10
340.3985136004
 20
67.3057113355
 30
0.0
 10
340.4848381221
 20
67.2572741489
 30
0.0
 10
340.5735155515
 20
67.2126483764
 30
0.0
 10
340.664534814
 20
67.1737436473
 30
0.0
  0
SPLINE
  5
22E
100
AcDbEntity
  8
0
100
AcDbSpline
 62
7
  6
CONTINUOUS
 70
0
 71
3
 72
9
 73
5
 74
0
 42
0.0000001
 43
0.0000001
 44
0.0000000001
 40
0.0
 40
0.0
 40
0.0
 40
0.0
 40
0.2604045884
 40
1.0
 40
1.0
 40
1.0
 40
1.0
 10
340.664534814
 20
67.1737436473
 30
0.0
 10
340.7246583523
 20
67.1480448017
 30
0.0
 10
340.9592827819
 20
67.0588378842
 30
0.0
 10
341.2119298797
 20
67.0130718955
 30
0.0
 10
341.3976364957
 20
67.0130718955
 30
0.0
  0
SPLINE
  5
22F
100
AcDbEntity
  8
0
100
AcDbSpline
 62
7
  6
CONTINUOUS
 70
0
 71
3
 72
9
 73
5
 74
0
 42
0.0000001
 43
0.0000001
 44
0.0000000001
 40
0.0
 40
0.0
 40
0.0
 40
0.0
 40
0.4572604681
 40
1.0
 40
1.0
 40
1.0
 40
1.0
 10
340.1970568975
 20
67.4612486242
 30
0.0
 10
340.0717657707
 20
67.6054412877
 30
0.0
 10
339.7404351189
 20
67.8676631932
 30
0.0
 10
339.3888986046
 20
68.0913106552
 30
0.0
 10
339.1976364957
 20
68.2130718955
 30
0.0
  0
SPLINE
  5
230
100
AcDbEntity
  8
0
100
AcDbSpline
 62
7
  6
CONTINUOUS
 70
0
 71
3
 72
9
 73
5
 74
0
 42
0.0000001
 43
0.0000001
 44
0.0000000001
 40
0.0
 40
0.0
 40
0.0
 40
0.0
 40
0.5427468427
 40
1.0
 40
1.0
 40
1.0
 40
1.0
 10
339.1976364957
 20
463.8130718954
 30
0.0
 10
339.3889161601
 20
463.9348443121
 30
0.0
 10
339.7404792564
 20
464.158509106
 30
0.0
 10
340.0718341851
 20
464.4207582963
 30
0.0
 10
340.197121801
 20
464.5649697821
 30
0.0
  0
SPLINE
  5
231
100
AcDbEntity
  8
0
100
AcDbSpline
 62
7
  6
CONTINUOUS
 70
0
 71
3
 72
9
 73
5
 74
0
 42
0.0000001
 43
0.0000001
 44
0.0000000001
 40
0.0
 40
0.0
 40
0.0
 40
0.0
 40
0.4572606128
 40
1.0
 40
1.0
 40
1.0
 40
1.0
 10
42.5982172082
 20
464.5648938843
 30
0.0
 10
42.7235083894
 20
464.4207015284
 30
0.0
 10
43.0548386428
 20
464.1584801076
 30
0.0
 10
43.406374695
 20
463.9348329395
 30
0.0
 10
43.5976364957
 20
463.8130718954
 30
0.0
  0
SPLINE
  5
232
100
AcDbEntity
  8
0
100
AcDbSpline
 62
7
  6
CONTINUOUS
 70
0
 71
3
 72
9
 73
5
 74
0
 42
0.0000001
 43
0.0000001
 44
0.0000000001
 40
0.0
 40
0.0
 40
0.0
 40
0.0
 40
0.5427469832
 40
1.0
 40
1.0
 40
1.0
 40
1.0
 10
43.5976364957
 20
68.2130718955
 30
0.0
 10
43.4063565222
 20
68.0912992821
 30
0.0
 10
43.0547929488
 20
67.8676342129
 30
0.0
 10
42.7234376112
 20
67.6053845318
 30
0.0
 10
42.5981500671
 20
67.461172718
 30
0.0
  0
SPLINE
  5
233
100
AcDbEntity
  8
0
100
AcDbSpline
 62
7
  6
CONTINUOUS
 70
0
 71
3
 72
9
 73
5
 74
0
 42
0.0000001
 43
0.0000001
 44
0.0000000001
 40
0.0
 40
0.0
 40
0.0
 40
0.0
 40
0.2573227057
 40
1.0
 40
1.0
 40
1.0
 40
1.0
 10
43.5976364957
 20
463.8130718955
 30
0.0
 10
43.5160047994
 20
463.8830137692
 30
0.0
 10
43.198771917
 20
464.1544929726
 30
0.0
 10
42.8731924258
 20
464.4187617809
 30
0.0
 10
42.6134985496
 20
464.5885175743
 30
0.0
  0
SPLINE
  5
234
100
AcDbEntity
  8
0
100
AcDbSpline
 62
7
  6
CONTINUOUS
 70
0
 71
3
 72
8
 73
4
 74
0
 42
0.0000001
 43
0.0000001
 44
0.0000000001
 40
0.0
 40
0.0
 40
0.0
 40
0.0
 40
1.0
 40
1.0
 40
1.0
 40
1.0
 10
42.6134985496
 20
464.5885175743
 30
0.0
 10
42.54270578
 20
464.6347931467
 30
0.0
 10
42.4705173668
 20
464.6790464171
 30
0.0
 10
42.396759375
 20
464.7204324469
 30
0.0
  0
SPLINE
  5
235
100
AcDbEntity
  8
0
100
AcDbSpline
 62
7
  6
CONTINUOUS
 70
0
 71
3
 72
8
 73
4
 74
0
 42
0.0000001
 43
0.0000001
 44
0.0000000001
 40
0.0
 40
0.0
 40
0.0
 40
0.0
 40
1.0
 40
1.0
 40
1.0
 40
1.0
 10
42.396759375
 20
464.7204324469
 30
0.0
 10
42.3104339087
 20
464.7688701583
 30
0.0
 10
42.2217554833
 20
464.8134963775
 30
0.0
 10
42.1307351763
 20
464.8524014121
 30
0.0
  0
SPLINE
  5
236
100
AcDbEntity
  8
0
100
AcDbSpline
 62
7
  6
CONTINUOUS
 70
0
 71
3
 72
9
 73
5
 74
0
 42
0.0000001
 43
0.0000001
 44
0.0000000001
 40
0.0
 40
0.0
 40
0.0
 40
0.0
 40
0.260404533
 40
1.0
 40
1.0
 40
1.0
 40
1.0
 10
42.1307351763
 20
464.8524014121
 30
0.0
 10
42.070611875
 20
464.8781000632
 30
0.0
 10
41.8359883403
 20
464.9673063108
 30
0.0
 10
41.5833423289
 20
465.0130718955
 30
0.0
 10
41.3976364957
 20
465.0130718955
 30
0.0
  0
SPLINE
  5
237
100
AcDbEntity
  8
0
100
AcDbSpline
 62
7
  6
CONTINUOUS
 70
0
 71
3
 72
9
 73
5
 74
0
 42
0.0000001
 43
0.0000001
 44
0.0000000001
 40
0.0
 40
0.0
 40
0.0
 40
0.0
 40
0.2409056119
 40
1.0
 40
1.0
 40
1.0
 40
1.0
 10
341.3976364957
 20
465.0130718955
 30
0.0
 10
341.3262201498
 20
465.0130718955
 30
0.0
 10
341.0296662601
 20
464.9930467011
 30
0.0
 10
340.7420953865
 20
464.894608225
 30
0.0
 10
340.5402255799
 20
464.795167301
 30
0.0
  0
SPLINE
  5
238
100
AcDbEntity
  8
0
100
AcDbSpline
 62
7
  6
CONTINUOUS
 70
0
 71
3
 72
8
 73
4
 74
0
 42
0.0000001
 43
0.0000001
 44
0.0000000001
 40
0.0
 40
0.0
 40
0.0
 40
0.0
 40
1.0
 40
1.0
 40
1.0
 40
1.0
 10
340.3985136173
 20
464.7204324671
 30
0.0
 10
340.3248015963
 20
464.6790722305
 30
0.0
 10
340.2526572136
 20
464.6348483117
 30
0.0
 10
340.1819068836
 20
464.5886041553
 30
0.0
  0
SPLINE
  5
239
100
AcDbEntity
  8
0
100
AcDbSpline
 62
7
  6
CONTINUOUS
 70
0
 71
3
 72
8
 73
4
 74
0
 42
0.0000001
 43
0.0000001
 44
0.0000000001
 40
0.0
 40
0.0
 40
0.0
 40
0.0
 40
1.0
 40
1.0
 40
1.0
 40
1.0
 10
340.1819068836
 20
464.5886041553
 30
0.0
 10
340.0963801787
 20
464.5327017968
 30
0.0
 10
340.0127882506
 20
464.4737870942
 30
0.0
 10
339.9307352319
 20
464.412900371
 30
0.0
  0
SPLINE
  5
23A
100
AcDbEntity
  8
0
100
AcDbSpline
 62
7
  6
CONTINUOUS
 70
0
 71
3
 72
9
 73
5
 74
0
 42
0.0000001
 43
0.0000001
 44
0.0000000001
 40
0.0
 40
0.0
 40
0.0
 40
0.0
 40
0.2443022134
 40
1.0
 40
1.0
 40
1.0
 40
1.0
 10
339.9307352319
 20
464.412900371
 30
0.0
 10
339.8687810975
 20
464.3669278487
 30
0.0
 10
339.618684669
 20
464.1740098166
 30
0.0
 10
339.3788568767
 20
463.9683411548
 30
0.0
 10
339.1976364957
 20
463.8130718955
 30
0.0
  0
SPLINE
  5
23B
100
AcDbEntity
  8
0
100
AcDbSpline
 62
7
  6
CONTINUOUS
 70
0
 71
3
 72
9
 73
5
 74
0
 42
0.0000001
 43
0.0000001
 44
0.0000000001
 40
0.0
 40
0.0
 40
0.0
 40
0.0
 40
0.2670425929
 40
1.0
 40
1.0
 40
1.0
 40
1.0
 10
339.1976364957
 20
463.8130718955
 30
0.0
 10
339.2887348214
 20
463.9561688109
 30
0.0
 10
339.630344045
 20
464.4909789811
 30
0.0
 10
339.9859450983
 20
465.0224459349
 30
0.0
 10
340.297444654
 20
465.3684937027
 30
0.0
  0
SPLINE
  5
23C
100
AcDbEntity
  8
0
100
AcDbSpline
 62
7
  6
CONTINUOUS
 70
0
 71
3
 72
9
 73
5
 74
0
 42
0.0000001
 43
0.0000001
 44
0.0000000001
 40
0.0
 40
0.0
 40
0.0
 40
0.0
 40
0.3000098342
 40
1.0
 40
1.0
 40
1.0
 40
1.0
 10
340.297444654
 20
465.3684937027
 30
0.0
 10
340.3839305719
 20
465.4645717173
 30
0.0
 10
340.6799803572
 20
465.7695131197
 30
0.0
 10
341.0960200249
 20
466.0130718955
 30
0.0
 10
341.3976364957
 20
466.0130718955
 30
0.0
  0
SPLINE
  5
23D
100
AcDbEntity
  8
0
100
AcDbSpline
 62
7
  6
CONTINUOUS
 70
0
 71
3
 72
9
 73
5
 74
0
 42
0.0000001
 43
0.0000001
 44
0.0000000001
 40
0.0
 40
0.0
 40
0.0
 40
0.0
 40
0.3953768515
 40
1.0
 40
1.0
 40
1.0
 40
1.0
 10
41.3976364957
 20
67.0130718954
 30
0.0
 10
41.3976364957
 20
67.1058576277
 30
0.0
 10
41.5351056255
 20
67.326966091
 30
0.0
 10
41.73576544
 20
67.4470470761
 30
0.0
 10
41.8592111454
 20
67.5170056549
 30
0.0
  0
SPLINE
  5
23E
100
AcDbEntity
  8
0
100
AcDbSpline
 62
7
  6
CONTINUOUS
 70
0
 71
3
 72
9
 73
5
 74
0
 42
0.0000001
 43
0.0000001
 44
0.0000000001
 40
0.0
 40
0.0
 40
0.0
 40
0.0
 40
0.2357424177
 40
1.0
 40
1.0
 40
1.0
 40
1.0
 10
41.8592111454
 20
67.5170056549
 30
0.0
 10
41.8794441198
 20
67.5284719925
 30
0.0
 10
41.9658758798
 20
67.5760436709
 30
0.0
 10
42.0543860041
 20
67.6197695866
 30
0.0
 10
42.1226765067
 20
67.6517189177
 30
0.0
  0
SPLINE
  5
23F
100
AcDbEntity
  8
0
100
AcDbSpline
 62
7
  6
CONTINUOUS
 70
0
 71
3
 72
9
 73
5
 74
0
 42
0.0000001
 43
0.0000001
 44
0.0000000001
 40
0.0
 40
0.0
 40
0.0
 40
0.0
 40
0.2229995948
 40
1.0
 40
1.0
 40
1.0
 40
1.0
 10
42.1226765067
 20
67.6517189177
 30
0.0
 10
42.2289658104
 20
67.7014457761
 30
0.0
 10
42.7130113565
 20
67.9085563484
 30
0.0
 10
43.2113892649
 20
68.0789486459
 30
0.0
 10
43.5976364957
 20
68.2130718955
 30
0.0
  0
SPLINE
  5
240
100
AcDbEntity
  8
0
100
AcDbSpline
 62
7
  6
CONTINUOUS
 70
0
 71
3
 72
9
 73
5
 74
0
 42
0.0000001
 43
0.0000001
 44
0.0000000001
 40
0.0
 40
0.0
 40
0.0
 40
0.0
 40
0.2138285778
 40
1.0
 40
1.0
 40
1.0
 40
1.0
 10
341.3976364957
 20
66.0130718955
 30
0.0
 10
341.3050373544
 20
66.0130718955
 30
0.0
 10
340.8698678023
 20
66.0859525862
 30
0.0
 10
340.5256374226
 20
66.4042180455
 30
0.0
 10
340.2978283374
 20
66.6572238947
 30
0.0
  0
SPLINE
  5
241
100
AcDbEntity
  8
0
100
AcDbSpline
 62
7
  6
CONTINUOUS
 70
0
 71
3
 72
9
 73
5
 74
0
 42
0.0000001
 43
0.0000001
 44
0.0000000001
 40
0.0
 40
0.0
 40
0.0
 40
0.0
 40
0.2315595856
 40
1.0
 40
1.0
 40
1.0
 40
1.0
 10
340.1698622831
 20
66.8056735952
 30
0.0
 10
340.0856192069
 20
66.9074168358
 30
0.0
 10
339.7378708171
 20
67.3601362447
 30
0.0
 10
339.4330468023
 20
67.8432902506
 30
0.0
 10
339.1976364957
 20
68.2130718955
 30
0.0
  0
SPLINE
  5
242
100
AcDbEntity
  8
0
100
AcDbSpline
 62
7
  6
CONTINUOUS
 70
0
 71
3
 72
9
 73
5
 74
0
 42
0.0000001
 43
0.0000001
 44
0.0000000001
 40
0.0
 40
0.0
 40
0.0
 40
0.0
 40
0.5489938059
 40
1.0
 40
1.0
 40
1.0
 40
1.0
 10
43.5976364957
 20
463.8130718954
 30
0.0
 10
43.2736646668
 20
463.9255701892
 30
0.0
 10
42.6844986332
 20
464.1307493356
 30
0.0
 10
42.1043195377
 20
464.3702311631
 30
0.0
 10
41.8592073399
 20
464.5091402582
 30
0.0
  0
SPLINE
  5
243
100
AcDbEntity
  8
0
100
AcDbSpline
 62
7
  6
CONTINUOUS
 70
0
 71
3
 72
9
 73
5
 74
0
 42
0.0000001
 43
0.0000001
 44
0.0000000001
 40
0.0
 40
0.0
 40
0.0
 40
0.0
 40
0.6046223139
 40
1.0
 40
1.0
 40
1.0
 40
1.0
 10
41.8592073399
 20
464.5091402582
 30
0.0
 10
41.7357626476
 20
464.5790983861
 30
0.0
 10
41.5351050548
 20
464.6991798091
 30
0.0
 10
41.3976364957
 20
464.920286561
 30
0.0
 10
41.3976364957
 20
465.0130718955
 30
0.0
  0
SPLINE
  5
244
100
AcDbEntity
  8
0
100
AcDbSpline
 62
7
  6
CONTINUOUS
 70
0
 71
3
 72
9
 73
5
 74
0
 42
0.0000001
 43
0.0000001
 44
0.0000000001
 40
0.0
 40
0.0
 40
0.0
 40
0.0
 40
0.2670425929
 40
1.0
 40
1.0
 40
1.0
 40
1.0
 10
43.5976364957
 20
68.2130718955
 30
0.0
 10
43.50653817
 20
68.06997498
 30
0.0
 10
43.1649289464
 20
67.5351648098
 30
0.0
 10
42.8093278931
 20
67.003697856
 30
0.0
 10
42.4978283374
 20
66.6576500882
 30
0.0
  0
SPLINE
  5
245
100
AcDbEntity
  8
0
100
AcDbSpline
 62
7
  6
CONTINUOUS
 70
0
 71
3
 72
9
 73
5
 74
0
 42
0.0000001
 43
0.0000001
 44
0.0000000001
 40
0.0
 40
0.0
 40
0.0
 40
0.0
 40
0.3000098342
 40
1.0
 40
1.0
 40
1.0
 40
1.0
 10
42.4978283374
 20
66.6576500882
 30
0.0
 10
42.4113424195
 20
66.5615720736
 30
0.0
 10
42.1152926342
 20
66.2566306713
 30
0.0
 10
41.6992529666
 20
66.0130718955
 30
0.0
 10
41.3976364957
 20
66.0130718955
 30
0.0
  0
SPLINE
  5
246
100
AcDbEntity
  8
0
100
AcDbSpline
 62
7
  6
CONTINUOUS
 70
0
 71
3
 72
9
 73
5
 74
0
 42
0.0000001
 43
0.0000001
 44
0.0000000001
 40
0.0
 40
0.0
 40
0.0
 40
0.0
 40
0.3953768515
 40
1.0
 40
1.0
 40
1.0
 40
1.0
 10
341.3976364957
 20
465.0130718955
 30
0.0
 10
341.3976364957
 20
464.9202861632
 30
0.0
 10
341.2601673659
 20
464.6991777
 30
0.0
 10
341.0595075514
 20
464.5790967148
 30
0.0
 10
340.936061846
 20
464.5091381361
 30
0.0
  0
SPLINE
  5
247
100
AcDbEntity
  8
0
100
AcDbSpline
 62
7
  6
CONTINUOUS
 70
0
 71
3
 72
9
 73
5
 74
0
 42
0.0000001
 43
0.0000001
 44
0.0000000001
 40
0.0
 40
0.0
 40
0.0
 40
0.0
 40
0.2357424177
 40
1.0
 40
1.0
 40
1.0
 40
1.0
 10
340.936061846
 20
464.5091381361
 30
0.0
 10
340.9158288716
 20
464.4976717984
 30
0.0
 10
340.8293971116
 20
464.4501001201
 30
0.0
 10
340.7408869873
 20
464.4063742044
 30
0.0
 10
340.6725964847
 20
464.3744248733
 30
0.0
  0
SPLINE
  5
248
100
AcDbEntity
  8
0
100
AcDbSpline
 62
7
  6
CONTINUOUS
 70
0
 71
3
 72
9
 73
5
 74
0
 42
0.0000001
 43
0.0000001
 44
0.0000000001
 40
0.0
 40
0.0
 40
0.0
 40
0.0
 40
0.2229995948
 40
1.0
 40
1.0
 40
1.0
 40
1.0
 10
340.6725964847
 20
464.3744248733
 30
0.0
 10
340.566307181
 20
464.3246980149
 30
0.0
 10
340.0822616349
 20
464.1175874425
 30
0.0
 10
339.5838837266
 20
463.947195145
 30
0.0
 10
339.1976364957
 20
463.8130718954
 30
0.0
  0
SPLINE
  5
249
100
AcDbEntity
  8
0
100
AcDbSpline
 62
7
  6
CONTINUOUS
 70
0
 71
3
 72
9
 73
5
 74
0
 42
0.0000001
 43
0.0000001
 44
0.0000000001
 40
0.0
 40
0.0
 40
0.0
 40
0.0
 40
0.5489938069
 40
1.0
 40
1.0
 40
1.0
 40
1.0
 10
339.1976364957
 20
68.2130718955
 30
0.0
 10
339.5216083228
 20
68.1005736023
 30
0.0
 10
340.1107743527
 20
67.8953944621
 30
0.0
 10
340.6909534464
 20
67.6559126375
 30
0.0
 10
340.9360656359
 20
67.5170035332
 30
0.0
  0
SPLINE
  5
24A
100
AcDbEntity
  8
0
100
AcDbSpline
 62
7
  6
CONTINUOUS
 70
0
 71
3
 72
9
 73
5
 74
0
 42
0.0000001
 43
0.0000001
 44
0.0000000001
 40
0.0
 40
0.0
 40
0.0
 40
0.0
 40
0.6046223498
 40
1.0
 40
1.0
 40
1.0
 40
1.0
 10
340.9360656359
 20
67.5170035332
 30
0.0
 10
341.0595103346
 20
67.4470453946
 30
0.0
 10
341.2601679397
 20
67.3269639816
 30
0.0
 10
341.3976364957
 20
67.1058572231
 30
0.0
 10
341.3976364957
 20
67.0130718954
 30
0.0
  0
SPLINE
  5
24B
100
AcDbEntity
  8
0
100
AcDbSpline
 62
7
  6
CONTINUOUS
 70
0
 71
3
 72
9
 73
5
 74
0
 42
0.0000001
 43
0.0000001
 44
0.0000000001
 40
0.0
 40
0.0
 40
0.0
 40
0.0
 40
0.2138285778
 40
1.0
 40
1.0
 40
1.0
 40
1.0
 10
41.3976364957
 20
466.0130718955
 30
0.0
 10
41.490235637
 20
466.0130718955
 30
0.0
 10
41.9254051891
 20
465.9401912047
 30
0.0
 10
42.2696355689
 20
465.6219257454
 30
0.0
 10
42.497444654
 20
465.3689198962
 30
0.0
  0
SPLINE
  5
24C
100
AcDbEntity
  8
0
100
AcDbSpline
 62
7
  6
CONTINUOUS
 70
0
 71
3
 72
9
 73
5
 74
0
 42
0.0000001
 43
0.0000001
 44
0.0000000001
 40
0.0
 40
0.0
 40
0.0
 40
0.0
 40
0.2315595856
 40
1.0
 40
1.0
 40
1.0
 40
1.0
 10
42.6254107083
 20
465.2204701957
 30
0.0
 10
42.7096537845
 20
465.1187269552
 30
0.0
 10
43.0574021743
 20
464.6660075463
 30
0.0
 10
43.3622261891
 20
464.1828535403
 30
0.0
 10
43.5976364957
 20
463.8130718955
 30
0.0
  0
ENDSEC
  0
SECTION
  2
OBJECTS
  0
DICTIONARY
  5
C
100
AcDbDictionary
280
0
281
1
  3
ACAD_GROUP
350
D
  3
ACAD_MLINESTYLE
350
17
  3
ACAD_LAYOUT
350
1A
  3
ACAD_PLOTSETTINGS
350
19
  3
ACAD_PLOTSTYLENAME
350
E
  0
DICTIONARY
  5
D
102
{ACAD_REACTORS
330
C
102
}
100
AcDbDictionary
280
0
281
1
  0
ACDBDICTIONARYWDFLT
  5
E
102
{ACAD_REACTORS
330
C
102
}
100
AcDbDictionary
281
1
  3
Normal
350
F
100
AcDbDictionaryWithDefault
340
F
  0
DICTIONARY
  5
17
102
{ACAD_REACTORS
330
C
102
}
100
AcDbDictionary
280
0
281
1
  3
Standard
350
18
  0
DICTIONARY
  5
19
102
{ACAD_REACTORS
330
C
102
}
100
AcDbDictionary
281
1
  0
DICTIONARY
  5
1A
102
{ACAD_REACTORS
330
C
102
}
100
AcDbDictionary
281
1
  3
Model
350
24D
  3
Layout1
350
24E
  0
ACDBPLACEHOLDER
  5
F
102
{ACAD_REACTORS
330
E
102
}
  0
MLINESTYLE
  5
18
102
{ACAD_REACTORS
330
17
102
}
100
AcDbMlineStyle
  2
STANDARD
 70
0
  3

 62
256
 51
90.0
 52
90.0
 71
2
 49
0.5
 62
256
  6
BYLAYER
 49
-0.5
 62
256
  6
BYLAYER
  0
LAYOUT
  5
24D
102
{ACAD_REACTORS
330
1A
102
}
100
AcDbPlotSettings
  1

  2
none_device
  4

  6

 40
0.0
 41
0.0
 42
0.0
 43
0.0
 44
210.0
 45
297.0
 46
0.0
 47
0.0
 48
0.0
 49
0.0
140
0.0
141
0.0
142
1.0
143
1.0
 70
1024
 72
1
 73
0
 74
0
  7

 75
0
147
1.0
148
0.0
149
0.0
100
AcDbLayout
  1
Model
 70
0
 71
0
 10
0.0
 20
0.0
 11
210.0
 21
297.0
 12
0.0
 22
0.0
 32
0.0
 14
0.0
 24
0.0
 34
0.0
 15
0.0
 25
0.0
 35
0.0
146
0.0
 13
0.0
 23
0.0
 33
0.0
 16
1.0
 26
0.0
 36
0.0
 17
0.0
 27
1.0
 37
0.0
 76
0
330
210
345
0
346
0
  0
LAYOUT
  5
24E
102
{ACAD_REACTORS
330
1A
102
}
100
AcDbPlotSettings
  1

  2
none_device
  4

  6

 40
0.0
 41
0.0
 42
0.0
 43
0.0
 44
210.0
 45
297.0
 46
0.0
 47
0.0
 48
0.0
 49
0.0
140
0.0
141
0.0
142
1.0
143
1.0
 70
0
 72
1
 73
0
 74
0
  7

 75
0
147
1.0
148
0.0
149
0.0
100
AcDbLayout
  1
Layout1
 70
0
 71
1
 10
0.0
 20
0.0
 11
210.0
 21
297.0
 12
0.0
 22
0.0
 32
0.0
 14
0.0
 24
0.0
 34
0.0
 15
0.0
 25
0.0
 35
0.0
146
0.0
 13
0.0
 23
0.0
 33
0.0
 16
1.0
 26
0.0
 36
0.0
 17
0.0
 27
1.0
 37
0.0
 76
0
330
211
345
0
346
0
  0
ENDSEC
  0
EOF
