999
DXF file: C:\Users\sesa63760\Dev\_Creo\CAD\MCADUE0001309_3D-CAD\drw0001_5.dxf
999
Pro/ENGINEER 2019471 by Parametric Technology Corporation
  0
SECTION
  2
HEADER
  9
$ACADVER
  1
AC1024
  9
$DWGCODEPAGE
  3
ANSI_1252
  9
$EXTMAX
 10
673.6755308184
 20
952.7696793003
 30
0.0
  9
$EXTMIN
 10
0.0
 20
0.0
 30
0.0
  9
$LIMMIN
 10
0.0
 20
0.0
  9
$LIMMAX
 10
673.6755308184
 20
952.7696793003
  9
$VIEWCTR
 10
336.8377654092
 20
476.3848396501
  9
$VIEWSIZE
 40
952.7696793003
  9
$CLAYER
  8
0
  9
$LTSCALE
 40
62.106467984
  9
$CELTYPE
  6
BYLAYER
  9
$DIMSCALE
 40
1.0
  9
$DIMASZ
 40
8.0199467955
  9
$DIMEXO
 40
1.0
  9
$DIMDLI
 40
42.9099233344
  9
$DIMEXE
 40
1.0
  9
$DIMCEN
 40
10.1628765792
  9
$DIMLFAC
 40
1.0
  9
$DIMBLK
  1
_FILLED
  9
$DIMALT
 70
0
  9
$DIMALTF
 40
0.0393700787
  9
$DIMTXT
 40
11.2279255136
  9
$DIMTOL
 70
1
  9
$DIMLIM
 70
0
  9
$DIMTFAC
 40
1.0
  9
$DIMTP
 40
0.01
  9
$DIMTM
 40
0.01
  9
$DIMGAP
 40
0.625
  9
$DIMDSEP
 70
46
  9
$AUNITS
 70
0
  9
$PDMODE
 70
3
  9
$PDSIZE
 40
0.3125
  9
$HANDSEED
  5
382
  9
$TILEMODE
 70
1
  9
$MEASUREMENT
 70
1
  9
$INSUNITS
 70
4
  0
ENDSEC
  0
SECTION
  2
CLASSES
  0
CLASS
  1
ACDBDICTIONARYWDFLT
  2
AcDbDictionaryWithDefault
  3
AutoCAD 2000
 90
0
 91
1
280
0
281
0
  0
CLASS
  1
ACDBPLACEHOLDER
  2
AcDbPlaceHolder
  3
AutoCAD 2000
 90
0
 91
1
280
0
281
0
  0
CLASS
  1
LAYOUT
  2
AcDbLayout
  3
AutoCAD 2000
 90
0
 91
0
280
0
281
0
  0
ENDSEC
  0
SECTION
  2
TABLES
  0
TABLE
  2
VPORT
  5
8
100
AcDbSymbolTable
 70
2
  0
VPORT
  5
1F4
100
AcDbSymbolTableRecord
100
AcDbViewportTableRecord
  2
*ACTIVE
 70
0
 10
0.0
 20
0.0
 11
1.0
 21
1.0
 12
336.8377654092
 22
476.3848396501
 13
0.0
 23
0.0
 14
1.0
 24
1.0
 15
0.0
 25
0.0
 16
0.0
 26
0.0
 36
1.0
 17
0.0
 27
0.0
 37
0.0
 40
952.7696793003
 41
0.7070707071
 42
50.0
 43
0.0
 44
0.0
 50
0.0
 51
0.0
 71
0
 72
100
 73
1
 74
1
 75
0
 76
0
 77
0
 78
0
  0
ENDTAB
  0
TABLE
  2
LTYPE
  5
5
100
AcDbSymbolTable
 70
6
  0
LTYPE
  5
14
100
AcDbSymbolTableRecord
100
AcDbLinetypeTableRecord
  2
BYBLOCK
 70
0
  3

 72
65
 73
0
 40
0.0
  0
LTYPE
  5
15
100
AcDbSymbolTableRecord
100
AcDbLinetypeTableRecord
  2
BYLAYER
 70
0
  3

 72
65
 73
0
 40
0.0
  0
LTYPE
  5
16
100
AcDbSymbolTableRecord
100
AcDbLinetypeTableRecord
  2
CONTINUOUS
 70
64
  3
Solid line
 72
65
 73
0
 40
0.0
  0
LTYPE
  5
1F5
100
AcDbSymbolTableRecord
100
AcDbLinetypeTableRecord
  2
CENTER
 70
64
  3
____ _ ____ _ ____ _ ____ _ ____ _ ____ _ ____
 72
65
 73
4
 40
0.6
 49
0.375
 74
0
 49
-0.075
 74
0
 49
0.075
 74
0
 49
-0.075
 74
0
  0
LTYPE
  5
1F6
100
AcDbSymbolTableRecord
100
AcDbLinetypeTableRecord
  2
HIDDEN
 70
64
  3
- - - - - - - - - - - - - - - - - - - -
 72
65
 73
2
 40
0.2
 49
0.1
 74
0
 49
-0.1
 74
0
  0
LTYPE
  5
1F7
100
AcDbSymbolTableRecord
100
AcDbLinetypeTableRecord
  2
PHANTOM
 70
64
  3
_____ _ _ _____ _ _ _____ _ _ _____
 72
65
 73
6
 40
0.8
 49
0.45
 74
0
 49
-0.05
 74
0
 49
0.1
 74
0
 49
-0.05
 74
0
 49
0.1
 74
0
 49
-0.05
 74
0
  0
LTYPE
  5
1F8
100
AcDbSymbolTableRecord
100
AcDbLinetypeTableRecord
  2
DOT
 70
64
  3
. . . . . . . . . . . . . . . . . . . .
 72
65
 73
2
 40
0.2
 49
0.1
 74
0
 49
-0.1
 74
0
  0
LTYPE
  5
1F9
100
AcDbSymbolTableRecord
100
AcDbLinetypeTableRecord
  2
DASHED
 70
64
  3
- - - - - - - - - - - - - - - - - - - -
 72
65
 73
2
 40
0.2
 49
0.1
 74
0
 49
-0.1
 74
0
  0
ENDTAB
  0
TABLE
  2
LAYER
  5
2
100
AcDbSymbolTable
 70
36
  0
LAYER
  5
10
100
AcDbSymbolTableRecord
100
AcDbLayerTableRecord
  2
0
 70
0
 62
7
  6
CONTINUOUS
370
-3
390
F
  0
LAYER
  5
1FA
100
AcDbSymbolTableRecord
100
AcDbLayerTableRecord
  2
DEFAULT_1
 70
0
 62
7
  6
CENTER
370
-3
390
F
  0
LAYER
  5
1FB
100
AcDbSymbolTableRecord
100
AcDbLayerTableRecord
  2
DEFAULT_2
 70
0
 62
8
  6
HIDDEN
370
-3
390
F
  0
LAYER
  5
1FC
100
AcDbSymbolTableRecord
100
AcDbLayerTableRecord
  2
DEFAULT_3
 70
0
 62
7
  6
PHANTOM
370
-3
390
F
  0
LAYER
  5
1FD
100
AcDbSymbolTableRecord
100
AcDbLayerTableRecord
  2
00_COMPONENTS
 70
0
 62
7
  6
CONTINUOUS
370
-3
390
F
  0
LAYER
  5
1FE
100
AcDbSymbolTableRecord
100
AcDbLayerTableRecord
  2
01_1_DEFAULT_DATUMS
 70
0
 62
7
  6
CONTINUOUS
370
-3
390
F
  0
LAYER
  5
1FF
100
AcDbSymbolTableRecord
100
AcDbLayerTableRecord
  2
01_PLANES
 70
0
 62
7
  6
CONTINUOUS
370
-3
390
F
  0
LAYER
  5
200
100
AcDbSymbolTableRecord
100
AcDbLayerTableRecord
  2
02_COORD_SYS
 70
0
 62
7
  6
CONTINUOUS
370
-3
390
F
  0
LAYER
  5
201
100
AcDbSymbolTableRecord
100
AcDbLayerTableRecord
  2
03_AXES
 70
0
 62
7
  6
CONTINUOUS
370
-3
390
F
  0
LAYER
  5
202
100
AcDbSymbolTableRecord
100
AcDbLayerTableRecord
  2
04_POINTS
 70
0
 62
7
  6
CONTINUOUS
370
-3
390
F
  0
LAYER
  5
203
100
AcDbSymbolTableRecord
100
AcDbLayerTableRecord
  2
05_CURVES
 70
0
 62
7
  6
CONTINUOUS
370
-3
390
F
  0
LAYER
  5
204
100
AcDbSymbolTableRecord
100
AcDbLayerTableRecord
  2
06_SURFS
 70
0
 62
7
  6
CONTINUOUS
370
-3
390
F
  0
LAYER
  5
205
100
AcDbSymbolTableRecord
100
AcDbLayerTableRecord
  2
07_COSMETICS
 70
0
 62
7
  6
CONTINUOUS
370
-3
390
F
  0
LAYER
  5
206
100
AcDbSymbolTableRecord
100
AcDbLayerTableRecord
  2
10_NOTES
 70
0
 62
7
  6
CONTINUOUS
370
-3
390
F
  0
LAYER
  5
207
100
AcDbSymbolTableRecord
100
AcDbLayerTableRecord
  2
11_NOTES_PUB
 70
0
 62
7
  6
CONTINUOUS
370
-3
390
F
  0
LAYER
  5
208
100
AcDbSymbolTableRecord
100
AcDbLayerTableRecord
  2
13_REF_GTOL
 70
0
 62
7
  6
CONTINUOUS
370
-3
390
F
  0
LAYER
  5
209
100
AcDbSymbolTableRecord
100
AcDbLayerTableRecord
  2
16_MISC
 70
0
 62
7
  6
CONTINUOUS
370
-3
390
F
  0
LAYER
  5
20A
100
AcDbSymbolTableRecord
100
AcDbLayerTableRecord
  2
17_NO_PRINT
 70
0
 62
7
  6
CONTINUOUS
370
-3
390
F
  0
LAYER
  5
20B
100
AcDbSymbolTableRecord
100
AcDbLayerTableRecord
  2
18_DATUM_CAMS_JOINTS
 70
0
 62
7
  6
CONTINUOUS
370
-3
390
F
  0
LAYER
  5
20C
100
AcDbSymbolTableRecord
100
AcDbLayerTableRecord
  2
19_DATUM_FUNCTIONAL
 70
0
 62
7
  6
CONTINUOUS
370
-3
390
F
  0
LAYER
  5
20D
100
AcDbSymbolTableRecord
100
AcDbLayerTableRecord
  2
20_DATUM_KINEMATIC_SCHEME
 70
0
 62
7
  6
CONTINUOUS
370
-3
390
F
  0
ENDTAB
  0
TABLE
  2
STYLE
  5
3
100
AcDbSymbolTable
 70
1
  0
STYLE
  5
11
100
AcDbSymbolTableRecord
100
AcDbTextStyleTableRecord
  2
STANDARD
 70
0
 40
0.0
 41
0.8
 50
0.0
 71
0
 42
0.2
  3
txt
  4

  0
STYLE
  5
20E
100
AcDbSymbolTableRecord
100
AcDbTextStyleTableRecord
  2
TEXTSTYLE_1
 70
0
 40
0.0
 41
0.8
 50
0.0
 71
0
 42
0.2
  3
gdt
  4

  0
ENDTAB
  0
TABLE
  2
VIEW
  5
6
100
AcDbSymbolTable
 70
0
  0
ENDTAB
  0
TABLE
  2
UCS
  5
7
100
AcDbSymbolTable
 70
0
  0
ENDTAB
  0
TABLE
  2
APPID
  5
9
100
AcDbSymbolTable
 70
1
  0
APPID
  5
20F
100
AcDbSymbolTableRecord
100
AcDbRegAppTableRecord
  2
ACAD
 70
0
  0
ENDTAB
  0
TABLE
  2
BLOCK_RECORD
  5
1
100
AcDbSymbolTable
 70
0
  0
BLOCK_RECORD
  5
210
100
AcDbSymbolTableRecord
100
AcDbBlockTableRecord
  2
*Model_Space
  0
BLOCK_RECORD
  5
211
100
AcDbSymbolTableRecord
100
AcDbBlockTableRecord
  2
*Paper_Space
  0
BLOCK_RECORD
  5
212
100
AcDbSymbolTableRecord
100
AcDbBlockTableRecord
  2
_FILLED
  0
ENDTAB
  0
TABLE
  2
DIMSTYLE
  5
A
100
AcDbSymbolTable
 70
1
100
AcDbDimStyleTable
 71
0
  0
DIMSTYLE
105
213
100
AcDbSymbolTableRecord
100
AcDbDimStyleTableRecord
  2
STANDARD
 70
0
  3

  4

 40
1.0
 41
8.0199467955
 42
1.0
 43
0.38
 44
1.0
 45
0.0
 46
0.0
 47
0.01
 48
0.01
140
11.2279255136
141
0.09
142
0.0
143
25.4
144
1.0
145
0.0
146
1.0
147
0.625
 71
1
 72
0
 73
0
 74
0
 75
0
 76
0
 77
1
 78
8
 79
2
170
0
171
1
172
0
173
0
174
0
175
0
176
0
177
0
178
0
270
2
179
2
271
2
272
2
273
2
274
2
275
0
280
0
281
0
282
0
283
1
284
8
285
0
286
0
287
3
288
0
340
11
278
46
341
212
342
212
343
212
344
212
  0
ENDTAB
  0
ENDSEC
  0
SECTION
  2
BLOCKS
  0
BLOCK
  5
20
100
AcDbEntity
  8
0
100
AcDbBlockBegin
  2
*Model_Space
 70
0
 10
0.0
 20
0.0
 30
0.0
  3
*Model_Space
  1

  0
ENDBLK
  5
21
100
AcDbEntity
  8
0
100
AcDbBlockEnd
  0
BLOCK
  5
1C
100
AcDbEntity
  8
0
100
AcDbBlockBegin
  2
*Paper_Space
 70
0
 10
0.0
 20
0.0
 30
0.0
  3
*Paper_Space
  1

  0
ENDBLK
  5
1D
100
AcDbEntity
  8
0
100
AcDbBlockEnd
  0
BLOCK
  5
214
100
AcDbEntity
  8
0
100
AcDbBlockBegin
  2
_FILLED
 70
64
 10
0.0
 20
0.0
  3
_FILLED
  1

  0
SOLID
  5
215
100
AcDbEntity
  8
0
  6
BYBLOCK
 62
0
100
AcDbTrace
 10
0.0
 20
0.0
 11
-1.0
 21
0.25
 12
-1.0
 22
-0.25
 13
-1.0
 23
-0.25
  0
ENDBLK
  5
216
100
AcDbEntity
  8
0
  6
BYBLOCK
 62
0
100
AcDbBlockEnd
  0
ENDSEC
  0
SECTION
  2
ENTITIES
  0
LINE
  5
217
100
AcDbEntity
  8
0
100
AcDbLine
 62
7
  6
CONTINUOUS
 10
542.5733985333
 20
80.3510204081
 11
545.1946850753
 21
80.7553956661
  0
LINE
  5
218
100
AcDbEntity
  8
0
100
AcDbLine
 62
7
  6
CONTINUOUS
 10
516.3631019221
 20
77.5510204082
 11
144.6631019221
 21
77.5510204082
  0
LINE
  5
219
100
AcDbEntity
  8
0
100
AcDbLine
 62
7
  6
CONTINUOUS
 10
516.3631019221
 20
78.7510204082
 11
144.6631019221
 21
78.7510204082
  0
LINE
  5
21A
100
AcDbEntity
  8
0
100
AcDbLine
 62
7
  6
CONTINUOUS
 10
527.4733985335
 20
78.8510204082
 11
542.5733985336
 21
78.8510204082
  0
LINE
  5
21B
100
AcDbEntity
  8
0
100
AcDbLine
 62
7
  6
CONTINUOUS
 10
527.4733985335
 20
80.3510204082
 11
542.5733985335
 21
80.3510204082
  0
LINE
  5
21C
100
AcDbEntity
  8
0
100
AcDbLine
 62
7
  6
CONTINUOUS
 10
521.0631019221
 20
141.7744492947
 11
520.7631019221
 21
141.7215512004
  0
LINE
  5
21D
100
AcDbEntity
  8
0
100
AcDbLine
 62
7
  6
CONTINUOUS
 10
521.1196773429
 20
129.0510166515
 11
520.7631019221
 21
129.0000773056
  0
LINE
  5
21E
100
AcDbEntity
  8
0
100
AcDbLine
 62
7
  6
CONTINUOUS
 10
520.7631018194
 20
129.3611363245
 11
520.9682553602
 21
129.3904458671
  0
LINE
  5
21F
100
AcDbEntity
  8
0
100
AcDbLine
 62
7
  6
CONTINUOUS
 10
520.9682553115
 20
129.3904443196
 11
521.4631019203
 21
129.446993251
  0
LINE
  5
220
100
AcDbEntity
  8
0
100
AcDbLine
 62
7
  6
CONTINUOUS
 10
141.5631019221
 20
93.0510204082
 11
141.7631019221
 21
93.0510204082
  0
LINE
  5
221
100
AcDbEntity
  8
0
100
AcDbLine
 62
7
  6
CONTINUOUS
 10
141.5631019221
 20
106.0510204082
 11
141.7631019221
 21
106.0510204082
  0
LINE
  5
222
100
AcDbEntity
  8
0
100
AcDbLine
 62
7
  6
CONTINUOUS
 10
519.2631019221
 20
121.5510204082
 11
525.7733985335
 21
121.5510204082
  0
LINE
  5
223
100
AcDbEntity
  8
0
100
AcDbLine
 62
7
  6
CONTINUOUS
 10
521.291398208
 20
156.2755482036
 11
520.7631019221
 21
156.2000773056
  0
LINE
  5
224
100
AcDbEntity
  8
0
100
AcDbLine
 62
7
  6
CONTINUOUS
 10
520.7631019332
 20
156.380605439
 11
520.968255433
 21
156.4099095337
  0
LINE
  5
225
100
AcDbEntity
  8
0
100
AcDbLine
 62
7
  6
CONTINUOUS
 10
520.9682553115
 20
156.4099079586
 11
521.4631019193
 21
156.4735350973
  0
LINE
  5
226
100
AcDbEntity
  8
0
100
AcDbLine
 62
7
  6
CONTINUOUS
 10
519.7631019221
 20
123.5510204082
 11
519.2631019221
 21
123.5510204082
  0
LINE
  5
227
100
AcDbEntity
  8
0
100
AcDbLine
 62
7
  6
CONTINUOUS
 10
525.7733985335
 20
96.2855469403
 11
521.6447199129
 21
97.0880807669
  0
LINE
  5
228
100
AcDbEntity
  8
0
100
AcDbLine
 62
7
  6
CONTINUOUS
 10
521.6447199129
 20
98.266033387
 11
525.7733985335
 21
97.4634995604
  0
LINE
  5
229
100
AcDbEntity
  8
0
100
AcDbLine
 62
7
  6
CONTINUOUS
 10
519.2631019221
 20
169.5510204082
 11
519.7631019221
 21
169.5510204082
  0
LINE
  5
22A
100
AcDbEntity
  8
0
100
AcDbLine
 62
7
  6
CONTINUOUS
 10
519.2631019221
 20
171.5510204082
 11
525.7733985335
 21
171.5510204082
  0
LINE
  5
22B
100
AcDbEntity
  8
0
100
AcDbLine
 62
7
  6
CONTINUOUS
 10
521.4631019221
 20
136.4550404878
 11
520.9682553115
 21
136.5115904104
  0
LINE
  5
22C
100
AcDbEntity
  8
0
100
AcDbLine
 62
7
  6
CONTINUOUS
 10
520.9682553519
 20
136.511591434
 11
520.7631018217
 21
136.5409045417
  0
LINE
  5
22D
100
AcDbEntity
  8
0
100
AcDbLine
 62
7
  6
CONTINUOUS
 10
520.7631019221
 20
136.9019635107
 11
521.1196787519
 21
136.8510239636
  0
LINE
  5
22E
100
AcDbEntity
  8
0
100
AcDbLine
 62
7
  6
CONTINUOUS
 10
520.9682553115
 20
163.8921313734
 11
521.4626254239
 21
163.8285848102
  0
LINE
  5
22F
100
AcDbEntity
  8
0
100
AcDbLine
 62
7
  6
CONTINUOUS
 10
520.9682554294
 20
163.8921313611
 11
520.7631019221
 21
163.9214351931
  0
LINE
  5
230
100
AcDbEntity
  8
0
100
AcDbLine
 62
7
  6
CONTINUOUS
 10
520.7631019221
 20
164.1019635107
 11
521.2914022673
 21
164.0264920328
  0
LINE
  5
231
100
AcDbEntity
  8
0
100
AcDbLine
 62
7
  6
CONTINUOUS
 10
521.4626254239
 20
163.8285848102
 11
521.4631019221
 21
163.8285044198
  0
LINE
  5
232
100
AcDbEntity
  8
0
100
AcDbLine
 62
7
  6
CONTINUOUS
 10
521.0631019221
 20
151.3275915217
 11
520.7631019221
 21
151.3804896159
  0
LINE
  5
233
100
AcDbEntity
  8
0
100
AcDbLine
 62
7
  6
CONTINUOUS
 10
544.7206307629
 20
874.1545286015
 11
545.1946850752
 21
874.4864650045
  0
LINE
  5
234
100
AcDbEntity
  8
0
100
AcDbLine
 62
7
  6
CONTINUOUS
 10
544.7206307629
 20
80.5475122149
 11
545.1946850756
 21
80.2155758116
  0
LINE
  5
235
100
AcDbEntity
  8
0
100
AcDbLine
 62
7
  6
CONTINUOUS
 10
141.5631019221
 20
93.0510204082
 11
141.5631019221
 21
106.0510204082
  0
LINE
  5
236
100
AcDbEntity
  8
0
100
AcDbLine
 62
7
  6
CONTINUOUS
 10
141.5631019221
 20
849.0510204082
 11
141.5631019221
 21
862.0510204082
  0
LINE
  5
237
100
AcDbEntity
  8
0
100
AcDbLine
 62
7
  6
CONTINUOUS
 10
141.7631019221
 20
874.6510204082
 11
141.7631019221
 21
80.4510204082
  0
LINE
  5
238
100
AcDbEntity
  8
0
100
AcDbLine
 62
7
  6
CONTINUOUS
 10
144.6631019221
 20
77.5510204095
 11
144.6631019221
 21
877.5510204069
  0
LINE
  5
239
100
AcDbEntity
  8
0
100
AcDbLine
 62
7
  6
CONTINUOUS
 10
521.0631019221
 20
803.7744492947
 11
521.2631019221
 21
803.9422692209
  0
LINE
  5
23A
100
AcDbEntity
  8
0
100
AcDbLine
 62
7
  6
CONTINUOUS
 10
521.2631019221
 20
151.1597715954
 11
521.0631019221
 21
151.3275915217
  0
LINE
  5
23B
100
AcDbEntity
  8
0
100
AcDbLine
 62
7
  6
CONTINUOUS
 10
521.0631019221
 20
416.7744492947
 11
520.7631019221
 21
416.7215512004
  0
LINE
  5
23C
100
AcDbEntity
  8
0
100
AcDbLine
 62
7
  6
CONTINUOUS
 10
521.1196773429
 20
404.0510166515
 11
520.7631019221
 21
404.0000773056
  0
LINE
  5
23D
100
AcDbEntity
  8
0
100
AcDbLine
 62
7
  6
CONTINUOUS
 10
520.7631018194
 20
404.3611363245
 11
520.9682553602
 21
404.3904458671
  0
LINE
  5
23E
100
AcDbEntity
  8
0
100
AcDbLine
 62
7
  6
CONTINUOUS
 10
520.9682553115
 20
404.3904443196
 11
521.4631019203
 21
404.446993251
  0
LINE
  5
23F
100
AcDbEntity
  8
0
100
AcDbLine
 62
7
  6
CONTINUOUS
 10
546.6235778276
 20
447.7806938427
 11
547.3659447819
 21
447.9521825896
  0
LINE
  5
240
100
AcDbEntity
  8
0
100
AcDbLine
 62
7
  6
CONTINUOUS
 10
521.291398208
 20
431.2755482036
 11
520.7631019221
 21
431.2000773056
  0
LINE
  5
241
100
AcDbEntity
  8
0
100
AcDbLine
 62
7
  6
CONTINUOUS
 10
520.7631019332
 20
431.380605439
 11
520.968255433
 21
431.4099095337
  0
LINE
  5
242
100
AcDbEntity
  8
0
100
AcDbLine
 62
7
  6
CONTINUOUS
 10
520.9682553115
 20
431.4099079586
 11
521.4631019193
 21
431.4735350973
  0
LINE
  5
243
100
AcDbEntity
  8
0
100
AcDbLine
 62
7
  6
CONTINUOUS
 10
519.2631019221
 20
396.5510204082
 11
525.7733985335
 21
396.5510204082
  0
LINE
  5
244
100
AcDbEntity
  8
0
100
AcDbLine
 62
7
  6
CONTINUOUS
 10
519.7631019221
 20
398.5510204082
 11
519.2631019221
 21
398.5510204082
  0
LINE
  5
245
100
AcDbEntity
  8
0
100
AcDbLine
 62
7
  6
CONTINUOUS
 10
546.6235778276
 20
447.7806938427
 11
545.7849761958
 21
447.7510203866
  0
LINE
  5
246
100
AcDbEntity
  8
0
100
AcDbLine
 62
7
  6
CONTINUOUS
 10
551.7701184022
 20
455.96832907
 11
551.7709380427
 21
455.968346599
  0
LINE
  5
247
100
AcDbEntity
  8
0
100
AcDbLine
 62
7
  6
CONTINUOUS
 10
519.2631019221
 20
444.5510204082
 11
519.7631019221
 21
444.5510204082
  0
LINE
  5
248
100
AcDbEntity
  8
0
100
AcDbLine
 62
7
  6
CONTINUOUS
 10
519.2631019221
 20
446.5510204082
 11
525.7733985335
 21
446.5510204082
  0
LINE
  5
249
100
AcDbEntity
  8
0
100
AcDbLine
 62
7
  6
CONTINUOUS
 10
521.4631019221
 20
411.4550404878
 11
520.9682553115
 21
411.5115904104
  0
LINE
  5
24A
100
AcDbEntity
  8
0
100
AcDbLine
 62
7
  6
CONTINUOUS
 10
520.9682553519
 20
411.511591434
 11
520.7631018217
 21
411.5409045417
  0
LINE
  5
24B
100
AcDbEntity
  8
0
100
AcDbLine
 62
7
  6
CONTINUOUS
 10
520.7631019221
 20
411.9019635107
 11
521.1196787519
 21
411.8510239636
  0
LINE
  5
24C
100
AcDbEntity
  8
0
100
AcDbLine
 62
7
  6
CONTINUOUS
 10
551.7701184022
 20
455.96832907
 11
551.761446787
 21
455.968299693
  0
LINE
  5
24D
100
AcDbEntity
  8
0
100
AcDbLine
 62
7
  6
CONTINUOUS
 10
551.7715996329
 20
454.5397547214
 11
551.7621035516
 21
454.5397503237
  0
LINE
  5
24E
100
AcDbEntity
  8
0
100
AcDbLine
 62
7
  6
CONTINUOUS
 10
520.9682553115
 20
438.8921313734
 11
521.4626254239
 21
438.8285848102
  0
LINE
  5
24F
100
AcDbEntity
  8
0
100
AcDbLine
 62
7
  6
CONTINUOUS
 10
520.9682554294
 20
438.8921313611
 11
520.7631019221
 21
438.9214351931
  0
LINE
  5
250
100
AcDbEntity
  8
0
100
AcDbLine
 62
7
  6
CONTINUOUS
 10
520.7631019221
 20
439.1019635107
 11
521.2914022673
 21
439.0264920328
  0
LINE
  5
251
100
AcDbEntity
  8
0
100
AcDbLine
 62
7
  6
CONTINUOUS
 10
521.4626254239
 20
438.8285848102
 11
521.4631019221
 21
438.8285044198
  0
LINE
  5
252
100
AcDbEntity
  8
0
100
AcDbLine
 62
7
  6
CONTINUOUS
 10
521.0631019221
 20
426.3275915217
 11
520.7631019221
 21
426.3804896159
  0
LINE
  5
253
100
AcDbEntity
  8
0
100
AcDbLine
 62
7
  6
CONTINUOUS
 10
551.7458974044
 20
489.539249365
 11
551.7553911361
 21
489.5392537616
  0
LINE
  5
254
100
AcDbEntity
  8
0
100
AcDbLine
 62
7
  6
CONTINUOUS
 10
551.7452351462
 20
490.9678402741
 11
551.7547295463
 21
490.967844671
  0
LINE
  5
255
100
AcDbEntity
  8
0
100
AcDbLine
 62
7
  6
CONTINUOUS
 10
545.7733985335
 20
497.7506160922
 11
546.6004496274
 21
497.7221183052
  0
LINE
  5
256
100
AcDbEntity
  8
0
100
AcDbLine
 62
7
  6
CONTINUOUS
 10
546.6004496274
 20
497.7221183052
 11
547.3429750984
 21
497.5513172217
  0
LINE
  5
257
100
AcDbEntity
  8
0
100
AcDbLine
 62
7
  6
CONTINUOUS
 10
521.2631019221
 20
426.1597715954
 11
521.0631019221
 21
426.3275915217
  0
LINE
  5
258
100
AcDbEntity
  8
0
100
AcDbLine
 62
7
  6
CONTINUOUS
 10
516.3631019221
 20
877.5510204069
 11
516.3631019221
 21
77.5510204095
  0
LINE
  5
259
100
AcDbEntity
  8
0
100
AcDbLine
 62
7
  6
CONTINUOUS
 10
519.2631019221
 20
80.4510204082
 11
519.2631019221
 21
874.6510204082
  0
LINE
  5
25A
100
AcDbEntity
  8
0
100
AcDbLine
 62
7
  6
CONTINUOUS
 10
519.7631019221
 20
831.5510204082
 11
519.7631019221
 21
785.5510204082
  0
LINE
  5
25B
100
AcDbEntity
  8
0
100
AcDbLine
 62
7
  6
CONTINUOUS
 10
519.7631019221
 20
444.5510204082
 11
519.7631019221
 21
398.5510204082
  0
LINE
  5
25C
100
AcDbEntity
  8
0
100
AcDbLine
 62
7
  6
CONTINUOUS
 10
519.7631019221
 20
169.5510204082
 11
519.7631019221
 21
123.5510204082
  0
LINE
  5
25D
100
AcDbEntity
  8
0
100
AcDbLine
 62
7
  6
CONTINUOUS
 10
520.7631019221
 20
121.5510204082
 11
520.7631019221
 21
171.5510204082
  0
LINE
  5
25E
100
AcDbEntity
  8
0
100
AcDbLine
 62
7
  6
CONTINUOUS
 10
520.7631019221
 20
396.5510204082
 11
520.7631019221
 21
446.5510204082
  0
LINE
  5
25F
100
AcDbEntity
  8
0
100
AcDbLine
 62
7
  6
CONTINUOUS
 10
520.7631019221
 20
783.5510204082
 11
520.7631019221
 21
833.5510204082
  0
LINE
  5
260
100
AcDbEntity
  8
0
100
AcDbLine
 62
7
  6
CONTINUOUS
 10
520.9682554294
 20
825.8921313611
 11
520.968255433
 21
818.4099095337
  0
LINE
  5
261
100
AcDbEntity
  8
0
100
AcDbLine
 62
7
  6
CONTINUOUS
 10
520.9682553519
 20
798.511591434
 11
520.9682553602
 21
791.3904458671
  0
LINE
  5
262
100
AcDbEntity
  8
0
100
AcDbLine
 62
7
  6
CONTINUOUS
 10
520.9682554294
 20
438.8921313611
 11
520.968255433
 21
431.4099095337
  0
LINE
  5
263
100
AcDbEntity
  8
0
100
AcDbLine
 62
7
  6
CONTINUOUS
 10
520.9682553519
 20
411.511591434
 11
520.9682553602
 21
404.3904458671
  0
LINE
  5
264
100
AcDbEntity
  8
0
100
AcDbLine
 62
7
  6
CONTINUOUS
 10
520.9682554294
 20
163.8921313611
 11
520.968255433
 21
156.4099095337
  0
LINE
  5
265
100
AcDbEntity
  8
0
100
AcDbLine
 62
7
  6
CONTINUOUS
 10
520.9682553519
 20
136.511591434
 11
520.9682553602
 21
129.3904458671
  0
LINE
  5
266
100
AcDbEntity
  8
0
100
AcDbLine
 62
7
  6
CONTINUOUS
 10
521.0631019221
 20
813.3275915217
 11
521.0631019221
 21
803.7744492947
  0
LINE
  5
267
100
AcDbEntity
  8
0
100
AcDbLine
 62
7
  6
CONTINUOUS
 10
521.0631019221
 20
426.3275915217
 11
521.0631019221
 21
416.7744492947
  0
LINE
  5
268
100
AcDbEntity
  8
0
100
AcDbLine
 62
7
  6
CONTINUOUS
 10
521.0631019221
 20
151.3275915217
 11
521.0631019221
 21
141.7744492947
  0
LINE
  5
269
100
AcDbEntity
  8
0
100
AcDbLine
 62
7
  6
CONTINUOUS
 10
521.2631019221
 20
813.1597715954
 11
521.2631019221
 21
803.9422692209
  0
LINE
  5
26A
100
AcDbEntity
  8
0
100
AcDbLine
 62
7
  6
CONTINUOUS
 10
521.2631019221
 20
426.1597129253
 11
521.2631019221
 21
416.942327891
  0
LINE
  5
26B
100
AcDbEntity
  8
0
100
AcDbLine
 62
7
  6
CONTINUOUS
 10
521.2631019221
 20
151.1597129253
 11
521.2631019221
 21
141.942327891
  0
LINE
  5
26C
100
AcDbEntity
  8
0
100
AcDbLine
 62
7
  6
CONTINUOUS
 10
521.4631019221
 20
129.4469945132
 11
521.4631019221
 21
136.4550419932
  0
LINE
  5
26D
100
AcDbEntity
  8
0
100
AcDbLine
 62
7
  6
CONTINUOUS
 10
521.4631019221
 20
156.4735358502
 11
521.4631019221
 21
163.8285044198
  0
LINE
  5
26E
100
AcDbEntity
  8
0
100
AcDbLine
 62
7
  6
CONTINUOUS
 10
521.4631019221
 20
404.4469945132
 11
521.4631019221
 21
411.4550419932
  0
LINE
  5
26F
100
AcDbEntity
  8
0
100
AcDbLine
 62
7
  6
CONTINUOUS
 10
521.4631019221
 20
431.4735358502
 11
521.4631019221
 21
438.8285044198
  0
LINE
  5
270
100
AcDbEntity
  8
0
100
AcDbLine
 62
7
  6
CONTINUOUS
 10
521.4631019221
 20
791.4469945132
 11
521.4631019221
 21
798.4550419932
  0
LINE
  5
271
100
AcDbEntity
  8
0
100
AcDbLine
 62
7
  6
CONTINUOUS
 10
521.4631019221
 20
818.4735358502
 11
521.4631019221
 21
825.8285044198
  0
LINE
  5
272
100
AcDbEntity
  8
0
100
AcDbLine
 62
7
  6
CONTINUOUS
 10
521.6447199129
 20
98.266033387
 11
521.6447199129
 21
121.5510204082
  0
LINE
  5
273
100
AcDbEntity
  8
0
100
AcDbLine
 62
7
  6
CONTINUOUS
 10
521.6447199129
 20
171.5510204082
 11
521.6447199129
 21
396.5510204082
  0
LINE
  5
274
100
AcDbEntity
  8
0
100
AcDbLine
 62
7
  6
CONTINUOUS
 10
521.6447199129
 20
446.5510204082
 11
521.6447199129
 21
783.5510204082
  0
LINE
  5
275
100
AcDbEntity
  8
0
100
AcDbLine
 62
7
  6
CONTINUOUS
 10
521.6447199129
 20
833.5510204082
 11
521.6447199129
 21
856.8360074294
  0
LINE
  5
276
100
AcDbEntity
  8
0
100
AcDbLine
 62
7
  6
CONTINUOUS
 10
521.9539109175
 20
121.5510204082
 11
521.9539109175
 21
171.5510204082
  0
LINE
  5
277
100
AcDbEntity
  8
0
100
AcDbLine
 62
7
  6
CONTINUOUS
 10
521.9539109175
 20
396.5510204082
 11
521.9539109175
 21
446.5510204082
  0
LINE
  5
278
100
AcDbEntity
  8
0
100
AcDbLine
 62
7
  6
CONTINUOUS
 10
521.9539109175
 20
783.5510204082
 11
521.9539109175
 21
833.5510204082
  0
LINE
  5
279
100
AcDbEntity
  8
0
100
AcDbLine
 62
7
  6
CONTINUOUS
 10
525.7733985335
 20
81.3314725599
 11
525.7733985335
 21
873.3705682565
  0
LINE
  5
27A
100
AcDbEntity
  8
0
100
AcDbLine
 62
7
  6
CONTINUOUS
 10
527.4733985335
 20
78.8510204082
 11
527.4733985335
 21
875.8510204082
  0
LINE
  5
27B
100
AcDbEntity
  8
0
100
AcDbLine
 62
7
  6
CONTINUOUS
 10
521.2631019221
 20
416.9422692209
 11
521.0631019221
 21
416.7744492947
  0
LWPOLYLINE
  5
27C
100
AcDbEntity
  8
0
100
AcDbPolyline
 62
7
  6
CONTINUOUS
 90
4
 70
0
 10
551.4243901322
 20
489.7145924607
 10
551.4050877288
 20
489.896444579
 10
551.3707317894
 20
490.3185023006
 10
551.3651783164
 20
490.5030272493
  0
LINE
  5
27D
100
AcDbEntity
  8
0
100
AcDbLine
 62
7
  6
CONTINUOUS
 10
551.3838844579
 20
490.0535223098
 11
551.4161953764
 21
489.7434399251
  0
LWPOLYLINE
  5
27E
100
AcDbEntity
  8
0
100
AcDbPolyline
 62
7
  6
CONTINUOUS
 90
3
 70
0
 10
551.7551802741
 20
489.5483430839
 10
551.6673170386
 20
490.5474300014
 10
551.5554037353
 20
491.3050660157
  0
LWPOLYLINE
  5
27F
100
AcDbEntity
  8
0
100
AcDbPolyline
 62
7
  6
CONTINUOUS
 90
3
 70
0
 10
551.7544544933
 20
490.9781135356
 10
551.7207715214
 20
491.408247829
 10
551.5694639531
 20
492.3585599072
  0
LINE
  5
280
100
AcDbEntity
  8
0
100
AcDbLine
 62
7
  6
CONTINUOUS
 10
551.7458974105
 20
489.5392362943
 11
551.7453572235
 21
489.5474357396
  0
LINE
  5
281
100
AcDbEntity
  8
0
100
AcDbLine
 62
7
  6
CONTINUOUS
 10
551.7446491555
 20
490.9772625138
 11
551.7452351448
 21
490.9678437924
  0
LWPOLYLINE
  5
282
100
AcDbEntity
  8
0
100
AcDbPolyline
 62
7
  6
CONTINUOUS
 90
4
 70
0
 10
551.570513142
 20
487.4950669029
 10
551.5269784761
 20
488.5017776275
 10
551.4927618345
 20
488.9873301647
 10
551.4243870541
 20
489.7146819877
  0
LINE
  5
283
100
AcDbEntity
  8
0
100
AcDbLine
 62
7
  6
CONTINUOUS
 10
551.5604204444
 20
487.4948126438
 11
551.5602346956
 21
487.5014447095
  0
LINE
  5
284
100
AcDbEntity
  8
0
100
AcDbLine
 62
7
  6
CONTINUOUS
 10
551.3825452395
 20
453.0030724894
 11
551.3825441052
 21
453.0040040035
  0
LINE
  5
285
100
AcDbEntity
  8
0
100
AcDbLine
 62
7
  6
CONTINUOUS
 10
551.3651773523
 20
490.5045606571
 11
551.3651781297
 21
490.5033938995
  0
LINE
  5
286
100
AcDbEntity
  8
0
100
AcDbLine
 62
7
  6
CONTINUOUS
 10
551.364252299
 20
492.5022156515
 11
551.3642520904
 21
492.502506753
  0
LINE
  5
287
100
AcDbEntity
  8
0
100
AcDbLine
 62
7
  6
CONTINUOUS
 10
546.6004496274
 20
497.7221183052
 11
546.6017782325
 21
494.8532211386
  0
LINE
  5
288
100
AcDbEntity
  8
0
100
AcDbLine
 62
7
  6
CONTINUOUS
 10
546.6222492251
 20
450.6495855921
 11
546.6235778276
 21
447.7806938427
  0
LINE
  5
289
100
AcDbEntity
  8
0
100
AcDbLine
 62
7
  6
CONTINUOUS
 10
547.3429807154
 20
497.5513147285
 11
547.344300214
 21
494.702081322
  0
LINE
  5
28A
100
AcDbEntity
  8
0
100
AcDbLine
 62
7
  6
CONTINUOUS
 10
547.3646309001
 20
450.8014138337
 11
547.3659503966
 21
447.952185088
  0
LINE
  5
28B
100
AcDbEntity
  8
0
100
AcDbLine
 62
7
  6
CONTINUOUS
 10
547.9059431558
 20
487.9824418494
 11
547.9200497829
 21
457.5215738007
  0
LINE
  5
28C
100
AcDbEntity
  8
0
100
AcDbLine
 62
7
  6
CONTINUOUS
 10
551.7452351462
 20
490.9678402741
 11
551.7458433569
 21
489.6545125386
  0
LINE
  5
28D
100
AcDbEntity
  8
0
100
AcDbLine
 62
7
  6
CONTINUOUS
 10
551.7458974044
 20
489.539249365
 11
551.7497988415
 21
481.1147578123
  0
LINE
  5
28E
100
AcDbEntity
  8
0
100
AcDbLine
 62
7
  6
CONTINUOUS
 10
551.7530995234
 20
473.9927991543
 11
551.761446787
 21
455.968299693
  0
LINE
  5
28F
100
AcDbEntity
  8
0
100
AcDbLine
 62
7
  6
CONTINUOUS
 10
551.7615062524
 20
455.8295166007
 11
551.7621035516
 21
454.5397503237
  0
LINE
  5
290
100
AcDbEntity
  8
0
100
AcDbLine
 62
7
  6
CONTINUOUS
 10
551.7715996329
 20
454.5397547214
 11
551.7626495545
 21
473.8659307241
  0
LINE
  5
291
100
AcDbEntity
  8
0
100
AcDbLine
 62
7
  6
CONTINUOUS
 10
551.75923381
 20
481.2416514577
 11
551.7553911361
 21
489.5392537616
  0
LINE
  5
292
100
AcDbEntity
  8
0
100
AcDbLine
 62
7
  6
CONTINUOUS
 10
551.7553869182
 20
489.5483616085
 11
551.7547295463
 21
490.967844671
  0
LINE
  5
293
100
AcDbEntity
  8
0
100
AcDbLine
 62
7
  6
CONTINUOUS
 10
551.3816186271
 20
455.0024169159
 11
551.3816183308
 21
455.0037842738
  0
LINE
  5
294
100
AcDbEntity
  8
0
100
AcDbLine
 62
7
  6
CONTINUOUS
 10
537.1055085897
 20
78.8510204082
 11
537.1055085897
 21
875.8510204082
  0
LINE
  5
295
100
AcDbEntity
  8
0
100
AcDbLine
 62
7
  6
CONTINUOUS
 10
538.498067065
 20
80.3510204082
 11
538.498067065
 21
78.8510204082
  0
LINE
  5
296
100
AcDbEntity
  8
0
100
AcDbLine
 62
7
  6
CONTINUOUS
 10
538.498067065
 20
874.3510204082
 11
538.4980670649
 21
875.8510204082
  0
LINE
  5
297
100
AcDbEntity
  8
0
100
AcDbLine
 62
7
  6
CONTINUOUS
 10
539.7267951314
 20
80.3510204082
 11
539.7267951314
 21
874.3510204082
  0
LINE
  5
298
100
AcDbEntity
  8
0
100
AcDbLine
 62
7
  6
CONTINUOUS
 10
542.5733985336
 20
875.8510204078
 11
542.5733985336
 21
874.3510204063
  0
LINE
  5
299
100
AcDbEntity
  8
0
100
AcDbLine
 62
7
  6
CONTINUOUS
 10
542.5733985336
 20
80.3510204082
 11
542.5733985336
 21
78.8510204085
  0
LINE
  5
29A
100
AcDbEntity
  8
0
100
AcDbLine
 62
7
  6
CONTINUOUS
 10
545.1946850752
 20
873.9466451503
 11
545.1946850753
 21
80.7553956661
  0
LINE
  5
29B
100
AcDbEntity
  8
0
100
AcDbLine
 62
7
  6
CONTINUOUS
 10
545.7733985335
 20
82.0510204082
 11
545.7733985335
 21
872.6510204082
  0
LWPOLYLINE
  5
29C
100
AcDbEntity
  8
0
100
AcDbPolyline
 62
7
  6
CONTINUOUS
 90
3
 70
0
 10
551.5841567314
 20
458.0123519592
 10
551.7405941198
 20
472.7477737966
 10
551.5705032234
 20
487.4950585791
  0
LINE
  5
29D
100
AcDbEntity
  8
0
100
AcDbLine
 62
7
  6
CONTINUOUS
 10
551.5738942374
 20
458.0059552016
 11
551.5740530549
 21
458.0125936776
  0
LWPOLYLINE
  5
29E
100
AcDbEntity
  8
0
100
AcDbPolyline
 62
7
  6
CONTINUOUS
 90
4
 70
0
 10
551.3816153215
 20
455.0042963153
 10
551.3869337381
 20
455.1873883427
 10
551.4205408863
 20
455.6065450717
 10
551.4400980974
 20
455.7926652809
  0
LWPOLYLINE
  5
29F
100
AcDbEntity
  8
0
100
AcDbPolyline
 62
7
  6
CONTINUOUS
 90
9
 70
0
 10
551.3825572143
 20
453.0027848818
 10
551.391096321
 20
453.1168371317
 10
551.420828526
 20
453.3242064864
 10
551.4696809095
 20
453.6098722015
 10
551.5324635076
 20
453.9662512991
 10
551.6030352155
 20
454.3906249357
 10
551.6738016258
 20
454.8814147611
 10
551.7350561882
 20
455.43689906
 10
551.7695850539
 20
455.9494361269
  0
LWPOLYLINE
  5
2A0
100
AcDbEntity
  8
0
100
AcDbPolyline
 62
7
  6
CONTINUOUS
 90
4
 70
0
 10
551.4400943982
 20
455.7925747724
 10
551.5072275749
 20
456.5127599678
 10
551.541102846
 20
456.9979987948
 10
551.584166811
 20
458.0123436442
  0
LINE
  5
2A1
100
AcDbEntity
  8
0
100
AcDbLine
 62
7
  6
CONTINUOUS
 10
551.7698982346
 20
455.9488787281
 11
551.7704575397
 21
455.9543810703
  0
LWPOLYLINE
  5
2A2
100
AcDbEntity
  8
0
100
AcDbPolyline
 62
7
  6
CONTINUOUS
 90
4
 70
0
 10
551.5041861623
 20
452.7896920898
 10
551.5872255503
 20
453.146980069
 10
551.7374842915
 20
454.0938042701
 10
551.7713123284
 20
454.5294205416
  0
LINE
  5
2A3
100
AcDbEntity
  8
0
100
AcDbLine
 62
7
  6
CONTINUOUS
 10
551.3899268935
 20
452.3742875124
 11
551.5041861623
 21
452.7896920898
  0
LINE
  5
2A4
100
AcDbEntity
  8
0
100
AcDbLine
 62
7
  6
CONTINUOUS
 10
551.3766561503
 20
452.3306611158
 11
551.3901848007
 21
452.3783433795
  0
LINE
  5
2A5
100
AcDbEntity
  8
0
100
AcDbLine
 62
7
  6
CONTINUOUS
 10
551.3718229915
 20
452.3147243503
 11
551.382914403
 21
452.3513695359
  0
LINE
  5
2A6
100
AcDbEntity
  8
0
100
AcDbLine
 62
7
  6
CONTINUOUS
 10
551.3526919447
 20
493.1930346373
 11
551.3647053593
 21
493.1535951589
  0
LINE
  5
2A7
100
AcDbEntity
  8
0
100
AcDbLine
 62
7
  6
CONTINUOUS
 10
551.3586709323
 20
493.1734972359
 11
551.3713171143
 21
493.1289060888
  0
LINE
  5
2A8
100
AcDbEntity
  8
0
100
AcDbLine
 62
7
  6
CONTINUOUS
 10
551.4859229276
 20
492.7167945255
 11
551.3706556211
 21
493.1342183235
  0
LINE
  5
2A9
100
AcDbEntity
  8
0
100
AcDbLine
 62
7
  6
CONTINUOUS
 10
551.5694639531
 20
492.3585599072
 11
551.4859229276
 21
492.7167945255
  0
LWPOLYLINE
  5
2AA
100
AcDbEntity
  8
0
100
AcDbPolyline
 62
7
  6
CONTINUOUS
 90
4
 70
0
 10
551.5554037353
 20
491.3050660157
 10
551.4028710046
 20
492.1828229196
 10
551.3730354636
 20
492.3893109968
 10
551.3642613019
 20
492.5034671604
  0
LINE
  5
2AB
100
AcDbEntity
  8
0
100
AcDbLine
 62
7
  6
CONTINUOUS
 10
551.7458974105
 20
489.5392362943
 11
551.7449059322
 21
489.5470594943
  0
LINE
  5
2AC
100
AcDbEntity
  8
0
100
AcDbLine
 62
7
  6
CONTINUOUS
 10
551.7551793681
 20
489.5483628215
 11
551.7551025132
 21
489.5489807494
  0
LINE
  5
2AD
100
AcDbEntity
  8
0
100
AcDbLine
 62
7
  6
CONTINUOUS
 10
551.7441423974
 20
490.9768643288
 11
551.7452351448
 21
490.9678437924
  0
LINE
  5
2AE
100
AcDbEntity
  8
0
100
AcDbLine
 62
7
  6
CONTINUOUS
 10
521.6447199129
 20
97.0880807669
 11
521.8736907073
 21
98.266033387
  0
LINE
  5
2AF
100
AcDbEntity
  8
0
100
AcDbLine
 62
7
  6
CONTINUOUS
 10
521.6447199129
 20
858.0139600495
 11
521.8736907074
 21
856.8360074293
  0
LINE
  5
2B0
100
AcDbEntity
  8
0
100
AcDbLine
 62
7
  6
CONTINUOUS
 10
520.7631019221
 20
803.7215512004
 11
521.0631019221
 21
803.7744492947
  0
LINE
  5
2B1
100
AcDbEntity
  8
0
100
AcDbLine
 62
7
  6
CONTINUOUS
 10
521.1196773429
 20
791.0510166515
 11
520.7631019221
 21
791.0000773056
  0
LINE
  5
2B2
100
AcDbEntity
  8
0
100
AcDbLine
 62
7
  6
CONTINUOUS
 10
520.7631018194
 20
791.3611363245
 11
520.9682553602
 21
791.3904458671
  0
LINE
  5
2B3
100
AcDbEntity
  8
0
100
AcDbLine
 62
7
  6
CONTINUOUS
 10
520.9682553115
 20
791.3904443196
 11
521.4631019203
 21
791.446993251
  0
LINE
  5
2B4
100
AcDbEntity
  8
0
100
AcDbLine
 62
7
  6
CONTINUOUS
 10
521.291398208
 20
818.2755482036
 11
520.7631019221
 21
818.2000773056
  0
LINE
  5
2B5
100
AcDbEntity
  8
0
100
AcDbLine
 62
7
  6
CONTINUOUS
 10
520.7631019332
 20
818.380605439
 11
520.968255433
 21
818.4099095337
  0
LINE
  5
2B6
100
AcDbEntity
  8
0
100
AcDbLine
 62
7
  6
CONTINUOUS
 10
520.9682553115
 20
818.4099079586
 11
521.4631019193
 21
818.4735350973
  0
LINE
  5
2B7
100
AcDbEntity
  8
0
100
AcDbLine
 62
7
  6
CONTINUOUS
 10
519.2631019221
 20
783.5510204082
 11
525.7733985335
 21
783.5510204082
  0
LINE
  5
2B8
100
AcDbEntity
  8
0
100
AcDbLine
 62
7
  6
CONTINUOUS
 10
519.7631019221
 20
785.5510204082
 11
519.2631019221
 21
785.5510204082
  0
LINE
  5
2B9
100
AcDbEntity
  8
0
100
AcDbLine
 62
7
  6
CONTINUOUS
 10
525.7733985335
 20
857.638541256
 11
521.6447199129
 21
856.8360074294
  0
LINE
  5
2BA
100
AcDbEntity
  8
0
100
AcDbLine
 62
7
  6
CONTINUOUS
 10
521.6447199129
 20
858.0139600495
 11
525.7733985335
 21
858.8164938761
  0
LINE
  5
2BB
100
AcDbEntity
  8
0
100
AcDbLine
 62
7
  6
CONTINUOUS
 10
519.2631019221
 20
831.5510204082
 11
519.7631019221
 21
831.5510204082
  0
LINE
  5
2BC
100
AcDbEntity
  8
0
100
AcDbLine
 62
7
  6
CONTINUOUS
 10
519.2631019221
 20
833.5510204082
 11
525.7733985335
 21
833.5510204082
  0
LINE
  5
2BD
100
AcDbEntity
  8
0
100
AcDbLine
 62
7
  6
CONTINUOUS
 10
521.4631019221
 20
798.4550404878
 11
520.9682553115
 21
798.5115904104
  0
LINE
  5
2BE
100
AcDbEntity
  8
0
100
AcDbLine
 62
7
  6
CONTINUOUS
 10
520.9682553519
 20
798.511591434
 11
520.7631018217
 21
798.5409045417
  0
LINE
  5
2BF
100
AcDbEntity
  8
0
100
AcDbLine
 62
7
  6
CONTINUOUS
 10
520.7631019221
 20
798.9019635107
 11
521.1196787519
 21
798.8510239636
  0
LINE
  5
2C0
100
AcDbEntity
  8
0
100
AcDbLine
 62
7
  6
CONTINUOUS
 10
521.0631019221
 20
813.3275915217
 11
520.7631019221
 21
813.3804896159
  0
LINE
  5
2C1
100
AcDbEntity
  8
0
100
AcDbLine
 62
7
  6
CONTINUOUS
 10
521.2631019221
 20
141.9422692209
 11
521.0631019221
 21
141.7744492947
  0
LINE
  5
2C2
100
AcDbEntity
  8
0
100
AcDbLine
 62
7
  6
CONTINUOUS
 10
141.5631019221
 20
849.0510204082
 11
141.7631019221
 21
849.0510204082
  0
LINE
  5
2C3
100
AcDbEntity
  8
0
100
AcDbLine
 62
7
  6
CONTINUOUS
 10
141.5631019221
 20
862.0510204082
 11
141.7631019221
 21
862.0510204082
  0
LINE
  5
2C4
100
AcDbEntity
  8
0
100
AcDbLine
 62
7
  6
CONTINUOUS
 10
520.9682553115
 20
825.8921313734
 11
521.4626254239
 21
825.8285848102
  0
LINE
  5
2C5
100
AcDbEntity
  8
0
100
AcDbLine
 62
7
  6
CONTINUOUS
 10
520.9682554294
 20
825.8921313611
 11
520.7631019221
 21
825.9214351931
  0
LINE
  5
2C6
100
AcDbEntity
  8
0
100
AcDbLine
 62
7
  6
CONTINUOUS
 10
520.7631019221
 20
826.1019635107
 11
521.2914022673
 21
826.0264920328
  0
LINE
  5
2C7
100
AcDbEntity
  8
0
100
AcDbLine
 62
7
  6
CONTINUOUS
 10
521.4626254239
 20
825.8285848102
 11
521.4631019221
 21
825.8285044198
  0
LINE
  5
2C8
100
AcDbEntity
  8
0
100
AcDbLine
 62
7
  6
CONTINUOUS
 10
521.2631019221
 20
813.1597715954
 11
521.0631019221
 21
813.3275915217
  0
LINE
  5
2C9
100
AcDbEntity
  8
0
100
AcDbLine
 62
7
  6
CONTINUOUS
 10
521.2631301445
 20
97.9239169438
 11
521.6447199129
 21
98.266033387
  0
LINE
  5
2CA
100
AcDbEntity
  8
0
100
AcDbLine
 62
7
  6
CONTINUOUS
 10
527.4733985335
 20
874.3510204082
 11
542.5733985335
 21
874.3510204082
  0
LINE
  5
2CB
100
AcDbEntity
  8
0
100
AcDbLine
 62
7
  6
CONTINUOUS
 10
527.4733985335
 20
875.8510204082
 11
542.5733985336
 21
875.8510204082
  0
LINE
  5
2CC
100
AcDbEntity
  8
0
100
AcDbLine
 62
7
  6
CONTINUOUS
 10
516.3631019221
 20
876.3510204082
 11
144.6631019221
 21
876.3510204082
  0
LINE
  5
2CD
100
AcDbEntity
  8
0
100
AcDbLine
 62
7
  6
CONTINUOUS
 10
516.3631019221
 20
877.5510204069
 11
144.6631019221
 21
877.5510204069
  0
LINE
  5
2CE
100
AcDbEntity
  8
0
100
AcDbLine
 62
7
  6
CONTINUOUS
 10
545.1946850752
 20
873.9466451503
 11
542.5733985334
 21
874.3510204082
  0
LINE
  5
2CF
100
AcDbEntity
  8
0
100
AcDbLine
 62
7
  6
CONTINUOUS
 10
521.6447199129
 20
856.8360074293
 11
521.2631300968
 21
857.1781238191
  0
ARC
  5
2D0
100
AcDbEntity
  8
0
100
AcDbCircle
 62
7
  6
CONTINUOUS
 10
276.0489375401
 20
465.2418158043
 40
275.6199558544
100
AcDbArc
 50
358.4970187391
 51
358.6548955738
  0
ARC
  5
2D1
100
AcDbEntity
  8
0
100
AcDbCircle
 62
7
  6
CONTINUOUS
 10
162.1881019221
 20
99.5510204082
 40
21.625
100
AcDbArc
 50
162.5076754749
 51
197.4923245251
  0
ARC
  5
2D2
100
AcDbEntity
  8
0
100
AcDbCircle
 62
7
  6
CONTINUOUS
 10
144.6631019221
 20
80.4510204082
 40
2.9
100
AcDbArc
 50
180.0
 51
269.9999999999
  0
ARC
  5
2D3
100
AcDbEntity
  8
0
100
AcDbCircle
 62
7
  6
CONTINUOUS
 10
335.0116918753
 20
481.5477813645
 40
216.6303741998
100
AcDbArc
 50
1.3689208255
 51
1.5731063
  0
ARC
  5
2D4
100
AcDbEntity
  8
0
100
AcDbCircle
 62
7
  6
CONTINUOUS
 10
162.1881019221
 20
855.5510204082
 40
21.625
100
AcDbArc
 50
162.5076754749
 51
197.4923245251
  0
ARC
  5
2D5
100
AcDbEntity
  8
0
100
AcDbCircle
 62
7
  6
CONTINUOUS
 10
144.6631019221
 20
874.6510204082
 40
2.9
100
AcDbArc
 50
90.0000000001
 51
170.6996717029
  0
ARC
  5
2D6
100
AcDbEntity
  8
0
100
AcDbCircle
 62
7
  6
CONTINUOUS
 10
530.4624022831
 20
89.7672117394
 40
9.8670944766
100
AcDbArc
 50
247.1905111497
 51
248.6384786018
  0
ARC
  5
2D7
100
AcDbEntity
  8
0
100
AcDbCircle
 62
7
  6
CONTINUOUS
 10
542.5733985335
 20
82.0510204082
 40
3.2
100
AcDbArc
 50
270.0000000006
 51
360.0
  0
ARC
  5
2D8
100
AcDbEntity
  8
0
100
AcDbCircle
 62
7
  6
CONTINUOUS
 10
516.3631019221
 20
80.4510204082
 40
2.9
100
AcDbArc
 50
270.0
 51
350.6996556643
  0
ARC
  5
2D9
100
AcDbEntity
  8
0
100
AcDbCircle
 62
7
  6
CONTINUOUS
 10
521.2631019221
 20
95.1248264
 40
2.0
100
AcDbArc
 50
79.0
 51
180.0000000002
  0
ARC
  5
2DA
100
AcDbEntity
  8
0
100
AcDbCircle
 62
7
  6
CONTINUOUS
 10
527.4733985335
 20
80.5510204082
 40
1.7
100
AcDbArc
 50
163.8165274328
 51
270.0
  0
ARC
  5
2DB
100
AcDbEntity
  8
0
100
AcDbCircle
 62
7
  6
CONTINUOUS
 10
521.0631019221
 20
136.45504535
 40
0.4
100
AcDbArc
 50
359.9997389563
 51
81.8698976458
  0
ARC
  5
2DC
100
AcDbEntity
  8
0
100
AcDbCircle
 62
7
  6
CONTINUOUS
 10
521.0631136768
 20
129.4470030759
 40
0.3999988099
100
AcDbArc
 50
278.1301023542
 51
359.9988695159
  0
ARC
  5
2DD
100
AcDbEntity
  8
0
100
AcDbCircle
 62
7
  6
CONTINUOUS
 10
521.2631019221
 20
156.473536386
 40
0.2
100
AcDbArc
 50
278.1301023541
 51
0.00003205
  0
ARC
  5
2DE
100
AcDbEntity
  8
0
100
AcDbCircle
 62
7
  6
CONTINUOUS
 10
521.2631019221
 20
163.8285044304
 40
0.2
100
AcDbArc
 50
0.0
 51
81.8669414191
  0
ARC
  5
2DF
100
AcDbEntity
  8
0
100
AcDbCircle
 62
7
  6
CONTINUOUS
 10
528.4110406353
 20
458.0919534951
 40
23.4853855779
100
AcDbArc
 50
349.7880761809
 51
350.2285179342
  0
ARC
  5
2E0
100
AcDbEntity
  8
0
100
AcDbCircle
 62
7
  6
CONTINUOUS
 10
531.4782145031
 20
457.5328321595
 40
20.3681511558
100
AcDbArc
 50
351.4944203622
 51
352.251033065
  0
ARC
  5
2E1
100
AcDbEntity
  8
0
100
AcDbCircle
 62
7
  6
CONTINUOUS
 10
532.302388699
 20
457.4186241739
 40
19.53621473
100
AcDbArc
 50
350.2376836769
 51
350.8602223562
  0
ARC
  5
2E2
100
AcDbEntity
  8
0
100
AcDbCircle
 62
7
  6
CONTINUOUS
 10
533.3396187048
 20
457.2522988989
 40
18.4857339498
100
AcDbArc
 50
350.8585371265
 51
351.3249732244
  0
ARC
  5
2E3
100
AcDbEntity
  8
0
100
AcDbCircle
 62
7
  6
CONTINUOUS
 10
533.9840404228
 20
457.1914971474
 40
17.8391843726
100
AcDbArc
 50
352.2521567591
 51
352.6968309059
  0
ARC
  5
2E4
100
AcDbEntity
  8
0
100
AcDbCircle
 62
7
  6
CONTINUOUS
 10
534.190150246
 20
457.121786041
 40
17.6252474924
100
AcDbArc
 50
351.3273596848
 51
351.5120213601
  0
ARC
  5
2E5
100
AcDbEntity
  8
0
100
AcDbCircle
 62
7
  6
CONTINUOUS
 10
534.9766391642
 20
458.2720182993
 40
16.5994118808
100
AcDbArc
 50
357.0309096433
 51
359.0815858082
  0
ARC
  5
2E6
100
AcDbEntity
  8
0
100
AcDbCircle
 62
7
  6
CONTINUOUS
 10
536.2492617016
 20
456.9030291581
 40
15.5556701075
100
AcDbArc
 50
352.690105384
 51
353.5064928716
  0
ARC
  5
2E7
100
AcDbEntity
  8
0
100
AcDbCircle
 62
7
  6
CONTINUOUS
 10
538.8206199485
 20
456.6093730278
 40
12.9675982355
100
AcDbArc
 50
353.5108040374
 51
354.7516241844
  0
ARC
  5
2E8
100
AcDbEntity
  8
0
100
AcDbCircle
 62
7
  6
CONTINUOUS
 10
539.5576835711
 20
456.5391477098
 40
12.2272012462
100
AcDbArc
 50
354.7633820741
 51
354.93872222
  0
ARC
  5
2E9
100
AcDbEntity
  8
0
100
AcDbCircle
 62
7
  6
CONTINUOUS
 10
540.4777327755
 20
456.4649139642
 40
11.3041927151
100
AcDbArc
 50
354.9021097482
 51
357.3834500809
  0
ARC
  5
2EA
100
AcDbEntity
  8
0
100
AcDbCircle
 62
7
  6
CONTINUOUS
 10
541.6591154733
 20
455.276089316
 40
10.1541226322
100
AcDbArc
 50
343.6843593805
 51
345.3266843668
  0
ARC
  5
2EB
100
AcDbEntity
  8
0
100
AcDbCircle
 62
7
  6
CONTINUOUS
 10
541.893378241
 20
455.2140311652
 40
9.9117803836
100
AcDbArc
 50
345.3306942112
 51
346.6489222433
  0
ARC
  5
2EC
100
AcDbEntity
  8
0
100
AcDbCircle
 62
7
  6
CONTINUOUS
 10
542.1655637575
 20
455.1488790793
 40
9.6319063927
100
AcDbArc
 50
346.6521280692
 51
348.6254551471
  0
ARC
  5
2ED
100
AcDbEntity
  8
0
100
AcDbCircle
 62
7
  6
CONTINUOUS
 10
542.3784698864
 20
455.0623366107
 40
9.4036888259
100
AcDbArc
 50
343.2445339051
 51
343.7029871476
  0
ARC
  5
2EE
100
AcDbEntity
  8
0
100
AcDbCircle
 62
7
  6
CONTINUOUS
 10
542.534073134
 20
455.0748310343
 40
9.2560310595
100
AcDbArc
 50
348.6249325368
 51
351.3966758694
  0
ARC
  5
2EF
100
AcDbEntity
  8
0
100
AcDbCircle
 62
7
  6
CONTINUOUS
 10
544.3409012715
 20
454.7503523767
 40
7.4408333333
100
AcDbArc
 50
293.9881120357
 51
340.893293702
  0
ARC
  5
2F0
100
AcDbEntity
  8
0
100
AcDbCircle
 62
7
  6
CONTINUOUS
 10
544.8947901348
 20
454.8967660095
 40
6.886348037
100
AcDbArc
 50
354.3767609509
 51
356.9402396904
  0
ARC
  5
2F1
100
AcDbEntity
  8
0
100
AcDbCircle
 62
7
  6
CONTINUOUS
 10
545.3239228708
 20
454.8532564683
 40
6.455017171
100
AcDbArc
 50
352.322455147
 51
354.3878643546
  0
ARC
  5
2F2
100
AcDbEntity
  8
0
100
AcDbCircle
 62
7
  6
CONTINUOUS
 10
554.70397252
 20
454.9419401152
 40
3.3334701674
100
AcDbArc
 50
178.0621575788
 51
179.3416982412
  0
ARC
  5
2F3
100
AcDbEntity
  8
0
100
AcDbCircle
 62
7
  6
CONTINUOUS
 10
552.3742292857
 20
455.7124114611
 40
0.943692286
100
AcDbArc
 50
175.3916291532
 51
176.880487892
  0
ARC
  5
2F4
100
AcDbEntity
  8
0
100
AcDbCircle
 62
7
  6
CONTINUOUS
 10
550.9038384537
 20
473.8650641349
 40
0.8588134836
100
AcDbArc
 50
0.0578021051
 51
8.553584321
  0
ARC
  5
2F5
100
AcDbEntity
  8
0
100
AcDbCircle
 62
7
  6
CONTINUOUS
 10
521.0631019221
 20
411.45504535
 40
0.4
100
AcDbArc
 50
359.9997389563
 51
81.8698976458
  0
ARC
  5
2F6
100
AcDbEntity
  8
0
100
AcDbCircle
 62
7
  6
CONTINUOUS
 10
521.0631136768
 20
404.4470030759
 40
0.3999988099
100
AcDbArc
 50
278.1301023542
 51
359.998869516
  0
ARC
  5
2F7
100
AcDbEntity
  8
0
100
AcDbCircle
 62
7
  6
CONTINUOUS
 10
551.5715996618
 20
454.5396459189
 40
0.2
100
AcDbArc
 50
357.0681123909
 51
0.0265340481
  0
ARC
  5
2F8
100
AcDbEntity
  8
0
100
AcDbCircle
 62
7
  6
CONTINUOUS
 10
551.5709380721
 20
455.9682368283
 40
0.2
100
AcDbArc
 50
356.0274356386
 51
0.026534048
  0
ARC
  5
2F9
100
AcDbEntity
  8
0
100
AcDbCircle
 62
7
  6
CONTINUOUS
 10
521.2631019221
 20
431.473536386
 40
0.2
100
AcDbArc
 50
278.1301023542
 51
0.00003205
  0
ARC
  5
2FA
100
AcDbEntity
  8
0
100
AcDbCircle
 62
7
  6
CONTINUOUS
 10
521.2631019221
 20
438.8285044304
 40
0.2
100
AcDbArc
 50
0.0
 51
81.8669414191
  0
ARC
  5
2FB
100
AcDbEntity
  8
0
100
AcDbCircle
 62
7
  6
CONTINUOUS
 10
587.9228523237
 20
23.0452915869
 40
100.2513424283
100
AcDbArc
 50
131.6766578176
 51
131.8394725134
  0
ARC
  5
2FC
100
AcDbEntity
  8
0
100
AcDbCircle
 62
7
  6
CONTINUOUS
 10
603.8319095832
 20
450.2318095821
 40
52.6911874723
100
AcDbArc
 50
173.9735055703
 51
174.1617946317
  0
ARC
  5
2FD
100
AcDbEntity
  8
0
100
AcDbCircle
 62
7
  6
CONTINUOUS
 10
587.9291099444
 20
932.0637929964
 40
100.2607643723
100
AcDbArc
 50
228.1605604954
 51
228.3233477279
  0
ARC
  5
2FE
100
AcDbEntity
  8
0
100
AcDbCircle
 62
7
  6
CONTINUOUS
 10
531.9710423771
 20
487.9936637728
 40
19.8612262993
100
AcDbArc
 50
8.223612697
 51
9.1828400405
  0
ARC
  5
2FF
100
AcDbEntity
  8
0
100
AcDbCircle
 62
7
  6
CONTINUOUS
 10
535.5392901159
 20
488.5141703135
 40
16.2552186371
100
AcDbArc
 50
6.8455533696
 51
8.2068223984
  0
ARC
  5
300
100
AcDbEntity
  8
0
100
AcDbCircle
 62
7
  6
CONTINUOUS
 10
541.7032134804
 20
490.2398060895
 40
10.0913181053
100
AcDbArc
 50
14.6383680917
 51
16.2920738584
  0
ARC
  5
301
100
AcDbEntity
  8
0
100
AcDbCircle
 62
7
  6
CONTINUOUS
 10
541.8157724524
 20
490.2688062476
 40
9.9750839451
100
AcDbArc
 50
13.3912385374
 51
14.6405897426
  0
ARC
  5
302
100
AcDbEntity
  8
0
100
AcDbCircle
 62
7
  6
CONTINUOUS
 10
530.4634474756
 20
864.9322498673
 40
9.8698773576
100
AcDbArc
 50
111.3614582497
 51
112.8078453768
  0
ARC
  5
303
100
AcDbEntity
  8
0
100
AcDbCircle
 62
7
  6
CONTINUOUS
 10
542.1879826954
 20
490.3579845309
 40
9.5923400143
100
AcDbArc
 50
11.37389374
 51
13.3879529441
  0
ARC
  5
304
100
AcDbEntity
  8
0
100
AcDbCircle
 62
7
  6
CONTINUOUS
 10
542.5140449911
 20
490.4800229779
 40
9.2456572055
100
AcDbArc
 50
16.2907833835
 51
16.808307183
  0
ARC
  5
305
100
AcDbEntity
  8
0
100
AcDbCircle
 62
7
  6
CONTINUOUS
 10
542.5280508349
 20
490.4263148444
 40
9.2454749611
100
AcDbArc
 50
8.4892180454
 51
11.3743689492
  0
ARC
  5
306
100
AcDbEntity
  8
0
100
AcDbCircle
 62
7
  6
CONTINUOUS
 10
543.1608799985
 20
490.5196936973
 40
8.6057944605
100
AcDbArc
 50
3.0552578167
 51
8.4963057126
  0
ARC
  5
307
100
AcDbEntity
  8
0
100
AcDbCircle
 62
7
  6
CONTINUOUS
 10
544.324229438
 20
490.7503485163
 40
7.4408333333
100
AcDbArc
 50
19.1599801174
 51
66.0649560607
  0
ARC
  5
308
100
AcDbEntity
  8
0
100
AcDbCircle
 62
7
  6
CONTINUOUS
 10
557.0351562225
 20
490.2056040313
 40
5.6379607584
100
AcDbArc
 50
184.9869573556
 51
185.6745964634
  0
ARC
  5
309
100
AcDbEntity
  8
0
100
AcDbCircle
 62
7
  6
CONTINUOUS
 10
555.3822599844
 20
490.0600379698
 40
3.9786678535
100
AcDbArc
 50
184.5640229166
 51
184.9677977971
  0
ARC
  5
30A
100
AcDbEntity
  8
0
100
AcDbCircle
 62
7
  6
CONTINUOUS
 10
542.5733985335
 20
872.6510204082
 40
3.2
100
AcDbArc
 50
0.0
 51
89.9999999994
  0
ARC
  5
30B
100
AcDbEntity
  8
0
100
AcDbCircle
 62
7
  6
CONTINUOUS
 10
516.3631019221
 20
874.6510204082
 40
2.9
100
AcDbArc
 50
0.0
 51
90.0
  0
ARC
  5
30C
100
AcDbEntity
  8
0
100
AcDbCircle
 62
7
  6
CONTINUOUS
 10
521.2631019221
 20
859.9772144164
 40
2.0
100
AcDbArc
 50
180.0
 51
281.0000000014
  0
ARC
  5
30D
100
AcDbEntity
  8
0
100
AcDbCircle
 62
7
  6
CONTINUOUS
 10
527.4733985335
 20
874.1510204082
 40
1.7
100
AcDbArc
 50
90.0
 51
196.0240242032
  0
ARC
  5
30E
100
AcDbEntity
  8
0
100
AcDbCircle
 62
7
  6
CONTINUOUS
 10
550.9003907543
 20
481.2417263912
 40
0.8588452239
100
AcDbArc
 50
351.4984369624
 51
359.9950410373
  0
ARC
  5
30F
100
AcDbEntity
  8
0
100
AcDbCircle
 62
7
  6
CONTINUOUS
 10
521.0631019221
 20
798.45504535
 40
0.4
100
AcDbArc
 50
359.9997389563
 51
81.8698976458
  0
ARC
  5
310
100
AcDbEntity
  8
0
100
AcDbCircle
 62
7
  6
CONTINUOUS
 10
521.0631136768
 20
791.4470030759
 40
0.3999988099
100
AcDbArc
 50
278.1301023542
 51
359.9988695159
  0
ARC
  5
311
100
AcDbEntity
  8
0
100
AcDbCircle
 62
7
  6
CONTINUOUS
 10
551.5547295678
 20
490.9677520497
 40
0.2
100
AcDbArc
 50
0.0265340482
 51
2.9703349839
  0
ARC
  5
312
100
AcDbEntity
  8
0
100
AcDbCircle
 62
7
  6
CONTINUOUS
 10
551.5553911576
 20
489.5391611403
 40
0.2
100
AcDbArc
 50
0.0265340482
 51
2.6317284686
  0
ARC
  5
313
100
AcDbEntity
  8
0
100
AcDbCircle
 62
7
  6
CONTINUOUS
 10
521.2631019221
 20
818.473536386
 40
0.2
100
AcDbArc
 50
278.1301023541
 51
0.0000320499
  0
ARC
  5
314
100
AcDbEntity
  8
0
100
AcDbCircle
 62
7
  6
CONTINUOUS
 10
521.2631019221
 20
825.8285044304
 40
0.2
100
AcDbArc
 50
0.0
 51
81.8669414191
  0
LINE
  5
315
100
AcDbEntity
  8
0
100
AcDbLine
 62
7
  6
CONTINUOUS
 10
551.7621035457
 20
454.5397640062
 11
551.7615505795
 21
454.5302688794
  0
SPLINE
  5
316
100
AcDbEntity
  8
0
100
AcDbSpline
 62
7
  6
CONTINUOUS
 70
0
 71
3
 72
23
 73
19
 74
0
 42
0.0000001
 43
0.0000001
 44
0.0000000001
 40
0.0
 40
0.0
 40
0.0
 40
0.0
 40
0.2271937289
 40
0.4386890414
 40
0.6236379624
 40
0.703349579
 40
0.7732286741
 40
0.8320428908
 40
0.8786501496
 40
0.9132454457
 40
0.9367733135
 40
0.944650225
 40
0.9502093521
 40
0.9543400152
 40
0.9590070059
 40
0.9656767022
 40
0.9747380739
 40
1.0
 40
1.0
 40
1.0
 40
1.0
 10
551.7615505795
 20
454.5302688794
 30
0.0
 10
551.7537885692
 20
454.398168869
 30
0.0
 10
551.7335514574
 20
454.1433207636
 30
0.0
 10
551.6829694167
 20
453.7833876368
 30
0.0
 10
551.6267801567
 20
453.5115762715
 30
0.0
 10
551.5775529197
 20
453.3230169376
 30
0.0
 10
551.5428546077
 20
453.2066603503
 30
0.0
 10
551.5097199199
 20
453.1100699789
 30
0.0
 10
551.4790122003
 20
453.0343912937
 30
0.0
 10
551.451543507
 20
452.9799795921
 30
0.0
 10
551.4308167349
 20
452.9472168929
 30
0.0
 10
551.4159132433
 20
452.9316978537
 30
0.0
 10
551.407205525
 20
452.9257937609
 30
0.0
 10
551.3980526822
 20
452.925955867
 30
0.0
 10
551.3917464047
 20
452.9333289824
 30
0.0
 10
551.3876898039
 20
452.9444588948
 30
0.0
 10
551.3831642448
 20
452.9680260869
 30
0.0
 10
551.3825745678
 20
452.9880838656
 30
0.0
 10
551.3825453149
 20
453.0027975196
 30
0.0
  0
SPLINE
  5
317
100
AcDbEntity
  8
0
100
AcDbSpline
 62
7
  6
CONTINUOUS
 70
0
 71
3
 72
8
 73
4
 74
0
 42
0.0000001
 43
0.0000001
 44
0.0000000001
 40
0.0
 40
0.0
 40
0.0
 40
0.0
 40
1.0
 40
1.0
 40
1.0
 40
1.0
 10
551.762114956
 20
454.5397500126
 30
0.0
 10
551.7652401234
 20
454.5379331333
 30
0.0
 10
551.7684902913
 20
454.5357722172
 30
0.0
 10
551.7703127194
 20
454.5326502823
 30
0.0
  0
SPLINE
  5
318
100
AcDbEntity
  8
0
100
AcDbSpline
 62
7
  6
CONTINUOUS
 70
0
 71
3
 72
9
 73
5
 74
0
 42
0.0000001
 43
0.0000001
 44
0.0000000001
 40
0.0
 40
0.0
 40
0.0
 40
0.0
 40
0.5234099846
 40
1.0
 40
1.0
 40
1.0
 40
1.0
 10
551.7703127194
 20
454.5326502823
 30
0.0
 10
551.7706330816
 20
454.5321014816
 30
0.0
 10
551.7711422697
 20
454.5309846332
 30
0.0
 10
551.771326571
 20
454.529763764
 30
0.0
 10
551.7713207821
 20
454.5291851726
 30
0.0
  0
SPLINE
  5
319
100
AcDbEntity
  8
0
100
AcDbSpline
 62
7
  6
CONTINUOUS
 70
0
 71
3
 72
23
 73
19
 74
0
 42
0.0000001
 43
0.0000001
 44
0.0000000001
 40
0.0
 40
0.0
 40
0.0
 40
0.0
 40
0.0248609576
 40
0.0337201957
 40
0.0403171112
 40
0.0450830249
 40
0.0492470134
 40
0.0545839261
 40
0.0621380517
 40
0.0853722434
 40
0.1204355436
 40
0.1674356354
 40
0.2261412201
 40
0.2958362755
 40
0.3755755156
 40
0.5607714401
 40
0.7724589737
 40
1.0
 40
1.0
 40
1.0
 40
1.0
 10
551.3642547404
 20
492.5038073151
 30
0.0
 10
551.3642419099
 20
492.518278067
 30
0.0
 10
551.3647643185
 20
492.5379842595
 30
0.0
 10
551.369216733
 20
492.5611320962
 30
0.0
 10
551.3733552188
 20
492.5721598597
 30
0.0
 10
551.3794683868
 20
492.5795193168
 30
0.0
 10
551.3883884283
 20
492.5807252621
 30
0.0
 10
551.397398085
 20
492.5757292331
 30
0.0
 10
551.4125313061
 20
492.561112161
 30
0.0
 10
551.4332246378
 20
492.5283364166
 30
0.0
 10
551.4602760947
 20
492.4734443463
 30
0.0
 10
551.4910207378
 20
492.3973639426
 30
0.0
 10
551.5244479566
 20
492.300890072
 30
0.0
 10
551.5593773085
 20
492.1848409053
 30
0.0
 10
551.6086862332
 20
491.9963775699
 30
0.0
 10
551.6652067324
 20
491.7245490243
 30
0.0
 10
551.7163037817
 20
491.3644466424
 30
0.0
 10
551.7363699082
 20
491.1094477436
 30
0.0
 10
551.7446491555
 20
490.9772625138
 30
0.0
  0
SPLINE
  5
31A
100
AcDbEntity
  8
0
100
AcDbSpline
 62
7
  6
CONTINUOUS
 70
0
 71
3
 72
11
 73
7
 74
0
 42
0.0000001
 43
0.0000001
 44
0.0000000001
 40
0.0
 40
0.0
 40
0.0
 40
0.0
 40
0.2505310848
 40
0.5008623494
 40
0.7507540873
 40
1.0
 40
1.0
 40
1.0
 40
1.0
 10
547.344300214
 20
494.702081322
 30
0.0
 10
547.8412729988
 20
494.4643617064
 30
0.0
 10
548.7817788794
 20
493.8693149623
 30
0.0
 10
549.9550480354
 20
492.6905183617
 30
0.0
 10
550.8563169889
 20
491.2976249752
 30
0.0
 10
551.2632578921
 20
490.2697449411
 30
0.0
 10
551.4161953764
 20
489.7434399251
 30
0.0
  0
SPLINE
  5
31B
100
AcDbEntity
  8
0
100
AcDbSpline
 62
7
  6
CONTINUOUS
 70
0
 71
3
 72
9
 73
5
 74
0
 42
0.0000001
 43
0.0000001
 44
0.0000000001
 40
0.0
 40
0.0
 40
0.0
 40
0.0
 40
0.2536987625
 40
1.0
 40
1.0
 40
1.0
 40
1.0
 10
551.7551019826
 20
489.5489908709
 30
0.0
 10
551.7535303355
 20
489.5787792123
 30
0.0
 10
551.7466017222
 20
489.6961544654
 30
0.0
 10
551.7366514406
 20
489.8133598222
 30
0.0
 10
551.7272297436
 20
489.9006022761
 30
0.0
  0
SPLINE
  5
31C
100
AcDbEntity
  8
0
100
AcDbSpline
 62
7
  6
CONTINUOUS
 70
0
 71
3
 72
20
 73
16
 74
0
 42
0.0000001
 43
0.0000001
 44
0.0000000001
 40
0.0
 40
0.0
 40
0.0
 40
0.0
 40
0.2391389254
 40
0.3473918921
 40
0.4450043322
 40
0.5296883303
 40
0.5995433294
 40
0.6536007884
 40
0.6919788922
 40
0.7168566639
 40
0.7345970524
 40
0.7560806267
 40
0.7866940615
 40
0.8766137247
 40
1.0
 40
1.0
 40
1.0
 40
1.0
 10
551.7272297436
 20
489.9006022761
 30
0.0
 10
551.7148139444
 20
490.0155693332
 30
0.0
 10
551.6918232802
 20
490.1821604426
 30
0.0
 10
551.6495686684
 20
490.3932151436
 30
0.0
 10
551.6157003489
 20
490.5296082738
 30
0.0
 10
551.5798915491
 20
490.6462962671
 30
0.0
 10
551.5436603755
 20
490.7403768497
 30
0.0
 10
551.5085489413
 20
490.8111790377
 30
0.0
 10
551.4759618688
 20
490.8570040391
 30
0.0
 10
551.444752546
 20
490.8843288518
 30
0.0
 10
551.4102703161
 20
490.8815775023
 30
0.0
 10
551.3891649462
 20
490.852041676
 30
0.0
 10
551.3667089345
 20
490.7877432031
 30
0.0
 10
551.3543514821
 20
490.6687138329
 30
0.0
 10
551.3535025816
 20
490.5659748061
 30
0.0
 10
551.3546673916
 20
490.5063227932
 30
0.0
  0
SPLINE
  5
31D
100
AcDbEntity
  8
0
100
AcDbSpline
 62
7
  6
CONTINUOUS
 70
0
 71
3
 72
9
 73
5
 74
0
 42
0.0000001
 43
0.0000001
 44
0.0000000001
 40
0.0
 40
0.0
 40
0.0
 40
0.0
 40
0.2244318098
 40
1.0
 40
1.0
 40
1.0
 40
1.0
 10
551.3546673916
 20
490.5063227932
 30
0.0
 10
551.3553301874
 20
490.4723798272
 30
0.0
 10
551.3606652453
 20
490.3211862887
 30
0.0
 10
551.3729297687
 20
490.1703286862
 30
0.0
 10
551.3838844579
 20
490.0535223098
 30
0.0
  0
SPLINE
  5
31E
100
AcDbEntity
  8
0
100
AcDbSpline
 62
7
  6
CONTINUOUS
 70
0
 71
3
 72
8
 73
4
 74
0
 42
0.0000001
 43
0.0000001
 44
0.0000000001
 40
0.0
 40
0.0
 40
0.0
 40
0.0
 40
1.0
 40
1.0
 40
1.0
 40
1.0
 10
551.4161956881
 20
489.7434400083
 30
0.0
 10
551.4204270378
 20
489.734415838
 30
0.0
 10
551.4232745388
 20
489.7245865841
 30
0.0
 10
551.424380398
 20
489.7146811793
 30
0.0
  0
LINE
  5
31F
100
AcDbEntity
  8
0
100
AcDbLine
 62
7
  6
CONTINUOUS
 10
551.388493014
 20
493.0735436448
 11
551.3893057204
 21
493.0707632104
  0
SPLINE
  5
320
100
AcDbEntity
  8
0
100
AcDbSpline
 62
7
  6
CONTINUOUS
 70
0
 71
3
 72
8
 73
4
 74
0
 42
0.0000001
 43
0.0000001
 44
0.0000000001
 40
0.0
 40
0.0
 40
0.0
 40
0.0
 40
1.0
 40
1.0
 40
1.0
 40
1.0
 10
551.7551025132
 20
489.5489807494
 30
0.0
 10
551.7548868174
 20
489.5464065643
 30
0.0
 10
551.7528173572
 20
489.5441599203
 30
0.0
 10
551.7508197667
 20
489.54252206
 30
0.0
  0
SPLINE
  5
321
100
AcDbEntity
  8
0
100
AcDbSpline
 62
7
  6
CONTINUOUS
 70
0
 71
3
 72
9
 73
5
 74
0
 42
0.0000001
 43
0.0000001
 44
0.0000000001
 40
0.0
 40
0.0
 40
0.0
 40
0.0
 40
0.4681274751
 40
1.0
 40
1.0
 40
1.0
 40
1.0
 10
551.7508197667
 20
489.54252206
 30
0.0
 10
551.7501093704
 20
489.5419395934
 30
0.0
 10
551.7485204258
 20
489.5407818798
 30
0.0
 10
551.7468414298
 20
489.5397623947
 30
0.0
 10
551.7459323772
 20
489.5392495218
 30
0.0
  0
SPLINE
  5
322
100
AcDbEntity
  8
0
100
AcDbSpline
 62
7
  6
CONTINUOUS
 70
0
 71
3
 72
10
 73
6
 74
0
 42
0.0000001
 43
0.0000001
 44
0.0000000001
 40
0.0
 40
0.0
 40
0.0
 40
0.0
 40
0.5878841787
 40
0.824299974
 40
1.0
 40
1.0
 40
1.0
 40
1.0
 10
551.7544421476
 20
490.9783742881
 30
0.0
 10
551.7382983996
 20
491.2752389968
 30
0.0
 10
551.6901405963
 20
491.6912808235
 30
0.0
 10
551.5753638994
 20
492.1840538067
 30
0.0
 10
551.5125155549
 20
492.3832026522
 30
0.0
 10
551.4800979607
 20
492.4659325549
 30
0.0
  0
SPLINE
  5
323
100
AcDbEntity
  8
0
100
AcDbSpline
 62
7
  6
CONTINUOUS
 70
0
 71
3
 72
17
 73
13
 74
0
 42
0.0000001
 43
0.0000001
 44
0.0000000001
 40
0.0
 40
0.0
 40
0.0
 40
0.0
 40
0.4117148208
 40
0.5313955862
 40
0.5711924636
 40
0.599692447
 40
0.6212963312
 40
0.6442122368
 40
0.6752448262
 40
0.717068726
 40
0.8354607855
 40
1.0
 40
1.0
 40
1.0
 40
1.0
 10
551.4800979607
 20
492.4659325549
 30
0.0
 10
551.462852857
 20
492.5099421668
 30
0.0
 10
551.4390775773
 20
492.5662959372
 30
0.0
 10
551.4035181564
 20
492.6220409431
 30
0.0
 10
551.3881325384
 20
492.6372469737
 30
0.0
 10
551.3791178761
 20
492.6427582851
 30
0.0
 10
551.3700879292
 20
492.6427604576
 30
0.0
 10
551.3633572654
 20
492.6364232708
 30
0.0
 10
551.3589453962
 20
492.6262724299
 30
0.0
 10
551.3540711291
 20
492.6047736287
 30
0.0
 10
551.3524995073
 20
492.5673359842
 30
0.0
 10
551.3538686368
 20
492.5348966018
 30
0.0
 10
551.355138991
 20
492.5160491118
 30
0.0
  0
SPLINE
  5
324
100
AcDbEntity
  8
0
100
AcDbSpline
 62
7
  6
CONTINUOUS
 70
0
 71
3
 72
9
 73
5
 74
0
 42
0.0000001
 43
0.0000001
 44
0.0000000001
 40
0.0
 40
0.0
 40
0.0
 40
0.0
 40
0.2308709881
 40
1.0
 40
1.0
 40
1.0
 40
1.0
 10
551.355138991
 20
492.5160491118
 30
0.0
 10
551.3555092782
 20
492.5105553812
 30
0.0
 10
551.3572869837
 20
492.4867714151
 30
0.0
 10
551.3596690796
 20
492.4630355063
 30
0.0
 10
551.3617101955
 20
492.4448059511
 30
0.0
  0
SPLINE
  5
325
100
AcDbEntity
  8
0
100
AcDbSpline
 62
7
  6
CONTINUOUS
 70
0
 71
3
 72
11
 73
7
 74
0
 42
0.0000001
 43
0.0000001
 44
0.0000000001
 40
0.0
 40
0.0
 40
0.0
 40
0.0
 40
0.2492453876
 40
0.4991374345
 40
0.7494687785
 40
1.0
 40
1.0
 40
1.0
 40
1.0
 10
551.4319224081
 20
455.7637695686
 30
0.0
 10
551.2794718057
 20
455.2373294109
 30
0.0
 10
550.8734676698
 20
454.2090897609
 30
0.0
 10
549.9734962673
 20
452.815376189
 30
0.0
 10
548.8013229767
 20
451.6355085568
 30
0.0
 10
547.861379341
 20
451.0395916592
 30
0.0
 10
547.3646309001
 20
450.8014138337
 30
0.0
  0
SPLINE
  5
326
100
AcDbEntity
  8
0
100
AcDbSpline
 62
7
  6
CONTINUOUS
 70
0
 71
3
 72
8
 73
4
 74
0
 42
0.0000001
 43
0.0000001
 44
0.0000000001
 40
0.0
 40
0.0
 40
0.0
 40
0.0
 40
1.0
 40
1.0
 40
1.0
 40
1.0
 10
551.7544417098
 20
490.9783719966
 30
0.0
 10
551.7544704883
 20
490.9756759684
 30
0.0
 10
551.7523835566
 20
490.9731627444
 30
0.0
 10
551.7503459397
 20
490.9713970961
 30
0.0
  0
SPLINE
  5
327
100
AcDbEntity
  8
0
100
AcDbSpline
 62
7
  6
CONTINUOUS
 70
0
 71
3
 72
9
 73
5
 74
0
 42
0.0000001
 43
0.0000001
 44
0.0000000001
 40
0.0
 40
0.0
 40
0.0
 40
0.0
 40
0.4673976819
 40
1.0
 40
1.0
 40
1.0
 40
1.0
 10
551.7503459397
 20
490.9713970961
 30
0.0
 10
551.7496136051
 20
490.9707625091
 30
0.0
 10
551.7479608915
 20
490.9695033536
 30
0.0
 10
551.7462037843
 20
490.9683989088
 30
0.0
 10
551.7452499298
 20
490.9678426292
 30
0.0
  0
SPLINE
  5
328
100
AcDbEntity
  8
0
100
AcDbSpline
 62
7
  6
CONTINUOUS
 70
0
 71
3
 72
9
 73
5
 74
0
 42
0.0000001
 43
0.0000001
 44
0.0000000001
 40
0.0
 40
0.0
 40
0.0
 40
0.0
 40
0.2730028875
 40
1.0
 40
1.0
 40
1.0
 40
1.0
 10
551.4140259069
 20
455.5915398123
 30
0.0
 10
551.4090637094
 20
455.5427848414
 30
0.0
 10
551.3913993723
 20
455.3641667329
 30
0.0
 10
551.3767586817
 20
455.1850933384
 30
0.0
 10
551.3724087649
 20
455.0546623518
 30
0.0
  0
SPLINE
  5
329
100
AcDbEntity
  8
0
100
AcDbSpline
 62
7
  6
CONTINUOUS
 70
0
 71
3
 72
20
 73
16
 74
0
 42
0.0000001
 43
0.0000001
 44
0.0000000001
 40
0.0
 40
0.0
 40
0.0
 40
0.0
 40
0.0573755158
 40
0.1071952834
 40
0.1484022624
 40
0.1801185739
 40
0.2022300033
 40
0.2106517641
 40
0.2187079638
 40
0.2396530064
 40
0.2736753687
 40
0.3882057373
 40
0.5595292946
 40
0.7695416672
 40
1.0
 40
1.0
 40
1.0
 40
1.0
 10
551.3707223749
 20
454.9802392886
 30
0.0
 10
551.3703517813
 20
454.9465658768
 30
0.0
 10
551.3707193625
 20
454.8836156026
 30
0.0
 10
551.3754677372
 20
454.7966523751
 30
0.0
 10
551.3848142959
 20
454.7249555219
 30
0.0
 10
551.398789885
 20
454.6711336369
 30
0.0
 10
551.4165682182
 20
454.6375783965
 30
0.0
 10
551.4361944429
 20
454.6249387752
 30
0.0
 10
551.4590568276
 20
454.6233935559
 30
0.0
 10
551.491167135
 20
454.6470437752
 30
0.0
 10
551.5472338365
 20
454.7284981443
 30
0.0
 10
551.6152099735
 20
454.9064699379
 30
0.0
 10
551.6856065157
 20
455.1882944061
 30
0.0
 10
551.740595264
 20
455.5439343962
 30
0.0
 10
551.7620124765
 20
455.8016640799
 30
0.0
 10
551.7694792696
 20
455.9367208998
 30
0.0
  0
LINE
  5
32A
100
AcDbEntity
  8
0
100
AcDbLine
 62
7
  6
CONTINUOUS
 10
551.7694792696
 20
455.9367208998
 11
551.7701400217
 21
455.9488601644
  0
LINE
  5
32B
100
AcDbEntity
  8
0
100
AcDbLine
 62
7
  6
CONTINUOUS
 10
551.7614467846
 20
455.9683048077
 11
551.7606430969
 21
455.9551039551
  0
SPLINE
  5
32C
100
AcDbEntity
  8
0
100
AcDbSpline
 62
7
  6
CONTINUOUS
 70
0
 71
3
 72
20
 73
16
 74
0
 42
0.0000001
 43
0.0000001
 44
0.0000000001
 40
0.0
 40
0.0
 40
0.0
 40
0.0
 40
0.2293326896
 40
0.4402152583
 40
0.6138012817
 40
0.7314777848
 40
0.7668378858
 40
0.7887992542
 40
0.7968891937
 40
0.8049449614
 40
0.8257275284
 40
0.8559021967
 40
0.8956183347
 40
0.9440089523
 40
1.0
 40
1.0
 40
1.0
 40
1.0
 10
551.7606430969
 20
455.9551039551
 30
0.0
 10
551.7527215124
 20
455.8261735399
 30
0.0
 10
551.7337976474
 20
455.5789180653
 30
0.0
 10
551.6839350477
 20
455.2360600011
 30
0.0
 10
551.6183417637
 20
454.9614457613
 30
0.0
 10
551.5550651116
 20
454.7860814029
 30
0.0
 10
551.5015963799
 20
454.7038535121
 30
0.0
 10
551.4716770592
 20
454.6786048457
 30
0.0
 10
551.4493985574
 20
454.6771585056
 30
0.0
 10
551.4300848207
 20
454.6867399029
 30
0.0
 10
551.412213857
 20
454.716704837
 30
0.0
 10
551.3981760442
 20
454.7655765354
 30
0.0
 10
551.3882768689
 20
454.8317534803
 30
0.0
 10
551.38266938
 20
454.9127069405
 30
0.0
 10
551.3816256122
 20
454.9715297744
 30
0.0
 10
551.381611933
 20
455.0030671935
 30
0.0
  0
SPLINE
  5
32D
100
AcDbEntity
  8
0
100
AcDbSpline
 62
7
  6
CONTINUOUS
 70
0
 71
3
 72
9
 73
5
 74
0
 42
0.0000001
 43
0.0000001
 44
0.0000000001
 40
0.0
 40
0.0
 40
0.0
 40
0.0
 40
0.3761004791
 40
1.0
 40
1.0
 40
1.0
 40
1.0
 10
551.7698982346
 20
455.9488787281
 30
0.0
 10
551.770027904
 20
455.9509850848
 30
0.0
 10
551.7702253839
 20
455.956395741
 30
0.0
 10
551.7694270788
 20
455.9628900535
 30
0.0
 10
551.7667949054
 20
455.9651981005
 30
0.0
  0
SPLINE
  5
32E
100
AcDbEntity
  8
0
100
AcDbSpline
 62
7
  6
CONTINUOUS
 70
0
 71
3
 72
9
 73
5
 74
0
 42
0.0000001
 43
0.0000001
 44
0.0000000001
 40
0.0
 40
0.0
 40
0.0
 40
0.0
 40
0.4843144098
 40
1.0
 40
1.0
 40
1.0
 40
1.0
 10
551.7667949054
 20
455.9651981005
 30
0.0
 10
551.7660396905
 20
455.965860318
 30
0.0
 10
551.7644345527
 20
455.9671784463
 30
0.0
 10
551.7625040668
 20
455.9680743613
 30
0.0
 10
551.7614585876
 20
455.968299722
 30
0.0
  0
SPLINE
  5
32F
100
AcDbEntity
  8
0
100
AcDbSpline
 62
7
  6
CONTINUOUS
 70
0
 71
3
 72
12
 73
8
 74
0
 42
0.0000001
 43
0.0000001
 44
0.0000000001
 40
0.0
 40
0.0
 40
0.0
 40
0.0
 40
0.1086478961
 40
0.2252677153
 40
0.4725957749
 40
0.7313864191
 40
1.0
 40
1.0
 40
1.0
 40
1.0
 10
551.4335878145
 20
455.7882319947
 30
0.0
 10
551.4382530056
 20
455.8470300898
 30
0.0
 10
551.452418752
 20
455.9685355482
 30
0.0
 10
551.4764365424
 20
456.2239664108
 30
0.0
 10
551.5048757793
 20
456.5608748434
 30
0.0
 10
551.5295515618
 20
456.9807520351
 30
0.0
 10
551.5469911866
 20
457.2665473867
 30
0.0
 10
551.5537683825
 20
457.4122150275
 30
0.0
  0
SPLINE
  5
330
100
AcDbEntity
  8
0
100
AcDbSpline
 62
7
  6
CONTINUOUS
 70
0
 71
3
 72
12
 73
8
 74
0
 42
0.0000001
 43
0.0000001
 44
0.0000000001
 40
0.0
 40
0.0
 40
0.0
 40
0.0
 40
0.3161779405
 40
0.5984680389
 40
0.8280320037
 40
0.9204943424
 40
1.0
 40
1.0
 40
1.0
 40
1.0
 10
545.7830773484
 20
451.851214874
 30
0.0
 10
545.9803193403
 20
451.7888417918
 30
0.0
 10
546.35199869
 20
451.6619646724
 30
0.0
 10
546.834570787
 20
451.4133925546
 30
0.0
 10
547.1538401457
 20
451.170306041
 30
0.0
 10
547.3124700219
 20
450.9593513252
 30
0.0
 10
547.3566077293
 20
450.8528191031
 30
0.0
 10
547.3646410795
 20
450.8014241466
 30
0.0
  0
SPLINE
  5
331
100
AcDbEntity
  8
0
100
AcDbSpline
 62
7
  6
CONTINUOUS
 70
0
 71
3
 72
13
 73
9
 74
0
 42
0.0000001
 43
0.0000001
 44
0.0000000001
 40
0.0
 40
0.0
 40
0.0
 40
0.0
 40
0.0668747752
 40
0.1557425196
 40
0.266147979
 40
0.3950621754
 40
0.6906954112
 40
1.0
 40
1.0
 40
1.0
 40
1.0
 10
551.5739185906
 20
458.0059518995
 30
0.0
 10
551.5009093255
 20
457.9672848852
 30
0.0
 10
551.3213007207
 20
457.8958470048
 30
0.0
 10
551.0046283658
 20
457.8066631258
 30
0.0
 10
550.6070633383
 20
457.7254994895
 30
0.0
 10
549.9534232235
 20
457.6267569018
 30
0.0
 10
549.0494233904
 20
457.5478709971
 30
0.0
 10
548.3021535345
 20
457.524123744
 30
0.0
 10
547.9200496927
 20
457.5215876061
 30
0.0
  0
SPLINE
  5
332
100
AcDbEntity
  8
0
100
AcDbSpline
 62
7
  6
CONTINUOUS
 70
0
 71
3
 72
8
 73
4
 74
0
 42
0.0000001
 43
0.0000001
 44
0.0000000001
 40
0.0
 40
0.0
 40
0.0
 40
0.0
 40
1.0
 40
1.0
 40
1.0
 40
1.0
 10
551.4400877805
 20
455.7925705418
 30
0.0
 10
551.4389892286
 20
455.7826525006
 30
0.0
 10
551.4361484695
 20
455.7728092195
 30
0.0
 10
551.4319225522
 20
455.7637695303
 30
0.0
  0
SPLINE
  5
333
100
AcDbEntity
  8
0
100
AcDbSpline
 62
7
  6
CONTINUOUS
 70
0
 71
3
 72
8
 73
4
 74
0
 42
0.0000001
 43
0.0000001
 44
0.0000000001
 40
0.0
 40
0.0
 40
0.0
 40
0.0
 40
1.0
 40
1.0
 40
1.0
 40
1.0
 10
547.3646240124
 20
450.8014400882
 30
0.0
 10
547.1296208601
 20
450.7088576145
 30
0.0
 10
546.8747073934
 20
450.657508335
 30
0.0
 10
546.6222492185
 20
450.6495795287
 30
0.0
  0
SPLINE
  5
334
100
AcDbEntity
  8
0
100
AcDbSpline
 62
7
  6
CONTINUOUS
 70
0
 71
3
 72
9
 73
5
 74
0
 42
0.0000001
 43
0.0000001
 44
0.0000000001
 40
0.0
 40
0.0
 40
0.0
 40
0.0
 40
0.2392928813
 40
1.0
 40
1.0
 40
1.0
 40
1.0
 10
551.6859525902
 20
453.6901962837
 30
0.0
 10
551.6959998259
 20
453.7567237972
 30
0.0
 10
551.734874881
 20
454.0351957274
 30
0.0
 10
551.7604305082
 20
454.315579481
 30
0.0
 10
551.7713210245
 20
454.5291898822
 30
0.0
  0
SPLINE
  5
335
100
AcDbEntity
  8
0
100
AcDbSpline
 62
7
  6
CONTINUOUS
 70
0
 71
3
 72
20
 73
16
 74
0
 42
0.0000001
 43
0.0000001
 44
0.0000000001
 40
0.0
 40
0.0
 40
0.0
 40
0.0
 40
0.2292222988
 40
0.4401673456
 40
0.6139153283
 40
0.731938787
 40
0.7672915407
 40
0.789275984
 40
0.7973734766
 40
0.8053771431
 40
0.8259381552
 40
0.8560053172
 40
0.8957377261
 40
0.9441226395
 40
1.0
 40
1.0
 40
1.0
 40
1.0
 10
551.7453572235
 20
489.5474357396
 30
0.0
 10
551.7368154696
 20
489.6766286254
 30
0.0
 10
551.7181276812
 20
489.9245507326
 30
0.0
 10
551.6684368773
 20
490.2685091862
 30
0.0
 10
551.6022591132
 20
490.5441406469
 30
0.0
 10
551.5391111021
 20
490.7203505359
 30
0.0
 10
551.4852597283
 20
490.8030310686
 30
0.0
 10
551.4552084324
 20
490.8281703899
 30
0.0
 10
551.4329332051
 20
490.8298771987
 30
0.0
 10
551.4135335749
 20
490.8206801807
 30
0.0
 10
551.3954951938
 20
490.7908668221
 30
0.0
 10
551.3815506211
 20
490.7420151115
 30
0.0
 10
551.3716936143
 20
490.6756931773
 30
0.0
 10
551.3661492857
 20
490.5945661868
 30
0.0
 10
551.3651534253
 20
490.5356438543
 30
0.0
 10
551.3651732104
 20
490.5040818413
 30
0.0
  0
SPLINE
  5
336
100
AcDbEntity
  8
0
100
AcDbSpline
 62
7
  6
CONTINUOUS
 70
0
 71
3
 72
8
 73
4
 74
0
 42
0.0000001
 43
0.0000001
 44
0.0000000001
 40
0.0
 40
0.0
 40
0.0
 40
0.0
 40
1.0
 40
1.0
 40
1.0
 40
1.0
 10
547.3442933523
 20
494.7020540653
 30
0.0
 10
547.109204663
 20
494.7944195789
 30
0.0
 10
546.8542437702
 20
494.8455336275
 30
0.0
 10
546.6017782196
 20
494.8532294512
 30
0.0
  0
SPLINE
  5
337
100
AcDbEntity
  8
0
100
AcDbSpline
 62
7
  6
CONTINUOUS
 70
0
 71
3
 72
9
 73
5
 74
0
 42
0.0000001
 43
0.0000001
 44
0.0000000001
 40
0.0
 40
0.0
 40
0.0
 40
0.0
 40
0.2576679587
 40
1.0
 40
1.0
 40
1.0
 40
1.0
 10
551.451373142
 20
489.3840188082
 30
0.0
 10
551.449233861
 20
489.4067169901
 30
0.0
 10
551.4408015734
 20
489.4947961153
 30
0.0
 10
551.4312881677
 20
489.5827670108
 30
0.0
 10
551.4248242453
 20
489.6481306078
 30
0.0
  0
SPLINE
  5
338
100
AcDbEntity
  8
0
100
AcDbSpline
 62
7
  6
CONTINUOUS
 70
0
 71
3
 72
10
 73
6
 74
0
 42
0.0000001
 43
0.0000001
 44
0.0000000001
 40
0.0
 40
0.0
 40
0.0
 40
0.0
 40
0.5175273181
 40
0.7648819898
 40
1.0
 40
1.0
 40
1.0
 40
1.0
 10
551.5602590161
 20
487.501447738
 30
0.0
 10
551.5553444641
 20
487.8267592948
 30
0.0
 10
551.5288761979
 20
488.3071258676
 30
0.0
 10
551.4902784219
 20
488.9345317382
 30
0.0
 10
551.4667133848
 20
489.2370077324
 30
0.0
 10
551.451373142
 20
489.3840188082
 30
0.0
  0
SPLINE
  5
339
100
AcDbEntity
  8
0
100
AcDbSpline
 62
7
  6
CONTINUOUS
 70
0
 71
3
 72
13
 73
9
 74
0
 42
0.0000001
 43
0.0000001
 44
0.0000000001
 40
0.0
 40
0.0
 40
0.0
 40
0.0
 40
0.3093058709
 40
0.6049393357
 40
0.7338532627
 40
0.8442583064
 40
0.9331256013
 40
1.0
 40
1.0
 40
1.0
 40
1.0
 10
547.9059430783
 20
487.9824281806
 30
0.0
 10
548.2880506976
 20
487.9802458765
 30
0.0
 10
549.0353441087
 20
487.9571905
 30
0.0
 10
549.9394181382
 20
487.8791413716
 30
0.0
 10
550.5931488246
 20
487.7810038897
 30
0.0
 10
550.9907874291
 20
487.7002084947
 30
0.0
 10
551.307540717
 20
487.611318134
 30
0.0
 10
551.4872144067
 20
487.5400468943
 30
0.0
 10
551.5602590397
 20
487.5014477255
 30
0.0
  0
SPLINE
  5
33A
100
AcDbEntity
  8
0
100
AcDbSpline
 62
7
  6
CONTINUOUS
 70
0
 71
3
 72
11
 73
7
 74
0
 42
0.0000001
 43
0.0000001
 44
0.0000000001
 40
0.0
 40
0.0
 40
0.0
 40
0.0
 40
0.1707984971
 40
0.4006100292
 40
0.6832983981
 40
1.0
 40
1.0
 40
1.0
 40
1.0
 10
547.3443103002
 20
494.7020710692
 30
0.0
 10
547.3268079802
 20
494.592510497
 30
0.0
 10
547.1717802153
 20
494.3627360992
 30
0.0
 10
546.8202902421
 20
494.0933266956
 30
0.0
 10
546.3391878827
 20
493.8424400171
 30
0.0
 10
545.9698926918
 20
493.7175890112
 30
0.0
 10
545.774167958
 20
493.6542196045
 30
0.0
  0
SPLINE
  5
33B
100
AcDbEntity
  8
0
100
AcDbSpline
 62
7
  6
CONTINUOUS
 70
0
 71
3
 72
9
 73
5
 74
0
 42
0.0000001
 43
0.0000001
 44
0.0000000001
 40
0.0
 40
0.0
 40
0.0
 40
0.0
 40
0.3795131343
 40
1.0
 40
1.0
 40
1.0
 40
1.0
 10
551.5602610399
 20
487.5014480317
 30
0.0
 10
551.5617383886
 20
487.5010150215
 30
0.0
 10
551.565261808
 20
487.4997995073
 30
0.0
 10
551.5702867274
 20
487.4975785842
 30
0.0
 10
551.5703878956
 20
487.4950636069
 30
0.0
  0
SPLINE
  5
33C
100
AcDbEntity
  8
0
100
AcDbSpline
 62
7
  6
CONTINUOUS
 70
0
 71
3
 72
9
 73
5
 74
0
 42
0.0000001
 43
0.0000001
 44
0.0000000001
 40
0.0
 40
0.0
 40
0.0
 40
0.0
 40
0.3794610191
 40
1.0
 40
1.0
 40
1.0
 40
1.0
 10
551.5738941969
 20
458.0059565286
 30
0.0
 10
551.5753727226
 20
458.0063907897
 30
0.0
 10
551.5788995322
 20
458.0076104635
 30
0.0
 10
551.5839289872
 20
458.0098305756
 30
0.0
 10
551.5840329179
 20
458.0123484229
 30
0.0
  0
SPLINE
  5
33D
100
AcDbEntity
  8
0
100
AcDbSpline
 62
7
  6
CONTINUOUS
 70
0
 71
3
 72
9
 73
5
 74
0
 42
0.0000001
 43
0.0000001
 44
0.0000000001
 40
0.0
 40
0.0
 40
0.0
 40
0.0
 40
0.4995601812
 40
1.0
 40
1.0
 40
1.0
 40
1.0
 10
551.592943451
 20
458.7718179867
 30
0.0
 10
551.6465943676
 20
461.0406692387
 30
0.0
 10
551.7229653163
 20
465.5831695044
 30
0.0
 10
551.738767633
 20
470.126199329
 30
0.0
 10
551.7386625368
 20
472.3996809889
 30
0.0
  0
LINE
  5
33E
100
AcDbEntity
  8
0
100
AcDbLine
 62
7
  6
CONTINUOUS
 10
551.7386625368
 20
472.3996809889
 11
551.7383204329
 21
473.1231671691
  0
SPLINE
  5
33F
100
AcDbEntity
  8
0
100
AcDbSpline
 62
7
  6
CONTINUOUS
 70
0
 71
3
 72
9
 73
5
 74
0
 42
0.0000001
 43
0.0000001
 44
0.0000000001
 40
0.0
 40
0.0
 40
0.0
 40
0.0
 40
0.5004365408
 40
1.0
 40
1.0
 40
1.0
 40
1.0
 10
551.7383204329
 20
473.1231671691
 30
0.0
 10
551.7362856104
 20
475.3919903535
 30
0.0
 10
551.7164259621
 20
479.9257299703
 30
0.0
 10
551.6355108158
 20
484.4588686173
 30
0.0
 10
551.5802388022
 20
486.7230599006
 30
0.0
  0
SPLINE
  5
340
100
AcDbEntity
  8
0
100
AcDbSpline
 62
7
  6
CONTINUOUS
 70
0
 71
3
 72
11
 73
7
 74
0
 42
0.0000001
 43
0.0000001
 44
0.0000000001
 40
0.0
 40
0.0
 40
0.0
 40
0.0
 40
0.2658257881
 40
0.5222815952
 40
0.7672642962
 40
1.0
 40
1.0
 40
1.0
 40
1.0
 10
547.9059442802
 20
487.982441418
 30
0.0
 10
547.9057315223
 20
488.4387000321
 30
0.0
 10
547.8260767669
 20
489.3379359266
 30
0.0
 10
547.4381126702
 20
490.6082110306
 30
0.0
 10
546.7723653555
 20
491.6966195806
 30
0.0
 10
546.1262289782
 20
492.2365555763
 30
0.0
 10
545.7736664144
 20
492.4243604506
 30
0.0
  0
SPLINE
  5
341
100
AcDbEntity
  8
0
100
AcDbSpline
 62
7
  6
CONTINUOUS
 70
0
 71
3
 72
11
 73
7
 74
0
 42
0.0000001
 43
0.0000001
 44
0.0000000001
 40
0.0
 40
0.0
 40
0.0
 40
0.0
 40
0.2326896922
 40
0.4776531171
 40
0.7341270135
 40
1.0
 40
1.0
 40
1.0
 40
1.0
 10
545.782510554
 20
453.0726994558
 30
0.0
 10
546.1362405306
 20
453.2598690874
 30
0.0
 10
546.7847511895
 20
453.7997367925
 30
0.0
 10
547.4525448823
 20
454.8899677409
 30
0.0
 10
547.841094546
 20
456.1630413841
 30
0.0
 10
547.9202611186
 20
457.064306577
 30
0.0
 10
547.9200509117
 20
457.521574233
 30
0.0
  0
SPLINE
  5
342
100
AcDbEntity
  8
0
100
AcDbSpline
 62
7
  6
CONTINUOUS
 70
0
 71
3
 72
13
 73
9
 74
0
 42
0.0000001
 43
0.0000001
 44
0.0000000001
 40
0.0
 40
0.0
 40
0.0
 40
0.0
 40
0.3374077533
 40
0.6194138096
 40
0.7355800099
 40
0.8351071604
 40
0.9210547676
 40
1.0
 40
1.0
 40
1.0
 40
1.0
 10
545.7633673665
 20
494.4108465816
 30
0.0
 10
545.8766670454
 20
494.4245710593
 30
0.0
 10
546.0836017704
 20
494.4586685018
 30
0.0
 10
546.3226290369
 20
494.5361558396
 30
0.0
 10
546.4676841252
 20
494.6231154178
 30
0.0
 10
546.5437359478
 20
494.6925976239
 30
0.0
 10
546.5910399895
 20
494.7702679035
 30
0.0
 10
546.60175742
 20
494.8265182785
 30
0.0
 10
546.6017596634
 20
494.8532214404
 30
0.0
  0
SPLINE
  5
343
100
AcDbEntity
  8
0
100
AcDbSpline
 62
7
  6
CONTINUOUS
 70
0
 71
3
 72
9
 73
5
 74
0
 42
0.0000001
 43
0.0000001
 44
0.0000000001
 40
0.0
 40
0.0
 40
0.0
 40
0.0
 40
0.5823524835
 40
1.0
 40
1.0
 40
1.0
 40
1.0
 10
551.4503119852
 20
453.5113499332
 30
0.0
 10
551.432553119
 20
453.4108939085
 30
0.0
 10
551.4027788662
 20
453.238350739
 30
0.0
 10
551.3782346661
 20
453.0646267247
 30
0.0
 10
551.3733482582
 20
452.9916286259
 30
0.0
  0
SPLINE
  5
344
100
AcDbEntity
  8
0
100
AcDbSpline
 62
7
  6
CONTINUOUS
 70
0
 71
3
 72
18
 73
14
 74
0
 42
0.0000001
 43
0.0000001
 44
0.0000000001
 40
0.0
 40
0.0
 40
0.0
 40
0.0
 40
0.1650548875
 40
0.2839254342
 40
0.3259034912
 40
0.3570110076
 40
0.3799390357
 40
0.4016110535
 40
0.4302918075
 40
0.4703024983
 40
0.5899028294
 40
0.7659006856
 40
1.0
 40
1.0
 40
1.0
 40
1.0
 10
551.3733482582
 20
452.9916286259
 30
0.0
 10
551.3720816205
 20
452.9727063132
 30
0.0
 10
551.3707182873
 20
452.9401265027
 30
0.0
 10
551.3722838821
 20
452.9025275185
 30
0.0
 10
551.3771635477
 20
452.8809278468
 30
0.0
 10
551.3815799232
 20
452.8707399845
 30
0.0
 10
551.3883494295
 20
452.8643884781
 30
0.0
 10
551.3974249916
 20
452.8644769366
 30
0.0
 10
551.4064522212
 20
452.8700720335
 30
0.0
 10
551.4218269812
 20
452.8853607415
 30
0.0
 10
551.4428112036
 20
452.9181136164
 30
0.0
 10
551.4702638281
 20
452.9723711053
 30
0.0
 10
551.4884151246
 20
453.0159340286
 30
0.0
 10
551.4982166796
 20
453.0409824069
 30
0.0
  0
SPLINE
  5
345
100
AcDbEntity
  8
0
100
AcDbSpline
 62
7
  6
CONTINUOUS
 70
0
 71
3
 72
9
 73
5
 74
0
 42
0.0000001
 43
0.0000001
 44
0.0000000001
 40
0.0
 40
0.0
 40
0.0
 40
0.0
 40
0.4159187833
 40
1.0
 40
1.0
 40
1.0
 40
1.0
 10
551.4982166796
 20
453.0409824069
 30
0.0
 10
551.5475833235
 20
453.1671414072
 30
0.0
 10
551.6369406985
 20
453.4815419875
 30
0.0
 10
551.6955963702
 20
453.8023462119
 30
0.0
 10
551.7210749117
 20
453.9908804223
 30
0.0
  0
SPLINE
  5
346
100
AcDbEntity
  8
0
100
AcDbSpline
 62
7
  6
CONTINUOUS
 70
0
 71
3
 72
13
 73
9
 74
0
 42
0.0000001
 43
0.0000001
 44
0.0000000001
 40
0.0
 40
0.0
 40
0.0
 40
0.0
 40
0.0789452992
 40
0.1648925956
 40
0.264419347
 40
0.3805852617
 40
0.6625913886
 40
1.0
 40
1.0
 40
1.0
 40
1.0
 10
546.6222307059
 20
450.6495852747
 30
0.0
 10
546.6222043829
 20
450.6762885882
 30
0.0
 10
546.6114361763
 20
450.7325295224
 30
0.0
 10
546.5640614115
 20
450.8101570757
 30
0.0
 10
546.487945815
 20
450.8795697909
 30
0.0
 10
546.3428101778
 20
450.9663962673
 30
0.0
 10
546.1037098395
 20
451.0436631669
 30
0.0
 10
545.896742227
 20
451.0775692141
 30
0.0
 10
545.7834289953
 20
451.091188856
 30
0.0
  0
SPLINE
  5
347
100
AcDbEntity
  8
0
100
AcDbSpline
 62
7
  6
CONTINUOUS
 70
0
 71
3
 72
9
 73
5
 74
0
 42
0.0000001
 43
0.0000001
 44
0.0000000001
 40
0.0
 40
0.0
 40
0.0
 40
0.0
 40
0.5320302042
 40
1.0
 40
1.0
 40
1.0
 40
1.0
 10
551.524387963
 20
453.9282398821
 30
0.0
 10
551.5113860597
 20
453.8542829298
 30
0.0
 10
551.4851910563
 20
453.7155866467
 30
0.0
 10
551.4617498289
 20
453.5764016584
 30
0.0
 10
551.4503119852
 20
453.5113499332
 30
0.0
  0
SPLINE
  5
348
100
AcDbEntity
  8
0
100
AcDbSpline
 62
7
  6
CONTINUOUS
 70
0
 71
3
 72
10
 73
6
 74
0
 42
0.0000001
 43
0.0000001
 44
0.0000000001
 40
0.0
 40
0.0
 40
0.0
 40
0.0
 40
0.1796812269
 40
0.4129028597
 40
1.0
 40
1.0
 40
1.0
 40
1.0
 10
551.3617101955
 20
492.4448059511
 30
0.0
 10
551.3703723021
 20
492.367443195
 30
0.0
 10
551.3978078651
 20
492.1905699478
 30
0.0
 10
551.4736410686
 20
491.764061446
 30
0.0
 10
551.5371791413
 20
491.4143326327
 30
0.0
 10
551.5777292828
 20
491.1632282053
 30
0.0
  0
SPLINE
  5
349
100
AcDbEntity
  8
0
100
AcDbSpline
 62
7
  6
CONTINUOUS
 70
0
 71
3
 72
9
 73
5
 74
0
 42
0.0000001
 43
0.0000001
 44
0.0000000001
 40
0.0
 40
0.0
 40
0.0
 40
0.0
 40
0.2435761352
 40
1.0
 40
1.0
 40
1.0
 40
1.0
 10
551.6786262172
 20
490.4516849974
 30
0.0
 10
551.6873559615
 20
490.3786422183
 30
0.0
 10
551.7209492739
 20
490.0785089959
 30
0.0
 10
551.7445513877
 20
489.7771952094
 30
0.0
 10
551.7551019826
 20
489.5489908709
 30
0.0
  0
SPLINE
  5
34A
100
AcDbEntity
  8
0
100
AcDbSpline
 62
7
  6
CONTINUOUS
 70
0
 71
3
 72
18
 73
14
 74
0
 42
0.0000001
 43
0.0000001
 44
0.0000000001
 40
0.0
 40
0.0
 40
0.0
 40
0.0
 40
0.1722215119
 40
0.3395916654
 40
0.4987195595
 40
0.6462287896
 40
0.7774239415
 40
0.834918119
 40
0.885690947
 40
0.9286209197
 40
0.9625654644
 40
0.9865193934
 40
1.0
 40
1.0
 40
1.0
 40
1.0
 10
519.7631019221
 20
123.5510204082
 30
0.0
 10
519.7631019221
 20
123.4213934967
 30
0.0
 10
519.8055466566
 20
123.1649742082
 30
0.0
 10
519.9524445976
 20
122.8178483939
 30
0.0
 10
520.1303349765
 20
122.5081043538
 30
0.0
 10
520.3122978737
 20
122.2332362346
 30
0.0
 10
520.4583950042
 20
122.0265963421
 30
0.0
 10
520.5631764706
 20
121.8799720689
 30
0.0
 10
520.6290600986
 20
121.7871188764
 30
0.0
 10
520.6834775437
 20
121.7081044904
 30
0.0
 10
520.7252728452
 20
121.6443022794
 30
0.0
 10
520.7510464333
 20
121.5979829767
 30
0.0
 10
520.7631019221
 20
121.5711920562
 30
0.0
 10
520.7631019221
 20
121.561045534
 30
0.0
  0
SPLINE
  5
34B
100
AcDbEntity
  8
0
100
AcDbSpline
 62
7
  6
CONTINUOUS
 70
0
 71
3
 72
10
 73
6
 74
0
 42
0.0000001
 43
0.0000001
 44
0.0000000001
 40
0.0
 40
0.0
 40
0.0
 40
0.0
 40
0.2193909885
 40
0.4579318998
 40
1.0
 40
1.0
 40
1.0
 40
1.0
 10
520.8460215103
 20
164.0901178552
 30
0.0
 10
520.8642527061
 20
164.0875138562
 30
0.0
 10
520.9013492136
 20
164.0719837162
 30
0.0
 10
520.958073828
 20
164.0074715423
 30
0.0
 10
520.9710686602
 20
163.9375430521
 30
0.0
 10
520.9682553115
 20
163.892127566
 30
0.0
  0
SPLINE
  5
34C
100
AcDbEntity
  8
0
100
AcDbSpline
 62
7
  6
CONTINUOUS
 70
0
 71
3
 72
9
 73
5
 74
0
 42
0.0000001
 43
0.0000001
 44
0.0000000001
 40
0.0
 40
0.0
 40
0.0
 40
0.0
 40
0.2354491186
 40
1.0
 40
1.0
 40
1.0
 40
1.0
 10
520.8972950162
 20
136.7935498192
 30
0.0
 10
520.9104683411
 20
136.774618522
 30
0.0
 10
520.9581256708
 20
136.6884882254
 30
0.0
 10
520.9728965412
 20
136.5863416374
 30
0.0
 10
520.9682653639
 20
136.5115927339
 30
0.0
  0
SPLINE
  5
34D
100
AcDbEntity
  8
0
100
AcDbSpline
 62
7
  6
CONTINUOUS
 70
0
 71
3
 72
9
 73
5
 74
0
 42
0.0000001
 43
0.0000001
 44
0.0000000001
 40
0.0
 40
0.0
 40
0.0
 40
0.0
 40
0.2400396214
 40
1.0
 40
1.0
 40
1.0
 40
1.0
 10
520.7631050297
 20
136.8983086653
 30
0.0
 10
520.7761633198
 20
136.8939712217
 30
0.0
 10
520.8289671978
 20
136.8710407553
 30
0.0
 10
520.8724128382
 20
136.8293078312
 30
0.0
 10
520.8972950162
 20
136.7935498192
 30
0.0
  0
SPLINE
  5
34E
100
AcDbEntity
  8
0
100
AcDbSpline
 62
7
  6
CONTINUOUS
 70
0
 71
3
 72
10
 73
6
 74
0
 42
0.0000001
 43
0.0000001
 44
0.0000000001
 40
0.0
 40
0.0
 40
0.0
 40
0.0
 40
0.5387994425
 40
0.7795090661
 40
1.0
 40
1.0
 40
1.0
 40
1.0
 10
520.9682602824
 20
129.3904456234
 30
0.0
 10
520.9734232333
 20
129.3071093122
 30
0.0
 10
520.9521855795
 20
129.1798395201
 30
0.0
 10
520.8586491738
 20
129.0530965098
 30
0.0
 10
520.7955290193
 20
129.0145035103
 30
0.0
 10
520.76310238
 20
129.003732253
 30
0.0
  0
SPLINE
  5
34F
100
AcDbEntity
  8
0
100
AcDbSpline
 62
7
  6
CONTINUOUS
 70
0
 71
3
 72
18
 73
14
 74
0
 42
0.0000001
 43
0.0000001
 44
0.0000000001
 40
0.0
 40
0.0
 40
0.0
 40
0.0
 40
0.0134806216
 40
0.037434649
 40
0.071379322
 40
0.1143093479
 40
0.165082051
 40
0.2225760166
 40
0.3537704638
 40
0.5012797155
 40
0.6604078133
 40
0.8277780945
 40
1.0
 40
1.0
 40
1.0
 40
1.0
 10
520.7631019221
 20
171.5409952824
 30
0.0
 10
520.7631019221
 20
171.5308487489
 30
0.0
 10
520.7510463875
 20
171.5040577505
 30
0.0
 10
520.7252727083
 20
171.4577382953
 30
0.0
 10
520.6834772701
 20
171.3939359196
 30
0.0
 10
520.6290597947
 20
171.3149215034
 30
0.0
 10
520.5631762829
 20
171.2220684904
 30
0.0
 10
520.4583952825
 20
171.0754448481
 30
0.0
 10
520.3122985014
 20
170.8688055312
 30
0.0
 10
520.1303359299
 20
170.5939376372
 30
0.0
 10
519.9524450411
 20
170.2841935847
 30
0.0
 10
519.8055468125
 20
169.9370672896
 30
0.0
 10
519.7631019221
 20
169.6806476157
 30
0.0
 10
519.7631019221
 20
169.5510204082
 30
0.0
  0
SPLINE
  5
350
100
AcDbEntity
  8
0
100
AcDbSpline
 62
7
  6
CONTINUOUS
 70
0
 71
3
 72
10
 73
6
 74
0
 42
0.0000001
 43
0.0000001
 44
0.0000000001
 40
0.0
 40
0.0
 40
0.0
 40
0.0
 40
0.5420675579
 40
0.7806086903
 40
1.0
 40
1.0
 40
1.0
 40
1.0
 10
520.9682554316
 20
156.4099113075
 30
0.0
 10
520.9710683932
 20
156.364496663
 30
0.0
 10
520.958073596
 20
156.2945697101
 30
0.0
 10
520.9013505751
 20
156.2300583397
 30
0.0
 10
520.8642550741
 20
156.2145277559
 30
0.0
 10
520.8460242436
 20
156.2119233515
 30
0.0
  0
SPLINE
  5
351
100
AcDbEntity
  8
0
100
AcDbSpline
 62
7
  6
CONTINUOUS
 70
0
 71
3
 72
18
 73
14
 74
0
 42
0.0000001
 43
0.0000001
 44
0.0000000001
 40
0.0
 40
0.0
 40
0.0
 40
0.0
 40
0.1722215119
 40
0.3395916654
 40
0.4987195595
 40
0.6462287896
 40
0.7774239415
 40
0.834918119
 40
0.885690947
 40
0.9286209197
 40
0.9625654644
 40
0.9865193934
 40
1.0
 40
1.0
 40
1.0
 40
1.0
 10
519.7631019221
 20
398.5510204082
 30
0.0
 10
519.7631019221
 20
398.4213934967
 30
0.0
 10
519.8055466566
 20
398.1649742082
 30
0.0
 10
519.9524445976
 20
397.8178483939
 30
0.0
 10
520.1303349765
 20
397.5081043538
 30
0.0
 10
520.3122978737
 20
397.2332362346
 30
0.0
 10
520.4583950042
 20
397.0265963421
 30
0.0
 10
520.5631764706
 20
396.8799720689
 30
0.0
 10
520.6290600986
 20
396.7871188764
 30
0.0
 10
520.6834775437
 20
396.7081044904
 30
0.0
 10
520.7252728452
 20
396.6443022794
 30
0.0
 10
520.7510464333
 20
396.5979829767
 30
0.0
 10
520.7631019221
 20
396.5711920562
 30
0.0
 10
520.7631019221
 20
396.561045534
 30
0.0
  0
SPLINE
  5
352
100
AcDbEntity
  8
0
100
AcDbSpline
 62
7
  6
CONTINUOUS
 70
0
 71
3
 72
10
 73
6
 74
0
 42
0.0000001
 43
0.0000001
 44
0.0000000001
 40
0.0
 40
0.0
 40
0.0
 40
0.0
 40
0.2193909885
 40
0.4579318998
 40
1.0
 40
1.0
 40
1.0
 40
1.0
 10
520.8460215103
 20
439.0901178552
 30
0.0
 10
520.8642527061
 20
439.0875138562
 30
0.0
 10
520.9013492136
 20
439.0719837162
 30
0.0
 10
520.958073828
 20
439.0074715423
 30
0.0
 10
520.9710686602
 20
438.9375430521
 30
0.0
 10
520.9682553115
 20
438.892127566
 30
0.0
  0
SPLINE
  5
353
100
AcDbEntity
  8
0
100
AcDbSpline
 62
7
  6
CONTINUOUS
 70
0
 71
3
 72
9
 73
5
 74
0
 42
0.0000001
 43
0.0000001
 44
0.0000000001
 40
0.0
 40
0.0
 40
0.0
 40
0.0
 40
0.2354491186
 40
1.0
 40
1.0
 40
1.0
 40
1.0
 10
520.8972950162
 20
411.7935498192
 30
0.0
 10
520.9104683411
 20
411.774618522
 30
0.0
 10
520.9581256708
 20
411.6884882254
 30
0.0
 10
520.9728965412
 20
411.5863416374
 30
0.0
 10
520.9682653639
 20
411.5115927339
 30
0.0
  0
SPLINE
  5
354
100
AcDbEntity
  8
0
100
AcDbSpline
 62
7
  6
CONTINUOUS
 70
0
 71
3
 72
9
 73
5
 74
0
 42
0.0000001
 43
0.0000001
 44
0.0000000001
 40
0.0
 40
0.0
 40
0.0
 40
0.0
 40
0.2400396214
 40
1.0
 40
1.0
 40
1.0
 40
1.0
 10
520.7631050297
 20
411.8983086653
 30
0.0
 10
520.7761633198
 20
411.8939712217
 30
0.0
 10
520.8289671978
 20
411.8710407553
 30
0.0
 10
520.8724128382
 20
411.8293078312
 30
0.0
 10
520.8972950162
 20
411.7935498192
 30
0.0
  0
SPLINE
  5
355
100
AcDbEntity
  8
0
100
AcDbSpline
 62
7
  6
CONTINUOUS
 70
0
 71
3
 72
10
 73
6
 74
0
 42
0.0000001
 43
0.0000001
 44
0.0000000001
 40
0.0
 40
0.0
 40
0.0
 40
0.0
 40
0.5387994425
 40
0.7795090661
 40
1.0
 40
1.0
 40
1.0
 40
1.0
 10
520.9682602824
 20
404.3904456234
 30
0.0
 10
520.9734232333
 20
404.3071093122
 30
0.0
 10
520.9521855795
 20
404.1798395201
 30
0.0
 10
520.8586491738
 20
404.0530965098
 30
0.0
 10
520.7955290193
 20
404.0145035103
 30
0.0
 10
520.76310238
 20
404.003732253
 30
0.0
  0
SPLINE
  5
356
100
AcDbEntity
  8
0
100
AcDbSpline
 62
7
  6
CONTINUOUS
 70
0
 71
3
 72
18
 73
14
 74
0
 42
0.0000001
 43
0.0000001
 44
0.0000000001
 40
0.0
 40
0.0
 40
0.0
 40
0.0
 40
0.0134806216
 40
0.037434649
 40
0.071379322
 40
0.1143093479
 40
0.165082051
 40
0.2225760166
 40
0.3537704638
 40
0.5012797155
 40
0.6604078133
 40
0.8277780945
 40
1.0
 40
1.0
 40
1.0
 40
1.0
 10
520.7631019221
 20
446.5409952824
 30
0.0
 10
520.7631019221
 20
446.5308487489
 30
0.0
 10
520.7510463875
 20
446.5040577505
 30
0.0
 10
520.7252727083
 20
446.4577382953
 30
0.0
 10
520.6834772701
 20
446.3939359196
 30
0.0
 10
520.6290597947
 20
446.3149215034
 30
0.0
 10
520.5631762829
 20
446.2220684904
 30
0.0
 10
520.4583952825
 20
446.0754448481
 30
0.0
 10
520.3122985014
 20
445.8688055312
 30
0.0
 10
520.1303359299
 20
445.5939376372
 30
0.0
 10
519.9524450411
 20
445.2841935847
 30
0.0
 10
519.8055468125
 20
444.9370672896
 30
0.0
 10
519.7631019221
 20
444.6806476157
 30
0.0
 10
519.7631019221
 20
444.5510204082
 30
0.0
  0
SPLINE
  5
357
100
AcDbEntity
  8
0
100
AcDbSpline
 62
7
  6
CONTINUOUS
 70
0
 71
3
 72
10
 73
6
 74
0
 42
0.0000001
 43
0.0000001
 44
0.0000000001
 40
0.0
 40
0.0
 40
0.0
 40
0.0
 40
0.5420675579
 40
0.7806086903
 40
1.0
 40
1.0
 40
1.0
 40
1.0
 10
520.9682554316
 20
431.4099113075
 30
0.0
 10
520.9710683932
 20
431.364496663
 30
0.0
 10
520.958073596
 20
431.2945697101
 30
0.0
 10
520.9013505751
 20
431.2300583397
 30
0.0
 10
520.8642550741
 20
431.2145277559
 30
0.0
 10
520.8460242436
 20
431.2119233515
 30
0.0
  0
SPLINE
  5
358
100
AcDbEntity
  8
0
100
AcDbSpline
 62
7
  6
CONTINUOUS
 70
0
 71
3
 72
18
 73
14
 74
0
 42
0.0000001
 43
0.0000001
 44
0.0000000001
 40
0.0
 40
0.0
 40
0.0
 40
0.0
 40
0.1722215119
 40
0.3395916654
 40
0.4987195595
 40
0.6462287896
 40
0.7774239415
 40
0.834918119
 40
0.885690947
 40
0.9286209197
 40
0.9625654644
 40
0.9865193934
 40
1.0
 40
1.0
 40
1.0
 40
1.0
 10
519.7631019221
 20
785.5510204082
 30
0.0
 10
519.7631019221
 20
785.4213934967
 30
0.0
 10
519.8055466566
 20
785.1649742082
 30
0.0
 10
519.9524445976
 20
784.8178483939
 30
0.0
 10
520.1303349765
 20
784.5081043538
 30
0.0
 10
520.3122978737
 20
784.2332362346
 30
0.0
 10
520.4583950042
 20
784.0265963421
 30
0.0
 10
520.5631764706
 20
783.8799720689
 30
0.0
 10
520.6290600986
 20
783.7871188764
 30
0.0
 10
520.6834775437
 20
783.7081044904
 30
0.0
 10
520.7252728452
 20
783.6443022794
 30
0.0
 10
520.7510464333
 20
783.5979829767
 30
0.0
 10
520.7631019221
 20
783.5711920562
 30
0.0
 10
520.7631019221
 20
783.561045534
 30
0.0
  0
SPLINE
  5
359
100
AcDbEntity
  8
0
100
AcDbSpline
 62
7
  6
CONTINUOUS
 70
0
 71
3
 72
10
 73
6
 74
0
 42
0.0000001
 43
0.0000001
 44
0.0000000001
 40
0.0
 40
0.0
 40
0.0
 40
0.0
 40
0.2193909885
 40
0.4579318998
 40
1.0
 40
1.0
 40
1.0
 40
1.0
 10
520.8460215103
 20
826.0901178552
 30
0.0
 10
520.8642527061
 20
826.0875138562
 30
0.0
 10
520.9013492136
 20
826.0719837162
 30
0.0
 10
520.958073828
 20
826.0074715423
 30
0.0
 10
520.9710686602
 20
825.9375430521
 30
0.0
 10
520.9682553115
 20
825.892127566
 30
0.0
  0
SPLINE
  5
35A
100
AcDbEntity
  8
0
100
AcDbSpline
 62
7
  6
CONTINUOUS
 70
0
 71
3
 72
9
 73
5
 74
0
 42
0.0000001
 43
0.0000001
 44
0.0000000001
 40
0.0
 40
0.0
 40
0.0
 40
0.0
 40
0.2354491186
 40
1.0
 40
1.0
 40
1.0
 40
1.0
 10
520.8972950162
 20
798.7935498193
 30
0.0
 10
520.9104683411
 20
798.774618522
 30
0.0
 10
520.9581256708
 20
798.6884882254
 30
0.0
 10
520.9728965412
 20
798.5863416374
 30
0.0
 10
520.9682653639
 20
798.5115927339
 30
0.0
  0
SPLINE
  5
35B
100
AcDbEntity
  8
0
100
AcDbSpline
 62
7
  6
CONTINUOUS
 70
0
 71
3
 72
9
 73
5
 74
0
 42
0.0000001
 43
0.0000001
 44
0.0000000001
 40
0.0
 40
0.0
 40
0.0
 40
0.0
 40
0.2400396214
 40
1.0
 40
1.0
 40
1.0
 40
1.0
 10
520.7631050297
 20
798.8983086653
 30
0.0
 10
520.7761633198
 20
798.8939712217
 30
0.0
 10
520.8289671978
 20
798.8710407553
 30
0.0
 10
520.8724128382
 20
798.8293078312
 30
0.0
 10
520.8972950162
 20
798.7935498193
 30
0.0
  0
SPLINE
  5
35C
100
AcDbEntity
  8
0
100
AcDbSpline
 62
7
  6
CONTINUOUS
 70
0
 71
3
 72
10
 73
6
 74
0
 42
0.0000001
 43
0.0000001
 44
0.0000000001
 40
0.0
 40
0.0
 40
0.0
 40
0.0
 40
0.5387994425
 40
0.7795090661
 40
1.0
 40
1.0
 40
1.0
 40
1.0
 10
520.9682602824
 20
791.3904456234
 30
0.0
 10
520.9734232333
 20
791.3071093122
 30
0.0
 10
520.9521855795
 20
791.1798395201
 30
0.0
 10
520.8586491738
 20
791.0530965098
 30
0.0
 10
520.7955290193
 20
791.0145035103
 30
0.0
 10
520.76310238
 20
791.003732253
 30
0.0
  0
SPLINE
  5
35D
100
AcDbEntity
  8
0
100
AcDbSpline
 62
7
  6
CONTINUOUS
 70
0
 71
3
 72
18
 73
14
 74
0
 42
0.0000001
 43
0.0000001
 44
0.0000000001
 40
0.0
 40
0.0
 40
0.0
 40
0.0
 40
0.0134806216
 40
0.037434649
 40
0.071379322
 40
0.1143093479
 40
0.165082051
 40
0.2225760166
 40
0.3537704638
 40
0.5012797155
 40
0.6604078133
 40
0.8277780945
 40
1.0
 40
1.0
 40
1.0
 40
1.0
 10
520.7631019221
 20
833.5409952824
 30
0.0
 10
520.7631019221
 20
833.5308487489
 30
0.0
 10
520.7510463875
 20
833.5040577505
 30
0.0
 10
520.7252727083
 20
833.4577382953
 30
0.0
 10
520.6834772701
 20
833.3939359196
 30
0.0
 10
520.6290597947
 20
833.3149215034
 30
0.0
 10
520.5631762829
 20
833.2220684904
 30
0.0
 10
520.4583952825
 20
833.0754448481
 30
0.0
 10
520.3122985014
 20
832.8688055312
 30
0.0
 10
520.1303359299
 20
832.5939376372
 30
0.0
 10
519.9524450411
 20
832.2841935847
 30
0.0
 10
519.8055468125
 20
831.9370672896
 30
0.0
 10
519.7631019221
 20
831.6806476157
 30
0.0
 10
519.7631019221
 20
831.5510204082
 30
0.0
  0
SPLINE
  5
35E
100
AcDbEntity
  8
0
100
AcDbSpline
 62
7
  6
CONTINUOUS
 70
0
 71
3
 72
10
 73
6
 74
0
 42
0.0000001
 43
0.0000001
 44
0.0000000001
 40
0.0
 40
0.0
 40
0.0
 40
0.0
 40
0.5420675579
 40
0.7806086903
 40
1.0
 40
1.0
 40
1.0
 40
1.0
 10
520.9682554316
 20
818.4099113075
 30
0.0
 10
520.9710683932
 20
818.364496663
 30
0.0
 10
520.958073596
 20
818.2945697101
 30
0.0
 10
520.9013505751
 20
818.2300583397
 30
0.0
 10
520.8642550741
 20
818.2145277559
 30
0.0
 10
520.8460242436
 20
818.2119233515
 30
0.0
  0
SPLINE
  5
35F
100
AcDbEntity
  8
0
100
AcDbSpline
 62
7
  6
CONTINUOUS
 70
0
 71
3
 72
9
 73
5
 74
0
 42
0.0000001
 43
0.0000001
 44
0.0000000001
 40
0.0
 40
0.0
 40
0.0
 40
0.0
 40
0.2035251414
 40
1.0
 40
1.0
 40
1.0
 40
1.0
 10
525.7733987553
 20
873.3705735419
 30
0.0
 10
525.7733923268
 20
873.3982442565
 30
0.0
 10
525.8010165067
 20
873.5348342196
 30
0.0
 10
525.9141827291
 20
873.6331803016
 30
0.0
 10
526.0014157011
 20
873.6973393136
 30
0.0
  0
SPLINE
  5
360
100
AcDbEntity
  8
0
100
AcDbSpline
 62
7
  6
CONTINUOUS
 70
0
 71
3
 72
9
 73
5
 74
0
 42
0.0000001
 43
0.0000001
 44
0.0000000001
 40
0.0
 40
0.0
 40
0.0
 40
0.0
 40
0.2099157101
 40
1.0
 40
1.0
 40
1.0
 40
1.0
 10
526.0014157011
 20
873.6973393136
 30
0.0
 10
526.0419418964
 20
873.7271459405
 30
0.0
 10
526.2434617388
 20
873.857566875
 30
0.0
 10
526.4630112469
 20
873.9568071559
 30
0.0
 10
526.6374703386
 20
874.0304023171
 30
0.0
  0
SPLINE
  5
361
100
AcDbEntity
  8
0
100
AcDbSpline
 62
7
  6
CONTINUOUS
 70
0
 71
3
 72
8
 73
4
 74
0
 42
0.0000001
 43
0.0000001
 44
0.0000000001
 40
0.0
 40
0.0
 40
0.0
 40
0.0
 40
1.0
 40
1.0
 40
1.0
 40
1.0
 10
526.8683407121
 20
874.1240770203
 30
0.0
 10
527.020454853
 20
874.1837692066
 30
0.0
 10
527.1736369232
 20
874.2407254897
 30
0.0
 10
527.3269727894
 20
874.2972054076
 30
0.0
  0
LINE
  5
362
100
AcDbEntity
  8
0
100
AcDbLine
 62
7
  6
CONTINUOUS
 10
527.3269727894
 20
874.2972054076
 11
527.4733985335
 21
874.3510204082
  0
LINE
  5
363
100
AcDbEntity
  8
0
100
AcDbLine
 62
7
  6
CONTINUOUS
 10
527.4733985335
 20
80.3510204081
 11
527.3269576746
 21
80.4048409956
  0
SPLINE
  5
364
100
AcDbEntity
  8
0
100
AcDbSpline
 62
7
  6
CONTINUOUS
 70
0
 71
3
 72
8
 73
4
 74
0
 42
0.0000001
 43
0.0000001
 44
0.0000000001
 40
0.0
 40
0.0
 40
0.0
 40
0.0
 40
1.0
 40
1.0
 40
1.0
 40
1.0
 10
527.3269576746
 20
80.4048409956
 30
0.0
 10
527.173612867
 20
80.4613242848
 30
0.0
 10
527.0204219023
 20
80.5182840837
 30
0.0
 10
526.8682990572
 20
80.5779802474
 30
0.0
  0
SPLINE
  5
365
100
AcDbEntity
  8
0
100
AcDbSpline
 62
7
  6
CONTINUOUS
 70
0
 71
3
 72
9
 73
5
 74
0
 42
0.0000001
 43
0.0000001
 44
0.0000000001
 40
0.0
 40
0.0
 40
0.0
 40
0.0
 40
0.2885991235
 40
1.0
 40
1.0
 40
1.0
 40
1.0
 10
526.6372430107
 20
80.6717342944
 30
0.0
 10
526.5729204074
 20
80.6988709674
 30
0.0
 10
526.3519132587
 20
80.7963071188
 30
0.0
 10
526.1335275433
 20
80.9062947262
 30
0.0
 10
525.9955036826
 20
81.0090762082
 30
0.0
  0
SPLINE
  5
366
100
AcDbEntity
  8
0
100
AcDbSpline
 62
7
  6
CONTINUOUS
 70
0
 71
3
 72
8
 73
4
 74
0
 42
0.0000001
 43
0.0000001
 44
0.0000000001
 40
0.0
 40
0.0
 40
0.0
 40
0.0
 40
1.0
 40
1.0
 40
1.0
 40
1.0
 10
525.9955036826
 20
81.0090762082
 30
0.0
 10
525.9433874448
 20
81.0478853251
 30
0.0
 10
525.8933974168
 20
81.0909969815
 30
0.0
 10
525.8522671583
 20
81.1413015702
 30
0.0
  0
SPLINE
  5
367
100
AcDbEntity
  8
0
100
AcDbSpline
 62
7
  6
CONTINUOUS
 70
0
 71
3
 72
8
 73
4
 74
0
 42
0.0000001
 43
0.0000001
 44
0.0000000001
 40
0.0
 40
0.0
 40
0.0
 40
0.0
 40
1.0
 40
1.0
 40
1.0
 40
1.0
 10
525.8522671583
 20
81.1413015702
 30
0.0
 10
525.808829532
 20
81.1944281978
 30
0.0
 10
525.7733843197
 20
81.2628436227
 30
0.0
 10
525.7733987129
 20
81.3314677128
 30
0.0
  0
SPLINE
  5
368
100
AcDbEntity
  8
0
100
AcDbSpline
 62
7
  6
CONTINUOUS
 70
0
 71
3
 72
8
 73
4
 74
0
 42
0.0000001
 43
0.0000001
 44
0.0000000001
 40
0.0
 40
0.0
 40
0.0
 40
0.0
 40
1.0
 40
1.0
 40
1.0
 40
1.0
 10
545.1946850753
 20
80.7553956661
 30
0.0
 10
545.3115415861
 20
80.8904303886
 30
0.0
 10
545.420071672
 20
81.0339871527
 30
0.0
 10
545.5116904859
 20
81.1872705939
 30
0.0
  0
SPLINE
  5
369
100
AcDbEntity
  8
0
100
AcDbSpline
 62
7
  6
CONTINUOUS
 70
0
 71
3
 72
8
 73
4
 74
0
 42
0.0000001
 43
0.0000001
 44
0.0000000001
 40
0.0
 40
0.0
 40
0.0
 40
0.0
 40
1.0
 40
1.0
 40
1.0
 40
1.0
 10
545.5116904859
 20
81.1872705939
 30
0.0
 10
545.5927699415
 20
81.3229210944
 30
0.0
 10
545.661191374
 20
81.4679832874
 30
0.0
 10
545.7072883137
 20
81.6191454803
 30
0.0
  0
SPLINE
  5
36A
100
AcDbEntity
  8
0
100
AcDbSpline
 62
7
  6
CONTINUOUS
 70
0
 71
3
 72
8
 73
4
 74
0
 42
0.0000001
 43
0.0000001
 44
0.0000000001
 40
0.0
 40
0.0
 40
0.0
 40
0.0
 40
1.0
 40
1.0
 40
1.0
 40
1.0
 10
545.7072883137
 20
81.6191454803
 30
0.0
 10
545.7497684858
 20
81.7584474821
 30
0.0
 10
545.7733985335
 20
81.9053852039
 30
0.0
 10
545.7733985335
 20
82.0510204082
 30
0.0
  0
SPLINE
  5
36B
100
AcDbEntity
  8
0
100
AcDbSpline
 62
7
  6
CONTINUOUS
 70
0
 71
3
 72
9
 73
5
 74
0
 42
0.0000001
 43
0.0000001
 44
0.0000000001
 40
0.0
 40
0.0
 40
0.0
 40
0.0
 40
0.7303617963
 40
1.0
 40
1.0
 40
1.0
 40
1.0
 10
545.7733985335
 20
872.6510204082
 30
0.0
 10
545.7733985335
 20
872.880411782
 30
0.0
 10
545.6899932738
 20
873.1972978129
 30
0.0
 10
545.5383867697
 20
873.471940662
 30
0.0
 10
545.4939280284
 20
873.5440199993
 30
0.0
  0
SPLINE
  5
36C
100
AcDbEntity
  8
0
100
AcDbSpline
 62
7
  6
CONTINUOUS
 70
0
 71
3
 72
8
 73
4
 74
0
 42
0.0000001
 43
0.0000001
 44
0.0000000001
 40
0.0
 40
0.0
 40
0.0
 40
0.0
 40
1.0
 40
1.0
 40
1.0
 40
1.0
 10
545.4939280284
 20
873.5440199993
 30
0.0
 10
545.4061437361
 20
873.686341474
 30
0.0
 10
545.3041076646
 20
873.8202007709
 30
0.0
 10
545.1946850752
 20
873.9466451503
 30
0.0
  0
SPLINE
  5
36D
100
AcDbEntity
  8
0
100
AcDbSpline
 62
7
  6
CONTINUOUS
 70
0
 71
3
 72
9
 73
5
 74
0
 42
0.0000001
 43
0.0000001
 44
0.0000000001
 40
0.0
 40
0.0
 40
0.0
 40
0.0
 40
0.2359319958
 40
1.0
 40
1.0
 40
1.0
 40
1.0
 10
519.2631019221
 20
95.1248264
 30
0.0
 10
519.2631019221
 20
95.2119193042
 30
0.0
 10
519.2950403287
 20
95.581396811
 30
0.0
 10
519.4495166433
 20
95.931543288
 30
0.0
 10
519.5981290029
 20
96.1712665523
 30
0.0
  0
SPLINE
  5
36E
100
AcDbEntity
  8
0
100
AcDbSpline
 62
7
  6
CONTINUOUS
 70
0
 71
3
 72
8
 73
4
 74
0
 42
0.0000001
 43
0.0000001
 44
0.0000000001
 40
0.0
 40
0.0
 40
0.0
 40
0.0
 40
1.0
 40
1.0
 40
1.0
 40
1.0
 10
519.5981290029
 20
96.1712665523
 30
0.0
 10
519.6416501061
 20
96.2414694678
 30
0.0
 10
519.688073903
 20
96.3099204939
 30
0.0
 10
519.7365846565
 20
96.3767728878
 30
0.0
  0
SPLINE
  5
36F
100
AcDbEntity
  8
0
100
AcDbSpline
 62
7
  6
CONTINUOUS
 70
0
 71
3
 72
9
 73
5
 74
0
 42
0.0000001
 43
0.0000001
 44
0.0000000001
 40
0.0
 40
0.0
 40
0.0
 40
0.0
 40
0.2297470505
 40
1.0
 40
1.0
 40
1.0
 40
1.0
 10
519.7365846565
 20
96.3767728878
 30
0.0
 10
519.821667237
 20
96.4940247087
 30
0.0
 10
520.22067821
 20
96.9836754212
 30
0.0
 10
520.6889100423
 20
97.410063602
 30
0.0
 10
521.0506064572
 20
97.7342090477
 30
0.0
  0
SPLINE
  5
370
100
AcDbEntity
  8
0
100
AcDbSpline
 62
7
  6
CONTINUOUS
 70
0
 71
3
 72
8
 73
4
 74
0
 42
0.0000001
 43
0.0000001
 44
0.0000000001
 40
0.0
 40
0.0
 40
0.0
 40
0.0
 40
1.0
 40
1.0
 40
1.0
 40
1.0
 10
516.3631019221
 20
78.7510204081
 30
0.0
 10
516.7476523754
 20
78.8945311383
 30
0.0
 10
517.1325083924
 20
79.0375668295
 30
0.0
 10
517.5127376598
 20
79.1921633527
 30
0.0
  0
SPLINE
  5
371
100
AcDbEntity
  8
0
100
AcDbSpline
 62
7
  6
CONTINUOUS
 70
0
 71
3
 72
9
 73
5
 74
0
 42
0.0000001
 43
0.0000001
 44
0.0000000001
 40
0.0
 40
0.0
 40
0.0
 40
0.0
 40
0.287229514
 40
1.0
 40
1.0
 40
1.0
 40
1.0
 10
517.5127376598
 20
79.1921633527
 30
0.0
 10
517.6423276469
 20
79.2448530407
 30
0.0
 10
518.0903586407
 20
79.434023097
 30
0.0
 10
518.5347862015
 20
79.6448039868
 30
0.0
 10
518.8189797832
 20
79.84416568
 30
0.0
  0
SPLINE
  5
372
100
AcDbEntity
  8
0
100
AcDbSpline
 62
7
  6
CONTINUOUS
 70
0
 71
3
 72
9
 73
5
 74
0
 42
0.0000001
 43
0.0000001
 44
0.0000000001
 40
0.0
 40
0.0
 40
0.0
 40
0.0
 40
0.3194900127
 40
1.0
 40
1.0
 40
1.0
 40
1.0
 10
518.8189797832
 20
79.84416568
 30
0.0
 10
518.8856627001
 20
79.8909437217
 30
0.0
 10
519.0841436784
 20
80.0416569745
 30
0.0
 10
519.2631019221
 20
80.2775237865
 30
0.0
 10
519.2631019221
 20
80.4510204082
 30
0.0
  0
SPLINE
  5
373
100
AcDbEntity
  8
0
100
AcDbSpline
 62
7
  6
CONTINUOUS
 70
0
 71
3
 72
10
 73
6
 74
0
 42
0.0000001
 43
0.0000001
 44
0.0000000001
 40
0.0
 40
0.0
 40
0.0
 40
0.0
 40
0.17590196
 40
0.5199455042
 40
1.0
 40
1.0
 40
1.0
 40
1.0
 10
519.2631019221
 20
874.6510204081
 30
0.0
 10
519.2631019221
 20
874.7241239477
 30
0.0
 10
519.1967491532
 20
874.940199673
 30
0.0
 10
518.8846977149
 20
875.2342865326
 30
0.0
 10
518.5904305723
 20
875.4077475722
 30
0.0
 10
518.4139914223
 20
875.5008727206
 30
0.0
  0
SPLINE
  5
374
100
AcDbEntity
  8
0
100
AcDbSpline
 62
7
  6
CONTINUOUS
 70
0
 71
3
 72
9
 73
5
 74
0
 42
0.0000001
 43
0.0000001
 44
0.0000000001
 40
0.0
 40
0.0
 40
0.0
 40
0.0
 40
0.229113955
 40
1.0
 40
1.0
 40
1.0
 40
1.0
 10
518.4139914223
 20
875.5008727206
 30
0.0
 10
518.3471436226
 20
875.5361552033
 30
0.0
 10
518.0522266223
 20
875.6841905555
 30
0.0
 10
517.7485473901
 20
875.8139969175
 30
0.0
 10
517.5129526569
 20
875.9097900929
 30
0.0
  0
SPLINE
  5
375
100
AcDbEntity
  8
0
100
AcDbSpline
 62
7
  6
CONTINUOUS
 70
0
 71
3
 72
8
 73
4
 74
0
 42
0.0000001
 43
0.0000001
 44
0.0000000001
 40
0.0
 40
0.0
 40
0.0
 40
0.0
 40
1.0
 40
1.0
 40
1.0
 40
1.0
 10
517.5129526569
 20
875.9097900929
 30
0.0
 10
517.1326535828
 20
876.0644202724
 30
0.0
 10
516.7477248364
 20
876.2074826363
 30
0.0
 10
516.3631019221
 20
876.3510204082
 30
0.0
  0
SPLINE
  5
376
100
AcDbEntity
  8
0
100
AcDbSpline
 62
7
  6
CONTINUOUS
 70
0
 71
3
 72
8
 73
4
 74
0
 42
0.0000001
 43
0.0000001
 44
0.0000000001
 40
0.0
 40
0.0
 40
0.0
 40
0.0
 40
1.0
 40
1.0
 40
1.0
 40
1.0
 10
144.6631019221
 20
876.3510204082
 30
0.0
 10
144.2785516073
 20
876.2075097297
 30
0.0
 10
143.8936957232
 20
876.0644741052
 30
0.0
 10
143.5134665902
 20
875.9098776438
 30
0.0
  0
SPLINE
  5
377
100
AcDbEntity
  8
0
100
AcDbSpline
 62
7
  6
CONTINUOUS
 70
0
 71
3
 72
9
 73
5
 74
0
 42
0.0000001
 43
0.0000001
 44
0.0000000001
 40
0.0
 40
0.0
 40
0.0
 40
0.0
 40
0.2872295074
 40
1.0
 40
1.0
 40
1.0
 40
1.0
 10
143.5134665902
 20
875.9098776438
 30
0.0
 10
143.3838765681
 20
875.8571879441
 30
0.0
 10
142.9358454443
 20
875.6680178372
 30
0.0
 10
142.4914177509
 20
875.4572368979
 30
0.0
 10
142.2072240816
 20
875.2578751506
 30
0.0
  0
SPLINE
  5
378
100
AcDbEntity
  8
0
100
AcDbSpline
 62
7
  6
CONTINUOUS
 70
0
 71
3
 72
9
 73
5
 74
0
 42
0.0000001
 43
0.0000001
 44
0.0000000001
 40
0.0
 40
0.0
 40
0.0
 40
0.0
 40
0.3194900062
 40
1.0
 40
1.0
 40
1.0
 40
1.0
 10
142.2072240816
 20
875.2578751506
 30
0.0
 10
142.1405411633
 20
875.2110971097
 30
0.0
 10
141.9420601811
 20
875.0603838504
 30
0.0
 10
141.7631019221
 20
874.8245170368
 30
0.0
 10
141.7631019221
 20
874.6510204081
 30
0.0
  0
SPLINE
  5
379
100
AcDbEntity
  8
0
100
AcDbSpline
 62
7
  6
CONTINUOUS
 70
0
 71
3
 72
10
 73
6
 74
0
 42
0.0000001
 43
0.0000001
 44
0.0000000001
 40
0.0
 40
0.0
 40
0.0
 40
0.0
 40
0.17590196
 40
0.5199455042
 40
1.0
 40
1.0
 40
1.0
 40
1.0
 10
141.7631019221
 20
80.4510204082
 30
0.0
 10
141.7631019221
 20
80.3779168686
 30
0.0
 10
141.829454691
 20
80.1618411433
 30
0.0
 10
142.1415061294
 20
79.8677542838
 30
0.0
 10
142.4357732719
 20
79.6942932441
 30
0.0
 10
142.6122124219
 20
79.6011680958
 30
0.0
  0
SPLINE
  5
37A
100
AcDbEntity
  8
0
100
AcDbSpline
 62
7
  6
CONTINUOUS
 70
0
 71
3
 72
9
 73
5
 74
0
 42
0.0000001
 43
0.0000001
 44
0.0000000001
 40
0.0
 40
0.0
 40
0.0
 40
0.0
 40
0.229113935
 40
1.0
 40
1.0
 40
1.0
 40
1.0
 10
142.6122124219
 20
79.6011680958
 30
0.0
 10
142.6790603149
 20
79.5658855638
 30
0.0
 10
142.9739777566
 20
79.4178500005
 30
0.0
 10
143.2776574506
 20
79.2880434723
 30
0.0
 10
143.5132525465
 20
79.1922501709
 30
0.0
  0
SPLINE
  5
37B
100
AcDbEntity
  8
0
100
AcDbSpline
 62
7
  6
CONTINUOUS
 70
0
 71
3
 72
8
 73
4
 74
0
 42
0.0000001
 43
0.0000001
 44
0.0000000001
 40
0.0
 40
0.0
 40
0.0
 40
0.0
 40
1.0
 40
1.0
 40
1.0
 40
1.0
 10
143.5132525465
 20
79.1922501709
 30
0.0
 10
143.8935511796
 20
79.0376202051
 30
0.0
 10
144.278479466
 20
78.8945580091
 30
0.0
 10
144.6631019221
 20
78.7510204081
 30
0.0
  0
SPLINE
  5
37C
100
AcDbEntity
  8
0
100
AcDbSpline
 62
7
  6
CONTINUOUS
 70
0
 71
3
 72
8
 73
4
 74
0
 42
0.0000001
 43
0.0000001
 44
0.0000000001
 40
0.0
 40
0.0
 40
0.0
 40
0.0
 40
1.0
 40
1.0
 40
1.0
 40
1.0
 10
521.0506222422
 20
857.3678175012
 30
0.0
 10
520.8622707406
 20
857.5366143167
 30
0.0
 10
520.6750046289
 20
857.7067619996
 30
0.0
 10
520.4930617001
 20
857.8824475817
 30
0.0
  0
SPLINE
  5
37D
100
AcDbEntity
  8
0
100
AcDbSpline
 62
7
  6
CONTINUOUS
 70
0
 71
3
 72
9
 73
5
 74
0
 42
0.0000001
 43
0.0000001
 44
0.0000000001
 40
0.0
 40
0.0
 40
0.0
 40
0.0
 40
0.2642132174
 40
1.0
 40
1.0
 40
1.0
 40
1.0
 10
520.4930617001
 20
857.8824475817
 30
0.0
 10
520.4212114874
 20
857.9518267355
 30
0.0
 10
520.1527404159
 20
858.2177230312
 30
0.0
 10
519.8993700018
 20
858.5008229608
 30
0.0
 10
519.7360647626
 20
858.7259828801
 30
0.0
  0
SPLINE
  5
37E
100
AcDbEntity
  8
0
100
AcDbSpline
 62
7
  6
CONTINUOUS
 70
0
 71
3
 72
8
 73
4
 74
0
 42
0.0000001
 43
0.0000001
 44
0.0000000001
 40
0.0
 40
0.0
 40
0.0
 40
0.0
 40
1.0
 40
1.0
 40
1.0
 40
1.0
 10
519.7360647626
 20
858.7259828801
 30
0.0
 10
519.6878728451
 20
858.7924283187
 30
0.0
 10
519.6417447035
 20
858.8604531839
 30
0.0
 10
519.5984811185
 20
858.9302078929
 30
0.0
  0
SPLINE
  5
37F
100
AcDbEntity
  8
0
100
AcDbSpline
 62
7
  6
CONTINUOUS
 70
0
 71
3
 72
9
 73
5
 74
0
 42
0.0000001
 43
0.0000001
 44
0.0000000001
 40
0.0
 40
0.0
 40
0.0
 40
0.0
 40
0.2703304148
 40
1.0
 40
1.0
 40
1.0
 40
1.0
 10
519.5984811185
 20
858.9302078929
 30
0.0
 10
519.5459091245
 20
859.0149707284
 30
0.0
 10
519.3668851833
 20
859.3368074477
 30
0.0
 10
519.2631019221
 20
859.7079919563
 30
0.0
 10
519.2631019221
 20
859.9772144164
 30
0.0
  0
ENDSEC
  0
SECTION
  2
OBJECTS
  0
DICTIONARY
  5
C
100
AcDbDictionary
280
0
281
1
  3
ACAD_GROUP
350
D
  3
ACAD_MLINESTYLE
350
17
  3
ACAD_LAYOUT
350
1A
  3
ACAD_PLOTSETTINGS
350
19
  3
ACAD_PLOTSTYLENAME
350
E
  0
DICTIONARY
  5
D
102
{ACAD_REACTORS
330
C
102
}
100
AcDbDictionary
280
0
281
1
  0
ACDBDICTIONARYWDFLT
  5
E
102
{ACAD_REACTORS
330
C
102
}
100
AcDbDictionary
281
1
  3
Normal
350
F
100
AcDbDictionaryWithDefault
340
F
  0
DICTIONARY
  5
17
102
{ACAD_REACTORS
330
C
102
}
100
AcDbDictionary
280
0
281
1
  3
Standard
350
18
  0
DICTIONARY
  5
19
102
{ACAD_REACTORS
330
C
102
}
100
AcDbDictionary
281
1
  0
DICTIONARY
  5
1A
102
{ACAD_REACTORS
330
C
102
}
100
AcDbDictionary
281
1
  3
Model
350
380
  3
Layout1
350
381
  0
ACDBPLACEHOLDER
  5
F
102
{ACAD_REACTORS
330
E
102
}
  0
MLINESTYLE
  5
18
102
{ACAD_REACTORS
330
17
102
}
100
AcDbMlineStyle
  2
STANDARD
 70
0
  3

 62
256
 51
90.0
 52
90.0
 71
2
 49
0.5
 62
256
  6
BYLAYER
 49
-0.5
 62
256
  6
BYLAYER
  0
LAYOUT
  5
380
102
{ACAD_REACTORS
330
1A
102
}
100
AcDbPlotSettings
  1

  2
none_device
  4

  6

 40
0.0
 41
0.0
 42
0.0
 43
0.0
 44
210.0
 45
297.0
 46
0.0
 47
0.0
 48
0.0
 49
0.0
140
0.0
141
0.0
142
1.0
143
1.0
 70
1024
 72
1
 73
0
 74
0
  7

 75
0
147
1.0
148
0.0
149
0.0
100
AcDbLayout
  1
Model
 70
0
 71
0
 10
0.0
 20
0.0
 11
210.0
 21
297.0
 12
0.0
 22
0.0
 32
0.0
 14
0.0
 24
0.0
 34
0.0
 15
0.0
 25
0.0
 35
0.0
146
0.0
 13
0.0
 23
0.0
 33
0.0
 16
1.0
 26
0.0
 36
0.0
 17
0.0
 27
1.0
 37
0.0
 76
0
330
210
345
0
346
0
  0
LAYOUT
  5
381
102
{ACAD_REACTORS
330
1A
102
}
100
AcDbPlotSettings
  1

  2
none_device
  4

  6

 40
0.0
 41
0.0
 42
0.0
 43
0.0
 44
210.0
 45
297.0
 46
0.0
 47
0.0
 48
0.0
 49
0.0
140
0.0
141
0.0
142
1.0
143
1.0
 70
0
 72
1
 73
0
 74
0
  7

 75
0
147
1.0
148
0.0
149
0.0
100
AcDbLayout
  1
Layout1
 70
0
 71
1
 10
0.0
 20
0.0
 11
210.0
 21
297.0
 12
0.0
 22
0.0
 32
0.0
 14
0.0
 24
0.0
 34
0.0
 15
0.0
 25
0.0
 35
0.0
146
0.0
 13
0.0
 23
0.0
 33
0.0
 16
1.0
 26
0.0
 36
0.0
 17
0.0
 27
1.0
 37
0.0
 76
0
330
211
345
0
346
0
  0
ENDSEC
  0
EOF
