999
DXF file: C:\Users\sesa63760\Dev\_Creo\CAD\MCADUE0003063_3D-CAD\drw0001_3.dxf
999
Pro/ENGINEER 2019471 by Parametric Technology Corporation
  0
SECTION
  2
HEADER
  9
$ACADVER
  1
AC1024
  9
$DWGCODEPAGE
  3
ANSI_1252
  9
$EXTMAX
 10
632.0314744823
 20
893.8730853393
 30
0.0
  9
$EXTMIN
 10
0.0
 20
0.0
 30
0.0
  9
$LIMMIN
 10
0.0
 20
0.0
  9
$LIMMAX
 10
632.0314744823
 20
893.8730853393
  9
$VIEWCTR
 10
316.0157372412
 20
446.9365426696
  9
$VIEWSIZE
 40
893.8730853393
  9
$CLAYER
  8
0
  9
$LTSCALE
 40
58.2672825999
  9
$CELTYPE
  6
BYLAYER
  9
$DIMSCALE
 40
1.0
  9
$DIMASZ
 40
7.52418422
  9
$DIMEXO
 40
1.0
  9
$DIMDLI
 40
40.2573952508
  9
$DIMEXE
 40
1.0
  9
$DIMCEN
 40
9.5346462436
  9
$DIMLFAC
 40
1.0
  9
$DIMBLK
  1
_FILLED
  9
$DIMALT
 70
0
  9
$DIMALTF
 40
0.0393700787
  9
$DIMTXT
 40
10.533857908
  9
$DIMTOL
 70
1
  9
$DIMLIM
 70
0
  9
$DIMTFAC
 40
1.0
  9
$DIMTP
 40
0.01
  9
$DIMTM
 40
0.01
  9
$DIMGAP
 40
0.625
  9
$DIMDSEP
 70
46
  9
$AUNITS
 70
0
  9
$PDMODE
 70
3
  9
$PDSIZE
 40
0.3125
  9
$HANDSEED
  5
380
  9
$TILEMODE
 70
1
  9
$MEASUREMENT
 70
1
  9
$INSUNITS
 70
4
  0
ENDSEC
  0
SECTION
  2
CLASSES
  0
CLASS
  1
ACDBDICTIONARYWDFLT
  2
AcDbDictionaryWithDefault
  3
AutoCAD 2000
 90
0
 91
1
280
0
281
0
  0
CLASS
  1
ACDBPLACEHOLDER
  2
AcDbPlaceHolder
  3
AutoCAD 2000
 90
0
 91
1
280
0
281
0
  0
CLASS
  1
LAYOUT
  2
AcDbLayout
  3
AutoCAD 2000
 90
0
 91
0
280
0
281
0
  0
ENDSEC
  0
SECTION
  2
TABLES
  0
TABLE
  2
VPORT
  5
8
100
AcDbSymbolTable
 70
2
  0
VPORT
  5
1F4
100
AcDbSymbolTableRecord
100
AcDbViewportTableRecord
  2
*ACTIVE
 70
0
 10
0.0
 20
0.0
 11
1.0
 21
1.0
 12
316.0157372412
 22
446.9365426696
 13
0.0
 23
0.0
 14
1.0
 24
1.0
 15
0.0
 25
0.0
 16
0.0
 26
0.0
 36
1.0
 17
0.0
 27
0.0
 37
0.0
 40
893.8730853393
 41
0.7070707071
 42
50.0
 43
0.0
 44
0.0
 50
0.0
 51
0.0
 71
0
 72
100
 73
1
 74
1
 75
0
 76
0
 77
0
 78
0
  0
ENDTAB
  0
TABLE
  2
LTYPE
  5
5
100
AcDbSymbolTable
 70
6
  0
LTYPE
  5
14
100
AcDbSymbolTableRecord
100
AcDbLinetypeTableRecord
  2
BYBLOCK
 70
0
  3

 72
65
 73
0
 40
0.0
  0
LTYPE
  5
15
100
AcDbSymbolTableRecord
100
AcDbLinetypeTableRecord
  2
BYLAYER
 70
0
  3

 72
65
 73
0
 40
0.0
  0
LTYPE
  5
16
100
AcDbSymbolTableRecord
100
AcDbLinetypeTableRecord
  2
CONTINUOUS
 70
64
  3
Solid line
 72
65
 73
0
 40
0.0
  0
LTYPE
  5
1F5
100
AcDbSymbolTableRecord
100
AcDbLinetypeTableRecord
  2
CENTER
 70
64
  3
____ _ ____ _ ____ _ ____ _ ____ _ ____ _ ____
 72
65
 73
4
 40
0.6
 49
0.375
 74
0
 49
-0.075
 74
0
 49
0.075
 74
0
 49
-0.075
 74
0
  0
LTYPE
  5
1F6
100
AcDbSymbolTableRecord
100
AcDbLinetypeTableRecord
  2
HIDDEN
 70
64
  3
- - - - - - - - - - - - - - - - - - - -
 72
65
 73
2
 40
0.2
 49
0.1
 74
0
 49
-0.1
 74
0
  0
LTYPE
  5
1F7
100
AcDbSymbolTableRecord
100
AcDbLinetypeTableRecord
  2
PHANTOM
 70
64
  3
_____ _ _ _____ _ _ _____ _ _ _____
 72
65
 73
6
 40
0.8
 49
0.45
 74
0
 49
-0.05
 74
0
 49
0.1
 74
0
 49
-0.05
 74
0
 49
0.1
 74
0
 49
-0.05
 74
0
  0
LTYPE
  5
1F8
100
AcDbSymbolTableRecord
100
AcDbLinetypeTableRecord
  2
DOT
 70
64
  3
. . . . . . . . . . . . . . . . . . . .
 72
65
 73
2
 40
0.2
 49
0.1
 74
0
 49
-0.1
 74
0
  0
LTYPE
  5
1F9
100
AcDbSymbolTableRecord
100
AcDbLinetypeTableRecord
  2
DASHED
 70
64
  3
- - - - - - - - - - - - - - - - - - - -
 72
65
 73
2
 40
0.2
 49
0.1
 74
0
 49
-0.1
 74
0
  0
ENDTAB
  0
TABLE
  2
LAYER
  5
2
100
AcDbSymbolTable
 70
36
  0
LAYER
  5
10
100
AcDbSymbolTableRecord
100
AcDbLayerTableRecord
  2
0
 70
0
 62
7
  6
CONTINUOUS
370
-3
390
F
  0
LAYER
  5
1FA
100
AcDbSymbolTableRecord
100
AcDbLayerTableRecord
  2
DEFAULT_1
 70
0
 62
7
  6
CENTER
370
-3
390
F
  0
LAYER
  5
1FB
100
AcDbSymbolTableRecord
100
AcDbLayerTableRecord
  2
DEFAULT_2
 70
0
 62
8
  6
HIDDEN
370
-3
390
F
  0
LAYER
  5
1FC
100
AcDbSymbolTableRecord
100
AcDbLayerTableRecord
  2
DEFAULT_3
 70
0
 62
7
  6
PHANTOM
370
-3
390
F
  0
LAYER
  5
1FD
100
AcDbSymbolTableRecord
100
AcDbLayerTableRecord
  2
00_COMPONENTS
 70
0
 62
7
  6
CONTINUOUS
370
-3
390
F
  0
LAYER
  5
1FE
100
AcDbSymbolTableRecord
100
AcDbLayerTableRecord
  2
01_1_DEFAULT_DATUMS
 70
0
 62
7
  6
CONTINUOUS
370
-3
390
F
  0
LAYER
  5
1FF
100
AcDbSymbolTableRecord
100
AcDbLayerTableRecord
  2
01_PLANES
 70
0
 62
7
  6
CONTINUOUS
370
-3
390
F
  0
LAYER
  5
200
100
AcDbSymbolTableRecord
100
AcDbLayerTableRecord
  2
02_COORD_SYS
 70
0
 62
7
  6
CONTINUOUS
370
-3
390
F
  0
LAYER
  5
201
100
AcDbSymbolTableRecord
100
AcDbLayerTableRecord
  2
03_AXES
 70
0
 62
7
  6
CONTINUOUS
370
-3
390
F
  0
LAYER
  5
202
100
AcDbSymbolTableRecord
100
AcDbLayerTableRecord
  2
04_POINTS
 70
0
 62
7
  6
CONTINUOUS
370
-3
390
F
  0
LAYER
  5
203
100
AcDbSymbolTableRecord
100
AcDbLayerTableRecord
  2
05_CURVES
 70
0
 62
7
  6
CONTINUOUS
370
-3
390
F
  0
LAYER
  5
204
100
AcDbSymbolTableRecord
100
AcDbLayerTableRecord
  2
06_SURFS
 70
0
 62
7
  6
CONTINUOUS
370
-3
390
F
  0
LAYER
  5
205
100
AcDbSymbolTableRecord
100
AcDbLayerTableRecord
  2
07_COSMETICS
 70
0
 62
7
  6
CONTINUOUS
370
-3
390
F
  0
LAYER
  5
206
100
AcDbSymbolTableRecord
100
AcDbLayerTableRecord
  2
10_NOTES
 70
0
 62
7
  6
CONTINUOUS
370
-3
390
F
  0
LAYER
  5
207
100
AcDbSymbolTableRecord
100
AcDbLayerTableRecord
  2
11_NOTES_PUB
 70
0
 62
7
  6
CONTINUOUS
370
-3
390
F
  0
LAYER
  5
208
100
AcDbSymbolTableRecord
100
AcDbLayerTableRecord
  2
13_REF_GTOL
 70
0
 62
7
  6
CONTINUOUS
370
-3
390
F
  0
LAYER
  5
209
100
AcDbSymbolTableRecord
100
AcDbLayerTableRecord
  2
16_MISC
 70
0
 62
7
  6
CONTINUOUS
370
-3
390
F
  0
LAYER
  5
20A
100
AcDbSymbolTableRecord
100
AcDbLayerTableRecord
  2
17_NO_PRINT
 70
0
 62
7
  6
CONTINUOUS
370
-3
390
F
  0
LAYER
  5
20B
100
AcDbSymbolTableRecord
100
AcDbLayerTableRecord
  2
18_DATUM_CAMS_JOINTS
 70
0
 62
7
  6
CONTINUOUS
370
-3
390
F
  0
LAYER
  5
20C
100
AcDbSymbolTableRecord
100
AcDbLayerTableRecord
  2
19_DATUM_FUNCTIONAL
 70
0
 62
7
  6
CONTINUOUS
370
-3
390
F
  0
LAYER
  5
20D
100
AcDbSymbolTableRecord
100
AcDbLayerTableRecord
  2
20_DATUM_KINEMATIC_SCHEME
 70
0
 62
7
  6
CONTINUOUS
370
-3
390
F
  0
ENDTAB
  0
TABLE
  2
STYLE
  5
3
100
AcDbSymbolTable
 70
1
  0
STYLE
  5
11
100
AcDbSymbolTableRecord
100
AcDbTextStyleTableRecord
  2
STANDARD
 70
0
 40
0.0
 41
0.8
 50
0.0
 71
0
 42
0.2
  3
txt
  4

  0
STYLE
  5
20E
100
AcDbSymbolTableRecord
100
AcDbTextStyleTableRecord
  2
TEXTSTYLE_1
 70
0
 40
0.0
 41
0.8
 50
0.0
 71
0
 42
0.2
  3
gdt
  4

  0
ENDTAB
  0
TABLE
  2
VIEW
  5
6
100
AcDbSymbolTable
 70
0
  0
ENDTAB
  0
TABLE
  2
UCS
  5
7
100
AcDbSymbolTable
 70
0
  0
ENDTAB
  0
TABLE
  2
APPID
  5
9
100
AcDbSymbolTable
 70
1
  0
APPID
  5
20F
100
AcDbSymbolTableRecord
100
AcDbRegAppTableRecord
  2
ACAD
 70
0
  0
ENDTAB
  0
TABLE
  2
BLOCK_RECORD
  5
1
100
AcDbSymbolTable
 70
0
  0
BLOCK_RECORD
  5
210
100
AcDbSymbolTableRecord
100
AcDbBlockTableRecord
  2
*Model_Space
  0
BLOCK_RECORD
  5
211
100
AcDbSymbolTableRecord
100
AcDbBlockTableRecord
  2
*Paper_Space
  0
BLOCK_RECORD
  5
212
100
AcDbSymbolTableRecord
100
AcDbBlockTableRecord
  2
_FILLED
  0
ENDTAB
  0
TABLE
  2
DIMSTYLE
  5
A
100
AcDbSymbolTable
 70
1
100
AcDbDimStyleTable
 71
0
  0
DIMSTYLE
105
213
100
AcDbSymbolTableRecord
100
AcDbDimStyleTableRecord
  2
STANDARD
 70
0
  3

  4

 40
1.0
 41
7.52418422
 42
1.0
 43
0.38
 44
1.0
 45
0.0
 46
0.0
 47
0.01
 48
0.01
140
10.533857908
141
0.09
142
0.0
143
25.4
144
1.0
145
0.0
146
1.0
147
0.625
 71
1
 72
0
 73
0
 74
0
 75
0
 76
0
 77
1
 78
8
 79
2
170
0
171
1
172
0
173
0
174
0
175
0
176
0
177
0
178
0
270
2
179
2
271
2
272
2
273
2
274
2
275
0
280
0
281
0
282
0
283
1
284
8
285
0
286
0
287
3
288
0
340
11
278
46
341
212
342
212
343
212
344
212
  0
ENDTAB
  0
ENDSEC
  0
SECTION
  2
BLOCKS
  0
BLOCK
  5
20
100
AcDbEntity
  8
0
100
AcDbBlockBegin
  2
*Model_Space
 70
0
 10
0.0
 20
0.0
 30
0.0
  3
*Model_Space
  1

  0
ENDBLK
  5
21
100
AcDbEntity
  8
0
100
AcDbBlockEnd
  0
BLOCK
  5
1C
100
AcDbEntity
  8
0
100
AcDbBlockBegin
  2
*Paper_Space
 70
0
 10
0.0
 20
0.0
 30
0.0
  3
*Paper_Space
  1

  0
ENDBLK
  5
1D
100
AcDbEntity
  8
0
100
AcDbBlockEnd
  0
BLOCK
  5
214
100
AcDbEntity
  8
0
100
AcDbBlockBegin
  2
_FILLED
 70
64
 10
0.0
 20
0.0
  3
_FILLED
  1

  0
SOLID
  5
215
100
AcDbEntity
  8
0
  6
BYBLOCK
 62
0
100
AcDbTrace
 10
0.0
 20
0.0
 11
-1.0
 21
0.25
 12
-1.0
 22
-0.25
 13
-1.0
 23
-0.25
  0
ENDBLK
  5
216
100
AcDbEntity
  8
0
  6
BYBLOCK
 62
0
100
AcDbBlockEnd
  0
ENDSEC
  0
SECTION
  2
ENTITIES
  0
LINE
  5
217
100
AcDbEntity
  8
0
100
AcDbLine
 62
7
  6
CONTINUOUS
 10
74.7684724709
 20
321.7246965012
 11
74.7684724709
 21
543.3246965012
  0
LINE
  5
218
100
AcDbEntity
  8
0
100
AcDbLine
 62
7
  6
CONTINUOUS
 10
76.70229774
 20
564.0671031688
 11
76.70229774
 21
554.0349931126
  0
LINE
  5
219
100
AcDbEntity
  8
0
100
AcDbLine
 62
7
  6
CONTINUOUS
 10
77.90229774
 20
554.0349931126
 11
77.90229774
 21
564.0671031688
  0
LINE
  5
21A
100
AcDbEntity
  8
0
100
AcDbLine
 62
7
  6
CONTINUOUS
 10
80.7684724709
 20
546.7246965012
 11
80.7684724709
 21
546.5246965012
  0
LINE
  5
21B
100
AcDbEntity
  8
0
100
AcDbLine
 62
7
  6
CONTINUOUS
 10
90.7684724709
 20
546.5246965012
 11
90.7684724709
 21
546.7246965012
  0
LINE
  5
21C
100
AcDbEntity
  8
0
100
AcDbLine
 62
7
  6
CONTINUOUS
 10
97.0184724709
 20
442.7746965012
 11
97.0184724709
 21
356.2746965012
  0
LINE
  5
21D
100
AcDbEntity
  8
0
100
AcDbLine
 62
7
  6
CONTINUOUS
 10
97.5184724709
 20
356.2746965012
 11
97.5184724709
 21
442.7746965012
  0
LINE
  5
21E
100
AcDbEntity
  8
0
100
AcDbLine
 62
7
  6
CONTINUOUS
 10
99.3938385838
 20
441.7746964988
 11
99.3938385838
 21
357.2746965013
  0
LINE
  5
21F
100
AcDbEntity
  8
0
100
AcDbLine
 62
7
  6
CONTINUOUS
 10
100.3098887145
 20
357.2746965043
 11
100.3098887145
 21
441.7746964985
  0
LINE
  5
220
100
AcDbEntity
  8
0
100
AcDbLine
 62
7
  6
CONTINUOUS
 10
100.4017452913
 20
441.7746964987
 11
100.4017452913
 21
357.2746965041
  0
LINE
  5
221
100
AcDbEntity
  8
0
100
AcDbLine
 62
7
  6
CONTINUOUS
 10
101.3865530442
 20
357.2746965012
 11
101.3865530442
 21
441.7746965012
  0
LINE
  5
222
100
AcDbEntity
  8
0
100
AcDbLine
 62
7
  6
CONTINUOUS
 10
78.0668531437
 20
566.6883897105
 11
85.8758092681
 21
572.1562796544
  0
LINE
  5
223
100
AcDbEntity
  8
0
100
AcDbLine
 62
7
  6
CONTINUOUS
 10
84.2243602732
 20
569.5349931126
 11
78.7551448673
 21
565.7054072573
  0
LINE
  5
224
100
AcDbEntity
  8
0
100
AcDbLine
 62
7
  6
CONTINUOUS
 10
102.2684724709
 20
359.5246965012
 11
102.2684724709
 21
439.5246965012
  0
LINE
  5
225
100
AcDbEntity
  8
0
100
AcDbLine
 62
7
  6
CONTINUOUS
 10
110.7770141481
 20
574.8745910994
 11
110.70229774
 21
572.7349931126
  0
LINE
  5
226
100
AcDbEntity
  8
0
100
AcDbLine
 62
7
  6
CONTINUOUS
 10
94.3055328296
 20
548.906314492
 11
93.5613130957
 21
552.7349931126
  0
LINE
  5
227
100
AcDbEntity
  8
0
100
AcDbLine
 62
7
  6
CONTINUOUS
 10
94.5429402792
 20
552.7349931126
 11
95.2871600131
 21
548.906314492
  0
LINE
  5
228
100
AcDbEntity
  8
0
100
AcDbLine
 62
7
  6
CONTINUOUS
 10
124.0184724709
 20
329.2746965012
 11
124.0184724709
 21
329.7746965012
  0
LINE
  5
229
100
AcDbEntity
  8
0
100
AcDbLine
 62
7
  6
CONTINUOUS
 10
124.0184724709
 20
469.2746965012
 11
124.0184724709
 21
469.7746965012
  0
LINE
  5
22A
100
AcDbEntity
  8
0
100
AcDbLine
 62
7
  6
CONTINUOUS
 10
125.0184724777
 20
331.6500626142
 11
125.0184724678
 21
333.6427770745
  0
LINE
  5
22B
100
AcDbEntity
  8
0
100
AcDbLine
 62
7
  6
CONTINUOUS
 10
125.0184724709
 20
465.4066159279
 11
125.0184724715
 21
467.3993303883
  0
LINE
  5
22C
100
AcDbEntity
  8
0
100
AcDbLine
 62
7
  6
CONTINUOUS
 10
142.6275813319
 20
574.8745910994
 11
142.70229774
 21
572.7349931126
  0
LINE
  5
22D
100
AcDbEntity
  8
0
100
AcDbLine
 62
7
  6
CONTINUOUS
 10
139.157684474
 20
578.7000363814
 11
139.0978748553
 21
578.6789261042
  0
LINE
  5
22E
100
AcDbEntity
  8
0
100
AcDbLine
 62
7
  6
CONTINUOUS
 10
139.1107979915
 20
578.6835368055
 11
139.0772352714
 21
578.6736737835
  0
LINE
  5
22F
100
AcDbEntity
  8
0
100
AcDbLine
 62
7
  6
CONTINUOUS
 10
76.9684724709
 20
319.5246965012
 11
572.5684724709
 21
319.5246965012
  0
LINE
  5
230
100
AcDbEntity
  8
0
100
AcDbLine
 62
7
  6
CONTINUOUS
 10
82.820515842
 20
568.5520106595
 11
82.1322241184
 21
569.5349931126
  0
LINE
  5
231
100
AcDbEntity
  8
0
100
AcDbLine
 62
7
  6
CONTINUOUS
 10
574.7684724709
 20
321.7246965012
 11
74.7684724709
 21
321.7246965012
  0
LINE
  5
232
100
AcDbEntity
  8
0
100
AcDbLine
 62
7
  6
CONTINUOUS
 10
124.0184724709
 20
329.2746965012
 11
525.5184724709
 21
329.2746965012
  0
LINE
  5
233
100
AcDbEntity
  8
0
100
AcDbLine
 62
7
  6
CONTINUOUS
 10
525.5184724709
 20
329.7746965012
 11
124.0184724709
 21
329.7746965012
  0
LINE
  5
234
100
AcDbEntity
  8
0
100
AcDbLine
 62
7
  6
CONTINUOUS
 10
125.0184724732
 20
331.6500626142
 11
524.5184724712
 21
331.6500626142
  0
LINE
  5
235
100
AcDbEntity
  8
0
100
AcDbLine
 62
7
  6
CONTINUOUS
 10
524.5184724678
 20
332.5661127449
 11
125.0184724736
 21
332.5661127449
  0
LINE
  5
236
100
AcDbEntity
  8
0
100
AcDbLine
 62
7
  6
CONTINUOUS
 10
125.0184724735
 20
332.6579693217
 11
524.5184724681
 21
332.6579693216
  0
LINE
  5
237
100
AcDbEntity
  8
0
100
AcDbLine
 62
7
  6
CONTINUOUS
 10
524.5184724709
 20
333.6427770745
 11
125.0184724709
 21
333.6427770745
  0
LINE
  5
238
100
AcDbEntity
  8
0
100
AcDbLine
 62
7
  6
CONTINUOUS
 10
522.2684724709
 20
334.5246965012
 11
127.2684724709
 21
334.5246965012
  0
LINE
  5
239
100
AcDbEntity
  8
0
100
AcDbLine
 62
7
  6
CONTINUOUS
 10
85.8758092681
 20
572.1562796544
 11
86.1211049119
 21
571.8059611696
  0
LINE
  5
23A
100
AcDbEntity
  8
0
100
AcDbLine
 62
7
  6
CONTINUOUS
 10
552.5184724709
 20
356.2746965012
 11
552.0184724709
 21
356.2746965012
  0
LINE
  5
23B
100
AcDbEntity
  8
0
100
AcDbLine
 62
7
  6
CONTINUOUS
 10
97.5184724709
 20
356.2746965012
 11
97.0184724709
 21
356.2746965012
  0
LINE
  5
23C
100
AcDbEntity
  8
0
100
AcDbLine
 62
7
  6
CONTINUOUS
 10
550.143106358
 20
357.274696508
 11
548.1503918976
 21
357.2746964982
  0
LINE
  5
23D
100
AcDbEntity
  8
0
100
AcDbLine
 62
7
  6
CONTINUOUS
 10
101.3865530442
 20
357.2746965012
 11
99.3938385838
 21
357.2746965019
  0
LINE
  5
23E
100
AcDbEntity
  8
0
100
AcDbLine
 62
7
  6
CONTINUOUS
 10
99.3938385838
 20
441.7746964944
 11
101.3865530442
 21
441.7746965043
  0
LINE
  5
23F
100
AcDbEntity
  8
0
100
AcDbLine
 62
7
  6
CONTINUOUS
 10
548.1503918976
 20
441.7746965012
 11
550.143106358
 21
441.7746965007
  0
LINE
  5
240
100
AcDbEntity
  8
0
100
AcDbLine
 62
7
  6
CONTINUOUS
 10
97.0184724709
 20
442.7746965012
 11
97.5184724709
 21
442.7746965012
  0
LINE
  5
241
100
AcDbEntity
  8
0
100
AcDbLine
 62
7
  6
CONTINUOUS
 10
552.0184724709
 20
442.7746965012
 11
552.5184724709
 21
442.7746965012
  0
LINE
  5
242
100
AcDbEntity
  8
0
100
AcDbLine
 62
7
  6
CONTINUOUS
 10
127.2684724709
 20
464.5246965012
 11
522.2684724709
 21
464.5246965012
  0
LINE
  5
243
100
AcDbEntity
  8
0
100
AcDbLine
 62
7
  6
CONTINUOUS
 10
125.0184724709
 20
465.4066159279
 11
524.5184724709
 21
465.4066159279
  0
LINE
  5
244
100
AcDbEntity
  8
0
100
AcDbLine
 62
7
  6
CONTINUOUS
 10
524.5184724684
 20
466.3914236808
 11
125.0184724737
 21
466.3914236809
  0
LINE
  5
245
100
AcDbEntity
  8
0
100
AcDbLine
 62
7
  6
CONTINUOUS
 10
125.018472474
 20
466.4832802576
 11
524.5184724682
 21
466.4832802576
  0
LINE
  5
246
100
AcDbEntity
  8
0
100
AcDbLine
 62
7
  6
CONTINUOUS
 10
524.5184724685
 20
467.3993303883
 11
125.0184724709
 21
467.3993303883
  0
LINE
  5
247
100
AcDbEntity
  8
0
100
AcDbLine
 62
7
  6
CONTINUOUS
 10
124.0184724709
 20
469.2746965012
 11
525.5184724709
 21
469.2746965012
  0
LINE
  5
248
100
AcDbEntity
  8
0
100
AcDbLine
 62
7
  6
CONTINUOUS
 10
525.5184724709
 20
469.7746965012
 11
124.0184724709
 21
469.7746965012
  0
LINE
  5
249
100
AcDbEntity
  8
0
100
AcDbLine
 62
7
  6
CONTINUOUS
 10
114.3067793749
 20
578.6789167612
 11
114.246911006
 21
578.7000363814
  0
LINE
  5
24A
100
AcDbEntity
  8
0
100
AcDbLine
 62
7
  6
CONTINUOUS
 10
119.249097083
 20
578.7192016724
 11
119.2513230148
 21
578.7186425785
  0
LINE
  5
24B
100
AcDbEntity
  8
0
100
AcDbLine
 62
7
  6
CONTINUOUS
 10
114.3273583653
 20
578.6736772136
 11
114.2938763293
 21
578.6835167183
  0
LINE
  5
24C
100
AcDbEntity
  8
0
100
AcDbLine
 62
7
  6
CONTINUOUS
 10
119.4663196886
 20
578.6532721975
 11
119.2490546343
 21
578.717458982
  0
LINE
  5
24D
100
AcDbEntity
  8
0
100
AcDbLine
 62
7
  6
CONTINUOUS
 10
119.46711398
 20
578.6530724191
 11
119.2613259159
 21
578.7158607313
  0
LINE
  5
24E
100
AcDbEntity
  8
0
100
AcDbLine
 62
7
  6
CONTINUOUS
 10
119.2626847262
 20
578.7154262502
 11
119.2613259159
 21
578.7158607313
  0
LINE
  5
24F
100
AcDbEntity
  8
0
100
AcDbLine
 62
7
  6
CONTINUOUS
 10
91.6322486008
 20
536.0349931126
 11
87.8913203027
 21
536.0349931126
  0
LINE
  5
250
100
AcDbEntity
  8
0
100
AcDbLine
 62
7
  6
CONTINUOUS
 10
91.1519288788
 20
536.3088458728
 11
88.3641861826
 21
536.3088461859
  0
LINE
  5
251
100
AcDbEntity
  8
0
100
AcDbLine
 62
7
  6
CONTINUOUS
 10
74.7684724709
 20
543.3246965012
 11
574.7684724709
 21
543.3246965012
  0
LINE
  5
252
100
AcDbEntity
  8
0
100
AcDbLine
 62
7
  6
CONTINUOUS
 10
571.5684724709
 20
546.5246965012
 11
77.9684724709
 21
546.5246965012
  0
LINE
  5
253
100
AcDbEntity
  8
0
100
AcDbLine
 62
7
  6
CONTINUOUS
 10
80.7684724709
 20
546.7246965012
 11
90.7684724709
 21
546.7246965012
  0
LINE
  5
254
100
AcDbEntity
  8
0
100
AcDbLine
 62
7
  6
CONTINUOUS
 10
85.0184724708
 20
547.7246965012
 11
86.518472471
 21
547.7246965012
  0
LINE
  5
255
100
AcDbEntity
  8
0
100
AcDbLine
 62
7
  6
CONTINUOUS
 10
557.9815694748
 20
548.0246965012
 11
570.4684724709
 21
548.0246965012
  0
LINE
  5
256
100
AcDbEntity
  8
0
100
AcDbLine
 62
7
  6
CONTINUOUS
 10
562.9878806343
 20
548.5529807725
 11
568.8807157958
 21
548.5529981984
  0
LINE
  5
257
100
AcDbEntity
  8
0
100
AcDbLine
 62
7
  6
CONTINUOUS
 10
562.9878806343
 20
548.7246965012
 11
568.8806049407
 21
548.7246965012
  0
LINE
  5
258
100
AcDbEntity
  8
0
100
AcDbLine
 62
7
  6
CONTINUOUS
 10
554.2497849287
 20
548.906314492
 11
95.2871600131
 21
548.906314492
  0
LINE
  5
259
100
AcDbEntity
  8
0
100
AcDbLine
 62
7
  6
CONTINUOUS
 10
570.6107882943
 20
552.7349931126
 11
78.7938071857
 21
552.7349931126
  0
LINE
  5
25A
100
AcDbEntity
  8
0
100
AcDbLine
 62
7
  6
CONTINUOUS
 10
572.70229774
 20
554.0349931126
 11
76.70229774
 21
554.0349931126
  0
LWPOLYLINE
  5
25B
100
AcDbEntity
  8
0
100
AcDbPolyline
 62
7
  6
CONTINUOUS
 90
3
 70
0
 10
139.1577242853
 20
578.7003261935
 10
139.1400842696
 20
578.701957209
 10
139.0714773772
 20
578.6932765493
  0
LWPOLYLINE
  5
25C
100
AcDbEntity
  8
0
100
AcDbPolyline
 62
7
  6
CONTINUOUS
 90
3
 70
0
 10
114.3331181033
 20
578.6932765492
 10
114.2646722103
 20
578.7019648613
 10
114.2468711947
 20
578.7003261935
  0
LINE
  5
25D
100
AcDbEntity
  8
0
100
AcDbLine
 62
7
  6
CONTINUOUS
 10
563.2834905681
 20
571.8059611696
 11
563.5287862119
 21
572.1562796544
  0
LINE
  5
25E
100
AcDbEntity
  8
0
100
AcDbLine
 62
7
  6
CONTINUOUS
 10
567.2723713616
 20
569.5349931126
 11
566.584079638
 21
568.5520106595
  0
LINE
  5
25F
100
AcDbEntity
  8
0
100
AcDbLine
 62
7
  6
CONTINUOUS
 10
84.2243602732
 20
569.5349931126
 11
565.1802352068
 21
569.5349931126
  0
LINE
  5
260
100
AcDbEntity
  8
0
100
AcDbLine
 62
7
  6
CONTINUOUS
 10
561.6933416156
 20
572.7349931126
 11
87.7112538644
 21
572.7349931126
  0
LINE
  5
261
100
AcDbEntity
  8
0
100
AcDbLine
 62
7
  6
CONTINUOUS
 10
115.0813964458
 20
573.5736083965
 11
138.323168857
 21
573.5736083965
  0
LINE
  5
262
100
AcDbEntity
  8
0
100
AcDbLine
 62
7
  6
CONTINUOUS
 10
138.2435921391
 20
574.3160603046
 11
115.1610102853
 21
574.3160603046
  0
LINE
  5
263
100
AcDbEntity
  8
0
100
AcDbLine
 62
7
  6
CONTINUOUS
 10
110.7770141543
 20
574.8745912775
 11
112.1343910751
 21
574.8745912775
  0
LINE
  5
264
100
AcDbEntity
  8
0
100
AcDbLine
 62
7
  6
CONTINUOUS
 10
141.270202528
 20
574.8745912775
 11
142.6275813257
 21
574.8745912775
  0
LINE
  5
265
100
AcDbEntity
  8
0
100
AcDbLine
 62
7
  6
CONTINUOUS
 10
95.2871600131
 20
549.0971234873
 11
94.3055328296
 21
548.906314492
  0
LINE
  5
266
100
AcDbEntity
  8
0
100
AcDbLine
 62
7
  6
CONTINUOUS
 10
555.2314121122
 20
548.906314492
 11
554.2497849287
 21
549.0971234873
  0
LINE
  5
267
100
AcDbEntity
  8
0
100
AcDbLine
 62
7
  6
CONTINUOUS
 10
524.5184724641
 20
467.3993303883
 11
524.518472474
 21
465.4066159279
  0
LINE
  5
268
100
AcDbEntity
  8
0
100
AcDbLine
 62
7
  6
CONTINUOUS
 10
524.5184724709
 20
333.6427770745
 11
524.5184724703
 21
331.6500626142
  0
LINE
  5
269
100
AcDbEntity
  8
0
100
AcDbLine
 62
7
  6
CONTINUOUS
 10
525.5184724709
 20
469.7746965012
 11
525.5184724709
 21
469.2746965012
  0
LINE
  5
26A
100
AcDbEntity
  8
0
100
AcDbLine
 62
7
  6
CONTINUOUS
 10
525.5184724709
 20
329.7746965012
 11
525.5184724709
 21
329.2746965012
  0
LINE
  5
26B
100
AcDbEntity
  8
0
100
AcDbLine
 62
7
  6
CONTINUOUS
 10
554.2497849287
 20
548.906314492
 11
554.9940046626
 21
552.7349931126
  0
LINE
  5
26C
100
AcDbEntity
  8
0
100
AcDbLine
 62
7
  6
CONTINUOUS
 10
555.9756318461
 20
552.7349931126
 11
555.2314121123
 21
548.906314492
  0
LINE
  5
26D
100
AcDbEntity
  8
0
100
AcDbLine
 62
7
  6
CONTINUOUS
 10
556.15598634
 20
552.7349931126
 11
555.5275015164
 21
549.5017189897
  0
LINE
  5
26E
100
AcDbEntity
  8
0
100
AcDbLine
 62
7
  6
CONTINUOUS
 10
556.9999422915
 20
549.2155054967
 11
557.6840613823
 21
552.7349931126
  0
LINE
  5
26F
100
AcDbEntity
  8
0
100
AcDbLine
 62
7
  6
CONTINUOUS
 10
562.7955758448
 20
548.5796407268
 11
562.6370203518
 21
548.0246965012
  0
LINE
  5
270
100
AcDbEntity
  8
0
100
AcDbLine
 62
7
  6
CONTINUOUS
 10
562.9878806343
 20
548.5529807725
 11
562.8369422711
 21
548.0246965012
  0
LINE
  5
271
100
AcDbEntity
  8
0
100
AcDbLine
 62
7
  6
CONTINUOUS
 10
547.2684724709
 20
439.5246965012
 11
547.2684724709
 21
359.5246965012
  0
LINE
  5
272
100
AcDbEntity
  8
0
100
AcDbLine
 62
7
  6
CONTINUOUS
 10
548.1503918976
 20
441.7746965012
 11
548.1503918976
 21
357.2746965012
  0
LINE
  5
273
100
AcDbEntity
  8
0
100
AcDbLine
 62
7
  6
CONTINUOUS
 10
549.1351996505
 20
357.2746965038
 11
549.1351996506
 21
441.7746964984
  0
LINE
  5
274
100
AcDbEntity
  8
0
100
AcDbLine
 62
7
  6
CONTINUOUS
 10
549.2270562273
 20
441.7746964981
 11
549.2270562273
 21
357.2746965039
  0
LINE
  5
275
100
AcDbEntity
  8
0
100
AcDbLine
 62
7
  6
CONTINUOUS
 10
550.143106358
 20
357.2746965081
 11
550.143106358
 21
441.7746965012
  0
LINE
  5
276
100
AcDbEntity
  8
0
100
AcDbLine
 62
7
  6
CONTINUOUS
 10
552.0184724709
 20
442.7746965012
 11
552.0184724709
 21
356.2746965012
  0
LINE
  5
277
100
AcDbEntity
  8
0
100
AcDbLine
 62
7
  6
CONTINUOUS
 10
552.5184724709
 20
356.2746965012
 11
552.5184724709
 21
442.7746965012
  0
LINE
  5
278
100
AcDbEntity
  8
0
100
AcDbLine
 62
7
  6
CONTINUOUS
 10
562.9878806343
 20
548.5529894853
 11
562.9878806343
 21
548.7242259923
  0
LINE
  5
279
100
AcDbEntity
  8
0
100
AcDbLine
 62
7
  6
CONTINUOUS
 10
568.8806049136
 20
548.7246965012
 11
568.8806049136
 21
548.5529894853
  0
LINE
  5
27A
100
AcDbEntity
  8
0
100
AcDbLine
 62
7
  6
CONTINUOUS
 10
570.2684724709
 20
548.0246965012
 11
570.2684724709
 21
546.5246965012
  0
LINE
  5
27B
100
AcDbEntity
  8
0
100
AcDbLine
 62
7
  6
CONTINUOUS
 10
570.6494506127
 20
565.7054072573
 11
565.1802352068
 21
569.5349931126
  0
LINE
  5
27C
100
AcDbEntity
  8
0
100
AcDbLine
 62
7
  6
CONTINUOUS
 10
563.5287862119
 20
572.1562796544
 11
571.3377423363
 21
566.6883897105
  0
LINE
  5
27D
100
AcDbEntity
  8
0
100
AcDbLine
 62
7
  6
CONTINUOUS
 10
570.2782883891
 20
548.1592599126
 11
570.1976140765
 21
548.2298499362
  0
LINE
  5
27E
100
AcDbEntity
  8
0
100
AcDbLine
 62
7
  6
CONTINUOUS
 10
571.50229774
 20
564.0671031688
 11
571.50229774
 21
554.0349931126
  0
LINE
  5
27F
100
AcDbEntity
  8
0
100
AcDbLine
 62
7
  6
CONTINUOUS
 10
572.2684724709
 20
546.5246965012
 11
572.2684724709
 21
547.0246965012
  0
LINE
  5
280
100
AcDbEntity
  8
0
100
AcDbLine
 62
7
  6
CONTINUOUS
 10
572.70229774
 20
554.0349931126
 11
572.70229774
 21
564.0671031688
  0
LINE
  5
281
100
AcDbEntity
  8
0
100
AcDbLine
 62
7
  6
CONTINUOUS
 10
574.7684724709
 20
321.7246965012
 11
574.7684724709
 21
543.3246965012
  0
ARC
  5
282
100
AcDbEntity
  8
0
100
AcDbCircle
 62
7
  6
CONTINUOUS
 10
124.0184724709
 20
356.2746965012
 40
27.0
100
AcDbArc
 50
180.0
 51
270.0
  0
ARC
  5
283
100
AcDbEntity
  8
0
100
AcDbCircle
 62
7
  6
CONTINUOUS
 10
124.0184724709
 20
356.2746965012
 40
26.5
100
AcDbArc
 50
180.0
 51
270.0
  0
ARC
  5
284
100
AcDbEntity
  8
0
100
AcDbCircle
 62
7
  6
CONTINUOUS
 10
125.0184724709
 20
357.2746965012
 40
25.6246338871
100
AcDbArc
 50
179.9999999999
 51
270.0000000051
  0
ARC
  5
285
100
AcDbEntity
  8
0
100
AcDbCircle
 62
7
  6
CONTINUOUS
 10
127.2684724709
 20
359.5246965012
 40
25.0
100
AcDbArc
 50
180.0
 51
270.0
  0
ARC
  5
286
100
AcDbEntity
  8
0
100
AcDbCircle
 62
7
  6
CONTINUOUS
 10
125.0184724709
 20
357.2746965012
 40
24.7085837563
100
AcDbArc
 50
179.9999999931
 51
270.0
  0
ARC
  5
287
100
AcDbEntity
  8
0
100
AcDbCircle
 62
7
  6
CONTINUOUS
 10
125.0184724709
 20
357.2746965012
 40
24.6167271797
100
AcDbArc
 50
179.9999999931
 51
270.0
  0
ARC
  5
288
100
AcDbEntity
  8
0
100
AcDbCircle
 62
7
  6
CONTINUOUS
 10
125.0184724709
 20
357.2746965012
 40
23.6319194267
100
AcDbArc
 50
180.0
 51
270.0
  0
ARC
  5
289
100
AcDbEntity
  8
0
100
AcDbCircle
 62
7
  6
CONTINUOUS
 10
76.9684724709
 20
321.7246965012
 40
2.2
100
AcDbArc
 50
180.0
 51
270.0
  0
CIRCLE
  5
28A
100
AcDbEntity
  8
0
100
AcDbCircle
 62
7
  6
CONTINUOUS
 10
149.7684724709
 20
374.5246965012
 40
0.8660254038
  0
CIRCLE
  5
28B
100
AcDbEntity
  8
0
100
AcDbCircle
 62
7
  6
CONTINUOUS
 10
174.7684724709
 20
374.5246965012
 40
0.8660254038
  0
ARC
  5
28C
100
AcDbEntity
  8
0
100
AcDbCircle
 62
7
  6
CONTINUOUS
 10
124.0184724709
 20
442.7746965012
 40
27.0
100
AcDbArc
 50
90.0
 51
180.0
  0
ARC
  5
28D
100
AcDbEntity
  8
0
100
AcDbCircle
 62
7
  6
CONTINUOUS
 10
124.0184724709
 20
442.7746965012
 40
26.5
100
AcDbArc
 50
90.0
 51
180.0
  0
ARC
  5
28E
100
AcDbEntity
  8
0
100
AcDbCircle
 62
7
  6
CONTINUOUS
 10
125.0184724709
 20
441.7746965012
 40
25.6246338871
100
AcDbArc
 50
90.0000000001
 51
180.0000000054
  0
ARC
  5
28F
100
AcDbEntity
  8
0
100
AcDbCircle
 62
7
  6
CONTINUOUS
 10
127.2684724709
 20
439.5246965012
 40
25.0
100
AcDbArc
 50
90.0
 51
180.0
  0
ARC
  5
290
100
AcDbEntity
  8
0
100
AcDbCircle
 62
7
  6
CONTINUOUS
 10
125.0184724709
 20
441.7746965012
 40
24.7085837563
100
AcDbArc
 50
89.9999999931
 51
180.0
  0
ARC
  5
291
100
AcDbEntity
  8
0
100
AcDbCircle
 62
7
  6
CONTINUOUS
 10
125.0184724709
 20
441.7746965012
 40
24.6167271797
100
AcDbArc
 50
89.9999999931
 51
180.0
  0
ARC
  5
292
100
AcDbEntity
  8
0
100
AcDbCircle
 62
7
  6
CONTINUOUS
 10
125.0184724709
 20
441.7746965012
 40
23.6319194267
100
AcDbArc
 50
90.0
 51
180.0
  0
CIRCLE
  5
293
100
AcDbEntity
  8
0
100
AcDbCircle
 62
7
  6
CONTINUOUS
 10
108.7684724709
 20
399.5246965012
 40
3.0
  0
CIRCLE
  5
294
100
AcDbEntity
  8
0
100
AcDbCircle
 62
7
  6
CONTINUOUS
 10
108.7684724709
 20
399.5246965012
 40
1.95
  0
CIRCLE
  5
295
100
AcDbEntity
  8
0
100
AcDbCircle
 62
7
  6
CONTINUOUS
 10
149.7684724709
 20
399.5246965012
 40
0.8660254038
  0
CIRCLE
  5
296
100
AcDbEntity
  8
0
100
AcDbCircle
 62
7
  6
CONTINUOUS
 10
174.7684724709
 20
399.5246965012
 40
0.8660254038
  0
CIRCLE
  5
297
100
AcDbEntity
  8
0
100
AcDbCircle
 62
7
  6
CONTINUOUS
 10
149.7684724709
 20
424.5246965012
 40
0.8660254038
  0
CIRCLE
  5
298
100
AcDbEntity
  8
0
100
AcDbCircle
 62
7
  6
CONTINUOUS
 10
174.7684724709
 20
424.5246965012
 40
0.8660254038
  0
CIRCLE
  5
299
100
AcDbEntity
  8
0
100
AcDbCircle
 62
7
  6
CONTINUOUS
 10
204.7684724709
 20
341.0246965012
 40
3.0
  0
CIRCLE
  5
29A
100
AcDbEntity
  8
0
100
AcDbCircle
 62
7
  6
CONTINUOUS
 10
204.7684724709
 20
341.0246965012
 40
1.95
  0
CIRCLE
  5
29B
100
AcDbEntity
  8
0
100
AcDbCircle
 62
7
  6
CONTINUOUS
 10
199.7684724709
 20
374.5246965012
 40
0.8660254038
  0
CIRCLE
  5
29C
100
AcDbEntity
  8
0
100
AcDbCircle
 62
7
  6
CONTINUOUS
 10
224.7684724709
 20
374.5246965012
 40
0.8660254038
  0
CIRCLE
  5
29D
100
AcDbEntity
  8
0
100
AcDbCircle
 62
7
  6
CONTINUOUS
 10
249.7684724709
 20
374.5246965012
 40
0.8660254038
  0
CIRCLE
  5
29E
100
AcDbEntity
  8
0
100
AcDbCircle
 62
7
  6
CONTINUOUS
 10
274.7684724709
 20
374.5246965012
 40
0.8660254038
  0
CIRCLE
  5
29F
100
AcDbEntity
  8
0
100
AcDbCircle
 62
7
  6
CONTINUOUS
 10
299.7684724709
 20
374.5246965012
 40
0.8660254038
  0
CIRCLE
  5
2A0
100
AcDbEntity
  8
0
100
AcDbCircle
 62
7
  6
CONTINUOUS
 10
199.7684724709
 20
424.5246965012
 40
0.8660254038
  0
CIRCLE
  5
2A1
100
AcDbEntity
  8
0
100
AcDbCircle
 62
7
  6
CONTINUOUS
 10
224.7684724709
 20
424.5246965012
 40
0.8660254038
  0
CIRCLE
  5
2A2
100
AcDbEntity
  8
0
100
AcDbCircle
 62
7
  6
CONTINUOUS
 10
249.7684724709
 20
424.5246965012
 40
0.8660254038
  0
CIRCLE
  5
2A3
100
AcDbEntity
  8
0
100
AcDbCircle
 62
7
  6
CONTINUOUS
 10
274.7684724709
 20
424.5246965012
 40
0.8660254038
  0
CIRCLE
  5
2A4
100
AcDbEntity
  8
0
100
AcDbCircle
 62
7
  6
CONTINUOUS
 10
299.7684724709
 20
424.5246965012
 40
0.8660254038
  0
CIRCLE
  5
2A5
100
AcDbEntity
  8
0
100
AcDbCircle
 62
7
  6
CONTINUOUS
 10
199.7684724709
 20
399.5246965012
 40
0.8660254038
  0
CIRCLE
  5
2A6
100
AcDbEntity
  8
0
100
AcDbCircle
 62
7
  6
CONTINUOUS
 10
224.7684724709
 20
399.5246965012
 40
0.8660254038
  0
CIRCLE
  5
2A7
100
AcDbEntity
  8
0
100
AcDbCircle
 62
7
  6
CONTINUOUS
 10
249.7684724709
 20
399.5246965012
 40
0.8660254038
  0
CIRCLE
  5
2A8
100
AcDbEntity
  8
0
100
AcDbCircle
 62
7
  6
CONTINUOUS
 10
274.7684724709
 20
399.5246965012
 40
0.8660254038
  0
CIRCLE
  5
2A9
100
AcDbEntity
  8
0
100
AcDbCircle
 62
7
  6
CONTINUOUS
 10
299.7684724709
 20
399.5246965012
 40
0.8660254038
  0
ARC
  5
2AA
100
AcDbEntity
  8
0
100
AcDbCircle
 62
7
  6
CONTINUOUS
 10
85.7684724709
 20
535.0059465012
 40
12.7408438324
100
AcDbArc
 50
93.3747129724
 51
113.1063268583
  0
ARC
  5
2AB
100
AcDbEntity
  8
0
100
AcDbCircle
 62
7
  6
CONTINUOUS
 10
85.7684724709
 20
535.0059465012
 40
12.7408438324
100
AcDbArc
 50
66.8936731417
 51
86.6252870276
  0
ARC
  5
2AC
100
AcDbEntity
  8
0
100
AcDbCircle
 62
7
  6
CONTINUOUS
 10
83.7888508307
 20
556.2007754451
 40
6.2587667333
100
AcDbArc
 50
205.3112050118
 51
206.856709739
  0
ARC
  5
2AD
100
AcDbEntity
  8
0
100
AcDbCircle
 62
7
  6
CONTINUOUS
 10
89.8322559478
 20
551.561254414
 40
5.8672850009
100
AcDbArc
 50
312.7468765914
 51
314.0226089061
  0
CIRCLE
  5
2AE
100
AcDbEntity
  8
0
100
AcDbCircle
 62
7
  6
CONTINUOUS
 10
89.7684724709
 20
531.5246965012
 40
5.15
  0
ARC
  5
2AF
100
AcDbEntity
  8
0
100
AcDbCircle
 62
7
  6
CONTINUOUS
 10
77.9684724709
 20
543.3246965012
 40
3.2
100
AcDbArc
 50
90.0
 51
180.0
  0
ARC
  5
2B0
100
AcDbEntity
  8
0
100
AcDbCircle
 62
7
  6
CONTINUOUS
 10
92.3422784627
 20
548.5246965012
 40
2.0
100
AcDbArc
 50
270.0
 51
11.0000000013
  0
ARC
  5
2B1
100
AcDbEntity
  8
0
100
AcDbCircle
 62
7
  6
CONTINUOUS
 10
78.00229774
 20
554.0349931126
 40
1.3
100
AcDbArc
 50
180.0
 51
294.250841685
  0
ARC
  5
2B2
100
AcDbEntity
  8
0
100
AcDbCircle
 62
7
  6
CONTINUOUS
 10
90.9105664551
 20
566.5832340044
 40
7.0366939619
100
AcDbArc
 50
131.9694002345
 51
133.1207562061
  0
ARC
  5
2B3
100
AcDbEntity
  8
0
100
AcDbCircle
 62
7
  6
CONTINUOUS
 10
79.90229774
 20
564.0671031688
 40
3.2
100
AcDbArc
 50
124.9999999995
 51
180.0
  0
ARC
  5
2B4
100
AcDbEntity
  8
0
100
AcDbCircle
 62
7
  6
CONTINUOUS
 10
87.7112538644
 20
569.5349931126
 40
3.2
100
AcDbArc
 50
90.0
 51
124.9999999996
  0
ARC
  5
2B5
100
AcDbEntity
  8
0
100
AcDbCircle
 62
7
  6
CONTINUOUS
 10
79.813314991
 20
564.113424656
 40
1.8996824552
100
AcDbArc
 50
143.1305904453
 51
161.8694095624
  0
ARC
  5
2B6
100
AcDbEntity
  8
0
100
AcDbCircle
 62
7
  6
CONTINUOUS
 10
117.9722349359
 20
529.6060255997
 40
29.7844552674
100
AcDbArc
 50
139.6091166621
 51
139.8153858556
  0
ARC
  5
2B7
100
AcDbEntity
  8
0
100
AcDbCircle
 62
7
  6
CONTINUOUS
 10
114.7745774562
 20
574.7349931126
 40
4.0
100
AcDbArc
 50
97.580360278
 51
177.9999974478
  0
ARC
  5
2B8
100
AcDbEntity
  8
0
100
AcDbCircle
 62
7
  6
CONTINUOUS
 10
118.623007664
 20
576.7881685058
 40
2.0190596501
100
AcDbArc
 50
72.4100784361
 51
72.5671249272
  0
ARC
  5
2B9
100
AcDbEntity
  8
0
100
AcDbCircle
 62
7
  6
CONTINUOUS
 10
118.7322912297
 20
577.1363919018
 40
1.6540905734
100
AcDbArc
 50
72.5650595529
 51
72.8097702701
  0
ARC
  5
2BA
100
AcDbEntity
  8
0
100
AcDbCircle
 62
7
  6
CONTINUOUS
 10
124.5905752948
 20
577.3583474018
 40
1.4206911108
100
AcDbArc
 50
106.5743617398
 51
107.1758742199
  0
ARC
  5
2BB
100
AcDbEntity
  8
0
100
AcDbCircle
 62
7
  6
CONTINUOUS
 10
118.8966712331
 20
577.6705412194
 40
1.0952209617
100
AcDbArc
 50
72.7664386881
 51
73.7644726077
  0
ARC
  5
2BC
100
AcDbEntity
  8
0
100
AcDbCircle
 62
7
  6
CONTINUOUS
 10
124.4230482763
 20
577.9224613261
 40
0.8322273401
100
AcDbArc
 50
105.4854925728
 51
106.5986329093
  0
ARC
  5
2BD
100
AcDbEntity
  8
0
100
AcDbCircle
 62
7
  6
CONTINUOUS
 10
118.996067717
 20
578.0101483632
 40
0.7413674208
100
AcDbArc
 50
73.8018030034
 51
74.3715636259
  0
ARC
  5
2BE
100
AcDbEntity
  8
0
100
AcDbCircle
 62
7
  6
CONTINUOUS
 10
119.3769044421
 20
578.0058959736
 40
0.7407143619
100
AcDbArc
 50
104.7380663472
 51
106.2178439869
  0
ARC
  5
2BF
100
AcDbEntity
  8
0
100
AcDbCircle
 62
7
  6
CONTINUOUS
 10
119.3280666275
 20
578.1897856833
 40
0.5504506351
100
AcDbArc
 50
103.9045540668
 51
104.6912929348
  0
ARC
  5
2C0
100
AcDbEntity
  8
0
100
AcDbCircle
 62
7
  6
CONTINUOUS
 10
124.20229774
 20
578.5247598147
 40
0.2
100
AcDbArc
 50
72.2770875913
 51
107.723610783
  0
ARC
  5
2C1
100
AcDbEntity
  8
0
100
AcDbCircle
 62
7
  6
CONTINUOUS
 10
119.20229774
 20
578.5247598147
 40
0.2
100
AcDbArc
 50
71.5574646439
 51
107.7224217225
  0
ARC
  5
2C2
100
AcDbEntity
  8
0
100
AcDbCircle
 62
7
  6
CONTINUOUS
 10
124.2036036145
 20
578.5274561622
 40
0.1970274461
100
AcDbArc
 50
78.7483667189
 51
84.8817378655
  0
ARC
  5
2C3
100
AcDbEntity
  8
0
100
AcDbCircle
 62
7
  6
CONTINUOUS
 10
119.20064338
 20
578.5299336793
 40
0.1945680782
100
AcDbArc
 50
102.8357721855
 51
107.7599863683
  0
ARC
  5
2C4
100
AcDbEntity
  8
0
100
AcDbCircle
 62
7
  6
CONTINUOUS
 10
124.2038391884
 20
578.5305171384
 40
0.1939576628
100
AcDbArc
 50
84.8703824154
 51
90.8837281657
  0
ARC
  5
2C5
100
AcDbEntity
  8
0
100
AcDbCircle
 62
7
  6
CONTINUOUS
 10
124.2043136912
 20
578.5307839351
 40
0.1936250907
100
AcDbArc
 50
72.3187961401
 51
78.7623098851
  0
ARC
  5
2C6
100
AcDbEntity
  8
0
100
AcDbCircle
 62
7
  6
CONTINUOUS
 10
124.20057856
 20
578.5308433958
 40
0.1936174842
100
AcDbArc
 50
89.9199230569
 51
107.6725075961
  0
ARC
  5
2C7
100
AcDbEntity
  8
0
100
AcDbCircle
 62
7
  6
CONTINUOUS
 10
119.2069371312
 20
578.5787129692
 40
0.1457031116
100
AcDbArc
 50
86.7733239436
 51
94.3867370291
  0
ARC
  5
2C8
100
AcDbEntity
  8
0
100
AcDbCircle
 62
7
  6
CONTINUOUS
 10
116.8538397969
 20
588.0194887623
 40
9.7053320783
100
AcDbArc
 50
263.0411106694
 51
263.3336689985
  0
ARC
  5
2C9
100
AcDbEntity
  8
0
100
AcDbCircle
 62
7
  6
CONTINUOUS
 10
116.70229774
 20
586.3474931126
 40
8.0125
100
AcDbArc
 50
252.8013596554
 51
287.7229246565
  0
ARC
  5
2CA
100
AcDbEntity
  8
0
100
AcDbCircle
 62
7
  6
CONTINUOUS
 10
121.70229774
 20
586.3474931126
 40
8.0125
100
AcDbArc
 50
253.8017311264
 51
287.7228949766
  0
ARC
  5
2CB
100
AcDbEntity
  8
0
100
AcDbCircle
 62
7
  6
CONTINUOUS
 10
120.965554214
 20
583.7156402622
 40
5.2933287486
100
AcDbArc
 50
252.3623424929
 51
252.6271175636
  0
ARC
  5
2CC
100
AcDbEntity
  8
0
100
AcDbCircle
 62
7
  6
CONTINUOUS
 10
138.6300180239
 20
574.7349931126
 40
4.0
100
AcDbArc
 50
2.0000025522
 51
82.419639722
  0
ARC
  5
2CD
100
AcDbEntity
  8
0
100
AcDbCircle
 62
7
  6
CONTINUOUS
 10
129.6963638718
 20
577.0664868322
 40
1.7296792863
100
AcDbArc
 50
107.100011184
 51
107.5727024669
  0
ARC
  5
2CE
100
AcDbEntity
  8
0
100
AcDbCircle
 62
7
  6
CONTINUOUS
 10
129.4754918168
 20
577.7861254342
 40
0.9769085719
100
AcDbArc
 50
106.1511180992
 51
107.1290399394
  0
ARC
  5
2CF
100
AcDbEntity
  8
0
100
AcDbCircle
 62
7
  6
CONTINUOUS
 10
129.20229774
 20
578.5247598147
 40
0.2
100
AcDbArc
 50
72.2769574865
 51
107.7229124087
  0
ARC
  5
2D0
100
AcDbEntity
  8
0
100
AcDbCircle
 62
7
  6
CONTINUOUS
 10
134.20229774
 20
578.5247598147
 40
0.2
100
AcDbArc
 50
72.2772385153
 51
107.7229124087
  0
ARC
  5
2D1
100
AcDbEntity
  8
0
100
AcDbCircle
 62
7
  6
CONTINUOUS
 10
134.201217188
 20
578.527299094
 40
0.1972524322
100
AcDbArc
 50
88.4205718081
 51
107.6484756674
  0
ARC
  5
2D2
100
AcDbEntity
  8
0
100
AcDbCircle
 62
7
  6
CONTINUOUS
 10
129.2037751923
 20
578.5281984054
 40
0.1962883494
100
AcDbArc
 50
78.4533040738
 51
84.3284128723
  0
ARC
  5
2D3
100
AcDbEntity
  8
0
100
AcDbCircle
 62
7
  6
CONTINUOUS
 10
129.2007600772
 20
578.5304406077
 40
0.1940506133
100
AcDbArc
 50
89.1189606399
 51
107.6669788977
  0
ARC
  5
2D4
100
AcDbEntity
  8
0
100
AcDbCircle
 62
7
  6
CONTINUOUS
 10
134.2039149831
 20
578.5304915024
 40
0.194005507
100
AcDbArc
 50
72.3094983183
 51
89.1925632792
  0
ARC
  5
2D5
100
AcDbEntity
  8
0
100
AcDbCircle
 62
7
  6
CONTINUOUS
 10
129.204014756
 20
578.5309447557
 40
0.1935317709
100
AcDbArc
 50
84.3186369937
 51
90.0804470395
  0
ARC
  5
2D6
100
AcDbEntity
  8
0
100
AcDbCircle
 62
7
  6
CONTINUOUS
 10
129.2044417204
 20
578.5312533446
 40
0.1931618242
100
AcDbArc
 50
72.2930835424
 51
78.4656264026
  0
ARC
  5
2D7
100
AcDbEntity
  8
0
100
AcDbCircle
 62
7
  6
CONTINUOUS
 10
136.7891731628
 20
586.958442019
 40
8.6367143375
100
AcDbArc
 50
263.0866256946
 51
265.5983763034
  0
ARC
  5
2D8
100
AcDbEntity
  8
0
100
AcDbCircle
 62
7
  6
CONTINUOUS
 10
136.7571836357
 20
586.5583343246
 40
8.2362182314
100
AcDbArc
 50
257.7448609003
 51
258.9225230793
  0
ARC
  5
2D9
100
AcDbEntity
  8
0
100
AcDbCircle
 62
7
  6
CONTINUOUS
 10
136.813876136
 20
586.5592369278
 40
8.2243579878
100
AcDbArc
 50
276.3720345525
 51
280.2749629851
  0
ARC
  5
2DA
100
AcDbEntity
  8
0
100
AcDbCircle
 62
7
  6
CONTINUOUS
 10
131.70229774
 20
586.3474931126
 40
8.0125
100
AcDbArc
 50
252.277090839
 51
287.7229592916
  0
ARC
  5
2DB
100
AcDbEntity
  8
0
100
AcDbCircle
 62
7
  6
CONTINUOUS
 10
136.70229774
 20
586.3474931126
 40
8.0125
100
AcDbArc
 50
252.2770838242
 51
287.1986403446
  0
ARC
  5
2DC
100
AcDbEntity
  8
0
100
AcDbCircle
 62
7
  6
CONTINUOUS
 10
126.70229774
 20
586.3474931126
 40
8.0125
100
AcDbArc
 50
252.2770985149
 51
287.7229073146
  0
ARC
  5
2DD
100
AcDbEntity
  8
0
100
AcDbCircle
 62
7
  6
CONTINUOUS
 10
136.7010650832
 20
586.2525524563
 40
7.9253520568
100
AcDbArc
 50
258.8959274465
 51
263.1047032619
  0
ARC
  5
2DE
100
AcDbEntity
  8
0
100
AcDbCircle
 62
7
  6
CONTINUOUS
 10
136.7323965049
 20
585.7063449538
 40
7.3829823165
100
AcDbArc
 50
270.3843222385
 51
271.9241679143
  0
ARC
  5
2DF
100
AcDbEntity
  8
0
100
AcDbCircle
 62
7
  6
CONTINUOUS
 10
137.5505799601
 20
582.9075477194
 40
4.4991029208
100
AcDbArc
 50
282.4431452964
 51
283.2761874243
  0
ARC
  5
2E0
100
AcDbEntity
  8
0
100
AcDbCircle
 62
7
  6
CONTINUOUS
 10
163.3376559299
 20
487.0579754869
 40
104.9306635464
100
AcDbArc
 50
147.2464524037
 51
147.5727953933
  0
ARC
  5
2E1
100
AcDbEntity
  8
0
100
AcDbCircle
 62
7
  6
CONTINUOUS
 10
148.7051928213
 20
503.7292203591
 40
69.960594244
100
AcDbArc
 50
139.8656987734
 51
140.1861312958
  0
CIRCLE
  5
2E2
100
AcDbEntity
  8
0
100
AcDbCircle
 62
7
  6
CONTINUOUS
 10
204.7684724709
 20
458.0246965012
 40
3.0
  0
CIRCLE
  5
2E3
100
AcDbEntity
  8
0
100
AcDbCircle
 62
7
  6
CONTINUOUS
 10
204.7684724709
 20
458.0246965012
 40
1.95
  0
CIRCLE
  5
2E4
100
AcDbEntity
  8
0
100
AcDbCircle
 62
7
  6
CONTINUOUS
 10
444.7684724709
 20
341.0246965012
 40
3.0
  0
CIRCLE
  5
2E5
100
AcDbEntity
  8
0
100
AcDbCircle
 62
7
  6
CONTINUOUS
 10
324.7684724709
 20
341.0246965012
 40
3.0
  0
CIRCLE
  5
2E6
100
AcDbEntity
  8
0
100
AcDbCircle
 62
7
  6
CONTINUOUS
 10
444.7684724709
 20
341.0246965012
 40
1.95
  0
CIRCLE
  5
2E7
100
AcDbEntity
  8
0
100
AcDbCircle
 62
7
  6
CONTINUOUS
 10
324.7684724709
 20
341.0246965012
 40
1.95
  0
CIRCLE
  5
2E8
100
AcDbEntity
  8
0
100
AcDbCircle
 62
7
  6
CONTINUOUS
 10
324.7684724709
 20
374.5246965012
 40
0.8660254038
  0
CIRCLE
  5
2E9
100
AcDbEntity
  8
0
100
AcDbCircle
 62
7
  6
CONTINUOUS
 10
349.7684724709
 20
374.5246965012
 40
0.8660254038
  0
CIRCLE
  5
2EA
100
AcDbEntity
  8
0
100
AcDbCircle
 62
7
  6
CONTINUOUS
 10
374.7684724709
 20
374.5246965012
 40
0.8660254038
  0
CIRCLE
  5
2EB
100
AcDbEntity
  8
0
100
AcDbCircle
 62
7
  6
CONTINUOUS
 10
399.7684724709
 20
374.5246965012
 40
0.8660254038
  0
CIRCLE
  5
2EC
100
AcDbEntity
  8
0
100
AcDbCircle
 62
7
  6
CONTINUOUS
 10
424.7684724709
 20
374.5246965012
 40
0.8660254038
  0
CIRCLE
  5
2ED
100
AcDbEntity
  8
0
100
AcDbCircle
 62
7
  6
CONTINUOUS
 10
324.7684724709
 20
424.5246965012
 40
0.8660254038
  0
CIRCLE
  5
2EE
100
AcDbEntity
  8
0
100
AcDbCircle
 62
7
  6
CONTINUOUS
 10
349.7684724709
 20
424.5246965012
 40
0.8660254038
  0
CIRCLE
  5
2EF
100
AcDbEntity
  8
0
100
AcDbCircle
 62
7
  6
CONTINUOUS
 10
374.7684724709
 20
424.5246965012
 40
0.8660254038
  0
CIRCLE
  5
2F0
100
AcDbEntity
  8
0
100
AcDbCircle
 62
7
  6
CONTINUOUS
 10
399.7684724709
 20
424.5246965012
 40
0.8660254038
  0
CIRCLE
  5
2F1
100
AcDbEntity
  8
0
100
AcDbCircle
 62
7
  6
CONTINUOUS
 10
424.7684724709
 20
424.5246965012
 40
0.8660254038
  0
CIRCLE
  5
2F2
100
AcDbEntity
  8
0
100
AcDbCircle
 62
7
  6
CONTINUOUS
 10
324.7684724709
 20
399.5246965012
 40
0.8660254038
  0
CIRCLE
  5
2F3
100
AcDbEntity
  8
0
100
AcDbCircle
 62
7
  6
CONTINUOUS
 10
349.7684724709
 20
399.5246965012
 40
0.8660254038
  0
CIRCLE
  5
2F4
100
AcDbEntity
  8
0
100
AcDbCircle
 62
7
  6
CONTINUOUS
 10
374.7684724709
 20
399.5246965012
 40
0.8660254038
  0
CIRCLE
  5
2F5
100
AcDbEntity
  8
0
100
AcDbCircle
 62
7
  6
CONTINUOUS
 10
399.7684724709
 20
399.5246965012
 40
0.8660254038
  0
CIRCLE
  5
2F6
100
AcDbEntity
  8
0
100
AcDbCircle
 62
7
  6
CONTINUOUS
 10
424.7684724709
 20
399.5246965012
 40
0.8660254038
  0
ARC
  5
2F7
100
AcDbEntity
  8
0
100
AcDbCircle
 62
7
  6
CONTINUOUS
 10
525.5184724709
 20
356.2746965012
 40
27.0
100
AcDbArc
 50
270.0
 51
360.0
  0
ARC
  5
2F8
100
AcDbEntity
  8
0
100
AcDbCircle
 62
7
  6
CONTINUOUS
 10
525.5184724709
 20
356.2746965012
 40
26.5
100
AcDbArc
 50
270.0
 51
360.0
  0
ARC
  5
2F9
100
AcDbEntity
  8
0
100
AcDbCircle
 62
7
  6
CONTINUOUS
 10
524.5184724709
 20
357.2746965012
 40
25.6246338871
100
AcDbArc
 50
270.0000000006
 51
360.0
  0
ARC
  5
2FA
100
AcDbEntity
  8
0
100
AcDbCircle
 62
7
  6
CONTINUOUS
 10
522.2684724709
 20
359.5246965012
 40
25.0
100
AcDbArc
 50
270.0
 51
360.0
  0
ARC
  5
2FB
100
AcDbEntity
  8
0
100
AcDbCircle
 62
7
  6
CONTINUOUS
 10
524.5184724709
 20
357.2746965012
 40
24.7085837563
100
AcDbArc
 50
269.9999999932
 51
360.0
  0
ARC
  5
2FC
100
AcDbEntity
  8
0
100
AcDbCircle
 62
7
  6
CONTINUOUS
 10
524.5184724709
 20
357.2746965012
 40
24.6167271797
100
AcDbArc
 50
269.9999999932
 51
360.0
  0
ARC
  5
2FD
100
AcDbEntity
  8
0
100
AcDbCircle
 62
7
  6
CONTINUOUS
 10
524.5184724709
 20
357.2746965012
 40
23.6319194267
100
AcDbArc
 50
270.0
 51
360.0
  0
ARC
  5
2FE
100
AcDbEntity
  8
0
100
AcDbCircle
 62
7
  6
CONTINUOUS
 10
572.5684724709
 20
321.7246965012
 40
2.2
100
AcDbArc
 50
270.0
 51
360.0
  0
CIRCLE
  5
2FF
100
AcDbEntity
  8
0
100
AcDbCircle
 62
7
  6
CONTINUOUS
 10
449.7684724709
 20
374.5246965012
 40
0.8660254038
  0
CIRCLE
  5
300
100
AcDbEntity
  8
0
100
AcDbCircle
 62
7
  6
CONTINUOUS
 10
474.7684724709
 20
374.5246965012
 40
0.8660254038
  0
CIRCLE
  5
301
100
AcDbEntity
  8
0
100
AcDbCircle
 62
7
  6
CONTINUOUS
 10
499.7684724709
 20
374.5246965012
 40
0.8660254038
  0
ARC
  5
302
100
AcDbEntity
  8
0
100
AcDbCircle
 62
7
  6
CONTINUOUS
 10
525.5184724709
 20
442.7746965012
 40
27.0
100
AcDbArc
 50
0.0
 51
90.0
  0
ARC
  5
303
100
AcDbEntity
  8
0
100
AcDbCircle
 62
7
  6
CONTINUOUS
 10
525.5184724709
 20
442.7746965012
 40
26.5
100
AcDbArc
 50
0.0
 51
90.0
  0
ARC
  5
304
100
AcDbEntity
  8
0
100
AcDbCircle
 62
7
  6
CONTINUOUS
 10
524.5184724709
 20
441.7746965012
 40
25.6246338871
100
AcDbArc
 50
0.0000000001
 51
90.0000000054
  0
ARC
  5
305
100
AcDbEntity
  8
0
100
AcDbCircle
 62
7
  6
CONTINUOUS
 10
522.2684724709
 20
439.5246965012
 40
25.0
100
AcDbArc
 50
0.0
 51
90.0
  0
ARC
  5
306
100
AcDbEntity
  8
0
100
AcDbCircle
 62
7
  6
CONTINUOUS
 10
524.5184724709
 20
441.7746965012
 40
24.7085837564
100
AcDbArc
 50
0.0
 51
90.0
  0
ARC
  5
307
100
AcDbEntity
  8
0
100
AcDbCircle
 62
7
  6
CONTINUOUS
 10
524.5184724709
 20
441.7746965012
 40
24.6167271797
100
AcDbArc
 50
0.0
 51
90.0
  0
ARC
  5
308
100
AcDbEntity
  8
0
100
AcDbCircle
 62
7
  6
CONTINUOUS
 10
524.5184724709
 20
441.7746965012
 40
23.6319194267
100
AcDbArc
 50
0.0
 51
90.0
  0
CIRCLE
  5
309
100
AcDbEntity
  8
0
100
AcDbCircle
 62
7
  6
CONTINUOUS
 10
540.7684724709
 20
399.5246965012
 40
3.0
  0
CIRCLE
  5
30A
100
AcDbEntity
  8
0
100
AcDbCircle
 62
7
  6
CONTINUOUS
 10
540.7684724709
 20
399.5246965012
 40
1.95
  0
CIRCLE
  5
30B
100
AcDbEntity
  8
0
100
AcDbCircle
 62
7
  6
CONTINUOUS
 10
449.7684724709
 20
424.5246965012
 40
0.8660254038
  0
CIRCLE
  5
30C
100
AcDbEntity
  8
0
100
AcDbCircle
 62
7
  6
CONTINUOUS
 10
474.7684724709
 20
424.5246965012
 40
0.8660254038
  0
CIRCLE
  5
30D
100
AcDbEntity
  8
0
100
AcDbCircle
 62
7
  6
CONTINUOUS
 10
499.7684724709
 20
424.5246965012
 40
0.8660254038
  0
CIRCLE
  5
30E
100
AcDbEntity
  8
0
100
AcDbCircle
 62
7
  6
CONTINUOUS
 10
449.7684724709
 20
399.5246965012
 40
0.8660254038
  0
CIRCLE
  5
30F
100
AcDbEntity
  8
0
100
AcDbCircle
 62
7
  6
CONTINUOUS
 10
474.7684724709
 20
399.5246965012
 40
0.8660254038
  0
CIRCLE
  5
310
100
AcDbEntity
  8
0
100
AcDbCircle
 62
7
  6
CONTINUOUS
 10
499.7684724709
 20
399.5246965012
 40
0.8660254038
  0
CIRCLE
  5
311
100
AcDbEntity
  8
0
100
AcDbCircle
 62
7
  6
CONTINUOUS
 10
444.7684724709
 20
458.0246965012
 40
3.0
  0
CIRCLE
  5
312
100
AcDbEntity
  8
0
100
AcDbCircle
 62
7
  6
CONTINUOUS
 10
324.7684724709
 20
458.0246965012
 40
3.0
  0
CIRCLE
  5
313
100
AcDbEntity
  8
0
100
AcDbCircle
 62
7
  6
CONTINUOUS
 10
444.7684724709
 20
458.0246965012
 40
1.95
  0
CIRCLE
  5
314
100
AcDbEntity
  8
0
100
AcDbCircle
 62
7
  6
CONTINUOUS
 10
324.7684724709
 20
458.0246965012
 40
1.95
  0
ARC
  5
315
100
AcDbEntity
  8
0
100
AcDbCircle
 62
7
  6
CONTINUOUS
 10
486.1989848093
 20
487.0577821227
 40
104.9310240031
100
AcDbArc
 50
32.4272046568
 51
32.7535454558
  0
ARC
  5
316
100
AcDbEntity
  8
0
100
AcDbCircle
 62
7
  6
CONTINUOUS
 10
500.8307749679
 20
503.7284027406
 40
69.9618683425
100
AcDbArc
 50
39.8138706448
 51
40.1342910052
  0
ARC
  5
317
100
AcDbEntity
  8
0
100
AcDbCircle
 62
7
  6
CONTINUOUS
 10
531.5645336932
 20
529.6058754636
 40
29.7846868426
100
AcDbArc
 50
40.1846010789
 51
40.3908835292
  0
ARC
  5
318
100
AcDbEntity
  8
0
100
AcDbCircle
 62
7
  6
CONTINUOUS
 10
558.494029047
 20
566.5832340304
 40
7.0366939279
100
AcDbArc
 50
46.8792437793
 51
48.0305997565
  0
ARC
  5
319
100
AcDbEntity
  8
0
100
AcDbCircle
 62
7
  6
CONTINUOUS
 10
559.7046624719
 20
551.5612272216
 40
5.8672470219
100
AcDbArc
 50
225.9770305249
 51
227.253645668
  0
ARC
  5
31A
100
AcDbEntity
  8
0
100
AcDbCircle
 62
7
  6
CONTINUOUS
 10
569.50229774
 20
564.0671031688
 40
3.2
100
AcDbArc
 50
0.0
 51
55.0000000001
  0
ARC
  5
31B
100
AcDbEntity
  8
0
100
AcDbCircle
 62
7
  6
CONTINUOUS
 10
561.6933416156
 20
569.5349931126
 40
3.2
100
AcDbArc
 50
55.0000000004
 51
90.0
  0
ARC
  5
31C
100
AcDbEntity
  8
0
100
AcDbCircle
 62
7
  6
CONTINUOUS
 10
571.5684724709
 20
543.3246965012
 40
3.2
100
AcDbArc
 50
0.0
 51
90.0
  0
ARC
  5
31D
100
AcDbEntity
  8
0
100
AcDbCircle
 62
7
  6
CONTINUOUS
 10
557.981569475
 20
549.0246965012
 40
2.5
100
AcDbArc
 50
168.9999999994
 51
252.6828560437
  0
ARC
  5
31E
100
AcDbEntity
  8
0
100
AcDbCircle
 62
7
  6
CONTINUOUS
 10
570.4684724709
 20
545.9046965012
 40
2.12
100
AcDbArc
 50
31.8907918018
 51
90.0
  0
ARC
  5
31F
100
AcDbEntity
  8
0
100
AcDbCircle
 62
7
  6
CONTINUOUS
 10
568.8806049128
 20
546.7246965012
 40
2.0
100
AcDbArc
 50
48.8140748327
 51
89.9999991843
  0
ARC
  5
320
100
AcDbEntity
  8
0
100
AcDbCircle
 62
7
  6
CONTINUOUS
 10
557.1946664791
 20
548.5246965012
 40
2.0
100
AcDbArc
 50
168.9999999987
 51
270.0
  0
ARC
  5
321
100
AcDbEntity
  8
0
100
AcDbCircle
 62
7
  6
CONTINUOUS
 10
569.5912804894
 20
564.1134246562
 40
1.8996824547
100
AcDbArc
 50
18.1305904414
 51
36.8694095573
  0
ARC
  5
322
100
AcDbEntity
  8
0
100
AcDbCircle
 62
7
  6
CONTINUOUS
 10
568.878477044
 20
546.7385799259
 40
1.8144196537
100
AcDbArc
 50
76.2954250169
 51
89.9293046326
  0
ARC
  5
323
100
AcDbEntity
  8
0
100
AcDbCircle
 62
7
  6
CONTINUOUS
 10
568.8797679118
 20
546.7490216708
 40
1.8039697686
100
AcDbArc
 50
62.5529139919
 51
76.2566863042
  0
ARC
  5
324
100
AcDbEntity
  8
0
100
AcDbCircle
 62
7
  6
CONTINUOUS
 10
568.8811922789
 20
546.7544976216
 40
1.7984541168
100
AcDbArc
 50
48.7951665455
 51
62.5127727889
  0
ARC
  5
325
100
AcDbEntity
  8
0
100
AcDbCircle
 62
7
  6
CONTINUOUS
 10
571.40229774
 20
554.0349931126
 40
1.3
100
AcDbArc
 50
246.4449441665
 51
360.0
  0
ARC
  5
326
100
AcDbEntity
  8
0
100
AcDbCircle
 62
7
  6
CONTINUOUS
 10
557.981569475
 20
549.0246965012
 40
1.0000000001
100
AcDbArc
 50
168.9999999932
 51
269.9999999858
  0
ARC
  5
327
100
AcDbEntity
  8
0
100
AcDbCircle
 62
7
  6
CONTINUOUS
 10
562.9878806343
 20
548.5246965012
 40
0.2
100
AcDbArc
 50
90.0000000002
 51
164.0546040912
  0
SPLINE
  5
328
100
AcDbEntity
  8
0
100
AcDbSpline
 62
7
  6
CONTINUOUS
 70
0
 71
3
 72
10
 73
6
 74
0
 42
0.0000001
 43
0.0000001
 44
0.0000000001
 40
0.0
 40
0.0
 40
0.0
 40
0.0
 40
0.1305143056
 40
0.4685805991
 40
1.0
 40
1.0
 40
1.0
 40
1.0
 10
139.0978748553
 20
578.6789261042
 30
0.0
 10
139.0759168269
 20
578.6711165682
 30
0.0
 10
138.9967214197
 20
578.6440479638
 30
0.0
 10
138.8245801461
 20
578.5962846941
 30
0.0
 10
138.674763779
 20
578.5555807041
 30
0.0
 10
138.5837690282
 20
578.5286596614
 30
0.0
  0
SPLINE
  5
329
100
AcDbEntity
  8
0
100
AcDbSpline
 62
7
  6
CONTINUOUS
 70
0
 71
3
 72
14
 73
10
 74
0
 42
0.0000001
 43
0.0000001
 44
0.0000000001
 40
0.0
 40
0.0
 40
0.0
 40
0.0
 40
0.0538636595
 40
0.1198755006
 40
0.2053467989
 40
0.3141211462
 40
0.4482375352
 40
0.6081118244
 40
1.0
 40
1.0
 40
1.0
 40
1.0
 10
141.2702001244
 20
574.8745924048
 30
0.0
 10
141.2268823098
 20
574.8745909726
 30
0.0
 10
141.1299888869
 20
574.8471207265
 30
0.0
 10
141.0014149645
 20
574.7390789863
 30
0.0
 10
140.8784797514
 20
574.56814288
 30
0.0
 10
140.7613833763
 20
574.3305116839
 30
0.0
 10
140.6525825392
 20
574.0248568499
 30
0.0
 10
140.514857065
 20
573.4902021843
 30
0.0
 10
140.4537416923
 20
573.0489380617
 30
0.0
 10
140.4260947119
 20
572.7349917751
 30
0.0
  0
SPLINE
  5
32A
100
AcDbEntity
  8
0
100
AcDbSpline
 62
7
  6
CONTINUOUS
 70
0
 71
3
 72
11
 73
7
 74
0
 42
0.0000001
 43
0.0000001
 44
0.0000000001
 40
0.0
 40
0.0
 40
0.0
 40
0.0
 40
0.2785913622
 40
0.5333632508
 40
0.7694303042
 40
1.0
 40
1.0
 40
1.0
 40
1.0
 10
139.1863561827
 20
572.7349925095
 30
0.0
 10
139.1540103068
 20
572.8508066671
 30
0.0
 10
139.0756090475
 20
573.0689224493
 30
0.0
 10
138.8876274605
 20
573.3488883121
 30
0.0
 10
138.6270955851
 20
573.5342289456
 30
0.0
 10
138.4226880913
 20
573.5735700647
 30
0.0
 10
138.3231690176
 20
573.5735898834
 30
0.0
  0
SPLINE
  5
32B
100
AcDbEntity
  8
0
100
AcDbSpline
 62
7
  6
CONTINUOUS
 70
0
 71
3
 72
11
 73
7
 74
0
 42
0.0000001
 43
0.0000001
 44
0.0000000001
 40
0.0
 40
0.0
 40
0.0
 40
0.0
 40
0.2363485452
 40
0.4809334231
 40
0.7369651558
 40
1.0
 40
1.0
 40
1.0
 40
1.0
 10
115.0813964458
 20
573.5736083965
 30
0.0
 10
114.9794055598
 20
573.5735641157
 30
0.0
 10
114.7686369402
 20
573.5317525737
 30
0.0
 10
114.5056781709
 20
573.3373507343
 30
0.0
 10
114.3241778496
 20
573.0565764224
 30
0.0
 10
114.24876919
 20
572.8443167418
 30
0.0
 10
114.2182383804
 20
572.7349931126
 30
0.0
  0
SPLINE
  5
32C
100
AcDbEntity
  8
0
100
AcDbSpline
 62
7
  6
CONTINUOUS
 70
0
 71
3
 72
9
 73
5
 74
0
 42
0.0000001
 43
0.0000001
 44
0.0000000001
 40
0.0
 40
0.0
 40
0.0
 40
0.0
 40
0.2436102893
 40
1.0
 40
1.0
 40
1.0
 40
1.0
 10
138.2436053799
 20
574.3160534629
 30
0.0
 10
138.2558944063
 20
574.2566264193
 30
0.0
 10
138.2997263767
 20
574.0113490164
 30
0.0
 10
138.3201688455
 20
573.7620036114
 30
0.0
 10
138.3232213282
 20
573.5736083875
 30
0.0
  0
SPLINE
  5
32D
100
AcDbEntity
  8
0
100
AcDbSpline
 62
7
  6
CONTINUOUS
 70
0
 71
3
 72
9
 73
5
 74
0
 42
0.0000001
 43
0.0000001
 44
0.0000000001
 40
0.0
 40
0.0
 40
0.0
 40
0.0
 40
0.2436103627
 40
1.0
 40
1.0
 40
1.0
 40
1.0
 10
115.1609990427
 20
574.316053429
 30
0.0
 10
115.1487096936
 20
574.256626402
 30
0.0
 10
115.1048764312
 20
574.0113491009
 30
0.0
 10
115.0844327004
 20
573.7620036724
 30
0.0
 10
115.0813792447
 20
573.5736083871
 30
0.0
  0
SPLINE
  5
32E
100
AcDbEntity
  8
0
100
AcDbSpline
 62
7
  6
CONTINUOUS
 70
0
 71
3
 72
11
 73
7
 74
0
 42
0.0000001
 43
0.0000001
 44
0.0000000001
 40
0.0
 40
0.0
 40
0.0
 40
0.0
 40
0.2444020725
 40
0.4903412662
 40
0.7415079997
 40
1.0
 40
1.0
 40
1.0
 40
1.0
 10
115.1610276054
 20
574.316102357
 30
0.0
 10
114.9616748139
 20
574.2944884076
 30
0.0
 10
114.5634997927
 20
574.1895651474
 30
0.0
 10
114.0605964212
 20
573.8270380521
 30
0.0
 10
113.6820547507
 20
573.3262427316
 30
0.0
 10
113.5215025214
 20
572.9363804668
 30
0.0
 10
113.4550030757
 20
572.7349945908
 30
0.0
  0
SPLINE
  5
32F
100
AcDbEntity
  8
0
100
AcDbSpline
 62
7
  6
CONTINUOUS
 70
0
 71
3
 72
14
 73
10
 74
0
 42
0.0000001
 43
0.0000001
 44
0.0000000001
 40
0.0
 40
0.0
 40
0.0
 40
0.0
 40
0.3918874846
 40
0.5517617791
 40
0.6858782834
 40
0.7946527689
 40
0.8801241898
 40
0.9461361445
 40
1.0
 40
1.0
 40
1.0
 40
1.0
 10
112.9784916264
 20
572.7349719452
 30
0.0
 10
112.9508450232
 20
573.0489147614
 30
0.0
 10
112.8897303456
 20
573.4901742397
 30
0.0
 10
112.7520062173
 20
574.0248234718
 30
0.0
 10
112.6432062264
 20
574.3304756256
 30
0.0
 10
112.5261105985
 20
574.5681047887
 30
0.0
 10
112.4031760498
 20
574.7390393463
 30
0.0
 10
112.2746026102
 20
574.8470798698
 30
0.0
 10
112.1777096023
 20
574.8745492534
 30
0.0
 10
112.1343920333
 20
574.874550361
 30
0.0
  0
SPLINE
  5
330
100
AcDbEntity
  8
0
100
AcDbSpline
 62
7
  6
CONTINUOUS
 70
0
 71
3
 72
8
 73
4
 74
0
 42
0.0000001
 43
0.0000001
 44
0.0000000001
 40
0.0
 40
0.0
 40
0.0
 40
0.0
 40
1.0
 40
1.0
 40
1.0
 40
1.0
 10
114.8208264521
 20
578.5286596209
 30
0.0
 10
114.8545780306
 20
578.5399640518
 30
0.0
 10
114.8927608051
 20
578.5419032695
 30
0.0
 10
114.9274742628
 20
578.5340333863
 30
0.0
  0
SPLINE
  5
331
100
AcDbEntity
  8
0
100
AcDbSpline
 62
7
  6
CONTINUOUS
 70
0
 71
3
 72
8
 73
4
 74
0
 42
0.0000001
 43
0.0000001
 44
0.0000000001
 40
0.0
 40
0.0
 40
0.0
 40
0.0
 40
1.0
 40
1.0
 40
1.0
 40
1.0
 10
115.6779645425
 20
578.3856811712
 30
0.0
 10
115.6958224823
 20
578.3928471
 30
0.0
 10
115.7160489401
 20
578.3958986616
 30
0.0
 10
115.7351493539
 20
578.3935682668
 30
0.0
  0
SPLINE
  5
332
100
AcDbEntity
  8
0
100
AcDbSpline
 62
7
  6
CONTINUOUS
 70
0
 71
3
 72
9
 73
5
 74
0
 42
0.0000001
 43
0.0000001
 44
0.0000000001
 40
0.0
 40
0.0
 40
0.0
 40
0.0
 40
0.7795257853
 40
1.0
 40
1.0
 40
1.0
 40
1.0
 10
119.1574186647
 20
578.7196396651
 30
0.0
 10
119.167218513
 20
578.7218720238
 30
0.0
 10
119.1800452752
 20
578.7239217725
 30
0.0
 10
119.1929519403
 20
578.7240981711
 30
0.0
 10
119.1957925587
 20
578.7239892413
 30
0.0
  0
SPLINE
  5
333
100
AcDbEntity
  8
0
100
AcDbSpline
 62
7
  6
CONTINUOUS
 70
0
 71
3
 72
8
 73
4
 74
0
 42
0.0000001
 43
0.0000001
 44
0.0000000001
 40
0.0
 40
0.0
 40
0.0
 40
0.0
 40
1.0
 40
1.0
 40
1.0
 40
1.0
 10
119.2151382287
 20
578.7241850928
 30
0.0
 10
119.220195372
 20
578.7239051899
 30
0.0
 10
119.2252427231
 20
578.7233974668
 30
0.0
 10
119.2302620471
 20
578.7227196532
 30
0.0
  0
SPLINE
  5
334
100
AcDbEntity
  8
0
100
AcDbSpline
 62
7
  6
CONTINUOUS
 70
0
 71
3
 72
8
 73
4
 74
0
 42
0.0000001
 43
0.0000001
 44
0.0000000001
 40
0.0
 40
0.0
 40
0.0
 40
0.0
 40
1.0
 40
1.0
 40
1.0
 40
1.0
 10
119.2302620471
 20
578.7227196532
 30
0.0
 10
119.2365936695
 20
578.7218646257
 30
0.0
 10
119.2428962176
 20
578.7207137265
 30
0.0
 10
119.2491034019
 20
578.7191999968
 30
0.0
  0
LINE
  5
335
100
AcDbEntity
  8
0
100
AcDbLine
 62
7
  6
CONTINUOUS
 10
119.2331719686
 20
578.7128246808
 11
119.3616951484
 21
578.6711417402
  0
SPLINE
  5
336
100
AcDbEntity
  8
0
100
AcDbSpline
 62
7
  6
CONTINUOUS
 70
0
 71
3
 72
15
 73
11
 74
0
 42
0.0000001
 43
0.0000001
 44
0.0000000001
 40
0.0
 40
0.0
 40
0.0
 40
0.0
 40
0.0758588606
 40
0.1816505492
 40
0.4698271302
 40
0.6386474912
 40
0.8011783289
 40
0.9290636046
 40
0.9723964992
 40
1.0
 40
1.0
 40
1.0
 40
1.0
 10
119.3850238112
 20
578.6637838819
 30
0.0
 10
119.5022548455
 20
578.6271116879
 30
0.0
 10
119.7861065192
 20
578.5493027266
 30
0.0
 10
120.5294186781
 20
578.3861235651
 30
0.0
 10
121.442616575
 20
578.301066221
 30
0.0
 10
122.4460168744
 20
578.3469059895
 30
0.0
 10
123.1832919906
 20
578.4533256036
 30
0.0
 10
123.7096537711
 20
578.57793176
 30
0.0
 10
124.0191811628
 20
578.6666739091
 30
0.0
 10
124.1283278465
 20
578.7025000313
 30
0.0
 10
124.1710369973
 20
578.7156796563
 30
0.0
  0
SPLINE
  5
337
100
AcDbEntity
  8
0
100
AcDbSpline
 62
7
  6
CONTINUOUS
 70
0
 71
3
 72
8
 73
4
 74
0
 42
0.0000001
 43
0.0000001
 44
0.0000000001
 40
0.0
 40
0.0
 40
0.0
 40
0.0
 40
1.0
 40
1.0
 40
1.0
 40
1.0
 10
129.2037434693
 20
578.7244767509
 30
0.0
 10
129.2137351436
 20
578.7217053264
 30
0.0
 10
129.2236609703
 20
578.7186973041
 30
0.0
 10
129.2335625984
 20
578.7156196246
 30
0.0
  0
SPLINE
  5
338
100
AcDbEntity
  8
0
100
AcDbSpline
 62
7
  6
CONTINUOUS
 70
0
 71
3
 72
15
 73
11
 74
0
 42
0.0000001
 43
0.0000001
 44
0.0000000001
 40
0.0
 40
0.0
 40
0.0
 40
0.0
 40
0.0298620536
 40
0.078049133
 40
0.2195660184
 40
0.3949579283
 40
0.5701980718
 40
0.8511557543
 40
0.9440257301
 40
1.0
 40
1.0
 40
1.0
 40
1.0
 10
129.2335625984
 20
578.7156196246
 30
0.0
 10
129.2813311294
 20
578.7007719423
 30
0.0
 10
129.4055855601
 20
578.6600380624
 30
0.0
 10
129.7599090263
 20
578.5610477033
 30
0.0
 10
130.3570576682
 20
578.4258631516
 30
0.0
 10
131.1773438599
 20
578.3260569544
 30
0.0
 10
132.2367256614
 20
578.3134963907
 30
0.0
 10
133.1553036377
 20
578.4307604142
 30
0.0
 10
133.8520209663
 20
578.6127958605
 30
0.0
 10
134.0910590989
 20
578.6841816351
 30
0.0
 10
134.1797089936
 20
578.7147255333
 30
0.0
  0
SPLINE
  5
339
100
AcDbEntity
  8
0
100
AcDbSpline
 62
7
  6
CONTINUOUS
 70
0
 71
3
 72
9
 73
5
 74
0
 42
0.0000001
 43
0.0000001
 44
0.0000000001
 40
0.0
 40
0.0
 40
0.0
 40
0.0
 40
0.2865371023
 40
1.0
 40
1.0
 40
1.0
 40
1.0
 10
134.1797089936
 20
578.7147255333
 30
0.0
 10
134.1822963832
 20
578.715617006
 30
0.0
 10
134.1913159578
 20
578.7187571184
 30
0.0
 10
134.2003000168
 20
578.7220051561
 30
0.0
 10
134.2066506056
 20
578.7244754994
 30
0.0
  0
SPLINE
  5
33A
100
AcDbEntity
  8
0
100
AcDbSpline
 62
7
  6
CONTINUOUS
 70
0
 71
3
 72
8
 73
4
 74
0
 42
0.0000001
 43
0.0000001
 44
0.0000000001
 40
0.0
 40
0.0
 40
0.0
 40
0.0
 40
1.0
 40
1.0
 40
1.0
 40
1.0
 10
137.7266423321
 20
578.3856589717
 30
0.0
 10
137.708784094
 20
578.3928365477
 30
0.0
 10
137.6885537311
 20
578.3958967541
 30
0.0
 10
137.6694475766
 20
578.3935753047
 30
0.0
  0
SPLINE
  5
33B
100
AcDbEntity
  8
0
100
AcDbSpline
 62
7
  6
CONTINUOUS
 70
0
 71
3
 72
9
 73
5
 74
0
 42
0.0000001
 43
0.0000001
 44
0.0000000001
 40
0.0
 40
0.0
 40
0.0
 40
0.0
 40
0.3124853643
 40
1.0
 40
1.0
 40
1.0
 40
1.0
 10
138.2808734706
 20
578.4667723384
 30
0.0
 10
138.3058626077
 20
578.4712829385
 30
0.0
 10
138.3857699194
 20
578.4860518657
 30
0.0
 10
138.4654486983
 20
578.50209052
 30
0.0
 10
138.5200049386
 20
578.5141273772
 30
0.0
  0
SPLINE
  5
33C
100
AcDbEntity
  8
0
100
AcDbSpline
 62
7
  6
CONTINUOUS
 70
0
 71
3
 72
8
 73
4
 74
0
 42
0.0000001
 43
0.0000001
 44
0.0000000001
 40
0.0
 40
0.0
 40
0.0
 40
0.0
 40
1.0
 40
1.0
 40
1.0
 40
1.0
 10
138.5837775181
 20
578.5286860075
 30
0.0
 10
138.5500038593
 20
578.5399880916
 30
0.0
 10
138.5117955801
 20
578.5419125898
 30
0.0
 10
138.4770669683
 20
578.5340182463
 30
0.0
  0
SPLINE
  5
33D
100
AcDbEntity
  8
0
100
AcDbSpline
 62
7
  6
CONTINUOUS
 70
0
 71
3
 72
11
 73
7
 74
0
 42
0.0000001
 43
0.0000001
 44
0.0000000001
 40
0.0
 40
0.0
 40
0.0
 40
0.0
 40
0.242283254
 40
0.4976240997
 40
0.7541595826
 40
1.0
 40
1.0
 40
1.0
 40
1.0
 10
141.2702063375
 20
574.8745911937
 30
0.0
 10
141.2568766481
 20
575.262423162
 30
0.0
 10
141.1138661182
 20
576.0596092534
 30
0.0
 10
140.5531440525
 20
577.1503925515
 30
0.0
 10
139.6834798382
 20
578.0243507619
 30
0.0
 10
138.9566187666
 20
578.4020564924
 30
0.0
 10
138.5837767567
 20
578.5286840069
 30
0.0
  0
SPLINE
  5
33E
100
AcDbEntity
  8
0
100
AcDbSpline
 62
7
  6
CONTINUOUS
 70
0
 71
3
 72
11
 73
7
 74
0
 42
0.0000001
 43
0.0000001
 44
0.0000000001
 40
0.0
 40
0.0
 40
0.0
 40
0.0
 40
0.244542539
 40
0.4903283062
 40
0.7415366774
 40
1.0
 40
1.0
 40
1.0
 40
1.0
 10
138.2435794416
 20
574.3161306953
 30
0.0
 10
138.4435265854
 20
574.2996765339
 30
0.0
 10
138.8406357192
 20
574.1863139313
 30
0.0
 10
139.3444208848
 20
573.8278584671
 30
0.0
 10
139.7222915731
 20
573.3258357779
 30
0.0
 10
139.8832153099
 20
572.9363881554
 30
0.0
 10
139.9495658627
 20
572.7349927302
 30
0.0
  0
SPLINE
  5
33F
100
AcDbEntity
  8
0
100
AcDbSpline
 62
7
  6
CONTINUOUS
 70
0
 71
3
 72
9
 73
5
 74
0
 42
0.0000001
 43
0.0000001
 44
0.0000000001
 40
0.0
 40
0.0
 40
0.0
 40
0.0
 40
0.2013233302
 40
1.0
 40
1.0
 40
1.0
 40
1.0
 10
119.1700302073
 20
578.7171349046
 30
0.0
 10
119.1611498782
 20
578.714561512
 30
0.0
 10
119.1172329961
 20
578.7011205417
 30
0.0
 10
119.0736081398
 20
578.6867603103
 30
0.0
 10
119.0385702246
 20
578.6759121438
 30
0.0
  0
SPLINE
  5
340
100
AcDbEntity
  8
0
100
AcDbSpline
 62
7
  6
CONTINUOUS
 70
0
 71
3
 72
11
 73
7
 74
0
 42
0.0000001
 43
0.0000001
 44
0.0000000001
 40
0.0
 40
0.0
 40
0.0
 40
0.0
 40
0.0856124455
 40
0.2082534231
 40
0.6432613464
 40
1.0
 40
1.0
 40
1.0
 40
1.0
 10
119.0385702246
 20
578.6759121438
 30
0.0
 10
118.9473802788
 20
578.6476786227
 30
0.0
 10
118.7234950466
 20
578.5857171692
 30
0.0
 10
118.0259982299
 20
578.4182931204
 30
0.0
 10
117.0076000333
 20
578.2936754397
 30
0.0
 10
116.1222628416
 20
578.3336060097
 30
0.0
 10
115.7271759872
 20
578.3797740669
 30
0.0
  0
SPLINE
  5
341
100
AcDbEntity
  8
0
100
AcDbSpline
 62
7
  6
CONTINUOUS
 70
0
 71
3
 72
14
 73
10
 74
0
 42
0.0000001
 43
0.0000001
 44
0.0000000001
 40
0.0
 40
0.0
 40
0.0
 40
0.0
 40
0.064842903
 40
0.1783433579
 40
0.328352652
 40
0.4991001432
 40
0.8199537894
 40
0.933700797
 40
1.0
 40
1.0
 40
1.0
 40
1.0
 10
129.1741464942
 20
578.7154499743
 30
0.0
 10
129.0706269558
 20
578.6827070189
 30
0.0
 10
128.7859257756
 20
578.592298057
 30
0.0
 10
128.2501722362
 20
578.465996865
 30
0.0
 10
127.5308624028
 20
578.3529940139
 30
0.0
 10
126.4564887803
 20
578.2951562129
 30
0.0
 10
125.4392933144
 20
578.3955600014
 30
0.0
 10
124.6240300714
 20
578.5939167912
 30
0.0
 10
124.3348097149
 20
578.6795320814
 30
0.0
 10
124.2294854225
 20
578.7146126201
 30
0.0
  0
LINE
  5
342
100
AcDbEntity
  8
0
100
AcDbLine
 62
7
  6
CONTINUOUS
 10
124.2294854225
 20
578.7146126201
 11
124.2008482586
 21
578.7244772224
  0
LINE
  5
343
100
AcDbEntity
  8
0
100
AcDbLine
 62
7
  6
CONTINUOUS
 10
137.7266422781
 20
578.3856586599
 11
137.6776966472
 21
578.3804274252
  0
SPLINE
  5
344
100
AcDbEntity
  8
0
100
AcDbSpline
 62
7
  6
CONTINUOUS
 70
0
 71
3
 72
9
 73
5
 74
0
 42
0.0000001
 43
0.0000001
 44
0.0000000001
 40
0.0
 40
0.0
 40
0.0
 40
0.0
 40
0.2352648372
 40
1.0
 40
1.0
 40
1.0
 40
1.0
 10
137.6776966472
 20
578.3804274252
 30
0.0
 10
137.6231485611
 20
578.374639655
 30
0.0
 10
137.3912385198
 20
578.3506754363
 30
0.0
 10
137.1584977323
 20
578.3335194151
 30
0.0
 10
136.9802930801
 20
578.3275255921
 30
0.0
  0
SPLINE
  5
345
100
AcDbEntity
  8
0
100
AcDbSpline
 62
7
  6
CONTINUOUS
 70
0
 71
3
 72
9
 73
5
 74
0
 42
0.0000001
 43
0.0000001
 44
0.0000000001
 40
0.0
 40
0.0
 40
0.0
 40
0.0
 40
0.2387434654
 40
1.0
 40
1.0
 40
1.0
 40
1.0
 10
136.7819188788
 20
578.3235287283
 30
0.0
 10
136.7297048835
 20
578.3231765277
 30
0.0
 10
136.5109895325
 20
578.3239941691
 30
0.0
 10
136.2923314705
 20
578.3344307533
 30
0.0
 10
136.1263287997
 20
578.3472009994
 30
0.0
  0
SPLINE
  5
346
100
AcDbEntity
  8
0
100
AcDbSpline
 62
7
  6
CONTINUOUS
 70
0
 71
3
 72
11
 73
7
 74
0
 42
0.0000001
 43
0.0000001
 44
0.0000000001
 40
0.0
 40
0.0
 40
0.0
 40
0.0
 40
0.3635950462
 40
0.6582563467
 40
0.8666392979
 40
1.0
 40
1.0
 40
1.0
 40
1.0
 10
135.0089201102
 20
578.509802446
 30
0.0
 10
134.9139522667
 20
578.530435856
 30
0.0
 10
134.7426986693
 20
578.5709333105
 30
0.0
 10
134.5187272582
 20
578.6301544002
 30
0.0
 10
134.3556054264
 20
578.6784501001
 30
0.0
 10
134.2689548124
 20
578.7074750515
 30
0.0
 10
134.234656564
 20
578.7171816527
 30
0.0
  0
SPLINE
  5
347
100
AcDbEntity
  8
0
100
AcDbSpline
 62
7
  6
CONTINUOUS
 70
0
 71
3
 72
8
 73
4
 74
0
 42
0.0000001
 43
0.0000001
 44
0.0000000001
 40
0.0
 40
0.0
 40
0.0
 40
0.0
 40
1.0
 40
1.0
 40
1.0
 40
1.0
 10
134.234656564
 20
578.7171816527
 30
0.0
 10
134.225374394
 20
578.7198085601
 30
0.0
 10
134.2160444216
 20
578.7222810645
 30
0.0
 10
134.2066506056
 20
578.7244754994
 30
0.0
  0
SPLINE
  5
348
100
AcDbEntity
  8
0
100
AcDbSpline
 62
7
  6
CONTINUOUS
 70
0
 71
3
 72
12
 73
8
 74
0
 42
0.0000001
 43
0.0000001
 44
0.0000000001
 40
0.0
 40
0.0
 40
0.0
 40
0.0
 40
0.3399917999
 40
0.6246249055
 40
0.8453378869
 40
0.9308136107
 40
1.0
 40
1.0
 40
1.0
 40
1.0
 10
138.2435821798
 20
574.3160603046
 30
0.0
 10
138.2229467668
 20
574.7822983386
 30
0.0
 10
138.1786305954
 20
575.6387431811
 30
0.0
 10
138.0809292497
 20
576.7949361268
 30
0.0
 10
137.9654941069
 20
577.5993237197
 30
0.0
 10
137.8397461913
 20
578.0994044803
 30
0.0
 10
137.7670617574
 20
578.2997197184
 30
0.0
 10
137.7266422781
 20
578.3856586599
 30
0.0
  0
SPLINE
  5
349
100
AcDbEntity
  8
0
100
AcDbSpline
 62
7
  6
CONTINUOUS
 70
0
 71
3
 72
11
 73
7
 74
0
 42
0.0000001
 43
0.0000001
 44
0.0000000001
 40
0.0
 40
0.0
 40
0.0
 40
0.0
 40
0.2458414604
 40
0.5023773194
 40
0.7577177804
 40
1.0
 40
1.0
 40
1.0
 40
1.0
 10
114.8208189997
 20
578.5286839874
 30
0.0
 10
114.4479754125
 20
578.4020559291
 30
0.0
 10
113.7211124266
 20
578.0243485921
 30
0.0
 10
112.8514483226
 20
577.1503878417
 30
0.0
 10
112.2907286622
 20
576.0596052844
 30
0.0
 10
112.1477190285
 20
575.2624215038
 30
0.0
 10
112.1343893842
 20
574.8745911937
 30
0.0
  0
SPLINE
  5
34A
100
AcDbEntity
  8
0
100
AcDbSpline
 62
7
  6
CONTINUOUS
 70
0
 71
3
 72
9
 73
5
 74
0
 42
0.0000001
 43
0.0000001
 44
0.0000000001
 40
0.0
 40
0.0
 40
0.0
 40
0.0
 40
0.5751368369
 40
1.0
 40
1.0
 40
1.0
 40
1.0
 10
115.6779672419
 20
578.3856655266
 30
0.0
 10
115.5722107822
 20
578.3937774564
 30
0.0
 10
115.3898541322
 20
578.4234690973
 30
0.0
 10
115.207800074
 20
578.4523788056
 30
0.0
 10
115.1305743648
 20
578.4656252188
 30
0.0
  0
SPLINE
  5
34B
100
AcDbEntity
  8
0
100
AcDbSpline
 62
7
  6
CONTINUOUS
 70
0
 71
3
 72
9
 73
5
 74
0
 42
0.0000001
 43
0.0000001
 44
0.0000000001
 40
0.0
 40
0.0
 40
0.0
 40
0.0
 40
0.3198242637
 40
1.0
 40
1.0
 40
1.0
 40
1.0
 10
115.1305743648
 20
578.4656252188
 30
0.0
 10
115.1043817737
 20
578.4701179958
 30
0.0
 10
115.0225296654
 20
578.4844303644
 30
0.0
 10
114.9412281808
 20
578.5018392525
 30
0.0
 10
114.8862914017
 20
578.5151135587
 30
0.0
  0
SPLINE
  5
34C
100
AcDbEntity
  8
0
100
AcDbSpline
 62
7
  6
CONTINUOUS
 70
0
 71
3
 72
9
 73
5
 74
0
 42
0.0000001
 43
0.0000001
 44
0.0000000001
 40
0.0
 40
0.0
 40
0.0
 40
0.0
 40
0.2837258884
 40
1.0
 40
1.0
 40
1.0
 40
1.0
 10
114.8862914017
 20
578.5151135587
 30
0.0
 10
114.8801435446
 20
578.5165990579
 30
0.0
 10
114.8584738607
 20
578.5217914237
 30
0.0
 10
114.836650908
 20
578.5266099933
 30
0.0
 10
114.8208190921
 20
578.5286840187
 30
0.0
  0
SPLINE
  5
34D
100
AcDbEntity
  8
0
100
AcDbSpline
 62
7
  6
CONTINUOUS
 70
0
 71
3
 72
12
 73
8
 74
0
 42
0.0000001
 43
0.0000001
 44
0.0000000001
 40
0.0
 40
0.0
 40
0.0
 40
0.0
 40
0.3399925313
 40
0.6246211866
 40
0.8453327101
 40
0.9308109605
 40
1.0
 40
1.0
 40
1.0
 40
1.0
 10
115.1610162024
 20
574.3160603046
 30
0.0
 10
115.181652417
 20
574.7822997802
 30
0.0
 10
115.2260076514
 20
575.6387380655
 30
0.0
 10
115.3236381353
 20
576.7949295152
 30
0.0
 10
115.4390508213
 20
577.5993191587
 30
0.0
 10
115.5648403044
 20
578.0993969819
 30
0.0
 10
115.6375486698
 20
578.2997101309
 30
0.0
 10
115.6779694825
 20
578.3856525714
 30
0.0
  0
SPLINE
  5
34E
100
AcDbEntity
  8
0
100
AcDbSpline
 62
7
  6
CONTINUOUS
 70
0
 71
3
 72
9
 73
5
 74
0
 42
0.0000001
 43
0.0000001
 44
0.0000000001
 40
0.0
 40
0.0
 40
0.0
 40
0.0
 40
0.3747456313
 40
1.0
 40
1.0
 40
1.0
 40
1.0
 10
114.8208266749
 20
578.5286596357
 30
0.0
 10
114.7566774819
 20
578.5476477762
 30
0.0
 10
114.5848906788
 20
578.5960211893
 30
0.0
 10
114.411956817
 20
578.6415384663
 30
0.0
 10
114.3067793749
 20
578.6789167612
 30
0.0
  0
SPLINE
  5
34F
100
AcDbEntity
  8
0
100
AcDbSpline
 62
7
  6
CONTINUOUS
 70
0
 71
3
 72
9
 73
5
 74
0
 42
0.0000001
 43
0.0000001
 44
0.0000000001
 40
0.0
 40
0.0
 40
0.0
 40
0.0
 40
0.2200147812
 40
1.0
 40
1.0
 40
1.0
 40
1.0
 10
78.793791844
 20
552.7349959933
 30
0.0
 10
78.7717693866
 20
552.7349788559
 30
0.0
 10
78.6712610226
 20
552.7492107414
 30
0.0
 10
78.5865892679
 20
552.815631287
 30
0.0
 10
78.531866402
 20
552.8713160139
 30
0.0
  0
SPLINE
  5
350
100
AcDbEntity
  8
0
100
AcDbSpline
 62
7
  6
CONTINUOUS
 70
0
 71
3
 72
9
 73
5
 74
0
 42
0.0000001
 43
0.0000001
 44
0.0000000001
 40
0.0
 40
0.0
 40
0.0
 40
0.0
 40
0.2084033084
 40
1.0
 40
1.0
 40
1.0
 40
1.0
 10
78.531866402
 20
552.8713160139
 30
0.0
 10
78.5026344412
 20
552.9010617833
 30
0.0
 10
78.3736131735
 20
553.054773101
 30
0.0
 10
78.276865643
 20
553.2320557919
 30
0.0
 10
78.2051602132
 20
553.3733101299
 30
0.0
  0
SPLINE
  5
351
100
AcDbEntity
  8
0
100
AcDbSpline
 62
7
  6
CONTINUOUS
 70
0
 71
3
 72
8
 73
4
 74
0
 42
0.0000001
 43
0.0000001
 44
0.0000000001
 40
0.0
 40
0.0
 40
0.0
 40
0.0
 40
1.0
 40
1.0
 40
1.0
 40
1.0
 10
78.1309322354
 20
553.5249357282
 30
0.0
 10
78.0647413714
 20
553.664532651
 30
0.0
 10
78.0024284921
 20
553.805951133
 30
0.0
 10
77.9405172237
 20
553.9474980375
 30
0.0
  0
LINE
  5
352
100
AcDbEntity
  8
0
100
AcDbLine
 62
7
  6
CONTINUOUS
 10
77.9405172237
 20
553.9474980375
 11
77.90229774
 21
554.0349931126
  0
SPLINE
  5
353
100
AcDbEntity
  8
0
100
AcDbSpline
 62
7
  6
CONTINUOUS
 70
0
 71
3
 72
8
 73
4
 74
0
 42
0.0000001
 43
0.0000001
 44
0.0000000001
 40
0.0
 40
0.0
 40
0.0
 40
0.0
 40
1.0
 40
1.0
 40
1.0
 40
1.0
 10
78.7551448673
 20
565.7054072573
 30
0.0
 10
78.5717256367
 20
565.5700651642
 30
0.0
 10
78.4178637866
 20
565.4193364726
 30
0.0
 10
78.2935593171
 20
565.2532211827
 30
0.0
  0
SPLINE
  5
354
100
AcDbEntity
  8
0
100
AcDbSpline
 62
7
  6
CONTINUOUS
 70
0
 71
3
 72
8
 73
4
 74
0
 42
0.0000001
 43
0.0000001
 44
0.0000000001
 40
0.0
 40
0.0
 40
0.0
 40
0.0
 40
1.0
 40
1.0
 40
1.0
 40
1.0
 10
78.0079522925
 20
564.7045751929
 30
0.0
 10
77.9431767278
 20
564.5074711166
 30
0.0
 10
77.9079585436
 20
564.2949804419
 30
0.0
 10
77.90229774
 20
564.0671031688
 30
0.0
  0
SPLINE
  5
355
100
AcDbEntity
  8
0
100
AcDbSpline
 62
7
  6
CONTINUOUS
 70
0
 71
3
 72
8
 73
4
 74
0
 42
0.0000001
 43
0.0000001
 44
0.0000000001
 40
0.0
 40
0.0
 40
0.0
 40
0.0
 40
1.0
 40
1.0
 40
1.0
 40
1.0
 10
571.50229774
 20
564.0671031688
 30
0.0
 10
571.4966369363
 20
564.294980442
 30
0.0
 10
571.4614187522
 20
564.5074711168
 30
0.0
 10
571.3966431874
 20
564.7045751931
 30
0.0
  0
SPLINE
  5
356
100
AcDbEntity
  8
0
100
AcDbSpline
 62
7
  6
CONTINUOUS
 70
0
 71
3
 72
8
 73
4
 74
0
 42
0.0000001
 43
0.0000001
 44
0.0000000001
 40
0.0
 40
0.0
 40
0.0
 40
0.0
 40
1.0
 40
1.0
 40
1.0
 40
1.0
 10
571.1110361628
 20
565.2532211827
 30
0.0
 10
570.9867316934
 20
565.4193364727
 30
0.0
 10
570.8328698433
 20
565.5700651642
 30
0.0
 10
570.6494506127
 20
565.7054072573
 30
0.0
  0
LINE
  5
357
100
AcDbEntity
  8
0
100
AcDbLine
 62
7
  6
CONTINUOUS
 10
571.50229774
 20
554.0349931126
 11
571.4641518158
 21
553.9476660321
  0
SPLINE
  5
358
100
AcDbEntity
  8
0
100
AcDbSpline
 62
7
  6
CONTINUOUS
 70
0
 71
3
 72
8
 73
4
 74
0
 42
0.0000001
 43
0.0000001
 44
0.0000000001
 40
0.0
 40
0.0
 40
0.0
 40
0.0
 40
1.0
 40
1.0
 40
1.0
 40
1.0
 10
571.4641518158
 20
553.9476660321
 30
0.0
 10
571.4024018334
 20
553.8064861893
 30
0.0
 10
571.3402528294
 20
553.6654342919
 30
0.0
 10
571.2742580043
 20
553.526188138
 30
0.0
  0
SPLINE
  5
359
100
AcDbEntity
  8
0
100
AcDbSpline
 62
7
  6
CONTINUOUS
 70
0
 71
3
 72
9
 73
5
 74
0
 42
0.0000001
 43
0.0000001
 44
0.0000000001
 40
0.0
 40
0.0
 40
0.0
 40
0.0
 40
0.2910912264
 40
1.0
 40
1.0
 40
1.0
 40
1.0
 10
571.2742580043
 20
553.526188138
 30
0.0
 10
571.2433976591
 20
553.4610741785
 30
0.0
 10
571.1338297732
 20
553.2398754583
 30
0.0
 10
571.0104003293
 20
553.0200930069
 30
0.0
 10
570.8914889398
 20
552.8910404381
 30
0.0
  0
SPLINE
  5
35A
100
AcDbEntity
  8
0
100
AcDbSpline
 62
7
  6
CONTINUOUS
 70
0
 71
3
 72
8
 73
4
 74
0
 42
0.0000001
 43
0.0000001
 44
0.0000000001
 40
0.0
 40
0.0
 40
0.0
 40
0.0
 40
1.0
 40
1.0
 40
1.0
 40
1.0
 10
570.8914889398
 20
552.8910404381
 30
0.0
 10
570.8742671618
 20
552.8723499267
 30
0.0
 10
570.8562362456
 20
552.8543484055
 30
0.0
 10
570.8372392662
 20
552.8374652889
 30
0.0
  0
SPLINE
  5
35B
100
AcDbEntity
  8
0
100
AcDbSpline
 62
7
  6
CONTINUOUS
 70
0
 71
3
 72
9
 73
5
 74
0
 42
0.0000001
 43
0.0000001
 44
0.0000000001
 40
0.0
 40
0.0
 40
0.0
 40
0.0
 40
0.2859941664
 40
1.0
 40
1.0
 40
1.0
 40
1.0
 10
570.8372392662
 20
552.8374652889
 30
0.0
 10
570.8193266841
 20
552.8215459047
 30
0.0
 10
570.7543760599
 20
552.7693327032
 30
0.0
 10
570.670654881
 20
552.7349043488
 30
0.0
 10
570.6108263233
 20
552.7350112951
 30
0.0
  0
SPLINE
  5
35C
100
AcDbEntity
  8
0
100
AcDbSpline
 62
7
  6
CONTINUOUS
 70
0
 71
3
 72
9
 73
5
 74
0
 42
0.0000001
 43
0.0000001
 44
0.0000000001
 40
0.0
 40
0.0
 40
0.0
 40
0.0
 40
0.2317567231
 40
1.0
 40
1.0
 40
1.0
 40
1.0
 10
87.7112538644
 20
572.7349931126
 30
0.0
 10
87.6460728856
 20
572.7349931126
 30
0.0
 10
87.3642581696
 20
572.7070533688
 30
0.0
 10
87.1046590105
 20
572.5655280672
 30
0.0
 10
86.9325117306
 20
572.4349523494
 30
0.0
  0
SPLINE
  5
35D
100
AcDbEntity
  8
0
100
AcDbSpline
 62
7
  6
CONTINUOUS
 70
0
 71
3
 72
8
 73
4
 74
0
 42
0.0000001
 43
0.0000001
 44
0.0000000001
 40
0.0
 40
0.0
 40
0.0
 40
0.0
 40
1.0
 40
1.0
 40
1.0
 40
1.0
 10
86.9325117306
 20
572.4349523494
 30
0.0
 10
86.8215899403
 20
572.350816879
 30
0.0
 10
86.7184491683
 20
572.256110126
 30
0.0
 10
86.6214115576
 20
572.1562796544
 30
0.0
  0
SPLINE
  5
35E
100
AcDbEntity
  8
0
100
AcDbSpline
 62
7
  6
CONTINUOUS
 70
0
 71
3
 72
8
 73
4
 74
0
 42
0.0000001
 43
0.0000001
 44
0.0000000001
 40
0.0
 40
0.0
 40
0.0
 40
0.0
 40
1.0
 40
1.0
 40
1.0
 40
1.0
 10
562.7831839224
 20
572.1562796544
 30
0.0
 10
562.6861463118
 20
572.2561101261
 30
0.0
 10
562.5830055397
 20
572.350816879
 30
0.0
 10
562.4720837494
 20
572.4349523494
 30
0.0
  0
SPLINE
  5
35F
100
AcDbEntity
  8
0
100
AcDbSpline
 62
7
  6
CONTINUOUS
 70
0
 71
3
 72
9
 73
5
 74
0
 42
0.0000001
 43
0.0000001
 44
0.0000000001
 40
0.0
 40
0.0
 40
0.0
 40
0.0
 40
0.2779771268
 40
1.0
 40
1.0
 40
1.0
 40
1.0
 10
562.4720837494
 20
572.4349523494
 30
0.0
 10
562.4098914904
 20
572.4821259026
 30
0.0
 10
562.1786814685
 20
572.640066418
 30
0.0
 10
561.8960937183
 20
572.7349931126
 30
0.0
 10
561.6933416156
 20
572.7349931126
 30
0.0
  0
SPLINE
  5
360
100
AcDbEntity
  8
0
100
AcDbSpline
 62
7
  6
CONTINUOUS
 70
0
 71
3
 72
8
 73
4
 74
0
 42
0.0000001
 43
0.0000001
 44
0.0000000001
 40
0.0
 40
0.0
 40
0.0
 40
0.0
 40
1.0
 40
1.0
 40
1.0
 40
1.0
 10
565.1802352068
 20
569.5349931126
 30
0.0
 10
564.9166963509
 20
569.8727135678
 30
0.0
 10
564.65324882
 20
570.2106241482
 30
0.0
 10
564.3812180642
 20
570.5415427217
 30
0.0
  0
SPLINE
  5
361
100
AcDbEntity
  8
0
100
AcDbSpline
 62
7
  6
CONTINUOUS
 70
0
 71
3
 72
9
 73
5
 74
0
 42
0.0000001
 43
0.0000001
 44
0.0000000001
 40
0.0
 40
0.0
 40
0.0
 40
0.0
 40
0.2624605785
 40
1.0
 40
1.0
 40
1.0
 40
1.0
 10
564.3812180642
 20
570.5415427217
 30
0.0
 10
564.2925064096
 20
570.6494582186
 30
0.0
 10
563.950943105
 20
571.0574960246
 30
0.0
 10
563.590460774
 20
571.4511341106
 30
0.0
 10
563.3038784343
 20
571.7194203886
 30
0.0
  0
SPLINE
  5
362
100
AcDbEntity
  8
0
100
AcDbSpline
 62
7
  6
CONTINUOUS
 70
0
 71
3
 72
8
 73
4
 74
0
 42
0.0000001
 43
0.0000001
 44
0.0000000001
 40
0.0
 40
0.0
 40
0.0
 40
0.0
 40
1.0
 40
1.0
 40
1.0
 40
1.0
 10
563.1997028656
 20
571.8150306002
 30
0.0
 10
563.0662346137
 20
571.9350375345
 30
0.0
 10
562.9278058322
 20
572.0499784702
 30
0.0
 10
562.7831839224
 20
572.1562796544
 30
0.0
  0
SPLINE
  5
363
100
AcDbEntity
  8
0
100
AcDbSpline
 62
7
  6
CONTINUOUS
 70
0
 71
3
 72
8
 73
4
 74
0
 42
0.0000001
 43
0.0000001
 44
0.0000000001
 40
0.0
 40
0.0
 40
0.0
 40
0.0
 40
1.0
 40
1.0
 40
1.0
 40
1.0
 10
86.6214115576
 20
572.1562796544
 30
0.0
 10
86.4767896479
 20
572.04997847
 30
0.0
 10
86.3383608664
 20
571.9350375344
 30
0.0
 10
86.2048926145
 20
571.8150306001
 30
0.0
  0
SPLINE
  5
364
100
AcDbEntity
  8
0
100
AcDbSpline
 62
7
  6
CONTINUOUS
 70
0
 71
3
 72
9
 73
5
 74
0
 42
0.0000001
 43
0.0000001
 44
0.0000000001
 40
0.0
 40
0.0
 40
0.0
 40
0.0
 40
0.2364405923
 40
1.0
 40
1.0
 40
1.0
 40
1.0
 10
86.1007170458
 20
571.7194203886
 30
0.0
 10
86.0088331483
 20
571.6334025659
 30
0.0
 10
85.629533363
 20
571.2596070851
 30
0.0
 10
85.2814920419
 20
570.8555326733
 30
0.0
 10
85.0233774159
 20
570.5415427217
 30
0.0
  0
SPLINE
  5
365
100
AcDbEntity
  8
0
100
AcDbSpline
 62
7
  6
CONTINUOUS
 70
0
 71
3
 72
8
 73
4
 74
0
 42
0.0000001
 43
0.0000001
 44
0.0000000001
 40
0.0
 40
0.0
 40
0.0
 40
0.0
 40
1.0
 40
1.0
 40
1.0
 40
1.0
 10
85.0233774159
 20
570.5415427217
 30
0.0
 10
84.7513466601
 20
570.2106241481
 30
0.0
 10
84.4878991294
 20
569.8727135676
 30
0.0
 10
84.2243602732
 20
569.5349931126
 30
0.0
  0
SPLINE
  5
366
100
AcDbEntity
  8
0
100
AcDbSpline
 62
7
  6
CONTINUOUS
 70
0
 71
3
 72
8
 73
4
 74
0
 42
0.0000001
 43
0.0000001
 44
0.0000000001
 40
0.0
 40
0.0
 40
0.0
 40
0.0
 40
1.0
 40
1.0
 40
1.0
 40
1.0
 10
572.5684724709
 20
319.5246965012
 30
0.0
 10
572.7165489737
 20
319.5246965012
 30
0.0
 10
572.8666419937
 20
319.5650448246
 30
0.0
 10
573.0003736574
 20
319.6286254256
 30
0.0
  0
SPLINE
  5
367
100
AcDbEntity
  8
0
100
AcDbSpline
 62
7
  6
CONTINUOUS
 70
0
 71
3
 72
9
 73
5
 74
0
 42
0.0000001
 43
0.0000001
 44
0.0000000001
 40
0.0
 40
0.0
 40
0.0
 40
0.0
 40
0.2225129838
 40
1.0
 40
1.0
 40
1.0
 40
1.0
 10
573.0003736574
 20
319.6286254256
 30
0.0
 10
573.0581637074
 20
319.6561007894
 30
0.0
 10
573.3084912351
 20
319.7995829474
 30
0.0
 10
573.5188661847
 20
320.0028852145
 30
0.0
 10
573.6684629683
 20
320.1690510249
 30
0.0
  0
SPLINE
  5
368
100
AcDbEntity
  8
0
100
AcDbSpline
 62
7
  6
CONTINUOUS
 70
0
 71
3
 72
9
 73
5
 74
0
 42
0.0000001
 43
0.0000001
 44
0.0000000001
 40
0.0
 40
0.0
 40
0.0
 40
0.0
 40
0.2297923826
 40
1.0
 40
1.0
 40
1.0
 40
1.0
 10
573.6684629683
 20
320.1690510249
 30
0.0
 10
573.7352461222
 20
320.2432309411
 30
0.0
 10
574.0142859815
 20
320.5765039843
 30
0.0
 10
574.2589107826
 20
320.9366678322
 30
0.0
 10
574.4420742158
 20
321.2166216229
 30
0.0
  0
SPLINE
  5
369
100
AcDbEntity
  8
0
100
AcDbSpline
 62
7
  6
CONTINUOUS
 70
0
 71
3
 72
8
 73
4
 74
0
 42
0.0000001
 43
0.0000001
 44
0.0000000001
 40
0.0
 40
0.0
 40
0.0
 40
0.0
 40
1.0
 40
1.0
 40
1.0
 40
1.0
 10
574.4420742158
 20
321.2166216229
 30
0.0
 10
574.5522817903
 20
321.385066971
 30
0.0
 10
574.6603713393
 20
321.5548916423
 30
0.0
 10
574.7684724709
 20
321.7246965012
 30
0.0
  0
SPLINE
  5
36A
100
AcDbEntity
  8
0
100
AcDbSpline
 62
7
  6
CONTINUOUS
 70
0
 71
3
 72
8
 73
4
 74
0
 42
0.0000001
 43
0.0000001
 44
0.0000000001
 40
0.0
 40
0.0
 40
0.0
 40
0.0
 40
1.0
 40
1.0
 40
1.0
 40
1.0
 10
74.7684724709
 20
321.7246965012
 30
0.0
 10
74.8765732091
 20
321.5548922587
 30
0.0
 10
74.9846623638
 20
321.3850682035
 30
0.0
 10
75.0948695225
 20
321.2166234573
 30
0.0
  0
SPLINE
  5
36B
100
AcDbEntity
  8
0
100
AcDbSpline
 62
7
  6
CONTINUOUS
 70
0
 71
3
 72
9
 73
5
 74
0
 42
0.0000001
 43
0.0000001
 44
0.0000000001
 40
0.0
 40
0.0
 40
0.0
 40
0.0
 40
0.2677419716
 40
1.0
 40
1.0
 40
1.0
 40
1.0
 10
75.0948695225
 20
321.2166234573
 30
0.0
 10
75.1585260741
 20
321.1193284013
 30
0.0
 10
75.3990609396
 20
320.7580433675
 30
0.0
 10
75.6557039758
 20
320.405399085
 30
0.0
 10
75.8684629684
 20
320.1690721404
 30
0.0
  0
SPLINE
  5
36C
100
AcDbEntity
  8
0
100
AcDbSpline
 62
7
  6
CONTINUOUS
 70
0
 71
3
 72
9
 73
5
 74
0
 42
0.0000001
 43
0.0000001
 44
0.0000000001
 40
0.0
 40
0.0
 40
0.0
 40
0.0
 40
0.2795774313
 40
1.0
 40
1.0
 40
1.0
 40
1.0
 10
75.8684629684
 20
320.1690721404
 30
0.0
 10
75.9222090355
 20
320.1093724601
 30
0.0
 10
76.1201314532
 20
319.9020340858
 30
0.0
 10
76.3496279179
 20
319.7175052925
 30
0.0
 10
76.5365683479
 20
319.6286268563
 30
0.0
  0
SPLINE
  5
36D
100
AcDbEntity
  8
0
100
AcDbSpline
 62
7
  6
CONTINUOUS
 70
0
 71
3
 72
8
 73
4
 74
0
 42
0.0000001
 43
0.0000001
 44
0.0000000001
 40
0.0
 40
0.0
 40
0.0
 40
0.0
 40
1.0
 40
1.0
 40
1.0
 40
1.0
 10
76.5365683479
 20
319.6286268563
 30
0.0
 10
76.6703008137
 20
319.5650454661
 30
0.0
 10
76.8203949048
 20
319.5246965012
 30
0.0
 10
76.9684724709
 20
319.5246965012
 30
0.0
  0
SPLINE
  5
36E
100
AcDbEntity
  8
0
100
AcDbSpline
 62
7
  6
CONTINUOUS
 70
0
 71
3
 72
8
 73
4
 74
0
 42
0.0000001
 43
0.0000001
 44
0.0000000001
 40
0.0
 40
0.0
 40
0.0
 40
0.0
 40
1.0
 40
1.0
 40
1.0
 40
1.0
 10
77.9684724709
 20
546.5246965012
 30
0.0
 10
77.8248164449
 20
546.5246965012
 30
0.0
 10
77.6798032035
 20
546.4993156335
 30
0.0
 10
77.5432019518
 20
546.4548504579
 30
0.0
  0
SPLINE
  5
36F
100
AcDbEntity
  8
0
100
AcDbSpline
 62
7
  6
CONTINUOUS
 70
0
 71
3
 72
9
 73
5
 74
0
 42
0.0000001
 43
0.0000001
 44
0.0000000001
 40
0.0
 40
0.0
 40
0.0
 40
0.0
 40
0.2179158704
 40
1.0
 40
1.0
 40
1.0
 40
1.0
 10
77.5432019518
 20
546.4548504579
 30
0.0
 10
77.4416195802
 20
546.4217843041
 30
0.0
 10
76.9909432348
 20
546.220903887
 30
0.0
 10
76.6250124332
 20
545.8723919967
 30
0.0
 10
76.3684862929
 20
545.5874535578
 30
0.0
  0
SPLINE
  5
370
100
AcDbEntity
  8
0
100
AcDbSpline
 62
7
  6
CONTINUOUS
 70
0
 71
3
 72
9
 73
5
 74
0
 42
0.0000001
 43
0.0000001
 44
0.0000000001
 40
0.0
 40
0.0
 40
0.0
 40
0.0
 40
0.228389574
 40
1.0
 40
1.0
 40
1.0
 40
1.0
 10
76.3684862929
 20
545.5874535578
 30
0.0
 10
76.2576464815
 20
545.4643373607
 30
0.0
 10
75.7943521432
 20
544.905403874
 30
0.0
 10
75.393636714
 20
544.2986541128
 30
0.0
 10
75.0903891204
 20
543.8282498649
 30
0.0
  0
SPLINE
  5
371
100
AcDbEntity
  8
0
100
AcDbSpline
 62
7
  6
CONTINUOUS
 70
0
 71
3
 72
9
 73
5
 74
0
 42
0.0000001
 43
0.0000001
 44
0.0000000001
 40
0.0
 40
0.0
 40
0.0
 40
0.0
 40
0.2681108456
 40
1.0
 40
1.0
 40
1.0
 40
1.0
 10
574.4465568856
 20
543.8282482204
 30
0.0
 10
574.3412195469
 20
543.9916498014
 30
0.0
 10
573.9446884497
 20
544.5981565223
 30
0.0
 10
573.5235696099
 20
545.1930058827
 30
0.0
 10
573.1684862929
 20
545.5874228442
 30
0.0
  0
SPLINE
  5
372
100
AcDbEntity
  8
0
100
AcDbSpline
 62
7
  6
CONTINUOUS
 70
0
 71
3
 72
9
 73
5
 74
0
 42
0.0000001
 43
0.0000001
 44
0.0000000001
 40
0.0
 40
0.0
 40
0.0
 40
0.0
 40
0.2864380642
 40
1.0
 40
1.0
 40
1.0
 40
1.0
 10
573.1684862929
 20
545.5874228442
 30
0.0
 10
573.0747028373
 20
545.6915949745
 30
0.0
 10
572.7367397165
 20
546.0422001608
 30
0.0
 10
572.3257788639
 20
546.3467684691
 30
0.0
 10
571.9937456718
 20
546.4548495391
 30
0.0
  0
SPLINE
  5
373
100
AcDbEntity
  8
0
100
AcDbSpline
 62
7
  6
CONTINUOUS
 70
0
 71
3
 72
8
 73
4
 74
0
 42
0.0000001
 43
0.0000001
 44
0.0000000001
 40
0.0
 40
0.0
 40
0.0
 40
0.0
 40
1.0
 40
1.0
 40
1.0
 40
1.0
 10
571.9937456718
 20
546.4548495391
 30
0.0
 10
571.8571436186
 20
546.4993152624
 30
0.0
 10
571.7121294286
 20
546.5246965012
 30
0.0
 10
571.5684724709
 20
546.5246965012
 30
0.0
  0
SPLINE
  5
374
100
AcDbEntity
  8
0
100
AcDbSpline
 62
7
  6
CONTINUOUS
 70
0
 71
3
 72
9
 73
5
 74
0
 42
0.0000001
 43
0.0000001
 44
0.0000000001
 40
0.0
 40
0.0
 40
0.0
 40
0.0
 40
0.2222980247
 40
1.0
 40
1.0
 40
1.0
 40
1.0
 10
557.1946664791
 20
546.5246965012
 30
0.0
 10
557.0710894631
 20
546.5246965012
 30
0.0
 10
556.5129060914
 20
546.6030165754
 30
0.0
 10
556.0398122983
 20
546.9591621394
 30
0.0
 10
555.7222449693
 20
547.2525222594
 30
0.0
  0
SPLINE
  5
375
100
AcDbEntity
  8
0
100
AcDbSpline
 62
7
  6
CONTINUOUS
 70
0
 71
3
 72
9
 73
5
 74
0
 42
0.0000001
 43
0.0000001
 44
0.0000000001
 40
0.0
 40
0.0
 40
0.0
 40
0.0
 40
0.237809784
 40
1.0
 40
1.0
 40
1.0
 40
1.0
 10
555.6272385576
 20
547.3423171919
 30
0.0
 10
555.5460511924
 20
547.4207396536
 30
0.0
 10
555.2134724167
 20
547.7596810759
 30
0.0
 10
554.9068021951
 20
548.1226462657
 30
0.0
 10
554.674616451
 20
548.4000879214
 30
0.0
  0
LINE
  5
376
100
AcDbEntity
  8
0
100
AcDbLine
 62
7
  6
CONTINUOUS
 10
554.674616451
 20
548.4000879214
 11
554.570482609
 21
548.5246843342
  0
LINE
  5
377
100
AcDbEntity
  8
0
100
AcDbLine
 62
7
  6
CONTINUOUS
 10
94.9664623343
 20
548.5246843329
 11
94.8623298553
 21
548.4000895504
  0
SPLINE
  5
378
100
AcDbEntity
  8
0
100
AcDbSpline
 62
7
  6
CONTINUOUS
 70
0
 71
3
 72
9
 73
5
 74
0
 42
0.0000001
 43
0.0000001
 44
0.0000000001
 40
0.0
 40
0.0
 40
0.0
 40
0.0
 40
0.2596846561
 40
1.0
 40
1.0
 40
1.0
 40
1.0
 10
94.8623298553
 20
548.4000895504
 30
0.0
 10
94.7832313726
 20
548.3055737792
 30
0.0
 10
94.4777931455
 20
547.9425015424
 30
0.0
 10
94.1623927467
 20
547.5863952088
 30
0.0
 10
93.9096797052
 20
547.3422914153
 30
0.0
  0
SPLINE
  5
379
100
AcDbEntity
  8
0
100
AcDbSpline
 62
7
  6
CONTINUOUS
 70
0
 71
3
 72
9
 73
5
 74
0
 42
0.0000001
 43
0.0000001
 44
0.0000000001
 40
0.0
 40
0.0
 40
0.0
 40
0.0
 40
0.2882451491
 40
1.0
 40
1.0
 40
1.0
 40
1.0
 10
93.8147385034
 20
547.2525578621
 30
0.0
 10
93.6975119766
 20
547.1442651026
 30
0.0
 10
93.2811237967
 20
546.7870451498
 30
0.0
 10
92.7363523135
 20
546.5246965012
 30
0.0
 10
92.3422784627
 20
546.5246965012
 30
0.0
  0
SPLINE
  5
37A
100
AcDbEntity
  8
0
100
AcDbSpline
 62
7
  6
CONTINUOUS
 70
0
 71
3
 72
9
 73
5
 74
0
 42
0.0000001
 43
0.0000001
 44
0.0000000001
 40
0.0
 40
0.0
 40
0.0
 40
0.0
 40
0.1691470419
 40
1.0
 40
1.0
 40
1.0
 40
1.0
 10
562.8142649055
 20
548.5855123351
 30
0.0
 10
562.8242363027
 20
548.5857845426
 30
0.0
 10
562.8831819997
 20
548.5804243645
 30
0.0
 10
562.9406974113
 20
548.5661920749
 30
0.0
 10
562.9878806343
 20
548.5529807725
 30
0.0
  0
SPLINE
  5
37B
100
AcDbEntity
  8
0
100
AcDbSpline
 62
7
  6
CONTINUOUS
 70
0
 71
3
 72
9
 73
5
 74
0
 42
0.0000001
 43
0.0000001
 44
0.0000000001
 40
0.0
 40
0.0
 40
0.0
 40
0.0
 40
0.3166841618
 40
1.0
 40
1.0
 40
1.0
 40
1.0
 10
562.7955758448
 20
548.5796407268
 30
0.0
 10
562.7961703828
 20
548.5817216099
 30
0.0
 10
562.8026733458
 20
548.5862128473
 30
0.0
 10
562.8095977308
 20
548.585663827
 30
0.0
 10
562.8142649055
 20
548.5855123351
 30
0.0
  0
SPLINE
  5
37C
100
AcDbEntity
  8
0
100
AcDbSpline
 62
7
  6
CONTINUOUS
 70
0
 71
3
 72
9
 73
5
 74
0
 42
0.0000001
 43
0.0000001
 44
0.0000000001
 40
0.0
 40
0.0
 40
0.0
 40
0.0
 40
0.8136169849
 40
1.0
 40
1.0
 40
1.0
 40
1.0
 10
570.0659073266
 20
548.1076122367
 30
0.0
 10
570.0934128582
 20
548.1384186928
 30
0.0
 10
570.1280396854
 20
548.1756573949
 30
0.0
 10
570.165626808
 20
548.2098238431
 30
0.0
 10
570.1729193711
 20
548.2158507518
 30
0.0
  0
SPLINE
  5
37D
100
AcDbEntity
  8
0
100
AcDbSpline
 62
7
  6
CONTINUOUS
 70
0
 71
3
 72
9
 73
5
 74
0
 42
0.0000001
 43
0.0000001
 44
0.0000000001
 40
0.0
 40
0.0
 40
0.0
 40
0.0
 40
0.7092200479
 40
1.0
 40
1.0
 40
1.0
 40
1.0
 10
570.1729193711
 20
548.2158507518
 30
0.0
 10
570.1781743579
 20
548.220193714
 30
0.0
 10
570.1844077286
 20
548.2247899881
 30
0.0
 10
570.1955105945
 20
548.2316904829
 30
0.0
 10
570.1976141286
 20
548.2298498905
 30
0.0
  0
ENDSEC
  0
SECTION
  2
OBJECTS
  0
DICTIONARY
  5
C
100
AcDbDictionary
280
0
281
1
  3
ACAD_GROUP
350
D
  3
ACAD_MLINESTYLE
350
17
  3
ACAD_LAYOUT
350
1A
  3
ACAD_PLOTSETTINGS
350
19
  3
ACAD_PLOTSTYLENAME
350
E
  0
DICTIONARY
  5
D
102
{ACAD_REACTORS
330
C
102
}
100
AcDbDictionary
280
0
281
1
  0
ACDBDICTIONARYWDFLT
  5
E
102
{ACAD_REACTORS
330
C
102
}
100
AcDbDictionary
281
1
  3
Normal
350
F
100
AcDbDictionaryWithDefault
340
F
  0
DICTIONARY
  5
17
102
{ACAD_REACTORS
330
C
102
}
100
AcDbDictionary
280
0
281
1
  3
Standard
350
18
  0
DICTIONARY
  5
19
102
{ACAD_REACTORS
330
C
102
}
100
AcDbDictionary
281
1
  0
DICTIONARY
  5
1A
102
{ACAD_REACTORS
330
C
102
}
100
AcDbDictionary
281
1
  3
Model
350
37E
  3
Layout1
350
37F
  0
ACDBPLACEHOLDER
  5
F
102
{ACAD_REACTORS
330
E
102
}
  0
MLINESTYLE
  5
18
102
{ACAD_REACTORS
330
17
102
}
100
AcDbMlineStyle
  2
STANDARD
 70
0
  3

 62
256
 51
90.0
 52
90.0
 71
2
 49
0.5
 62
256
  6
BYLAYER
 49
-0.5
 62
256
  6
BYLAYER
  0
LAYOUT
  5
37E
102
{ACAD_REACTORS
330
1A
102
}
100
AcDbPlotSettings
  1

  2
none_device
  4

  6

 40
0.0
 41
0.0
 42
0.0
 43
0.0
 44
210.0
 45
297.0
 46
0.0
 47
0.0
 48
0.0
 49
0.0
140
0.0
141
0.0
142
1.0
143
1.0
 70
1024
 72
1
 73
0
 74
0
  7

 75
0
147
1.0
148
0.0
149
0.0
100
AcDbLayout
  1
Model
 70
0
 71
0
 10
0.0
 20
0.0
 11
210.0
 21
297.0
 12
0.0
 22
0.0
 32
0.0
 14
0.0
 24
0.0
 34
0.0
 15
0.0
 25
0.0
 35
0.0
146
0.0
 13
0.0
 23
0.0
 33
0.0
 16
1.0
 26
0.0
 36
0.0
 17
0.0
 27
1.0
 37
0.0
 76
0
330
210
345
0
346
0
  0
LAYOUT
  5
37F
102
{ACAD_REACTORS
330
1A
102
}
100
AcDbPlotSettings
  1

  2
none_device
  4

  6

 40
0.0
 41
0.0
 42
0.0
 43
0.0
 44
210.0
 45
297.0
 46
0.0
 47
0.0
 48
0.0
 49
0.0
140
0.0
141
0.0
142
1.0
143
1.0
 70
0
 72
1
 73
0
 74
0
  7

 75
0
147
1.0
148
0.0
149
0.0
100
AcDbLayout
  1
Layout1
 70
0
 71
1
 10
0.0
 20
0.0
 11
210.0
 21
297.0
 12
0.0
 22
0.0
 32
0.0
 14
0.0
 24
0.0
 34
0.0
 15
0.0
 25
0.0
 35
0.0
146
0.0
 13
0.0
 23
0.0
 33
0.0
 16
1.0
 26
0.0
 36
0.0
 17
0.0
 27
1.0
 37
0.0
 76
0
330
211
345
0
346
0
  0
ENDSEC
  0
EOF
