999
DXF file: C:\Users\sesa63760\Dev\_Creo\CAD\MCADUE0003040_3D-CAD\drw0001_2.dxf
999
Pro/ENGINEER 2019471 by Parametric Technology Corporation
  0
SECTION
  2
HEADER
  9
$ACADVER
  1
AC1024
  9
$DWGCODEPAGE
  3
ANSI_1252
  9
$EXTMAX
 10
503.4220197619
 20
711.9825708062
 30
0.0
  9
$EXTMIN
 10
0.0
 20
0.0
 30
0.0
  9
$LIMMIN
 10
0.0
 20
0.0
  9
$LIMMAX
 10
503.4220197619
 20
711.9825708062
  9
$VIEWCTR
 10
251.711009881
 20
355.9912854031
  9
$VIEWSIZE
 40
711.9825708062
  9
$CLAYER
  8
0
  9
$LTSCALE
 40
46.4107157266
  9
$CELTYPE
  6
BYLAYER
  9
$DIMSCALE
 40
1.0
  9
$DIMASZ
 40
5.9931192829
  9
$DIMEXO
 40
1.0
  9
$DIMDLI
 40
32.0655854111
  9
$DIMEXE
 40
1.0
  9
$DIMCEN
 40
7.5944807553
  9
$DIMLFAC
 40
1.0
  9
$DIMBLK
  1
_FILLED
  9
$DIMALT
 70
0
  9
$DIMALTF
 40
0.0393700787
  9
$DIMTXT
 40
8.390366996
  9
$DIMTOL
 70
1
  9
$DIMLIM
 70
0
  9
$DIMTFAC
 40
1.0
  9
$DIMTP
 40
0.01
  9
$DIMTM
 40
0.01
  9
$DIMGAP
 40
0.625
  9
$DIMDSEP
 70
46
  9
$AUNITS
 70
0
  9
$PDMODE
 70
3
  9
$PDSIZE
 40
0.3125
  9
$HANDSEED
  5
266
  9
$TILEMODE
 70
1
  9
$MEASUREMENT
 70
1
  9
$INSUNITS
 70
4
  0
ENDSEC
  0
SECTION
  2
CLASSES
  0
CLASS
  1
ACDBDICTIONARYWDFLT
  2
AcDbDictionaryWithDefault
  3
AutoCAD 2000
 90
0
 91
1
280
0
281
0
  0
CLASS
  1
ACDBPLACEHOLDER
  2
AcDbPlaceHolder
  3
AutoCAD 2000
 90
0
 91
1
280
0
281
0
  0
CLASS
  1
LAYOUT
  2
AcDbLayout
  3
AutoCAD 2000
 90
0
 91
0
280
0
281
0
  0
ENDSEC
  0
SECTION
  2
TABLES
  0
TABLE
  2
VPORT
  5
8
100
AcDbSymbolTable
 70
2
  0
VPORT
  5
1F4
100
AcDbSymbolTableRecord
100
AcDbViewportTableRecord
  2
*ACTIVE
 70
0
 10
0.0
 20
0.0
 11
1.0
 21
1.0
 12
251.711009881
 22
355.9912854031
 13
0.0
 23
0.0
 14
1.0
 24
1.0
 15
0.0
 25
0.0
 16
0.0
 26
0.0
 36
1.0
 17
0.0
 27
0.0
 37
0.0
 40
711.9825708062
 41
0.7070707071
 42
50.0
 43
0.0
 44
0.0
 50
0.0
 51
0.0
 71
0
 72
100
 73
1
 74
1
 75
0
 76
0
 77
0
 78
0
  0
ENDTAB
  0
TABLE
  2
LTYPE
  5
5
100
AcDbSymbolTable
 70
6
  0
LTYPE
  5
14
100
AcDbSymbolTableRecord
100
AcDbLinetypeTableRecord
  2
BYBLOCK
 70
0
  3

 72
65
 73
0
 40
0.0
  0
LTYPE
  5
15
100
AcDbSymbolTableRecord
100
AcDbLinetypeTableRecord
  2
BYLAYER
 70
0
  3

 72
65
 73
0
 40
0.0
  0
LTYPE
  5
16
100
AcDbSymbolTableRecord
100
AcDbLinetypeTableRecord
  2
CONTINUOUS
 70
64
  3
Solid line
 72
65
 73
0
 40
0.0
  0
LTYPE
  5
1F5
100
AcDbSymbolTableRecord
100
AcDbLinetypeTableRecord
  2
CENTER
 70
64
  3
____ _ ____ _ ____ _ ____ _ ____ _ ____ _ ____
 72
65
 73
4
 40
0.6
 49
0.375
 74
0
 49
-0.075
 74
0
 49
0.075
 74
0
 49
-0.075
 74
0
  0
LTYPE
  5
1F6
100
AcDbSymbolTableRecord
100
AcDbLinetypeTableRecord
  2
HIDDEN
 70
64
  3
- - - - - - - - - - - - - - - - - - - -
 72
65
 73
2
 40
0.2
 49
0.1
 74
0
 49
-0.1
 74
0
  0
LTYPE
  5
1F7
100
AcDbSymbolTableRecord
100
AcDbLinetypeTableRecord
  2
PHANTOM
 70
64
  3
_____ _ _ _____ _ _ _____ _ _ _____
 72
65
 73
6
 40
0.8
 49
0.45
 74
0
 49
-0.05
 74
0
 49
0.1
 74
0
 49
-0.05
 74
0
 49
0.1
 74
0
 49
-0.05
 74
0
  0
LTYPE
  5
1F8
100
AcDbSymbolTableRecord
100
AcDbLinetypeTableRecord
  2
DOT
 70
64
  3
. . . . . . . . . . . . . . . . . . . .
 72
65
 73
2
 40
0.2
 49
0.1
 74
0
 49
-0.1
 74
0
  0
LTYPE
  5
1F9
100
AcDbSymbolTableRecord
100
AcDbLinetypeTableRecord
  2
DASHED
 70
64
  3
- - - - - - - - - - - - - - - - - - - -
 72
65
 73
2
 40
0.2
 49
0.1
 74
0
 49
-0.1
 74
0
  0
ENDTAB
  0
TABLE
  2
LAYER
  5
2
100
AcDbSymbolTable
 70
36
  0
LAYER
  5
10
100
AcDbSymbolTableRecord
100
AcDbLayerTableRecord
  2
0
 70
0
 62
7
  6
CONTINUOUS
370
-3
390
F
  0
LAYER
  5
1FA
100
AcDbSymbolTableRecord
100
AcDbLayerTableRecord
  2
DEFAULT_1
 70
0
 62
7
  6
CENTER
370
-3
390
F
  0
LAYER
  5
1FB
100
AcDbSymbolTableRecord
100
AcDbLayerTableRecord
  2
DEFAULT_2
 70
0
 62
8
  6
HIDDEN
370
-3
390
F
  0
LAYER
  5
1FC
100
AcDbSymbolTableRecord
100
AcDbLayerTableRecord
  2
DEFAULT_3
 70
0
 62
7
  6
PHANTOM
370
-3
390
F
  0
LAYER
  5
1FD
100
AcDbSymbolTableRecord
100
AcDbLayerTableRecord
  2
00_COMPONENTS
 70
0
 62
7
  6
CONTINUOUS
370
-3
390
F
  0
LAYER
  5
1FE
100
AcDbSymbolTableRecord
100
AcDbLayerTableRecord
  2
01_1_DEFAULT_DATUMS
 70
0
 62
7
  6
CONTINUOUS
370
-3
390
F
  0
LAYER
  5
1FF
100
AcDbSymbolTableRecord
100
AcDbLayerTableRecord
  2
01_PLANES
 70
0
 62
7
  6
CONTINUOUS
370
-3
390
F
  0
LAYER
  5
200
100
AcDbSymbolTableRecord
100
AcDbLayerTableRecord
  2
02_COORD_SYS
 70
0
 62
7
  6
CONTINUOUS
370
-3
390
F
  0
LAYER
  5
201
100
AcDbSymbolTableRecord
100
AcDbLayerTableRecord
  2
03_AXES
 70
0
 62
7
  6
CONTINUOUS
370
-3
390
F
  0
LAYER
  5
202
100
AcDbSymbolTableRecord
100
AcDbLayerTableRecord
  2
04_POINTS
 70
0
 62
7
  6
CONTINUOUS
370
-3
390
F
  0
LAYER
  5
203
100
AcDbSymbolTableRecord
100
AcDbLayerTableRecord
  2
05_CURVES
 70
0
 62
7
  6
CONTINUOUS
370
-3
390
F
  0
LAYER
  5
204
100
AcDbSymbolTableRecord
100
AcDbLayerTableRecord
  2
06_SURFS
 70
0
 62
7
  6
CONTINUOUS
370
-3
390
F
  0
LAYER
  5
205
100
AcDbSymbolTableRecord
100
AcDbLayerTableRecord
  2
07_COSMETICS
 70
0
 62
7
  6
CONTINUOUS
370
-3
390
F
  0
LAYER
  5
206
100
AcDbSymbolTableRecord
100
AcDbLayerTableRecord
  2
10_NOTES
 70
0
 62
7
  6
CONTINUOUS
370
-3
390
F
  0
LAYER
  5
207
100
AcDbSymbolTableRecord
100
AcDbLayerTableRecord
  2
11_NOTES_PUB
 70
0
 62
7
  6
CONTINUOUS
370
-3
390
F
  0
LAYER
  5
208
100
AcDbSymbolTableRecord
100
AcDbLayerTableRecord
  2
13_REF_GTOL
 70
0
 62
7
  6
CONTINUOUS
370
-3
390
F
  0
LAYER
  5
209
100
AcDbSymbolTableRecord
100
AcDbLayerTableRecord
  2
16_MISC
 70
0
 62
7
  6
CONTINUOUS
370
-3
390
F
  0
LAYER
  5
20A
100
AcDbSymbolTableRecord
100
AcDbLayerTableRecord
  2
17_NO_PRINT
 70
0
 62
7
  6
CONTINUOUS
370
-3
390
F
  0
LAYER
  5
20B
100
AcDbSymbolTableRecord
100
AcDbLayerTableRecord
  2
18_DATUM_CAMS_JOINTS
 70
0
 62
7
  6
CONTINUOUS
370
-3
390
F
  0
LAYER
  5
20C
100
AcDbSymbolTableRecord
100
AcDbLayerTableRecord
  2
19_DATUM_FUNCTIONAL
 70
0
 62
7
  6
CONTINUOUS
370
-3
390
F
  0
LAYER
  5
20D
100
AcDbSymbolTableRecord
100
AcDbLayerTableRecord
  2
20_DATUM_KINEMATIC_SCHEME
 70
0
 62
7
  6
CONTINUOUS
370
-3
390
F
  0
ENDTAB
  0
TABLE
  2
STYLE
  5
3
100
AcDbSymbolTable
 70
1
  0
STYLE
  5
11
100
AcDbSymbolTableRecord
100
AcDbTextStyleTableRecord
  2
STANDARD
 70
0
 40
0.0
 41
0.8
 50
0.0
 71
0
 42
0.2
  3
txt
  4

  0
STYLE
  5
20E
100
AcDbSymbolTableRecord
100
AcDbTextStyleTableRecord
  2
TEXTSTYLE_1
 70
0
 40
0.0
 41
0.8
 50
0.0
 71
0
 42
0.2
  3
gdt
  4

  0
ENDTAB
  0
TABLE
  2
VIEW
  5
6
100
AcDbSymbolTable
 70
0
  0
ENDTAB
  0
TABLE
  2
UCS
  5
7
100
AcDbSymbolTable
 70
0
  0
ENDTAB
  0
TABLE
  2
APPID
  5
9
100
AcDbSymbolTable
 70
1
  0
APPID
  5
20F
100
AcDbSymbolTableRecord
100
AcDbRegAppTableRecord
  2
ACAD
 70
0
  0
ENDTAB
  0
TABLE
  2
BLOCK_RECORD
  5
1
100
AcDbSymbolTable
 70
0
  0
BLOCK_RECORD
  5
210
100
AcDbSymbolTableRecord
100
AcDbBlockTableRecord
  2
*Model_Space
  0
BLOCK_RECORD
  5
211
100
AcDbSymbolTableRecord
100
AcDbBlockTableRecord
  2
*Paper_Space
  0
BLOCK_RECORD
  5
212
100
AcDbSymbolTableRecord
100
AcDbBlockTableRecord
  2
_FILLED
  0
ENDTAB
  0
TABLE
  2
DIMSTYLE
  5
A
100
AcDbSymbolTable
 70
1
100
AcDbDimStyleTable
 71
0
  0
DIMSTYLE
105
213
100
AcDbSymbolTableRecord
100
AcDbDimStyleTableRecord
  2
STANDARD
 70
0
  3

  4

 40
1.0
 41
5.9931192829
 42
1.0
 43
0.38
 44
1.0
 45
0.0
 46
0.0
 47
0.01
 48
0.01
140
8.390366996
141
0.09
142
0.0
143
25.4
144
1.0
145
0.0
146
1.0
147
0.625
 71
1
 72
0
 73
0
 74
0
 75
0
 76
0
 77
1
 78
8
 79
2
170
0
171
1
172
0
173
0
174
0
175
0
176
0
177
0
178
0
270
2
179
2
271
2
272
2
273
2
274
2
275
0
280
0
281
0
282
0
283
1
284
8
285
0
286
0
287
3
288
0
340
11
278
46
341
212
342
212
343
212
344
212
  0
ENDTAB
  0
ENDSEC
  0
SECTION
  2
BLOCKS
  0
BLOCK
  5
20
100
AcDbEntity
  8
0
100
AcDbBlockBegin
  2
*Model_Space
 70
0
 10
0.0
 20
0.0
 30
0.0
  3
*Model_Space
  1

  0
ENDBLK
  5
21
100
AcDbEntity
  8
0
100
AcDbBlockEnd
  0
BLOCK
  5
1C
100
AcDbEntity
  8
0
100
AcDbBlockBegin
  2
*Paper_Space
 70
0
 10
0.0
 20
0.0
 30
0.0
  3
*Paper_Space
  1

  0
ENDBLK
  5
1D
100
AcDbEntity
  8
0
100
AcDbBlockEnd
  0
BLOCK
  5
214
100
AcDbEntity
  8
0
100
AcDbBlockBegin
  2
_FILLED
 70
64
 10
0.0
 20
0.0
  3
_FILLED
  1

  0
SOLID
  5
215
100
AcDbEntity
  8
0
  6
BYBLOCK
 62
0
100
AcDbTrace
 10
0.0
 20
0.0
 11
-1.0
 21
0.25
 12
-1.0
 22
-0.25
 13
-1.0
 23
-0.25
  0
ENDBLK
  5
216
100
AcDbEntity
  8
0
  6
BYBLOCK
 62
0
100
AcDbBlockEnd
  0
ENDSEC
  0
SECTION
  2
ENTITIES
  0
LINE
  5
217
100
AcDbEntity
  8
0
100
AcDbLine
 62
7
  6
CONTINUOUS
 10
55.1968486609
 20
504.6840958606
 11
55.1968486609
 21
204.6840958606
  0
LINE
  5
218
100
AcDbEntity
  8
0
100
AcDbLine
 62
7
  6
CONTINUOUS
 10
57.3968486609
 20
206.8840958606
 11
57.3968486609
 21
502.4840958606
  0
LINE
  5
219
100
AcDbEntity
  8
0
100
AcDbLine
 62
7
  6
CONTINUOUS
 10
72.7706546527
 20
484.9059855509
 11
72.7706546527
 21
480.4859343245
  0
LINE
  5
21A
100
AcDbEntity
  8
0
100
AcDbLine
 62
7
  6
CONTINUOUS
 10
72.7706546527
 20
228.8994135069
 11
72.7706546527
 21
224.4698014042
  0
LINE
  5
21B
100
AcDbEntity
  8
0
100
AcDbLine
 62
7
  6
CONTINUOUS
 10
75.7706546527
 20
484.1654083184
 11
75.7706546527
 21
477.7793551802
  0
LINE
  5
21C
100
AcDbEntity
  8
0
100
AcDbLine
 62
7
  6
CONTINUOUS
 10
75.7706546527
 20
231.5773184636
 11
75.7706546527
 21
225.2579018525
  0
LINE
  5
21D
100
AcDbEntity
  8
0
100
AcDbLine
 62
7
  6
CONTINUOUS
 10
55.1968486609
 20
204.6840958606
 11
455.1968486609
 21
204.6840958606
  0
LINE
  5
21E
100
AcDbEntity
  8
0
100
AcDbLine
 62
7
  6
CONTINUOUS
 10
452.9968486609
 20
206.8840958606
 11
57.3968486609
 21
206.8840958606
  0
LINE
  5
21F
100
AcDbEntity
  8
0
100
AcDbLine
 62
7
  6
CONTINUOUS
 10
74.9694878298
 20
222.2579018524
 11
79.4520081966
 21
222.2579018524
  0
LINE
  5
220
100
AcDbEntity
  8
0
100
AcDbLine
 62
7
  6
CONTINUOUS
 10
430.9694878298
 20
222.2579018524
 11
435.4520081966
 21
222.2579018524
  0
LINE
  5
221
100
AcDbEntity
  8
0
100
AcDbLine
 62
7
  6
CONTINUOUS
 10
434.6781611187
 20
225.2579018525
 11
428.5130412965
 21
225.2579018525
  0
LINE
  5
222
100
AcDbEntity
  8
0
100
AcDbLine
 62
7
  6
CONTINUOUS
 10
81.8822496428
 20
225.2579018525
 11
75.7706546527
 21
225.2579018525
  0
LINE
  5
223
100
AcDbEntity
  8
0
100
AcDbLine
 62
7
  6
CONTINUOUS
 10
431.3963135124
 20
231.6840909526
 11
434.6230426691
 21
231.6840909526
  0
LINE
  5
224
100
AcDbEntity
  8
0
100
AcDbLine
 62
7
  6
CONTINUOUS
 10
434.6781611187
 20
484.1102898688
 11
428.5114476791
 21
484.1102898688
  0
LINE
  5
225
100
AcDbEntity
  8
0
100
AcDbLine
 62
7
  6
CONTINUOUS
 10
81.8806560253
 20
484.1102898688
 11
75.7155362031
 21
484.1102898688
  0
LINE
  5
226
100
AcDbEntity
  8
0
100
AcDbLine
 62
7
  6
CONTINUOUS
 10
435.4242094921
 20
487.1102898688
 11
430.9416891253
 21
487.1102898688
  0
LINE
  5
227
100
AcDbEntity
  8
0
100
AcDbLine
 62
7
  6
CONTINUOUS
 10
79.4242094921
 20
487.1102898688
 11
74.9416891253
 21
487.1102898688
  0
LINE
  5
228
100
AcDbEntity
  8
0
100
AcDbLine
 62
7
  6
CONTINUOUS
 10
431.3961986939
 20
477.684195706
 11
434.6230426691
 21
477.6841318674
  0
LINE
  5
229
100
AcDbEntity
  8
0
100
AcDbLine
 62
7
  6
CONTINUOUS
 10
57.3968486609
 20
502.4840958606
 11
452.9968486609
 21
502.4840958606
  0
LINE
  5
22A
100
AcDbEntity
  8
0
100
AcDbLine
 62
7
  6
CONTINUOUS
 10
455.1968486609
 20
504.6840958606
 11
55.1968486609
 21
504.6840958606
  0
LINE
  5
22B
100
AcDbEntity
  8
0
100
AcDbLine
 62
7
  6
CONTINUOUS
 10
428.8963361066
 20
484.1102898688
 11
428.8962454764
 21
480.1842352523
  0
LINE
  5
22C
100
AcDbEntity
  8
0
100
AcDbLine
 62
7
  6
CONTINUOUS
 10
428.8962453198
 20
225.2579018525
 11
428.8962453198
 21
229.1839983278
  0
LINE
  5
22D
100
AcDbEntity
  8
0
100
AcDbLine
 62
7
  6
CONTINUOUS
 10
434.6230426691
 20
484.1654083184
 11
434.6230426691
 21
477.7908732576
  0
LINE
  5
22E
100
AcDbEntity
  8
0
100
AcDbLine
 62
7
  6
CONTINUOUS
 10
434.6230426691
 20
231.5888365411
 11
434.6230426691
 21
225.2027834028
  0
LINE
  5
22F
100
AcDbEntity
  8
0
100
AcDbLine
 62
7
  6
CONTINUOUS
 10
437.6230426691
 20
224.4622061703
 11
437.6230426691
 21
228.8822573967
  0
LINE
  5
230
100
AcDbEntity
  8
0
100
AcDbLine
 62
7
  6
CONTINUOUS
 10
437.6230426691
 20
480.4687782143
 11
437.6230426691
 21
484.898390317
  0
LINE
  5
231
100
AcDbEntity
  8
0
100
AcDbLine
 62
7
  6
CONTINUOUS
 10
452.9968486609
 20
502.4840958606
 11
452.9968486609
 21
206.8840958606
  0
LINE
  5
232
100
AcDbEntity
  8
0
100
AcDbLine
 62
7
  6
CONTINUOUS
 10
455.1968486609
 20
204.6840958606
 11
455.1968486609
 21
504.6840958606
  0
LINE
  5
233
100
AcDbEntity
  8
0
100
AcDbLine
 62
7
  6
CONTINUOUS
 10
430.8272899251
 20
479.2720006403
 11
431.0590223885
 21
478.9380442317
  0
LINE
  5
234
100
AcDbEntity
  8
0
100
AcDbLine
 62
7
  6
CONTINUOUS
 10
431.0590223885
 20
478.9380442317
 11
431.3900937746
 21
477.85974778
  0
CIRCLE
  5
235
100
AcDbEntity
  8
0
100
AcDbCircle
 62
7
  6
CONTINUOUS
 10
433.1968486609
 20
482.6840958606
 40
5.15
  0
CIRCLE
  5
236
100
AcDbEntity
  8
0
100
AcDbCircle
 62
7
  6
CONTINUOUS
 10
77.1968486609
 20
482.6840958606
 40
5.15
  0
CIRCLE
  5
237
100
AcDbEntity
  8
0
100
AcDbCircle
 62
7
  6
CONTINUOUS
 10
77.1968486609
 20
226.6840958606
 40
5.15
  0
CIRCLE
  5
238
100
AcDbEntity
  8
0
100
AcDbCircle
 62
7
  6
CONTINUOUS
 10
433.1968486609
 20
226.6840958606
 40
5.15
  0
ARC
  5
239
100
AcDbEntity
  8
0
100
AcDbCircle
 62
7
  6
CONTINUOUS
 10
52.779494349
 20
500.8787384846
 40
4.729022472
100
AcDbArc
 50
39.5736490963
 51
41.9457194709
  0
ARC
  5
23A
100
AcDbEntity
  8
0
100
AcDbCircle
 62
7
  6
CONTINUOUS
 10
457.6142029729
 20
208.4894532366
 40
4.729022472
100
AcDbArc
 50
219.5736490963
 51
221.9457194709
  0
ARC
  5
23B
100
AcDbEntity
  8
0
100
AcDbCircle
 62
7
  6
CONTINUOUS
 10
54.7314524587
 20
208.5820661627
 40
2.9887404262
100
AcDbArc
 50
296.2700868825
 51
299.3414020767
  0
ARC
  5
23C
100
AcDbEntity
  8
0
100
AcDbCircle
 62
7
  6
CONTINUOUS
 10
455.6622448632
 20
500.7861255584
 40
2.9887404264
100
AcDbArc
 50
116.2700868826
 51
119.3414020766
  0
ARC
  5
23D
100
AcDbEntity
  8
0
100
AcDbCircle
 62
7
  6
CONTINUOUS
 10
82.8962453169
 20
477.6840958606
 40
2.5000975328
100
AcDbArc
 50
89.9931489193
 51
179.9909200631
  0
ARC
  5
23E
100
AcDbEntity
  8
0
100
AcDbCircle
 62
7
  6
CONTINUOUS
 10
428.8962453169
 20
231.6840958606
 40
2.5000975328
100
AcDbArc
 50
269.9931489193
 51
359.9909200631
  0
SPLINE
  5
23F
100
AcDbEntity
  8
0
100
AcDbSpline
 62
7
  6
CONTINUOUS
 70
0
 71
3
 72
9
 73
5
 74
0
 42
0.0000001
 43
0.0000001
 44
0.0000000001
 40
0.0
 40
0.0
 40
0.0
 40
0.0
 40
0.4998742646
 40
1.0
 40
1.0
 40
1.0
 40
1.0
 10
430.8272353999
 20
479.2719575518
 30
0.0
 10
430.5956290345
 20
479.5536715661
 30
0.0
 10
429.9999848045
 20
480.0210209449
 30
0.0
 10
429.2611246323
 20
480.1830541743
 30
0.0
 10
428.8962454049
 20
480.1841933934
 30
0.0
  0
SPLINE
  5
240
100
AcDbEntity
  8
0
100
AcDbSpline
 62
7
  6
CONTINUOUS
 70
0
 71
3
 72
9
 73
5
 74
0
 42
0.0000001
 43
0.0000001
 44
0.0000000001
 40
0.0
 40
0.0
 40
0.0
 40
0.0
 40
0.2573266953
 40
1.0
 40
1.0
 40
1.0
 40
1.0
 10
452.9968486609
 20
206.8840958606
 30
0.0
 10
453.0785005316
 20
206.8141367014
 30
0.0
 10
453.3958066201
 20
206.5425946859
 30
0.0
 10
453.7214648548
 20
206.2782659399
 30
0.0
 10
453.981229191
 20
206.1084896407
 30
0.0
  0
SPLINE
  5
241
100
AcDbEntity
  8
0
100
AcDbSpline
 62
7
  6
CONTINUOUS
 70
0
 71
3
 72
8
 73
4
 74
0
 42
0.0000001
 43
0.0000001
 44
0.0000000001
 40
0.0
 40
0.0
 40
0.0
 40
0.0
 40
1.0
 40
1.0
 40
1.0
 40
1.0
 10
453.981229191
 20
206.1084896407
 30
0.0
 10
454.0519438302
 20
206.0622720964
 30
0.0
 10
454.1240512651
 20
206.0180731777
 30
0.0
 10
454.1977247446
 20
205.9767350594
 30
0.0
  0
SPLINE
  5
242
100
AcDbEntity
  8
0
100
AcDbSpline
 62
7
  6
CONTINUOUS
 70
0
 71
3
 72
8
 73
4
 74
0
 42
0.0000001
 43
0.0000001
 44
0.0000000001
 40
0.0
 40
0.0
 40
0.0
 40
0.0
 40
1.0
 40
1.0
 40
1.0
 40
1.0
 10
454.1977247446
 20
205.9767350594
 30
0.0
 10
454.2839765034
 20
205.9283392808
 30
0.0
 10
454.3725770607
 20
205.8837487865
 30
0.0
 10
454.4635154781
 20
205.8448679234
 30
0.0
  0
SPLINE
  5
243
100
AcDbEntity
  8
0
100
AcDbSpline
 62
7
  6
CONTINUOUS
 70
0
 71
3
 72
9
 73
5
 74
0
 42
0.0000001
 43
0.0000001
 44
0.0000000001
 40
0.0
 40
0.0
 40
0.0
 40
0.0
 40
0.2604094136
 40
1.0
 40
1.0
 40
1.0
 40
1.0
 10
454.4635154781
 20
205.8448679234
 30
0.0
 10
454.5236575096
 20
205.8191541034
 30
0.0
 10
454.7583508618
 20
205.7298950266
 30
0.0
 10
455.0110816853
 20
205.6840958606
 30
0.0
 10
455.1968486609
 20
205.6840958606
 30
0.0
  0
SPLINE
  5
244
100
AcDbEntity
  8
0
100
AcDbSpline
 62
7
  6
CONTINUOUS
 70
0
 71
3
 72
9
 73
5
 74
0
 42
0.0000001
 43
0.0000001
 44
0.0000000001
 40
0.0
 40
0.0
 40
0.0
 40
0.0
 40
0.2409053429
 40
1.0
 40
1.0
 40
1.0
 40
1.0
 10
55.1968486609
 20
205.6840958606
 30
0.0
 10
55.2682665756
 20
205.6840958606
 30
0.0
 10
55.5648273033
 20
205.7041234991
 30
0.0
 10
55.8524037546
 20
205.8025665122
 30
0.0
 10
56.0542782086
 20
205.9020099374
 30
0.0
  0
SPLINE
  5
245
100
AcDbEntity
  8
0
100
AcDbSpline
 62
7
  6
CONTINUOUS
 70
0
 71
3
 72
8
 73
4
 74
0
 42
0.0000001
 43
0.0000001
 44
0.0000000001
 40
0.0
 40
0.0
 40
0.0
 40
0.0
 40
1.0
 40
1.0
 40
1.0
 40
1.0
 10
56.1959725772
 20
205.9767350594
 30
0.0
 10
56.2696463189
 20
206.0180733248
 30
0.0
 10
56.341754005
 20
206.0622724109
 30
0.0
 10
56.4124688863
 20
206.1084901345
 30
0.0
  0
SPLINE
  5
246
100
AcDbEntity
  8
0
100
AcDbSpline
 62
7
  6
CONTINUOUS
 70
0
 71
3
 72
8
 73
4
 74
0
 42
0.0000001
 43
0.0000001
 44
0.0000000001
 40
0.0
 40
0.0
 40
0.0
 40
0.0
 40
1.0
 40
1.0
 40
1.0
 40
1.0
 10
56.4124688863
 20
206.1084901345
 30
0.0
 10
56.4979524163
 20
206.1643603288
 30
0.0
 10
56.5815028834
 20
206.2232404267
 30
0.0
 10
56.6635154781
 20
206.2840914484
 30
0.0
  0
SPLINE
  5
247
100
AcDbEntity
  8
0
100
AcDbSpline
 62
7
  6
CONTINUOUS
 70
0
 71
3
 72
9
 73
5
 74
0
 42
0.0000001
 43
0.0000001
 44
0.0000000001
 40
0.0
 40
0.0
 40
0.0
 40
0.0
 40
0.2442982105
 40
1.0
 40
1.0
 40
1.0
 40
1.0
 10
56.6635154781
 20
206.2840914484
 30
0.0
 10
56.7254898272
 20
206.3300746597
 30
0.0
 10
56.9756697303
 20
206.5230446219
 30
0.0
 10
57.2155712546
 20
206.7287777421
 30
0.0
 10
57.3968486609
 20
206.8840958606
 30
0.0
  0
SPLINE
  5
248
100
AcDbEntity
  8
0
100
AcDbSpline
 62
7
  6
CONTINUOUS
 70
0
 71
3
 72
9
 73
5
 74
0
 42
0.0000001
 43
0.0000001
 44
0.0000000001
 40
0.0
 40
0.0
 40
0.0
 40
0.0
 40
0.5427599153
 40
1.0
 40
1.0
 40
1.0
 40
1.0
 10
452.9968486609
 20
502.4840958606
 30
0.0
 10
453.1881527918
 20
502.6058838528
 30
0.0
 10
453.5397527624
 20
502.8295695357
 30
0.0
 10
453.8711371253
 20
503.091857991
 30
0.0
 10
453.9964194157
 20
503.2360931391
 30
0.0
  0
SPLINE
  5
249
100
AcDbEntity
  8
0
100
AcDbSpline
 62
7
  6
CONTINUOUS
 70
0
 71
3
 72
9
 73
5
 74
0
 42
0.0000001
 43
0.0000001
 44
0.0000000001
 40
0.0
 40
0.0
 40
0.0
 40
0.0
 40
0.4572400411
 40
1.0
 40
1.0
 40
1.0
 40
1.0
 10
453.9964197977
 20
206.1320981505
 30
0.0
 10
453.8711375293
 20
206.2763334094
 30
0.0
 10
453.5397530241
 20
206.5386220245
 30
0.0
 10
453.1881528947
 20
206.7623078029
 30
0.0
 10
452.9968486609
 20
206.8840958606
 30
0.0
  0
SPLINE
  5
24A
100
AcDbEntity
  8
0
100
AcDbSpline
 62
7
  6
CONTINUOUS
 70
0
 71
3
 72
9
 73
5
 74
0
 42
0.0000001
 43
0.0000001
 44
0.0000000001
 40
0.0
 40
0.0
 40
0.0
 40
0.0
 40
0.2573266953
 40
1.0
 40
1.0
 40
1.0
 40
1.0
 10
57.3968486609
 20
502.4840958606
 30
0.0
 10
57.3151967902
 20
502.5540550198
 30
0.0
 10
56.9978907018
 20
502.8255970353
 30
0.0
 10
56.672232467
 20
503.0899257813
 30
0.0
 10
56.4124681308
 20
503.2597020805
 30
0.0
  0
SPLINE
  5
24B
100
AcDbEntity
  8
0
100
AcDbSpline
 62
7
  6
CONTINUOUS
 70
0
 71
3
 72
8
 73
4
 74
0
 42
0.0000001
 43
0.0000001
 44
0.0000000001
 40
0.0
 40
0.0
 40
0.0
 40
0.0
 40
1.0
 40
1.0
 40
1.0
 40
1.0
 10
56.4124681308
 20
503.2597020805
 30
0.0
 10
56.3417534916
 20
503.3059196248
 30
0.0
 10
56.2696460567
 20
503.3501185435
 30
0.0
 10
56.1959725772
 20
503.3914566618
 30
0.0
  0
SPLINE
  5
24C
100
AcDbEntity
  8
0
100
AcDbSpline
 62
7
  6
CONTINUOUS
 70
0
 71
3
 72
8
 73
4
 74
0
 42
0.0000001
 43
0.0000001
 44
0.0000000001
 40
0.0
 40
0.0
 40
0.0
 40
0.0
 40
1.0
 40
1.0
 40
1.0
 40
1.0
 10
56.1959725772
 20
503.3914566618
 30
0.0
 10
56.1097208184
 20
503.4398524404
 30
0.0
 10
56.0211202612
 20
503.4844429347
 30
0.0
 10
55.9301818438
 20
503.5233237978
 30
0.0
  0
SPLINE
  5
24D
100
AcDbEntity
  8
0
100
AcDbSpline
 62
7
  6
CONTINUOUS
 70
0
 71
3
 72
9
 73
5
 74
0
 42
0.0000001
 43
0.0000001
 44
0.0000000001
 40
0.0
 40
0.0
 40
0.0
 40
0.0
 40
0.2604094136
 40
1.0
 40
1.0
 40
1.0
 40
1.0
 10
55.9301818438
 20
503.5233237978
 30
0.0
 10
55.8700398122
 20
503.5490376178
 30
0.0
 10
55.6353464601
 20
503.6382966946
 30
0.0
 10
55.3826156365
 20
503.6840958606
 30
0.0
 10
55.1968486609
 20
503.6840958606
 30
0.0
  0
SPLINE
  5
24E
100
AcDbEntity
  8
0
100
AcDbSpline
 62
7
  6
CONTINUOUS
 70
0
 71
3
 72
9
 73
5
 74
0
 42
0.0000001
 43
0.0000001
 44
0.0000000001
 40
0.0
 40
0.0
 40
0.0
 40
0.0
 40
0.2409053429
 40
1.0
 40
1.0
 40
1.0
 40
1.0
 10
455.1968486609
 20
503.6840958606
 30
0.0
 10
455.1254307462
 20
503.6840958606
 30
0.0
 10
454.8288700186
 20
503.6640682221
 30
0.0
 10
454.5412935672
 20
503.565625209
 30
0.0
 10
454.3394191133
 20
503.4661817838
 30
0.0
  0
SPLINE
  5
24F
100
AcDbEntity
  8
0
100
AcDbSpline
 62
7
  6
CONTINUOUS
 70
0
 71
3
 72
8
 73
4
 74
0
 42
0.0000001
 43
0.0000001
 44
0.0000000001
 40
0.0
 40
0.0
 40
0.0
 40
0.0
 40
1.0
 40
1.0
 40
1.0
 40
1.0
 10
454.1977247446
 20
503.3914566618
 30
0.0
 10
454.1240510029
 20
503.3501183964
 30
0.0
 10
454.0519433168
 20
503.3059193103
 30
0.0
 10
453.9812284356
 20
503.2597015867
 30
0.0
  0
SPLINE
  5
250
100
AcDbEntity
  8
0
100
AcDbSpline
 62
7
  6
CONTINUOUS
 70
0
 71
3
 72
8
 73
4
 74
0
 42
0.0000001
 43
0.0000001
 44
0.0000000001
 40
0.0
 40
0.0
 40
0.0
 40
0.0
 40
1.0
 40
1.0
 40
1.0
 40
1.0
 10
453.9812284356
 20
503.2597015867
 30
0.0
 10
453.8957449056
 20
503.2038313924
 30
0.0
 10
453.8121944384
 20
503.1449512945
 30
0.0
 10
453.7301818438
 20
503.0841002728
 30
0.0
  0
SPLINE
  5
251
100
AcDbEntity
  8
0
100
AcDbSpline
 62
7
  6
CONTINUOUS
 70
0
 71
3
 72
9
 73
5
 74
0
 42
0.0000001
 43
0.0000001
 44
0.0000000001
 40
0.0
 40
0.0
 40
0.0
 40
0.0
 40
0.2442982105
 40
1.0
 40
1.0
 40
1.0
 40
1.0
 10
453.7301818438
 20
503.0841002728
 30
0.0
 10
453.6682074947
 20
503.0381170615
 30
0.0
 10
453.4180275916
 20
502.8451470993
 30
0.0
 10
453.1781260673
 20
502.6394139792
 30
0.0
 10
452.9968486609
 20
502.4840958606
 30
0.0
  0
SPLINE
  5
252
100
AcDbEntity
  8
0
100
AcDbSpline
 62
7
  6
CONTINUOUS
 70
0
 71
3
 72
9
 73
5
 74
0
 42
0.0000001
 43
0.0000001
 44
0.0000000001
 40
0.0
 40
0.0
 40
0.0
 40
0.0
 40
0.5427599153
 40
1.0
 40
1.0
 40
1.0
 40
1.0
 10
57.3968486609
 20
206.8840958606
 30
0.0
 10
57.2055445301
 20
206.7623078684
 30
0.0
 10
56.8539445595
 20
206.5386221855
 30
0.0
 10
56.5225601966
 20
206.2763337303
 30
0.0
 10
56.3972779061
 20
206.1320985821
 30
0.0
  0
SPLINE
  5
253
100
AcDbEntity
  8
0
100
AcDbSpline
 62
7
  6
CONTINUOUS
 70
0
 71
3
 72
9
 73
5
 74
0
 42
0.0000001
 43
0.0000001
 44
0.0000000001
 40
0.0
 40
0.0
 40
0.0
 40
0.0
 40
0.4572400411
 40
1.0
 40
1.0
 40
1.0
 40
1.0
 10
56.3972775241
 20
503.2360935707
 30
0.0
 10
56.5225597926
 20
503.0918583118
 30
0.0
 10
56.8539442977
 20
502.8295696967
 30
0.0
 10
57.2055444272
 20
502.6058839183
 30
0.0
 10
57.3968486609
 20
502.4840958606
 30
0.0
  0
SPLINE
  5
254
100
AcDbEntity
  8
0
100
AcDbSpline
 62
7
  6
CONTINUOUS
 70
0
 71
3
 72
9
 73
5
 74
0
 42
0.0000001
 43
0.0000001
 44
0.0000000001
 40
0.0
 40
0.0
 40
0.0
 40
0.0
 40
0.5489968274
 40
1.0
 40
1.0
 40
1.0
 40
1.0
 10
452.9968486609
 20
206.8840958606
 30
0.0
 10
453.3208219156
 20
206.7715970717
 30
0.0
 10
453.9099869329
 20
206.5664170329
 30
0.0
 10
454.4901655476
 20
206.3269362254
 30
0.0
 10
454.7352762785
 20
206.1880290001
 30
0.0
  0
SPLINE
  5
255
100
AcDbEntity
  8
0
100
AcDbSpline
 62
7
  6
CONTINUOUS
 70
0
 71
3
 72
9
 73
5
 74
0
 42
0.0000001
 43
0.0000001
 44
0.0000000001
 40
0.0
 40
0.0
 40
0.0
 40
0.0
 40
0.3371592104
 40
1.0
 40
1.0
 40
1.0
 40
1.0
 10
454.7352762785
 20
206.1880290001
 30
0.0
 10
454.80327036
 20
206.1494959291
 30
0.0
 10
454.9934857596
 20
206.0331898415
 30
0.0
 10
455.1968486609
 20
205.8377426366
 30
0.0
 10
455.1968486609
 20
205.6840958606
 30
0.0
  0
SPLINE
  5
256
100
AcDbEntity
  8
0
100
AcDbSpline
 62
7
  6
CONTINUOUS
 70
0
 71
3
 72
9
 73
5
 74
0
 42
0.0000001
 43
0.0000001
 44
0.0000000001
 40
0.0
 40
0.0
 40
0.0
 40
0.0
 40
0.3732323072
 40
1.0
 40
1.0
 40
1.0
 40
1.0
 10
455.1968486609
 20
503.6840958606
 30
0.0
 10
455.1968486609
 20
503.5603170389
 30
0.0
 10
454.9517513485
 20
503.2693344256
 30
0.0
 10
454.6600375386
 20
503.1335081571
 30
0.0
 10
454.4717611297
 20
503.045426778
 30
0.0
  0
SPLINE
  5
257
100
AcDbEntity
  8
0
100
AcDbSpline
 62
7
  6
CONTINUOUS
 70
0
 71
3
 72
9
 73
5
 74
0
 42
0.0000001
 43
0.0000001
 44
0.0000000001
 40
0.0
 40
0.0
 40
0.0
 40
0.0
 40
0.2230001671
 40
1.0
 40
1.0
 40
1.0
 40
1.0
 10
454.4717611297
 20
503.045426778
 30
0.0
 10
454.365474498
 20
502.9957026879
 30
0.0
 10
453.8814435773
 20
502.7886025431
 30
0.0
 10
453.3830827885
 20
502.6182145602
 30
0.0
 10
452.9968486609
 20
502.4840958606
 30
0.0
  0
SPLINE
  5
258
100
AcDbEntity
  8
0
100
AcDbSpline
 62
7
  6
CONTINUOUS
 70
0
 71
3
 72
9
 73
5
 74
0
 42
0.0000001
 43
0.0000001
 44
0.0000000001
 40
0.0
 40
0.0
 40
0.0
 40
0.0
 40
0.2670491768
 40
1.0
 40
1.0
 40
1.0
 40
1.0
 10
452.9968486609
 20
502.4840958606
 30
0.0
 10
453.0879621986
 20
502.627216671
 30
0.0
 10
453.4296220096
 20
503.1621011027
 30
0.0
 10
453.7852769441
 20
503.6936453258
 30
0.0
 10
454.0968391583
 20
504.0397202214
 30
0.0
  0
SPLINE
  5
259
100
AcDbEntity
  8
0
100
AcDbSpline
 62
7
  6
CONTINUOUS
 70
0
 71
3
 72
9
 73
5
 74
0
 42
0.0000001
 43
0.0000001
 44
0.0000000001
 40
0.0
 40
0.0
 40
0.0
 40
0.0
 40
0.2999992115
 40
1.0
 40
1.0
 40
1.0
 40
1.0
 10
454.0968391583
 20
504.0397202214
 30
0.0
 10
454.1833101978
 20
504.1357699174
 30
0.0
 10
454.4793213046
 20
504.4406317481
 30
0.0
 10
454.8952892695
 20
504.6840958606
 30
0.0
 10
455.1968486609
 20
504.6840958606
 30
0.0
  0
SPLINE
  5
25A
100
AcDbEntity
  8
0
100
AcDbSpline
 62
7
  6
CONTINUOUS
 70
0
 71
3
 72
9
 73
5
 74
0
 42
0.0000001
 43
0.0000001
 44
0.0000000001
 40
0.0
 40
0.0
 40
0.0
 40
0.0
 40
0.2138219081
 40
1.0
 40
1.0
 40
1.0
 40
1.0
 10
55.1968486609
 20
504.6840958606
 30
0.0
 10
55.2894640553
 20
504.6840958606
 30
0.0
 10
55.7247233144
 20
504.6111834378
 30
0.0
 10
56.068998402
 20
504.2928172589
 30
0.0
 10
56.2968391584
 20
504.0397413369
 30
0.0
  0
SPLINE
  5
25B
100
AcDbEntity
  8
0
100
AcDbSpline
 62
7
  6
CONTINUOUS
 70
0
 71
3
 72
9
 73
5
 74
0
 42
0.0000001
 43
0.0000001
 44
0.0000000001
 40
0.0
 40
0.0
 40
0.0
 40
0.0
 40
0.2315594451
 40
1.0
 40
1.0
 40
1.0
 40
1.0
 10
56.4246547529
 20
503.8914547292
 30
0.0
 10
56.5088940312
 20
503.7897135365
 30
0.0
 10
56.8566280346
 20
503.3370045707
 30
0.0
 10
57.1614452947
 20
502.8538666002
 30
0.0
 10
57.3968486609
 20
502.4840958606
 30
0.0
  0
SPLINE
  5
25C
100
AcDbEntity
  8
0
100
AcDbSpline
 62
7
  6
CONTINUOUS
 70
0
 71
3
 72
9
 73
5
 74
0
 42
0.0000001
 43
0.0000001
 44
0.0000000001
 40
0.0
 40
0.0
 40
0.0
 40
0.0
 40
0.2670491768
 40
1.0
 40
1.0
 40
1.0
 40
1.0
 10
57.3968486609
 20
206.8840958606
 30
0.0
 10
57.3057351232
 20
206.7409750503
 30
0.0
 10
56.9640753123
 20
206.2060906185
 30
0.0
 10
56.6084203777
 20
205.6745463954
 30
0.0
 10
56.2968581635
 20
205.3284714998
 30
0.0
  0
SPLINE
  5
25D
100
AcDbEntity
  8
0
100
AcDbSpline
 62
7
  6
CONTINUOUS
 70
0
 71
3
 72
9
 73
5
 74
0
 42
0.0000001
 43
0.0000001
 44
0.0000000001
 40
0.0
 40
0.0
 40
0.0
 40
0.0
 40
0.2999992115
 40
1.0
 40
1.0
 40
1.0
 40
1.0
 10
56.2968581635
 20
205.3284714998
 30
0.0
 10
56.210387124
 20
205.2324218038
 30
0.0
 10
55.9143760172
 20
204.9275599731
 30
0.0
 10
55.4984080524
 20
204.6840958606
 30
0.0
 10
55.1968486609
 20
204.6840958606
 30
0.0
  0
SPLINE
  5
25E
100
AcDbEntity
  8
0
100
AcDbSpline
 62
7
  6
CONTINUOUS
 70
0
 71
3
 72
9
 73
5
 74
0
 42
0.0000001
 43
0.0000001
 44
0.0000000001
 40
0.0
 40
0.0
 40
0.0
 40
0.0
 40
0.2138219081
 40
1.0
 40
1.0
 40
1.0
 40
1.0
 10
455.1968486609
 20
204.6840958606
 30
0.0
 10
455.1042332665
 20
204.6840958606
 30
0.0
 10
454.6689740075
 20
204.7570082834
 30
0.0
 10
454.3246989198
 20
205.0753744624
 30
0.0
 10
454.0968581635
 20
205.3284503843
 30
0.0
  0
SPLINE
  5
25F
100
AcDbEntity
  8
0
100
AcDbSpline
 62
7
  6
CONTINUOUS
 70
0
 71
3
 72
9
 73
5
 74
0
 42
0.0000001
 43
0.0000001
 44
0.0000000001
 40
0.0
 40
0.0
 40
0.0
 40
0.0
 40
0.2315594451
 40
1.0
 40
1.0
 40
1.0
 40
1.0
 10
453.9690425689
 20
205.4767369921
 30
0.0
 10
453.8848032907
 20
205.5784781847
 30
0.0
 10
453.5370692872
 20
206.0311871505
 30
0.0
 10
453.2322520272
 20
206.514325121
 30
0.0
 10
452.9968486609
 20
206.8840958606
 30
0.0
  0
SPLINE
  5
260
100
AcDbEntity
  8
0
100
AcDbSpline
 62
7
  6
CONTINUOUS
 70
0
 71
3
 72
9
 73
5
 74
0
 42
0.0000001
 43
0.0000001
 44
0.0000000001
 40
0.0
 40
0.0
 40
0.0
 40
0.0
 40
0.3732323072
 40
1.0
 40
1.0
 40
1.0
 40
1.0
 10
55.1968486609
 20
205.6840958606
 30
0.0
 10
55.1968486609
 20
205.8078746823
 30
0.0
 10
55.4419459733
 20
206.0988572956
 30
0.0
 10
55.7336597832
 20
206.2346835641
 30
0.0
 10
55.9219361921
 20
206.3227649432
 30
0.0
  0
SPLINE
  5
261
100
AcDbEntity
  8
0
100
AcDbSpline
 62
7
  6
CONTINUOUS
 70
0
 71
3
 72
9
 73
5
 74
0
 42
0.0000001
 43
0.0000001
 44
0.0000000001
 40
0.0
 40
0.0
 40
0.0
 40
0.0
 40
0.2230001671
 40
1.0
 40
1.0
 40
1.0
 40
1.0
 10
55.9219361921
 20
206.3227649432
 30
0.0
 10
56.0282228238
 20
206.3724890333
 30
0.0
 10
56.5122537445
 20
206.5795891781
 30
0.0
 10
57.0106145334
 20
206.749977161
 30
0.0
 10
57.3968486609
 20
206.8840958606
 30
0.0
  0
SPLINE
  5
262
100
AcDbEntity
  8
0
100
AcDbSpline
 62
7
  6
CONTINUOUS
 70
0
 71
3
 72
9
 73
5
 74
0
 42
0.0000001
 43
0.0000001
 44
0.0000000001
 40
0.0
 40
0.0
 40
0.0
 40
0.0
 40
0.5489968274
 40
1.0
 40
1.0
 40
1.0
 40
1.0
 10
57.3968486609
 20
502.4840958606
 30
0.0
 10
57.0728754062
 20
502.5965946495
 30
0.0
 10
56.483710389
 20
502.8017746884
 30
0.0
 10
55.9035317743
 20
503.0412554958
 30
0.0
 10
55.6584210434
 20
503.1801627211
 30
0.0
  0
SPLINE
  5
263
100
AcDbEntity
  8
0
100
AcDbSpline
 62
7
  6
CONTINUOUS
 70
0
 71
3
 72
9
 73
5
 74
0
 42
0.0000001
 43
0.0000001
 44
0.0000000001
 40
0.0
 40
0.0
 40
0.0
 40
0.0
 40
0.3371592104
 40
1.0
 40
1.0
 40
1.0
 40
1.0
 10
55.6584210434
 20
503.1801627211
 30
0.0
 10
55.5904269619
 20
503.2186957921
 30
0.0
 10
55.4002115623
 20
503.3350018797
 30
0.0
 10
55.1968486609
 20
503.5304490846
 30
0.0
 10
55.1968486609
 20
503.6840958606
 30
0.0
  0
ENDSEC
  0
SECTION
  2
OBJECTS
  0
DICTIONARY
  5
C
100
AcDbDictionary
280
0
281
1
  3
ACAD_GROUP
350
D
  3
ACAD_MLINESTYLE
350
17
  3
ACAD_LAYOUT
350
1A
  3
ACAD_PLOTSETTINGS
350
19
  3
ACAD_PLOTSTYLENAME
350
E
  0
DICTIONARY
  5
D
102
{ACAD_REACTORS
330
C
102
}
100
AcDbDictionary
280
0
281
1
  0
ACDBDICTIONARYWDFLT
  5
E
102
{ACAD_REACTORS
330
C
102
}
100
AcDbDictionary
281
1
  3
Normal
350
F
100
AcDbDictionaryWithDefault
340
F
  0
DICTIONARY
  5
17
102
{ACAD_REACTORS
330
C
102
}
100
AcDbDictionary
280
0
281
1
  3
Standard
350
18
  0
DICTIONARY
  5
19
102
{ACAD_REACTORS
330
C
102
}
100
AcDbDictionary
281
1
  0
DICTIONARY
  5
1A
102
{ACAD_REACTORS
330
C
102
}
100
AcDbDictionary
281
1
  3
Model
350
264
  3
Layout1
350
265
  0
ACDBPLACEHOLDER
  5
F
102
{ACAD_REACTORS
330
E
102
}
  0
MLINESTYLE
  5
18
102
{ACAD_REACTORS
330
17
102
}
100
AcDbMlineStyle
  2
STANDARD
 70
0
  3

 62
256
 51
90.0
 52
90.0
 71
2
 49
0.5
 62
256
  6
BYLAYER
 49
-0.5
 62
256
  6
BYLAYER
  0
LAYOUT
  5
264
102
{ACAD_REACTORS
330
1A
102
}
100
AcDbPlotSettings
  1

  2
none_device
  4

  6

 40
0.0
 41
0.0
 42
0.0
 43
0.0
 44
210.0
 45
297.0
 46
0.0
 47
0.0
 48
0.0
 49
0.0
140
0.0
141
0.0
142
1.0
143
1.0
 70
1024
 72
1
 73
0
 74
0
  7

 75
0
147
1.0
148
0.0
149
0.0
100
AcDbLayout
  1
Model
 70
0
 71
0
 10
0.0
 20
0.0
 11
210.0
 21
297.0
 12
0.0
 22
0.0
 32
0.0
 14
0.0
 24
0.0
 34
0.0
 15
0.0
 25
0.0
 35
0.0
146
0.0
 13
0.0
 23
0.0
 33
0.0
 16
1.0
 26
0.0
 36
0.0
 17
0.0
 27
1.0
 37
0.0
 76
0
330
210
345
0
346
0
  0
LAYOUT
  5
265
102
{ACAD_REACTORS
330
1A
102
}
100
AcDbPlotSettings
  1

  2
none_device
  4

  6

 40
0.0
 41
0.0
 42
0.0
 43
0.0
 44
210.0
 45
297.0
 46
0.0
 47
0.0
 48
0.0
 49
0.0
140
0.0
141
0.0
142
1.0
143
1.0
 70
0
 72
1
 73
0
 74
0
  7

 75
0
147
1.0
148
0.0
149
0.0
100
AcDbLayout
  1
Layout1
 70
0
 71
1
 10
0.0
 20
0.0
 11
210.0
 21
297.0
 12
0.0
 22
0.0
 32
0.0
 14
0.0
 24
0.0
 34
0.0
 15
0.0
 25
0.0
 35
0.0
146
0.0
 13
0.0
 23
0.0
 33
0.0
 16
1.0
 26
0.0
 36
0.0
 17
0.0
 27
1.0
 37
0.0
 76
0
330
211
345
0
346
0
  0
ENDSEC
  0
EOF
