999
DXF file: C:\Users\sesa63760\Dev\_Creo\CAD\MCADID0004925_3D-CAD\drw0001_4.dxf
999
Pro/ENGINEER 2019471 by Parametric Technology Corporation
  0
SECTION
  2
HEADER
  9
$ACADVER
  1
AC1024
  9
$DWGCODEPAGE
  3
ANSI_1252
  9
$EXTMAX
 10
182.5159788572
 20
258.1297415266
 30
0.0
  9
$EXTMIN
 10
0.0
 20
0.0
 30
0.0
  9
$LIMMIN
 10
0.0
 20
0.0
  9
$LIMMAX
 10
182.5159788572
 20
258.1297415266
  9
$VIEWCTR
 10
91.2579894286
 20
129.0648707633
  9
$VIEWSIZE
 40
258.1297415266
  9
$CLAYER
  8
0
  9
$LTSCALE
 40
16.8262350032
  9
$CELTYPE
  6
BYLAYER
  9
$DIMSCALE
 40
1.0
  9
$DIMASZ
 40
2.1728092721
  9
$DIMEXO
 40
1.0
  9
$DIMDLI
 40
11.6253987295
  9
$DIMEXE
 40
1.0
  9
$DIMCEN
 40
2.7533839096
  9
$DIMLFAC
 40
1.0
  9
$DIMBLK
  1
_FILLED
  9
$DIMALT
 70
0
  9
$DIMALTF
 40
0.0393700787
  9
$DIMTXT
 40
3.041932981
  9
$DIMTOL
 70
1
  9
$DIMLIM
 70
0
  9
$DIMTFAC
 40
1.0
  9
$DIMTP
 40
0.01
  9
$DIMTM
 40
0.01
  9
$DIMGAP
 40
0.625
  9
$DIMDSEP
 70
46
  9
$AUNITS
 70
0
  9
$PDMODE
 70
3
  9
$PDSIZE
 40
0.3125
  9
$HANDSEED
  5
3A4
  9
$TILEMODE
 70
1
  9
$MEASUREMENT
 70
1
  9
$INSUNITS
 70
4
  0
ENDSEC
  0
SECTION
  2
CLASSES
  0
CLASS
  1
ACDBDICTIONARYWDFLT
  2
AcDbDictionaryWithDefault
  3
AutoCAD 2000
 90
0
 91
1
280
0
281
0
  0
CLASS
  1
ACDBPLACEHOLDER
  2
AcDbPlaceHolder
  3
AutoCAD 2000
 90
0
 91
1
280
0
281
0
  0
CLASS
  1
LAYOUT
  2
AcDbLayout
  3
AutoCAD 2000
 90
0
 91
0
280
0
281
0
  0
ENDSEC
  0
SECTION
  2
TABLES
  0
TABLE
  2
VPORT
  5
8
100
AcDbSymbolTable
 70
2
  0
VPORT
  5
1F4
100
AcDbSymbolTableRecord
100
AcDbViewportTableRecord
  2
*ACTIVE
 70
0
 10
0.0
 20
0.0
 11
1.0
 21
1.0
 12
91.2579894286
 22
129.0648707633
 13
0.0
 23
0.0
 14
1.0
 24
1.0
 15
0.0
 25
0.0
 16
0.0
 26
0.0
 36
1.0
 17
0.0
 27
0.0
 37
0.0
 40
258.1297415266
 41
0.7070707071
 42
50.0
 43
0.0
 44
0.0
 50
0.0
 51
0.0
 71
0
 72
100
 73
1
 74
1
 75
0
 76
0
 77
0
 78
0
  0
ENDTAB
  0
TABLE
  2
LTYPE
  5
5
100
AcDbSymbolTable
 70
6
  0
LTYPE
  5
14
100
AcDbSymbolTableRecord
100
AcDbLinetypeTableRecord
  2
BYBLOCK
 70
0
  3

 72
65
 73
0
 40
0.0
  0
LTYPE
  5
15
100
AcDbSymbolTableRecord
100
AcDbLinetypeTableRecord
  2
BYLAYER
 70
0
  3

 72
65
 73
0
 40
0.0
  0
LTYPE
  5
16
100
AcDbSymbolTableRecord
100
AcDbLinetypeTableRecord
  2
CONTINUOUS
 70
64
  3
Solid line
 72
65
 73
0
 40
0.0
  0
LTYPE
  5
1F5
100
AcDbSymbolTableRecord
100
AcDbLinetypeTableRecord
  2
CENTER
 70
64
  3
____ _ ____ _ ____ _ ____ _ ____ _ ____ _ ____
 72
65
 73
4
 40
0.6
 49
0.375
 74
0
 49
-0.075
 74
0
 49
0.075
 74
0
 49
-0.075
 74
0
  0
LTYPE
  5
1F6
100
AcDbSymbolTableRecord
100
AcDbLinetypeTableRecord
  2
HIDDEN
 70
64
  3
- - - - - - - - - - - - - - - - - - - -
 72
65
 73
2
 40
0.2
 49
0.1
 74
0
 49
-0.1
 74
0
  0
LTYPE
  5
1F7
100
AcDbSymbolTableRecord
100
AcDbLinetypeTableRecord
  2
PHANTOM
 70
64
  3
_____ _ _ _____ _ _ _____ _ _ _____
 72
65
 73
6
 40
0.8
 49
0.45
 74
0
 49
-0.05
 74
0
 49
0.1
 74
0
 49
-0.05
 74
0
 49
0.1
 74
0
 49
-0.05
 74
0
  0
LTYPE
  5
1F8
100
AcDbSymbolTableRecord
100
AcDbLinetypeTableRecord
  2
DOT
 70
64
  3
. . . . . . . . . . . . . . . . . . . .
 72
65
 73
2
 40
0.2
 49
0.1
 74
0
 49
-0.1
 74
0
  0
LTYPE
  5
1F9
100
AcDbSymbolTableRecord
100
AcDbLinetypeTableRecord
  2
DASHED
 70
64
  3
- - - - - - - - - - - - - - - - - - - -
 72
65
 73
2
 40
0.2
 49
0.1
 74
0
 49
-0.1
 74
0
  0
ENDTAB
  0
TABLE
  2
LAYER
  5
2
100
AcDbSymbolTable
 70
36
  0
LAYER
  5
10
100
AcDbSymbolTableRecord
100
AcDbLayerTableRecord
  2
0
 70
0
 62
7
  6
CONTINUOUS
370
-3
390
F
  0
LAYER
  5
1FA
100
AcDbSymbolTableRecord
100
AcDbLayerTableRecord
  2
DEFAULT_1
 70
0
 62
7
  6
CENTER
370
-3
390
F
  0
LAYER
  5
1FB
100
AcDbSymbolTableRecord
100
AcDbLayerTableRecord
  2
DEFAULT_2
 70
0
 62
7
  6
HIDDEN
370
-3
390
F
  0
LAYER
  5
1FC
100
AcDbSymbolTableRecord
100
AcDbLayerTableRecord
  2
DEFAULT_3
 70
0
 62
7
  6
PHANTOM
370
-3
390
F
  0
LAYER
  5
1FD
100
AcDbSymbolTableRecord
100
AcDbLayerTableRecord
  2
00_COMPONENTS
 70
0
 62
7
  6
CONTINUOUS
370
-3
390
F
  0
LAYER
  5
1FE
100
AcDbSymbolTableRecord
100
AcDbLayerTableRecord
  2
01_1_DEFAULT_DATUMS
 70
0
 62
7
  6
CONTINUOUS
370
-3
390
F
  0
LAYER
  5
1FF
100
AcDbSymbolTableRecord
100
AcDbLayerTableRecord
  2
01_PLANES
 70
0
 62
7
  6
CONTINUOUS
370
-3
390
F
  0
LAYER
  5
200
100
AcDbSymbolTableRecord
100
AcDbLayerTableRecord
  2
02_COORD_SYS
 70
0
 62
7
  6
CONTINUOUS
370
-3
390
F
  0
LAYER
  5
201
100
AcDbSymbolTableRecord
100
AcDbLayerTableRecord
  2
03_AXES
 70
0
 62
7
  6
CONTINUOUS
370
-3
390
F
  0
LAYER
  5
202
100
AcDbSymbolTableRecord
100
AcDbLayerTableRecord
  2
04_POINTS
 70
0
 62
7
  6
CONTINUOUS
370
-3
390
F
  0
LAYER
  5
203
100
AcDbSymbolTableRecord
100
AcDbLayerTableRecord
  2
05_CURVES
 70
0
 62
7
  6
CONTINUOUS
370
-3
390
F
  0
LAYER
  5
204
100
AcDbSymbolTableRecord
100
AcDbLayerTableRecord
  2
06_SURFS
 70
0
 62
7
  6
CONTINUOUS
370
-3
390
F
  0
LAYER
  5
205
100
AcDbSymbolTableRecord
100
AcDbLayerTableRecord
  2
07_COSMETICS
 70
0
 62
7
  6
CONTINUOUS
370
-3
390
F
  0
LAYER
  5
206
100
AcDbSymbolTableRecord
100
AcDbLayerTableRecord
  2
10_NOTES
 70
0
 62
7
  6
CONTINUOUS
370
-3
390
F
  0
LAYER
  5
207
100
AcDbSymbolTableRecord
100
AcDbLayerTableRecord
  2
11_NOTES_PUB
 70
0
 62
7
  6
CONTINUOUS
370
-3
390
F
  0
LAYER
  5
208
100
AcDbSymbolTableRecord
100
AcDbLayerTableRecord
  2
13_REF_GTOL
 70
0
 62
7
  6
CONTINUOUS
370
-3
390
F
  0
LAYER
  5
209
100
AcDbSymbolTableRecord
100
AcDbLayerTableRecord
  2
16_MISC
 70
0
 62
7
  6
CONTINUOUS
370
-3
390
F
  0
LAYER
  5
20A
100
AcDbSymbolTableRecord
100
AcDbLayerTableRecord
  2
17_NO_PRINT
 70
0
 62
7
  6
CONTINUOUS
370
-3
390
F
  0
LAYER
  5
20B
100
AcDbSymbolTableRecord
100
AcDbLayerTableRecord
  2
18_DATUM_CAMS_JOINTS
 70
0
 62
7
  6
CONTINUOUS
370
-3
390
F
  0
LAYER
  5
20C
100
AcDbSymbolTableRecord
100
AcDbLayerTableRecord
  2
19_DATUM_FUNCTIONAL
 70
0
 62
7
  6
CONTINUOUS
370
-3
390
F
  0
LAYER
  5
20D
100
AcDbSymbolTableRecord
100
AcDbLayerTableRecord
  2
20_DATUM_KINEMATIC_SCHEME
 70
0
 62
7
  6
CONTINUOUS
370
-3
390
F
  0
LAYER
  5
20E
100
AcDbSymbolTableRecord
100
AcDbLayerTableRecord
  2
INTFCLR_4
 70
0
 62
7
  6
CONTINUOUS
370
-3
390
F
  0
ENDTAB
  0
TABLE
  2
STYLE
  5
3
100
AcDbSymbolTable
 70
1
  0
STYLE
  5
11
100
AcDbSymbolTableRecord
100
AcDbTextStyleTableRecord
  2
STANDARD
 70
0
 40
0.0
 41
1.0
 50
0.0
 71
0
 42
0.2
  3
ARIAL.TTF
  4

  0
STYLE
  5
20F
100
AcDbSymbolTableRecord
100
AcDbTextStyleTableRecord
  2
TEXTSTYLE_1
 70
0
 40
0.0
 41
0.8
 50
0.0
 71
0
 42
0.2
  3
gdt
  4

  0
ENDTAB
  0
TABLE
  2
VIEW
  5
6
100
AcDbSymbolTable
 70
0
  0
ENDTAB
  0
TABLE
  2
UCS
  5
7
100
AcDbSymbolTable
 70
0
  0
ENDTAB
  0
TABLE
  2
APPID
  5
9
100
AcDbSymbolTable
 70
1
  0
APPID
  5
210
100
AcDbSymbolTableRecord
100
AcDbRegAppTableRecord
  2
ACAD
 70
0
  0
ENDTAB
  0
TABLE
  2
BLOCK_RECORD
  5
1
100
AcDbSymbolTable
 70
0
  0
BLOCK_RECORD
  5
211
100
AcDbSymbolTableRecord
100
AcDbBlockTableRecord
  2
*Model_Space
  0
BLOCK_RECORD
  5
212
100
AcDbSymbolTableRecord
100
AcDbBlockTableRecord
  2
*Paper_Space
  0
BLOCK_RECORD
  5
213
100
AcDbSymbolTableRecord
100
AcDbBlockTableRecord
  2
_FILLED
  0
ENDTAB
  0
TABLE
  2
DIMSTYLE
  5
A
100
AcDbSymbolTable
 70
1
100
AcDbDimStyleTable
 71
0
  0
DIMSTYLE
105
214
100
AcDbSymbolTableRecord
100
AcDbDimStyleTableRecord
  2
STANDARD
 70
0
  3

  4

 40
1.0
 41
2.1728092721
 42
1.0
 43
0.38
 44
1.0
 45
0.0
 46
0.0
 47
0.01
 48
0.01
140
3.041932981
141
0.09
142
0.0
143
25.4
144
1.0
145
0.0
146
1.0
147
0.625
 71
1
 72
0
 73
0
 74
0
 75
0
 76
0
 77
1
 78
8
 79
2
170
0
171
1
172
0
173
0
174
0
175
0
176
0
177
0
178
0
270
2
179
2
271
2
272
2
273
2
274
2
275
0
280
0
281
0
282
0
283
1
284
8
285
0
286
0
287
3
288
0
340
11
278
46
341
213
342
213
343
213
344
213
  0
ENDTAB
  0
ENDSEC
  0
SECTION
  2
BLOCKS
  0
BLOCK
  5
20
100
AcDbEntity
  8
0
100
AcDbBlockBegin
  2
*Model_Space
 70
0
 10
0.0
 20
0.0
 30
0.0
  3
*Model_Space
  1

  0
ENDBLK
  5
21
100
AcDbEntity
  8
0
100
AcDbBlockEnd
  0
BLOCK
  5
1C
100
AcDbEntity
  8
0
100
AcDbBlockBegin
  2
*Paper_Space
 70
0
 10
0.0
 20
0.0
 30
0.0
  3
*Paper_Space
  1

  0
ENDBLK
  5
1D
100
AcDbEntity
  8
0
100
AcDbBlockEnd
  0
BLOCK
  5
215
100
AcDbEntity
  8
0
100
AcDbBlockBegin
  2
_FILLED
 70
64
 10
0.0
 20
0.0
  3
_FILLED
  1

  0
SOLID
  5
216
100
AcDbEntity
  8
0
  6
BYBLOCK
 62
0
100
AcDbTrace
 10
0.0
 20
0.0
 11
-1.0
 21
0.25
 12
-1.0
 22
-0.25
 13
-1.0
 23
-0.25
  0
ENDBLK
  5
217
100
AcDbEntity
  8
0
  6
BYBLOCK
 62
0
100
AcDbBlockEnd
  0
ENDSEC
  0
SECTION
  2
ENTITIES
  0
LINE
  5
218
100
AcDbEntity
  8
0
100
AcDbLine
 62
7
  6
BYLAYER
 10
20.3276014571
 20
162.4600038238
 11
20.3276014571
 21
170.4600038238
  0
LINE
  5
219
100
AcDbEntity
  8
0
100
AcDbLine
 62
7
  6
BYLAYER
 10
21.3276014571
 20
130.7871519297
 11
21.3276014571
 21
119.8328668123
  0
LINE
  5
21A
100
AcDbEntity
  8
0
100
AcDbLine
 62
7
  6
BYLAYER
 10
23.9276014571
 20
176.3600038233
 11
23.9276014571
 21
132.7901948027
  0
LINE
  5
21B
100
AcDbEntity
  8
0
100
AcDbLine
 62
7
  6
BYLAYER
 10
23.9276014571
 20
117.8298128414
 11
23.9276014571
 21
84.260003824
  0
LINE
  5
21C
100
AcDbEntity
  8
0
100
AcDbLine
 62
7
  6
BYLAYER
 10
24.0776014571
 20
176.0100038237
 11
24.0776014571
 21
132.7902854075
  0
LINE
  5
21D
100
AcDbEntity
  8
0
100
AcDbLine
 62
7
  6
BYLAYER
 10
24.0776014571
 20
117.8297222367
 11
24.0776014571
 21
84.6100038238
  0
LINE
  5
21E
100
AcDbEntity
  8
0
100
AcDbLine
 62
7
  6
BYLAYER
 10
24.7577718269
 20
84.6100038238
 11
24.7577718269
 21
117.8293113925
  0
LINE
  5
21F
100
AcDbEntity
  8
0
100
AcDbLine
 62
7
  6
BYLAYER
 10
24.7577718269
 20
132.7906962521
 11
24.7577718269
 21
176.0100038238
  0
LINE
  5
220
100
AcDbEntity
  8
0
100
AcDbLine
 62
7
  6
BYLAYER
 10
25.0964468758
 20
176.0100038235
 11
25.0964468758
 21
132.7909008226
  0
LINE
  5
221
100
AcDbEntity
  8
0
100
AcDbLine
 62
7
  6
BYLAYER
 10
25.0964468758
 20
117.8291068221
 11
25.0964468758
 21
84.6100038238
  0
LINE
  5
222
100
AcDbEntity
  8
0
100
AcDbLine
 62
7
  6
BYLAYER
 10
25.1276013378
 20
119.9323761276
 11
25.1276013332
 21
130.6876290259
  0
LINE
  5
223
100
AcDbEntity
  8
0
100
AcDbLine
 62
7
  6
BYLAYER
 10
26.1968310179
 20
84.6100038238
 11
26.196831018
 21
117.6806052567
  0
LINE
  5
224
100
AcDbEntity
  8
0
100
AcDbLine
 62
7
  6
BYLAYER
 10
26.196831018
 20
132.9394096607
 11
26.196831018
 21
176.0100038236
  0
LINE
  5
225
100
AcDbEntity
  8
0
100
AcDbLine
 62
7
  6
BYLAYER
 10
27.5835815084
 20
176.0100038237
 11
27.5835815084
 21
133.5837751586
  0
LINE
  5
226
100
AcDbEntity
  8
0
100
AcDbLine
 62
7
  6
BYLAYER
 10
27.5835815084
 20
117.0362358507
 11
27.5835815084
 21
84.6100038239
  0
LINE
  5
227
100
AcDbEntity
  8
0
100
AcDbLine
 62
7
  6
BYLAYER
 10
28.7776014571
 20
180.7100038238
 11
28.7776014571
 21
177.2040237725
  0
LINE
  5
228
100
AcDbEntity
  8
0
100
AcDbLine
 62
7
  6
BYLAYER
 10
28.7776014571
 20
83.415983875
 11
28.7776014571
 21
79.9100038238
  0
LINE
  5
229
100
AcDbEntity
  8
0
100
AcDbLine
 62
7
  6
BYLAYER
 10
28.9776014571
 20
89.8100038237
 11
28.9776014571
 21
116.9270268543
  0
LINE
  5
22A
100
AcDbEntity
  8
0
100
AcDbLine
 62
7
  6
BYLAYER
 10
28.9776014571
 20
133.6929807866
 11
28.9776014572
 21
170.8100038284
  0
LINE
  5
22B
100
AcDbEntity
  8
0
100
AcDbLine
 62
7
  6
BYLAYER
 10
30.1276014571
 20
172.306872879
 11
30.1276014571
 21
171.5735367253
  0
LINE
  5
22C
100
AcDbEntity
  8
0
100
AcDbLine
 62
7
  6
BYLAYER
 10
30.1276014571
 20
79.0464711098
 11
30.1276014571
 21
78.31313484
  0
LINE
  5
22D
100
AcDbEntity
  8
0
100
AcDbLine
 62
7
  6
BYLAYER
 10
30.1276014722
 20
79.0473846095
 11
30.1276014571
 21
116.9263322253
  0
LINE
  5
22E
100
AcDbEntity
  8
0
100
AcDbLine
 62
7
  6
BYLAYER
 10
30.1276014571
 20
133.6936754176
 11
30.1276014722
 21
171.5726213908
  0
LINE
  5
22F
100
AcDbEntity
  8
0
100
AcDbLine
 62
7
  6
BYLAYER
 10
32.727784209
 20
113.7754653904
 11
32.727784209
 21
116.9247616493
  0
LINE
  5
230
100
AcDbEntity
  8
0
100
AcDbLine
 62
7
  6
BYLAYER
 10
32.727784209
 20
133.6952459982
 11
32.727784209
 21
136.8445422571
  0
LINE
  5
231
100
AcDbEntity
  8
0
100
AcDbLine
 62
7
  6
BYLAYER
 10
33.1124184893
 20
136.7469286325
 11
33.1124184893
 21
134.1433399831
  0
LINE
  5
232
100
AcDbEntity
  8
0
100
AcDbLine
 62
7
  6
BYLAYER
 10
33.1124184893
 20
116.4766676644
 11
33.1124184893
 21
113.8537239873
  0
LINE
  5
233
100
AcDbEntity
  8
0
100
AcDbLine
 62
7
  6
BYLAYER
 10
50.0999666519
 20
74.6592115187
 11
50.0476014571
 21
74.7639738272
  0
LINE
  5
234
100
AcDbEntity
  8
0
100
AcDbLine
 62
7
  6
BYLAYER
 10
34.126898008
 20
75.04333992
 11
34.1268981382
 21
74.3100037703
  0
LINE
  5
235
100
AcDbEntity
  8
0
100
AcDbLine
 62
7
  6
BYLAYER
 10
34.1268981954
 20
176.3100038869
 11
34.1268982208
 21
175.5766677178
  0
LINE
  5
236
100
AcDbEntity
  8
0
100
AcDbLine
 62
7
  6
BYLAYER
 10
35.3282110014
 20
113.7738531387
 11
35.3282110014
 21
136.8461545088
  0
LINE
  5
237
100
AcDbEntity
  8
0
100
AcDbLine
 62
7
  6
BYLAYER
 10
35.420976941
 20
113.8537239873
 11
35.420976941
 21
136.7469286325
  0
LINE
  5
238
100
AcDbEntity
  8
0
100
AcDbLine
 62
7
  6
BYLAYER
 10
154.1283045326
 20
74.3100037607
 11
34.1268981382
 21
74.3100037703
  0
LINE
  5
239
100
AcDbEntity
  8
0
100
AcDbLine
 62
7
  6
BYLAYER
 10
56.5999666519
 20
74.6592115187
 11
56.5476014571
 21
74.7639738272
  0
LINE
  5
23A
100
AcDbEntity
  8
0
100
AcDbLine
 62
7
  6
BYLAYER
 10
42.4373598737
 20
100.2461854965
 11
42.4373598737
 21
141.2889860504
  0
LINE
  5
23B
100
AcDbEntity
  8
0
100
AcDbLine
 62
7
  6
BYLAYER
 10
42.3276014571
 20
74.6592115187
 11
47.0952362623
 21
74.6592115187
  0
LINE
  5
23C
100
AcDbEntity
  8
0
100
AcDbLine
 62
7
  6
BYLAYER
 10
50.0999666519
 20
74.6592115187
 11
53.5952362623
 21
74.6592115187
  0
LINE
  5
23D
100
AcDbEntity
  8
0
100
AcDbLine
 62
7
  6
BYLAYER
 10
56.5999666519
 20
74.6592115187
 11
61.3676014571
 21
74.6592115187
  0
LINE
  5
23E
100
AcDbEntity
  8
0
100
AcDbLine
 62
7
  6
BYLAYER
 10
47.1476014571
 20
74.7639738271
 11
50.0476014571
 21
74.7639738271
  0
LINE
  5
23F
100
AcDbEntity
  8
0
100
AcDbLine
 62
7
  6
BYLAYER
 10
53.6476014571
 20
74.7639738271
 11
56.5476014571
 21
74.7639738271
  0
LINE
  5
240
100
AcDbEntity
  8
0
100
AcDbLine
 62
7
  6
BYLAYER
 10
77.1276014571
 20
74.8373074431
 11
94.5276014571
 21
74.8373074431
  0
LINE
  5
241
100
AcDbEntity
  8
0
100
AcDbLine
 62
7
  6
BYLAYER
 10
111.1176014571
 20
74.8373074431
 11
144.7256014571
 21
74.8373074431
  0
LINE
  5
242
100
AcDbEntity
  8
0
100
AcDbLine
 62
7
  6
BYLAYER
 10
154.129211599
 20
75.0433399171
 11
34.1259914861
 21
75.0433399086
  0
LINE
  5
243
100
AcDbEntity
  8
0
100
AcDbLine
 62
7
  6
BYLAYER
 10
159.8276014571
 20
79.7600038238
 11
158.1276014571
 21
79.7600038238
  0
LINE
  5
244
100
AcDbEntity
  8
0
100
AcDbLine
 62
7
  6
BYLAYER
 10
30.1276014719
 20
79.7600038238
 11
28.4276014571
 21
79.7600038238
  0
LINE
  5
245
100
AcDbEntity
  8
0
100
AcDbLine
 62
7
  6
BYLAYER
 10
28.7776014571
 20
79.9100038238
 11
30.1276014718
 21
79.9100038238
  0
LINE
  5
246
100
AcDbEntity
  8
0
100
AcDbLine
 62
7
  6
BYLAYER
 10
158.1276014571
 20
79.9100038238
 11
159.4776014571
 21
79.9100038238
  0
LINE
  5
247
100
AcDbEntity
  8
0
100
AcDbLine
 62
7
  6
BYLAYER
 10
61.5421521064
 20
74.3100038238
 11
61.3676014571
 21
74.6592115187
  0
LINE
  5
248
100
AcDbEntity
  8
0
100
AcDbLine
 62
7
  6
BYLAYER
 10
159.4776014571
 20
80.5901741936
 11
158.1276014571
 21
80.5901741936
  0
LINE
  5
249
100
AcDbEntity
  8
0
100
AcDbLine
 62
7
  6
BYLAYER
 10
30.1276014716
 20
80.5901741936
 11
28.7776014571
 21
80.5901741936
  0
LINE
  5
24A
100
AcDbEntity
  8
0
100
AcDbLine
 62
7
  6
BYLAYER
 10
28.7776014573
 20
80.9288492424
 11
30.1276014714
 21
80.9288492424
  0
LINE
  5
24B
100
AcDbEntity
  8
0
100
AcDbLine
 62
7
  6
BYLAYER
 10
158.1276014571
 20
80.9288492424
 11
159.4776014571
 21
80.9288492424
  0
LINE
  5
24C
100
AcDbEntity
  8
0
100
AcDbLine
 62
7
  6
BYLAYER
 10
159.477601457
 20
82.0292333846
 11
158.1276014571
 21
82.0292333846
  0
LINE
  5
24D
100
AcDbEntity
  8
0
100
AcDbLine
 62
7
  6
BYLAYER
 10
30.127601471
 20
82.0292333848
 11
28.7776014572
 21
82.0292333848
  0
LINE
  5
24E
100
AcDbEntity
  8
0
100
AcDbLine
 62
7
  6
BYLAYER
 10
28.7776014571
 20
83.415983875
 11
30.1276014704
 21
83.415983875
  0
LINE
  5
24F
100
AcDbEntity
  8
0
100
AcDbLine
 62
7
  6
BYLAYER
 10
158.1276014571
 20
83.415983875
 11
159.477601457
 21
83.415983875
  0
LINE
  5
250
100
AcDbEntity
  8
0
100
AcDbLine
 62
7
  6
BYLAYER
 10
24.0776014571
 20
84.6100038238
 11
27.5835815084
 21
84.6100038238
  0
LINE
  5
251
100
AcDbEntity
  8
0
100
AcDbLine
 62
7
  6
BYLAYER
 10
160.6716214058
 20
84.6100038238
 11
164.1776014571
 21
84.6100038238
  0
LINE
  5
252
100
AcDbEntity
  8
0
100
AcDbLine
 62
7
  6
BYLAYER
 10
159.277601457
 20
89.8100038192
 11
158.1276014571
 21
89.8100038207
  0
LINE
  5
253
100
AcDbEntity
  8
0
100
AcDbLine
 62
7
  6
BYLAYER
 10
28.9776014571
 20
89.8100038237
 11
30.1276014678
 21
89.8100038237
  0
LINE
  5
254
100
AcDbEntity
  8
0
100
AcDbLine
 62
7
  6
BYLAYER
 10
144.3183073852
 20
98.7461909222
 11
43.9371821932
 21
98.7461909222
  0
LINE
  5
255
100
AcDbEntity
  8
0
100
AcDbLine
 62
7
  6
BYLAYER
 10
124.2810787267
 20
100.6166316245
 11
103.5538747525
 21
100.6166316245
  0
LINE
  5
256
100
AcDbEntity
  8
0
100
AcDbLine
 62
7
  6
BYLAYER
 10
105.4014737074
 20
103.6969858497
 11
109.5222182883
 21
103.6969858497
  0
LINE
  5
257
100
AcDbEntity
  8
0
100
AcDbLine
 62
7
  6
BYLAYER
 10
118.3129846259
 20
103.6969858497
 11
122.4337292068
 21
103.6969858497
  0
LINE
  5
258
100
AcDbEntity
  8
0
100
AcDbLine
 62
7
  6
BYLAYER
 10
117.8130607783
 20
104.3969858497
 11
110.0221421359
 21
104.3969858497
  0
LINE
  5
259
100
AcDbEntity
  8
0
100
AcDbLine
 62
7
  6
BYLAYER
 10
94.8049653386
 20
74.3100038238
 11
94.5276014571
 21
74.8373074431
  0
LINE
  5
25A
100
AcDbEntity
  8
0
100
AcDbLine
 62
7
  6
BYLAYER
 10
42.3276014571
 20
74.6592115187
 11
42.1530508078
 21
74.3100038238
  0
LINE
  5
25B
100
AcDbEntity
  8
0
100
AcDbLine
 62
7
  6
BYLAYER
 10
47.1476014571
 20
74.7639738272
 11
47.0952362623
 21
74.6592115187
  0
LINE
  5
25C
100
AcDbEntity
  8
0
100
AcDbLine
 62
7
  6
BYLAYER
 10
110.8125222266
 20
105.1900830543
 11
116.9125222266
 21
105.1900830543
  0
LINE
  5
25D
100
AcDbEntity
  8
0
100
AcDbLine
 62
7
  6
BYLAYER
 10
116.9125222266
 20
105.4023886928
 11
110.8125222266
 21
105.4023886928
  0
LINE
  5
25E
100
AcDbEntity
  8
0
100
AcDbLine
 62
7
  6
BYLAYER
 10
117.0025239455
 20
105.4566577674
 11
110.7225205076
 21
105.4566577674
  0
LINE
  5
25F
100
AcDbEntity
  8
0
100
AcDbLine
 62
7
  6
BYLAYER
 10
117.0625222266
 20
105.6650723112
 11
110.6625222266
 21
105.6650723112
  0
LINE
  5
260
100
AcDbEntity
  8
0
100
AcDbLine
 62
7
  6
BYLAYER
 10
110.6625222266
 20
105.7150830543
 11
117.0625222266
 21
105.7150830543
  0
LINE
  5
261
100
AcDbEntity
  8
0
100
AcDbLine
 62
7
  6
BYLAYER
 10
116.4875222266
 20
105.7293618152
 11
115.9875222266
 21
105.7293618152
  0
LINE
  5
262
100
AcDbEntity
  8
0
100
AcDbLine
 62
7
  6
BYLAYER
 10
111.7375222266
 20
105.7293618152
 11
111.2375222266
 21
105.7293618152
  0
LINE
  5
263
100
AcDbEntity
  8
0
100
AcDbLine
 62
7
  6
BYLAYER
 10
116.5875222266
 20
105.7650830543
 11
111.1375222266
 21
105.7650830543
  0
LINE
  5
264
100
AcDbEntity
  8
0
100
AcDbLine
 62
7
  6
BYLAYER
 10
109.9704459436
 20
106.0750830543
 11
110.4125222266
 21
106.0750830543
  0
LINE
  5
265
100
AcDbEntity
  8
0
100
AcDbLine
 62
7
  6
BYLAYER
 10
117.3125222266
 20
106.0750830543
 11
117.7868218092
 21
106.0750830543
  0
LINE
  5
266
100
AcDbEntity
  8
0
100
AcDbLine
 62
7
  6
BYLAYER
 10
109.8875222266
 20
106.2250830543
 11
110.0998278651
 21
106.2250830543
  0
LINE
  5
267
100
AcDbEntity
  8
0
100
AcDbLine
 62
7
  6
BYLAYER
 10
117.6927762405
 20
106.2250830543
 11
117.8875222266
 21
106.2250830543
  0
LINE
  5
268
100
AcDbEntity
  8
0
100
AcDbLine
 62
7
  6
BYLAYER
 10
117.8875222266
 20
106.5615296084
 11
117.6927762405
 21
106.5615296084
  0
LINE
  5
269
100
AcDbEntity
  8
0
100
AcDbLine
 62
7
  6
BYLAYER
 10
110.0998278651
 20
106.5615296084
 11
109.8875222266
 21
106.5615296084
  0
LINE
  5
26A
100
AcDbEntity
  8
0
100
AcDbLine
 62
7
  6
BYLAYER
 10
117.7868218092
 20
106.7115296084
 11
117.3125222266
 21
106.7115296084
  0
LINE
  5
26B
100
AcDbEntity
  8
0
100
AcDbLine
 62
7
  6
BYLAYER
 10
110.4125222266
 20
106.7115296084
 11
109.9704459436
 21
106.7115296084
  0
LINE
  5
26C
100
AcDbEntity
  8
0
100
AcDbLine
 62
7
  6
BYLAYER
 10
111.1375222266
 20
107.5150830543
 11
116.5875222266
 21
107.5150830543
  0
LINE
  5
26D
100
AcDbEntity
  8
0
100
AcDbLine
 62
7
  6
BYLAYER
 10
116.4589687807
 20
107.5650830543
 11
114.4925222266
 21
107.5650830543
  0
LINE
  5
26E
100
AcDbEntity
  8
0
100
AcDbLine
 62
7
  6
BYLAYER
 10
114.4625222266
 20
107.5650830543
 11
111.2660756724
 21
107.5650830543
  0
LINE
  5
26F
100
AcDbEntity
  8
0
100
AcDbLine
 62
7
  6
BYLAYER
 10
111.2660756724
 20
107.6150937973
 11
114.4625222266
 21
107.6150937973
  0
LINE
  5
270
100
AcDbEntity
  8
0
100
AcDbLine
 62
7
  6
BYLAYER
 10
114.4925222266
 20
107.6150937973
 11
116.4589687807
 21
107.6150937973
  0
LINE
  5
271
100
AcDbEntity
  8
0
100
AcDbLine
 62
7
  6
BYLAYER
 10
111.3260739535
 20
107.8235083412
 11
114.4025239455
 21
107.8235083412
  0
LINE
  5
272
100
AcDbEntity
  8
0
100
AcDbLine
 62
7
  6
BYLAYER
 10
114.5525205076
 20
107.8235083412
 11
116.3989704997
 21
107.8235083412
  0
LINE
  5
273
100
AcDbEntity
  8
0
100
AcDbLine
 62
7
  6
BYLAYER
 10
111.4160756724
 20
107.8777774157
 11
114.3125222266
 21
107.8777774157
  0
LINE
  5
274
100
AcDbEntity
  8
0
100
AcDbLine
 62
7
  6
BYLAYER
 10
114.6425222266
 20
107.8777774157
 11
116.3089687807
 21
107.8777774157
  0
LINE
  5
275
100
AcDbEntity
  8
0
100
AcDbLine
 62
7
  6
BYLAYER
 10
116.3089687807
 20
108.0900830543
 11
114.6425222266
 21
108.0900830543
  0
LINE
  5
276
100
AcDbEntity
  8
0
100
AcDbLine
 62
7
  6
BYLAYER
 10
114.3125222266
 20
108.0900830543
 11
111.4160756724
 21
108.0900830543
  0
LINE
  5
277
100
AcDbEntity
  8
0
100
AcDbLine
 62
7
  6
BYLAYER
 10
110.0221421358
 20
108.9830217978
 11
117.8130607783
 21
108.9830217978
  0
LINE
  5
278
100
AcDbEntity
  8
0
100
AcDbLine
 62
7
  6
BYLAYER
 10
122.4337292068
 20
109.6772608989
 11
105.4014737074
 21
109.6772608989
  0
LINE
  5
279
100
AcDbEntity
  8
0
100
AcDbLine
 62
7
  6
BYLAYER
 10
53.6476014571
 20
74.7639738272
 11
53.5952362623
 21
74.6592115187
  0
LINE
  5
27A
100
AcDbEntity
  8
0
100
AcDbLine
 62
7
  6
BYLAYER
 10
152.9269919128
 20
113.7738531387
 11
155.5274187052
 21
113.7754653904
  0
LINE
  5
27B
100
AcDbEntity
  8
0
100
AcDbLine
 62
7
  6
BYLAYER
 10
155.5274187052
 20
116.9247616493
 11
160.1284817314
 21
116.9275407906
  0
LINE
  5
27C
100
AcDbEntity
  8
0
100
AcDbLine
 62
7
  6
BYLAYER
 10
103.5541247793
 20
112.763376023
 11
124.2813229751
 21
112.763376023
  0
LINE
  5
27D
100
AcDbEntity
  8
0
100
AcDbLine
 62
7
  6
BYLAYER
 10
155.1427844248
 20
113.8537239873
 11
152.8342259732
 21
113.8537239873
  0
LINE
  5
27E
100
AcDbEntity
  8
0
100
AcDbLine
 62
7
  6
BYLAYER
 10
33.1124184893
 20
113.8537239873
 11
35.420976941
 21
113.8537239873
  0
LINE
  5
27F
100
AcDbEntity
  8
0
100
AcDbLine
 62
7
  6
BYLAYER
 10
130.7010780847
 20
115.2146316245
 11
103.55387955
 21
115.2146316245
  0
LINE
  5
280
100
AcDbEntity
  8
0
100
AcDbLine
 62
7
  6
BYLAYER
 10
33.1124184893
 20
116.4766676644
 11
30.1276014571
 21
116.4766676644
  0
LINE
  5
281
100
AcDbEntity
  8
0
100
AcDbLine
 62
7
  6
BYLAYER
 10
155.1427844248
 20
116.4766676644
 11
158.1276014571
 21
116.4766676644
  0
LINE
  5
282
100
AcDbEntity
  8
0
100
AcDbLine
 62
7
  6
BYLAYER
 10
124.9195545395
 20
116.9360507414
 11
109.3356483747
 21
116.9360507414
  0
LINE
  5
283
100
AcDbEntity
  8
0
100
AcDbLine
 62
7
  6
BYLAYER
 10
32.727784209
 20
113.7754653904
 11
35.3282110014
 21
113.7738531387
  0
LINE
  5
284
100
AcDbEntity
  8
0
100
AcDbLine
 62
7
  6
BYLAYER
 10
28.126945836
 20
116.9275406717
 11
32.727784209
 21
116.9247616493
  0
LINE
  5
285
100
AcDbEntity
  8
0
100
AcDbLine
 62
7
  6
BYLAYER
 10
87.8776014571
 20
176.3100038241
 11
87.8776014571
 21
182.2400038238
  0
LINE
  5
286
100
AcDbEntity
  8
0
100
AcDbLine
 62
7
  6
BYLAYER
 10
162.2623458363
 20
117.8285653576
 11
164.9280739428
 21
117.830175538
  0
LINE
  5
287
100
AcDbEntity
  8
0
100
AcDbLine
 62
7
  6
BYLAYER
 10
129.1729846259
 20
117.4326206549
 11
126.3822182883
 21
117.4326206549
  0
LINE
  5
288
100
AcDbEntity
  8
0
100
AcDbLine
 62
7
  6
BYLAYER
 10
107.8729846259
 20
117.4326206549
 11
105.0822182883
 21
117.4326206549
  0
LINE
  5
289
100
AcDbEntity
  8
0
100
AcDbLine
 62
7
  6
BYLAYER
 10
122.6305222266
 20
117.8330830543
 11
111.7305222266
 21
117.8330830543
  0
LINE
  5
28A
100
AcDbEntity
  8
0
100
AcDbLine
 62
7
  6
BYLAYER
 10
122.6305222266
 20
118.2330830543
 11
111.7305222266
 21
118.2330830543
  0
LINE
  5
28B
100
AcDbEntity
  8
0
100
AcDbLine
 62
7
  6
BYLAYER
 10
123.2805222266
 20
118.5330830543
 11
122.6305222266
 21
118.5330830543
  0
LINE
  5
28C
100
AcDbEntity
  8
0
100
AcDbLine
 62
7
  6
BYLAYER
 10
111.0320122635
 20
118.5330830543
 11
111.7305222266
 21
118.5330830543
  0
LINE
  5
28D
100
AcDbEntity
  8
0
100
AcDbLine
 62
7
  6
BYLAYER
 10
110.9805222266
 20
118.8330830543
 11
123.3805222266
 21
118.8330830543
  0
LINE
  5
28E
100
AcDbEntity
  8
0
100
AcDbLine
 62
7
  6
BYLAYER
 10
123.4805382283
 20
118.9830830543
 11
124.3805222266
 21
118.9830830543
  0
LINE
  5
28F
100
AcDbEntity
  8
0
100
AcDbLine
 62
7
  6
BYLAYER
 10
109.9805222266
 20
119.5330830543
 11
110.8805222266
 21
119.5330830543
  0
LINE
  5
290
100
AcDbEntity
  8
0
100
AcDbLine
 62
7
  6
BYLAYER
 10
112.0305221484
 20
121.6180830543
 11
122.3305222266
 21
121.6180830543
  0
LINE
  5
291
100
AcDbEntity
  8
0
100
AcDbLine
 62
7
  6
BYLAYER
 10
122.330524684
 20
122.4180938101
 11
122.7305263041
 21
122.418106445
  0
LINE
  5
292
100
AcDbEntity
  8
0
100
AcDbLine
 62
7
  6
BYLAYER
 10
111.6305176404
 20
122.4180850856
 11
112.030519205
 21
122.4180978314
  0
LINE
  5
293
100
AcDbEntity
  8
0
100
AcDbLine
 62
7
  6
BYLAYER
 10
122.0905319608
 20
122.6580856664
 11
112.2705119849
 21
122.6580856974
  0
LINE
  5
294
100
AcDbEntity
  8
0
100
AcDbLine
 62
7
  6
BYLAYER
 10
23.3272327909
 20
117.8301754829
 11
25.9923206324
 21
117.8285656863
  0
LINE
  5
295
100
AcDbEntity
  8
0
100
AcDbLine
 62
7
  6
BYLAYER
 10
88.6745572156
 20
182.2400038238
 11
88.6745572156
 21
180.2400038238
  0
LINE
  5
296
100
AcDbEntity
  8
0
100
AcDbLine
 62
7
  6
BYLAYER
 10
109.9805222266
 20
123.1330830543
 11
110.8805222266
 21
123.1330830543
  0
LINE
  5
297
100
AcDbEntity
  8
0
100
AcDbLine
 62
7
  6
BYLAYER
 10
123.4805385665
 20
123.6830830543
 11
124.3805222266
 21
123.6830830543
  0
LINE
  5
298
100
AcDbEntity
  8
0
100
AcDbLine
 62
7
  6
BYLAYER
 10
123.3805222266
 20
123.8330830543
 11
111.0305222266
 21
123.8331166312
  0
LINE
  5
299
100
AcDbEntity
  8
0
100
AcDbLine
 62
7
  6
BYLAYER
 10
111.0305222266
 20
124.4330830543
 11
123.3305222266
 21
124.4330830543
  0
LINE
  5
29A
100
AcDbEntity
  8
0
100
AcDbLine
 62
7
  6
BYLAYER
 10
123.3305222266
 20
124.8330830543
 11
111.0305222266
 21
124.8330830543
  0
LINE
  5
29B
100
AcDbEntity
  8
0
100
AcDbLine
 62
7
  6
BYLAYER
 10
105.0822182883
 20
125.1433869926
 11
107.8729846259
 21
125.1433869926
  0
LINE
  5
29C
100
AcDbEntity
  8
0
100
AcDbLine
 62
7
  6
BYLAYER
 10
126.3822182883
 20
125.1433869926
 11
129.1729846259
 21
125.1433869926
  0
LINE
  5
29D
100
AcDbEntity
  8
0
100
AcDbLine
 62
7
  6
BYLAYER
 10
109.3356483747
 20
125.6399569062
 11
124.9195545395
 21
125.6399569062
  0
LINE
  5
29E
100
AcDbEntity
  8
0
100
AcDbLine
 62
7
  6
BYLAYER
 10
103.5541260697
 20
127.361376023
 11
130.7013229756
 21
127.361376023
  0
LINE
  5
29F
100
AcDbEntity
  8
0
100
AcDbLine
 62
7
  6
BYLAYER
 10
111.0305222266
 20
123.8330684425
 11
110.9805222266
 21
123.8330830543
  0
LINE
  5
2A0
100
AcDbEntity
  8
0
100
AcDbLine
 62
7
  6
BYLAYER
 10
99.5806456986
 20
180.2400038238
 11
99.5806456986
 21
182.2400038238
  0
LINE
  5
2A1
100
AcDbEntity
  8
0
100
AcDbLine
 62
7
  6
BYLAYER
 10
100.3776014571
 20
182.2400038238
 11
100.3776014571
 21
176.3100038241
  0
LINE
  5
2A2
100
AcDbEntity
  8
0
100
AcDbLine
 62
7
  6
BYLAYER
 10
25.9923313622
 20
132.7914419655
 11
23.3272313175
 21
132.78983216
  0
LINE
  5
2A3
100
AcDbEntity
  8
0
100
AcDbLine
 62
7
  6
BYLAYER
 10
32.727784209
 20
133.6952459982
 11
28.1269456198
 21
133.6924669675
  0
LINE
  5
2A4
100
AcDbEntity
  8
0
100
AcDbLine
 62
7
  6
BYLAYER
 10
33.1124184893
 20
134.1433399831
 11
30.1276014571
 21
134.1433399831
  0
LINE
  5
2A5
100
AcDbEntity
  8
0
100
AcDbLine
 62
7
  6
BYLAYER
 10
155.1427844248
 20
134.1433399831
 11
158.1276014571
 21
134.1433399831
  0
LINE
  5
2A6
100
AcDbEntity
  8
0
100
AcDbLine
 62
7
  6
BYLAYER
 10
164.9280995983
 20
132.7898320906
 11
162.2623876357
 21
132.7914422626
  0
LINE
  5
2A7
100
AcDbEntity
  8
0
100
AcDbLine
 62
7
  6
BYLAYER
 10
160.1284818286
 20
133.692466848
 11
155.5274187052
 21
133.6952459982
  0
LINE
  5
2A8
100
AcDbEntity
  8
0
100
AcDbLine
 62
7
  6
BYLAYER
 10
117.2392989219
 20
106.8883063037
 11
116.635745476
 21
107.4918597496
  0
LINE
  5
2A9
100
AcDbEntity
  8
0
100
AcDbLine
 62
7
  6
BYLAYER
 10
116.8478775104
 20
107.7039917839
 11
117.4514309562
 21
107.1004383381
  0
LINE
  5
2AA
100
AcDbEntity
  8
0
100
AcDbLine
 62
7
  6
BYLAYER
 10
102.0542292578
 20
102.1165302298
 11
102.0542292578
 21
111.2637253425
  0
LINE
  5
2AB
100
AcDbEntity
  8
0
100
AcDbLine
 62
7
  6
BYLAYER
 10
102.0542292578
 20
116.7145229555
 11
102.0542292578
 21
125.8617301436
  0
LINE
  5
2AC
100
AcDbEntity
  8
0
100
AcDbLine
 62
7
  6
BYLAYER
 10
105.0822182883
 20
117.4326206549
 11
105.0822182883
 21
125.1433869926
  0
LINE
  5
2AD
100
AcDbEntity
  8
0
100
AcDbLine
 62
7
  6
BYLAYER
 10
105.4014737074
 20
112.763376023
 11
105.4014737074
 21
100.6166316245
  0
LINE
  5
2AE
100
AcDbEntity
  8
0
100
AcDbLine
 62
7
  6
BYLAYER
 10
77.1276014571
 20
74.8373074431
 11
76.8649579661
 21
74.3100038238
  0
LINE
  5
2AF
100
AcDbEntity
  8
0
100
AcDbLine
 62
7
  6
BYLAYER
 10
35.3282110014
 20
136.8461545088
 11
32.727784209
 21
136.8445422571
  0
LINE
  5
2B0
100
AcDbEntity
  8
0
100
AcDbLine
 62
7
  6
BYLAYER
 10
35.420976941
 20
136.7469286325
 11
33.1124184893
 21
136.7469286325
  0
LINE
  5
2B1
100
AcDbEntity
  8
0
100
AcDbLine
 62
7
  6
BYLAYER
 10
152.8342259732
 20
136.7469286325
 11
155.1427844248
 21
136.7469286325
  0
LINE
  5
2B2
100
AcDbEntity
  8
0
100
AcDbLine
 62
7
  6
BYLAYER
 10
155.5274187052
 20
136.8445422571
 11
152.9269919128
 21
136.8461545088
  0
LINE
  5
2B3
100
AcDbEntity
  8
0
100
AcDbLine
 62
7
  6
BYLAYER
 10
110.5818453206
 20
118.9845588666
 11
110.5805222266
 21
119.5330830543
  0
LINE
  5
2B4
100
AcDbEntity
  8
0
100
AcDbLine
 62
7
  6
BYLAYER
 10
107.8729846259
 20
125.1433869926
 11
107.8729846259
 21
117.4326206549
  0
LINE
  5
2B5
100
AcDbEntity
  8
0
100
AcDbLine
 62
7
  6
BYLAYER
 10
109.3356483747
 20
116.9360507414
 11
109.3356483747
 21
125.6399569062
  0
LINE
  5
2B6
100
AcDbEntity
  8
0
100
AcDbLine
 62
7
  6
BYLAYER
 10
109.5222182883
 20
103.8970620021
 11
109.5222182883
 21
103.6969858497
  0
LINE
  5
2B7
100
AcDbEntity
  8
0
100
AcDbLine
 62
7
  6
BYLAYER
 10
109.5222182883
 20
109.4829456453
 11
109.5222182883
 21
109.6772608989
  0
LINE
  5
2B8
100
AcDbEntity
  8
0
100
AcDbLine
 62
7
  6
BYLAYER
 10
109.8875222266
 20
106.5615296084
 11
109.8875222266
 21
106.2250830543
  0
LINE
  5
2B9
100
AcDbEntity
  8
0
100
AcDbLine
 62
7
  6
BYLAYER
 10
109.9805222266
 20
123.1330830543
 11
109.9805222266
 21
119.5330830543
  0
LINE
  5
2BA
100
AcDbEntity
  8
0
100
AcDbLine
 62
7
  6
BYLAYER
 10
110.0998278651
 20
106.2250830543
 11
110.0998278651
 21
106.5615296084
  0
LINE
  5
2BB
100
AcDbEntity
  8
0
100
AcDbLine
 62
7
  6
BYLAYER
 10
110.1125222266
 20
106.0750830543
 11
110.1125222266
 21
105.9650830543
  0
LINE
  5
2BC
100
AcDbEntity
  8
0
100
AcDbLine
 62
7
  6
BYLAYER
 10
110.1540969397
 20
106.1350813353
 11
110.1540969397
 21
106.6515313274
  0
LINE
  5
2BD
100
AcDbEntity
  8
0
100
AcDbLine
 62
7
  6
BYLAYER
 10
110.2805222266
 20
119.5330830543
 11
110.2805222266
 21
123.1330830543
  0
LINE
  5
2BE
100
AcDbEntity
  8
0
100
AcDbLine
 62
7
  6
BYLAYER
 10
110.3625114836
 20
106.0750830543
 11
110.3625114836
 21
106.7115296084
  0
LINE
  5
2BF
100
AcDbEntity
  8
0
100
AcDbLine
 62
7
  6
BYLAYER
 10
110.4125222266
 20
105.9650830543
 11
110.4125222266
 21
106.7115296084
  0
LINE
  5
2C0
100
AcDbEntity
  8
0
100
AcDbLine
 62
7
  6
BYLAYER
 10
110.6625222266
 20
105.7150830543
 11
110.6625222266
 21
105.2730067713
  0
LINE
  5
2C1
100
AcDbEntity
  8
0
100
AcDbLine
 62
7
  6
BYLAYER
 10
110.8125222266
 20
105.4023886928
 11
110.8125222266
 21
105.1900830543
  0
LINE
  5
2C2
100
AcDbEntity
  8
0
100
AcDbLine
 62
7
  6
BYLAYER
 10
110.8805222266
 20
123.7330830543
 11
110.8805222266
 21
118.9330830543
  0
LINE
  5
2C3
100
AcDbEntity
  8
0
100
AcDbLine
 62
7
  6
BYLAYER
 10
111.0305222266
 20
123.8331166312
 11
111.0305222266
 21
124.8330830543
  0
LINE
  5
2C4
100
AcDbEntity
  8
0
100
AcDbLine
 62
7
  6
BYLAYER
 10
111.1375222266
 20
107.5150830543
 11
111.1375222266
 21
105.7650830543
  0
LINE
  5
2C5
100
AcDbEntity
  8
0
100
AcDbLine
 62
7
  6
BYLAYER
 10
111.2375222266
 20
105.7650830543
 11
111.2375222266
 21
105.7150830543
  0
LINE
  5
2C6
100
AcDbEntity
  8
0
100
AcDbLine
 62
7
  6
BYLAYER
 10
111.2660756724
 20
108.0071593372
 11
111.2660756724
 21
107.5650830543
  0
LINE
  5
2C7
100
AcDbEntity
  8
0
100
AcDbLine
 62
7
  6
BYLAYER
 10
111.4160756724
 20
108.0900830543
 11
111.4160756724
 21
107.8777774157
  0
LINE
  5
2C8
100
AcDbEntity
  8
0
100
AcDbLine
 62
7
  6
BYLAYER
 10
111.7305222266
 20
118.8330830543
 11
111.7305222266
 21
117.8330830543
  0
LINE
  5
2C9
100
AcDbEntity
  8
0
100
AcDbLine
 62
7
  6
BYLAYER
 10
111.7375222266
 20
105.7150830543
 11
111.7375222266
 21
105.7650830543
  0
LINE
  5
2CA
100
AcDbEntity
  8
0
100
AcDbLine
 62
7
  6
BYLAYER
 10
112.030519205
 20
122.4180978314
 11
112.0305221484
 21
121.6180830543
  0
LINE
  5
2CB
100
AcDbEntity
  8
0
100
AcDbLine
 62
7
  6
BYLAYER
 10
112.1276014571
 20
125.6399569062
 11
112.1276014571
 21
127.361376023
  0
LINE
  5
2CC
100
AcDbEntity
  8
0
100
AcDbLine
 62
7
  6
BYLAYER
 10
112.2705119849
 20
122.6580856974
 11
112.2705032829
 21
123.0580871153
  0
LINE
  5
2CD
100
AcDbEntity
  8
0
100
AcDbLine
 62
7
  6
BYLAYER
 10
110.5805222266
 20
123.1330830543
 11
110.5818448354
 21
123.6815930357
  0
LINE
  5
2CE
100
AcDbEntity
  8
0
100
AcDbLine
 62
7
  6
BYLAYER
 10
112.1842073279
 20
127.361376023
 11
112.1584270276
 21
125.6399569062
  0
LINE
  5
2CF
100
AcDbEntity
  8
0
100
AcDbLine
 62
7
  6
BYLAYER
 10
111.6891009936
 20
121.2766616121
 11
112.0305221484
 21
121.6180830543
  0
LINE
  5
2D0
100
AcDbEntity
  8
0
100
AcDbLine
 62
7
  6
BYLAYER
 10
43.9371821932
 20
142.7893251342
 11
144.3183073852
 21
142.7893251342
  0
LINE
  5
2D1
100
AcDbEntity
  8
0
100
AcDbLine
 62
7
  6
BYLAYER
 10
122.6719435828
 20
121.276661698
 11
122.3305222266
 21
121.6180830543
  0
LINE
  5
2D2
100
AcDbEntity
  8
0
100
AcDbLine
 62
7
  6
BYLAYER
 10
114.3125222266
 20
107.8777774157
 11
114.3125222266
 21
108.0900830543
  0
LINE
  5
2D3
100
AcDbEntity
  8
0
100
AcDbLine
 62
7
  6
BYLAYER
 10
114.4625222266
 20
107.5650830543
 11
114.4625222266
 21
108.0071593372
  0
LINE
  5
2D4
100
AcDbEntity
  8
0
100
AcDbLine
 62
7
  6
BYLAYER
 10
114.4925222266
 20
108.0071593372
 11
114.4925222266
 21
107.5650830543
  0
LINE
  5
2D5
100
AcDbEntity
  8
0
100
AcDbLine
 62
7
  6
BYLAYER
 10
114.6425222266
 20
108.0900830543
 11
114.6425222266
 21
107.8777774157
  0
LINE
  5
2D6
100
AcDbEntity
  8
0
100
AcDbLine
 62
7
  6
BYLAYER
 10
115.9875222266
 20
105.7650830543
 11
115.9875222266
 21
105.7150830543
  0
LINE
  5
2D7
100
AcDbEntity
  8
0
100
AcDbLine
 62
7
  6
BYLAYER
 10
116.3089687807
 20
107.8777774157
 11
116.3089687807
 21
108.0900830543
  0
LINE
  5
2D8
100
AcDbEntity
  8
0
100
AcDbLine
 62
7
  6
BYLAYER
 10
116.4589687807
 20
107.5650830543
 11
116.4589687807
 21
108.0071593372
  0
LINE
  5
2D9
100
AcDbEntity
  8
0
100
AcDbLine
 62
7
  6
BYLAYER
 10
116.4875222266
 20
105.7150830543
 11
116.4875222266
 21
105.7650830543
  0
LINE
  5
2DA
100
AcDbEntity
  8
0
100
AcDbLine
 62
7
  6
BYLAYER
 10
116.5875222266
 20
105.7650830543
 11
116.5875222266
 21
107.5150830543
  0
LINE
  5
2DB
100
AcDbEntity
  8
0
100
AcDbLine
 62
7
  6
BYLAYER
 10
116.9125222266
 20
105.1900830543
 11
116.9125222266
 21
105.4023886928
  0
LINE
  5
2DC
100
AcDbEntity
  8
0
100
AcDbLine
 62
7
  6
BYLAYER
 10
117.0625222266
 20
105.2730067713
 11
117.0625222266
 21
105.7150830543
  0
LINE
  5
2DD
100
AcDbEntity
  8
0
100
AcDbLine
 62
7
  6
BYLAYER
 10
117.3125222266
 20
105.9650830543
 11
117.3125222266
 21
106.7115296084
  0
LINE
  5
2DE
100
AcDbEntity
  8
0
100
AcDbLine
 62
7
  6
BYLAYER
 10
117.3901763164
 20
106.7115296084
 11
117.3901763164
 21
106.0750830543
  0
LINE
  5
2DF
100
AcDbEntity
  8
0
100
AcDbLine
 62
7
  6
BYLAYER
 10
117.6125222266
 20
105.9650830543
 11
117.6125222266
 21
106.0750830543
  0
LINE
  5
2E0
100
AcDbEntity
  8
0
100
AcDbLine
 62
7
  6
BYLAYER
 10
117.6425313266
 20
106.6563007646
 11
117.6425313266
 21
106.1303118981
  0
LINE
  5
2E1
100
AcDbEntity
  8
0
100
AcDbLine
 62
7
  6
BYLAYER
 10
117.6927762405
 20
106.5615296084
 11
117.6927762405
 21
106.2250830543
  0
LINE
  5
2E2
100
AcDbEntity
  8
0
100
AcDbLine
 62
7
  6
BYLAYER
 10
117.8875222266
 20
106.2250830543
 11
117.8875222266
 21
106.5615296084
  0
LINE
  5
2E3
100
AcDbEntity
  8
0
100
AcDbLine
 62
7
  6
BYLAYER
 10
118.3129846259
 20
103.6969858497
 11
118.3129846259
 21
103.8970620022
  0
LINE
  5
2E4
100
AcDbEntity
  8
0
100
AcDbLine
 62
7
  6
BYLAYER
 10
118.3129846259
 20
109.4829456454
 11
118.3129846259
 21
109.6772608989
  0
LINE
  5
2E5
100
AcDbEntity
  8
0
100
AcDbLine
 62
7
  6
BYLAYER
 10
144.9885090334
 20
74.3100038238
 11
144.7256014571
 21
74.8373074431
  0
LINE
  5
2E6
100
AcDbEntity
  8
0
100
AcDbLine
 62
7
  6
BYLAYER
 10
122.0937487997
 20
125.6399569062
 11
122.0679842042
 21
127.361376023
  0
LINE
  5
2E7
100
AcDbEntity
  8
0
100
AcDbLine
 62
7
  6
BYLAYER
 10
122.0905203111
 20
123.0580871321
 11
122.0905319608
 21
122.6580856664
  0
LINE
  5
2E8
100
AcDbEntity
  8
0
100
AcDbLine
 62
7
  6
BYLAYER
 10
122.1276014571
 20
125.6399569062
 11
122.1276014571
 21
127.361376023
  0
LINE
  5
2E9
100
AcDbEntity
  8
0
100
AcDbLine
 62
7
  6
BYLAYER
 10
122.3305222266
 20
121.6180830543
 11
122.330524684
 21
122.4180938101
  0
LINE
  5
2EA
100
AcDbEntity
  8
0
100
AcDbLine
 62
7
  6
BYLAYER
 10
122.4337292068
 20
100.6166316245
 11
122.4337292068
 21
112.763376023
  0
LINE
  5
2EB
100
AcDbEntity
  8
0
100
AcDbLine
 62
7
  6
BYLAYER
 10
122.6305222266
 20
117.8330830543
 11
122.6305222266
 21
118.8330830543
  0
LINE
  5
2EC
100
AcDbEntity
  8
0
100
AcDbLine
 62
7
  6
BYLAYER
 10
123.3305222266
 20
123.8330494794
 11
123.3305222266
 21
124.8330830543
  0
LINE
  5
2ED
100
AcDbEntity
  8
0
100
AcDbLine
 62
7
  6
BYLAYER
 10
123.4805222266
 20
123.7330830542
 11
123.4805222266
 21
118.9830830543
  0
LINE
  5
2EE
100
AcDbEntity
  8
0
100
AcDbLine
 62
7
  6
BYLAYER
 10
124.0805222266
 20
123.6830830543
 11
124.0805222266
 21
118.9830830543
  0
LINE
  5
2EF
100
AcDbEntity
  8
0
100
AcDbLine
 62
7
  6
BYLAYER
 10
124.3805222266
 20
123.6830830543
 11
124.3805222266
 21
118.9830830543
  0
LINE
  5
2F0
100
AcDbEntity
  8
0
100
AcDbLine
 62
7
  6
BYLAYER
 10
123.4805222266
 20
118.9330830542
 11
123.4805255428
 21
118.9830830543
  0
LINE
  5
2F1
100
AcDbEntity
  8
0
100
AcDbLine
 62
7
  6
BYLAYER
 10
110.2736134969
 20
107.1004383381
 11
110.8771669428
 21
107.7039917839
  0
LINE
  5
2F2
100
AcDbEntity
  8
0
100
AcDbLine
 62
7
  6
BYLAYER
 10
111.0892989771
 20
107.4918597496
 11
110.4857455313
 21
106.8883063037
  0
LINE
  5
2F3
100
AcDbEntity
  8
0
100
AcDbLine
 62
7
  6
BYLAYER
 10
124.9195545395
 20
125.6399569062
 11
124.9195545395
 21
116.9360507414
  0
LINE
  5
2F4
100
AcDbEntity
  8
0
100
AcDbLine
 62
7
  6
BYLAYER
 10
125.7809736564
 20
111.2634841704
 11
125.7809736564
 21
102.1162771187
  0
LINE
  5
2F5
100
AcDbEntity
  8
0
100
AcDbLine
 62
7
  6
BYLAYER
 10
126.3822182883
 20
117.4326206549
 11
126.3822182883
 21
125.1433869926
  0
LINE
  5
2F6
100
AcDbEntity
  8
0
100
AcDbLine
 62
7
  6
BYLAYER
 10
129.1729846259
 20
125.1433869926
 11
129.1729846259
 21
117.4326206549
  0
LINE
  5
2F7
100
AcDbEntity
  8
0
100
AcDbLine
 62
7
  6
BYLAYER
 10
23.9276014571
 20
161.4600038238
 11
21.3276014571
 21
161.4600038238
  0
LINE
  5
2F8
100
AcDbEntity
  8
0
100
AcDbLine
 62
7
  6
BYLAYER
 10
132.2009736564
 20
125.8614834472
 11
132.2009736564
 21
116.7142771187
  0
LINE
  5
2F9
100
AcDbEntity
  8
0
100
AcDbLine
 62
7
  6
BYLAYER
 10
111.1176014571
 20
74.8373074431
 11
110.8549073093
 21
74.3100038238
  0
LINE
  5
2FA
100
AcDbEntity
  8
0
100
AcDbLine
 62
7
  6
BYLAYER
 10
159.2776014571
 20
170.8100038238
 11
158.1276014571
 21
170.8100038238
  0
LINE
  5
2FB
100
AcDbEntity
  8
0
100
AcDbLine
 62
7
  6
BYLAYER
 10
28.9776014572
 20
170.8100038284
 11
30.1276014719
 21
170.8100038268
  0
LINE
  5
2FC
100
AcDbEntity
  8
0
100
AcDbLine
 62
7
  6
BYLAYER
 10
21.3276014571
 20
171.4600038238
 11
23.9276014571
 21
171.4600038238
  0
LINE
  5
2FD
100
AcDbEntity
  8
0
100
AcDbLine
 62
7
  6
BYLAYER
 10
154.128304347
 20
175.5766677275
 11
34.1268982208
 21
175.5766677178
  0
LINE
  5
2FE
100
AcDbEntity
  8
0
100
AcDbLine
 62
7
  6
BYLAYER
 10
164.1776014571
 20
176.0100038237
 11
160.6716214058
 21
176.0100038238
  0
LINE
  5
2FF
100
AcDbEntity
  8
0
100
AcDbLine
 62
7
  6
BYLAYER
 10
27.5835815084
 20
176.0100038238
 11
24.0776014571
 21
176.0100038238
  0
LINE
  5
300
100
AcDbEntity
  8
0
100
AcDbLine
 62
7
  6
BYLAYER
 10
154.1292125181
 20
176.3100038897
 11
34.1259898709
 21
176.3100038982
  0
LINE
  5
301
100
AcDbEntity
  8
0
100
AcDbLine
 62
7
  6
BYLAYER
 10
159.477601457
 20
177.2040237725
 11
100.3776014571
 21
177.2040237725
  0
LINE
  5
302
100
AcDbEntity
  8
0
100
AcDbLine
 62
7
  6
BYLAYER
 10
87.8776014571
 20
177.2040237725
 11
28.7776014571
 21
177.2040237725
  0
LINE
  5
303
100
AcDbEntity
  8
0
100
AcDbLine
 62
7
  6
BYLAYER
 10
145.8183019594
 20
141.2889860504
 11
145.8183019594
 21
100.2461854964
  0
LINE
  5
304
100
AcDbEntity
  8
0
100
AcDbLine
 62
7
  6
BYLAYER
 10
28.7776014572
 20
178.5907742629
 11
87.8776014571
 21
178.5907742628
  0
LINE
  5
305
100
AcDbEntity
  8
0
100
AcDbLine
 62
7
  6
BYLAYER
 10
100.3776014571
 20
178.5907742628
 11
159.4776014569
 21
178.5907742628
  0
LINE
  5
306
100
AcDbEntity
  8
0
100
AcDbLine
 62
7
  6
BYLAYER
 10
159.4776014569
 20
179.6911584051
 11
100.3776014571
 21
179.6911584051
  0
LINE
  5
307
100
AcDbEntity
  8
0
100
AcDbLine
 62
7
  6
BYLAYER
 10
87.8776014571
 20
179.6911584051
 11
28.7776014571
 21
179.6911584051
  0
LINE
  5
308
100
AcDbEntity
  8
0
100
AcDbLine
 62
7
  6
BYLAYER
 10
28.7776014571
 20
180.0298334539
 11
87.8776014571
 21
180.0298334539
  0
LINE
  5
309
100
AcDbEntity
  8
0
100
AcDbLine
 62
7
  6
BYLAYER
 10
100.3776014571
 20
180.0298334539
 11
159.4776014571
 21
180.0298334539
  0
LINE
  5
30A
100
AcDbEntity
  8
0
100
AcDbLine
 62
7
  6
BYLAYER
 10
87.8776014571
 20
180.2400038238
 11
100.3776014571
 21
180.2400038238
  0
LINE
  5
30B
100
AcDbEntity
  8
0
100
AcDbLine
 62
7
  6
BYLAYER
 10
159.4776014571
 20
180.7100038238
 11
100.3776014571
 21
180.7100038238
  0
LINE
  5
30C
100
AcDbEntity
  8
0
100
AcDbLine
 62
7
  6
BYLAYER
 10
87.8776014571
 20
180.7100038238
 11
28.7776014571
 21
180.7100038238
  0
LINE
  5
30D
100
AcDbEntity
  8
0
100
AcDbLine
 62
7
  6
BYLAYER
 10
159.8276014567
 20
180.8600038238
 11
100.3776014571
 21
180.8600038238
  0
LINE
  5
30E
100
AcDbEntity
  8
0
100
AcDbLine
 62
7
  6
BYLAYER
 10
87.8776014571
 20
180.8600038238
 11
28.4276014573
 21
180.8600038238
  0
LINE
  5
30F
100
AcDbEntity
  8
0
100
AcDbLine
 62
7
  6
BYLAYER
 10
100.3776014571
 20
182.2400038238
 11
87.8776014571
 21
182.2400038238
  0
LINE
  5
310
100
AcDbEntity
  8
0
100
AcDbLine
 62
7
  6
BYLAYER
 10
152.8342259732
 20
113.8537239873
 11
152.8342259732
 21
136.7469286325
  0
LINE
  5
311
100
AcDbEntity
  8
0
100
AcDbLine
 62
7
  6
BYLAYER
 10
152.9269919128
 20
113.7738531387
 11
152.9269919128
 21
136.8461545088
  0
LINE
  5
312
100
AcDbEntity
  8
0
100
AcDbLine
 62
7
  6
BYLAYER
 10
154.1283045326
 20
74.3100037607
 11
154.1283043995
 21
75.0433399297
  0
LINE
  5
313
100
AcDbEntity
  8
0
100
AcDbLine
 62
7
  6
BYLAYER
 10
154.128304347
 20
175.5766677275
 11
154.1283043173
 21
176.3100038771
  0
LINE
  5
314
100
AcDbEntity
  8
0
100
AcDbLine
 62
7
  6
BYLAYER
 10
155.1427844248
 20
136.7469286325
 11
155.1427844248
 21
134.1433399831
  0
LINE
  5
315
100
AcDbEntity
  8
0
100
AcDbLine
 62
7
  6
BYLAYER
 10
155.1427844248
 20
116.4766676644
 11
155.1427844248
 21
113.8537239873
  0
LINE
  5
316
100
AcDbEntity
  8
0
100
AcDbLine
 62
7
  6
BYLAYER
 10
155.5274187052
 20
113.7754653904
 11
155.5274187052
 21
116.9247616493
  0
LINE
  5
317
100
AcDbEntity
  8
0
100
AcDbLine
 62
7
  6
BYLAYER
 10
155.5274187052
 20
133.6952459982
 11
155.5274187052
 21
136.8445422571
  0
LINE
  5
318
100
AcDbEntity
  8
0
100
AcDbLine
 62
7
  6
BYLAYER
 10
158.1276014571
 20
78.3131353252
 11
158.1276014571
 21
116.9263322158
  0
LINE
  5
319
100
AcDbEntity
  8
0
100
AcDbLine
 62
7
  6
BYLAYER
 10
158.1276014571
 20
133.6936754267
 11
158.1276014571
 21
172.3068725073
  0
LINE
  5
31A
100
AcDbEntity
  8
0
100
AcDbLine
 62
7
  6
BYLAYER
 10
159.2776014571
 20
170.8100038238
 11
159.277601457
 21
133.6929807997
  0
LINE
  5
31B
100
AcDbEntity
  8
0
100
AcDbLine
 62
7
  6
BYLAYER
 10
159.277601457
 20
116.9270268406
 11
159.277601457
 21
89.8100038192
  0
LINE
  5
31C
100
AcDbEntity
  8
0
100
AcDbLine
 62
7
  6
BYLAYER
 10
159.4776014571
 20
79.9100038238
 11
159.4776014571
 21
83.415983875
  0
LINE
  5
31D
100
AcDbEntity
  8
0
100
AcDbLine
 62
7
  6
BYLAYER
 10
159.4776014571
 20
177.2040237725
 11
159.4776014571
 21
180.7100038238
  0
LINE
  5
31E
100
AcDbEntity
  8
0
100
AcDbLine
 62
7
  6
BYLAYER
 10
160.6716214058
 20
84.6100038238
 11
160.6716214058
 21
117.0359916473
  0
LINE
  5
31F
100
AcDbEntity
  8
0
100
AcDbLine
 62
7
  6
BYLAYER
 10
160.6716214058
 20
133.5839962292
 11
160.6716214058
 21
176.0100038237
  0
LINE
  5
320
100
AcDbEntity
  8
0
100
AcDbLine
 62
7
  6
BYLAYER
 10
162.0583718962
 20
176.0100038237
 11
162.0583718962
 21
132.939699181
  0
LINE
  5
321
100
AcDbEntity
  8
0
100
AcDbLine
 62
7
  6
BYLAYER
 10
162.0583718961
 20
117.6802834773
 11
162.0583718961
 21
84.6100038239
  0
LINE
  5
322
100
AcDbEntity
  8
0
100
AcDbLine
 62
7
  6
BYLAYER
 10
163.1276014571
 20
119.9318206052
 11
163.1276014571
 21
130.6881862369
  0
LINE
  5
323
100
AcDbEntity
  8
0
100
AcDbLine
 62
7
  6
BYLAYER
 10
163.1587560384
 20
84.610003824
 11
163.1587560384
 21
117.8291068165
  0
LINE
  5
324
100
AcDbEntity
  8
0
100
AcDbLine
 62
7
  6
BYLAYER
 10
163.1587560384
 20
132.7909008285
 11
163.1587560384
 21
176.0100038237
  0
LINE
  5
325
100
AcDbEntity
  8
0
100
AcDbLine
 62
7
  6
BYLAYER
 10
163.4974310873
 20
176.0100038238
 11
163.4974310873
 21
132.7906962584
  0
LINE
  5
326
100
AcDbEntity
  8
0
100
AcDbLine
 62
7
  6
BYLAYER
 10
163.4974310873
 20
117.8293113865
 11
163.4974310873
 21
84.6100038238
  0
LINE
  5
327
100
AcDbEntity
  8
0
100
AcDbLine
 62
7
  6
BYLAYER
 10
164.1776014571
 20
84.6100038238
 11
164.1776014571
 21
117.8297222299
  0
LINE
  5
328
100
AcDbEntity
  8
0
100
AcDbLine
 62
7
  6
BYLAYER
 10
164.1776014571
 20
132.7902854146
 11
164.1776014571
 21
176.0100038237
  0
LINE
  5
329
100
AcDbEntity
  8
0
100
AcDbLine
 62
7
  6
BYLAYER
 10
164.3276014571
 20
176.3600038238
 11
164.3276014571
 21
132.79019481
  0
LINE
  5
32A
100
AcDbEntity
  8
0
100
AcDbLine
 62
7
  6
BYLAYER
 10
164.3276014571
 20
117.8298128345
 11
164.3276014571
 21
84.2600038238
  0
LINE
  5
32B
100
AcDbEntity
  8
0
100
AcDbLine
 62
7
  6
BYLAYER
 10
166.92760154
 20
130.7869211752
 11
166.9276015407
 21
119.8331831694
  0
ARC
  5
32C
100
AcDbEntity
  8
0
100
AcDbCircle
 62
7
  6
BYLAYER
 10
33.9776014571
 20
89.8100038238
 40
5.0
100
AcDbArc
 50
180.0000000005
 51
217.3558148914
  0
ARC
  5
32D
100
AcDbEntity
  8
0
100
AcDbCircle
 62
7
  6
BYLAYER
 10
28.7776014571
 20
84.6100038238
 40
4.7
100
AcDbArc
 50
179.9999999999
 51
270.0000000001
  0
ARC
  5
32E
100
AcDbEntity
  8
0
100
AcDbCircle
 62
7
  6
BYLAYER
 10
28.4276014571
 20
84.2600038238
 40
4.5
100
AcDbArc
 50
180.0
 51
270.0
  0
ARC
  5
32F
100
AcDbEntity
  8
0
100
AcDbCircle
 62
7
  6
BYLAYER
 10
28.7776014571
 20
84.6100038238
 40
4.0198296302
100
AcDbArc
 50
180.0
 51
270.0
  0
ARC
  5
330
100
AcDbEntity
  8
0
100
AcDbCircle
 62
7
  6
BYLAYER
 10
34.1243293125
 20
78.3067316776
 40
3.9967353703
100
AcDbArc
 50
180.01373386
 51
270.0129267874
  0
ARC
  5
331
100
AcDbEntity
  8
0
100
AcDbCircle
 62
7
  6
BYLAYER
 10
28.7776014571
 20
84.6100038238
 40
3.6811545811
100
AcDbArc
 50
180.0
 51
270.0000000033
  0
ARC
  5
332
100
AcDbEntity
  8
0
100
AcDbCircle
 62
7
  6
BYLAYER
 10
28.130718714
 20
119.9305272025
 40
3.0030563227
100
AcDbArc
 50
179.9647247925
 51
269.9106690298
  0
ARC
  5
333
100
AcDbEntity
  8
0
100
AcDbCircle
 62
7
  6
BYLAYER
 10
28.7776014571
 20
84.6100038238
 40
2.5807704393
100
AcDbArc
 50
180.0000000001
 51
270.0000000033
  0
ARC
  5
334
100
AcDbEntity
  8
0
100
AcDbCircle
 62
7
  6
BYLAYER
 10
23.3297073834
 20
119.8321959751
 40
2.0020648503
100
AcDbArc
 50
179.9707725612
 51
269.9149764024
  0
ARC
  5
335
100
AcDbEntity
  8
0
100
AcDbCircle
 62
7
  6
BYLAYER
 10
28.7776014571
 20
84.6100038238
 40
1.1940199487
100
AcDbArc
 50
179.9999999952
 51
270.000000002
  0
ARC
  5
336
100
AcDbEntity
  8
0
100
AcDbCircle
 62
7
  6
BYLAYER
 10
33.9776014571
 20
170.8100038238
 40
5.0
100
AcDbArc
 50
122.3470022406
 51
179.9999999096
  0
ARC
  5
337
100
AcDbEntity
  8
0
100
AcDbCircle
 62
7
  6
BYLAYER
 10
28.7776014571
 20
176.0100038238
 40
4.7
100
AcDbArc
 50
89.9999999999
 51
180.0000000001
  0
ARC
  5
338
100
AcDbEntity
  8
0
100
AcDbCircle
 62
7
  6
BYLAYER
 10
28.4276014571
 20
176.3600038238
 40
4.5
100
AcDbArc
 50
90.0
 51
180.0
  0
ARC
  5
339
100
AcDbEntity
  8
0
100
AcDbCircle
 62
7
  6
BYLAYER
 10
28.7776014571
 20
176.0100038238
 40
4.0198296302
100
AcDbArc
 50
90.0
 51
180.0
  0
ARC
  5
33A
100
AcDbEntity
  8
0
100
AcDbCircle
 62
7
  6
BYLAYER
 10
34.1243454529
 20
172.3132598313
 40
3.9967526791
100
AcDbArc
 50
90.0113488956
 51
180.0104068595
  0
ARC
  5
33B
100
AcDbEntity
  8
0
100
AcDbCircle
 62
7
  6
BYLAYER
 10
28.7776014571
 20
176.0100038238
 40
3.6811545811
100
AcDbArc
 50
90.0
 51
180.0000000033
  0
ARC
  5
33C
100
AcDbEntity
  8
0
100
AcDbCircle
 62
7
  6
BYLAYER
 10
28.1307188242
 20
130.6894803637
 40
3.0030563423
100
AcDbArc
 50
90.0893346254
 51
180.0353212394
  0
ARC
  5
33D
100
AcDbEntity
  8
0
100
AcDbCircle
 62
7
  6
BYLAYER
 10
28.7776014571
 20
176.0100038238
 40
2.5807704393
100
AcDbArc
 50
90.0000000001
 51
180.0000000032
  0
ARC
  5
33E
100
AcDbEntity
  8
0
100
AcDbCircle
 62
7
  6
BYLAYER
 10
23.3297340957
 20
130.7877841685
 40
2.0020965879
100
AcDbArc
 50
90.0890658712
 51
180.0243775645
  0
ARC
  5
33F
100
AcDbEntity
  8
0
100
AcDbCircle
 62
7
  6
BYLAYER
 10
28.7776014571
 20
176.0100038238
 40
1.1940199487
100
AcDbArc
 50
89.9999999973
 51
180.0000000019
  0
ARC
  5
340
100
AcDbEntity
  8
0
100
AcDbCircle
 62
7
  6
BYLAYER
 10
21.3276014571
 20
162.4600038238
 40
1.0
100
AcDbArc
 50
180.0
 51
270.0
  0
ARC
  5
341
100
AcDbEntity
  8
0
100
AcDbCircle
 62
7
  6
BYLAYER
 10
21.3276014571
 20
170.4600038238
 40
1.0
100
AcDbArc
 50
90.0
 51
180.0
  0
ARC
  5
342
100
AcDbEntity
  8
0
100
AcDbCircle
 62
7
  6
BYLAYER
 10
103.5537760057
 20
116.7141792913
 40
1.4995279028
100
AcDbArc
 50
179.9802942551
 51
269.9982910958
  0
ARC
  5
343
100
AcDbEntity
  8
0
100
AcDbCircle
 62
7
  6
BYLAYER
 10
130.7014269086
 20
125.8618283564
 40
1.4995279028
100
AcDbArc
 50
359.9802228977
 51
89.9982910568
  0
ARC
  5
344
100
AcDbEntity
  8
0
100
AcDbCircle
 62
7
  6
BYLAYER
 10
103.5537769245
 20
111.2638292753
 40
1.4995279029
100
AcDbArc
 50
89.9802230386
 51
179.9982910569
  0
ARC
  5
345
100
AcDbEntity
  8
0
100
AcDbCircle
 62
7
  6
BYLAYER
 10
124.2814269086
 20
111.2638283564
 40
1.4995279028
100
AcDbArc
 50
359.9802228329
 51
89.9982910587
  0
ARC
  5
346
100
AcDbEntity
  8
0
100
AcDbCircle
 62
7
  6
BYLAYER
 10
130.7014270295
 20
116.7141783529
 40
1.4995271571
100
AcDbArc
 50
269.9798708281
 51
359.9980765473
  0
ARC
  5
347
100
AcDbEntity
  8
0
100
AcDbCircle
 62
7
  6
BYLAYER
 10
103.5537758846
 20
125.8618292947
 40
1.4995271572
100
AcDbArc
 50
89.9798001082
 51
179.9980765048
  0
ARC
  5
348
100
AcDbEntity
  8
0
100
AcDbCircle
 62
7
  6
BYLAYER
 10
124.2814270296
 20
102.1161783529
 40
1.499527157
100
AcDbArc
 50
269.9798707626
 51
359.9980765437
  0
ARC
  5
349
100
AcDbEntity
  8
0
100
AcDbCircle
 62
7
  6
BYLAYER
 10
103.5537759863
 20
102.1161782513
 40
1.4995271571
100
AcDbArc
 50
179.979870957
 51
269.9980765464
  0
ARC
  5
34A
100
AcDbEntity
  8
0
100
AcDbCircle
 62
7
  6
BYLAYER
 10
116.4589687807
 20
107.3150830543
 40
0.55
100
AcDbArc
 50
44.9999999998
 51
90.0
  0
ARC
  5
34B
100
AcDbEntity
  8
0
100
AcDbCircle
 62
7
  6
BYLAYER
 10
117.0625222266
 20
106.7115296084
 40
0.55
100
AcDbArc
 50
0.0
 51
44.9999999985
  0
ARC
  5
34C
100
AcDbEntity
  8
0
100
AcDbCircle
 62
7
  6
BYLAYER
 10
117.0625222266
 20
105.9650830543
 40
0.55
100
AcDbArc
 50
270.0
 51
360.0
  0
ARC
  5
34D
100
AcDbEntity
  8
0
100
AcDbCircle
 62
7
  6
BYLAYER
 10
110.6625222266
 20
105.9650830543
 40
0.55
100
AcDbArc
 50
180.0
 51
270.0
  0
ARC
  5
34E
100
AcDbEntity
  8
0
100
AcDbCircle
 62
7
  6
BYLAYER
 10
110.6625222266
 20
106.7115296084
 40
0.55
100
AcDbArc
 50
135.0000000015
 51
180.0
  0
ARC
  5
34F
100
AcDbEntity
  8
0
100
AcDbCircle
 62
7
  6
BYLAYER
 10
111.2660756724
 20
107.3150830543
 40
0.55
100
AcDbArc
 50
90.0
 51
134.9999999979
  0
ARC
  5
350
100
AcDbEntity
  8
0
100
AcDbCircle
 62
7
  6
BYLAYER
 10
111.0805222266
 20
119.0330830543
 40
0.5
100
AcDbArc
 50
185.5577185008
 51
264.4439041883
  0
ARC
  5
351
100
AcDbEntity
  8
0
100
AcDbCircle
 62
7
  6
BYLAYER
 10
111.0805222266
 20
123.6330830543
 40
0.5
100
AcDbArc
 50
95.7129054444
 51
174.4439038086
  0
ARC
  5
352
100
AcDbEntity
  8
0
100
AcDbCircle
 62
7
  6
BYLAYER
 10
123.2805222266
 20
119.0330830543
 40
0.5
100
AcDbArc
 50
270.0
 51
354.2660896074
  0
ARC
  5
353
100
AcDbEntity
  8
0
100
AcDbCircle
 62
7
  6
BYLAYER
 10
123.2805222266
 20
123.6330830543
 40
0.5
100
AcDbArc
 50
5.7306199577
 51
84.2656617944
  0
ARC
  5
354
100
AcDbEntity
  8
0
100
AcDbCircle
 62
7
  6
BYLAYER
 10
110.0221367926
 20
103.8970673454
 40
0.4999185043
100
AcDbArc
 50
89.9993876079
 51
180.0006123919
  0
ARC
  5
355
100
AcDbEntity
  8
0
100
AcDbCircle
 62
7
  6
BYLAYER
 10
117.8130661216
 20
103.8970673454
 40
0.4999185043
100
AcDbArc
 50
359.9993876111
 51
90.0006123879
  0
ARC
  5
356
100
AcDbEntity
  8
0
100
AcDbCircle
 62
7
  6
BYLAYER
 10
110.0221367926
 20
109.4829403021
 40
0.4999185043
100
AcDbArc
 50
179.9993876106
 51
270.0006123879
  0
ARC
  5
357
100
AcDbEntity
  8
0
100
AcDbCircle
 62
7
  6
BYLAYER
 10
117.8130661216
 20
109.4829403021
 40
0.4999185043
100
AcDbArc
 50
269.9993876079
 51
0.0006123919
  0
ARC
  5
358
100
AcDbEntity
  8
0
100
AcDbCircle
 62
7
  6
BYLAYER
 10
117.0625222266
 20
106.7115296084
 40
0.25
100
AcDbArc
 50
0.0
 51
44.9999999993
  0
ARC
  5
359
100
AcDbEntity
  8
0
100
AcDbCircle
 62
7
  6
BYLAYER
 10
116.4589687807
 20
107.3150830543
 40
0.25
100
AcDbArc
 50
44.9999999987
 51
90.0
  0
ARC
  5
35A
100
AcDbEntity
  8
0
100
AcDbCircle
 62
7
  6
BYLAYER
 10
117.0625222266
 20
105.9650830543
 40
0.25
100
AcDbArc
 50
270.0
 51
360.0
  0
ARC
  5
35B
100
AcDbEntity
  8
0
100
AcDbCircle
 62
7
  6
BYLAYER
 10
110.6625222266
 20
105.9650830543
 40
0.25
100
AcDbArc
 50
180.0000000006
 51
270.0
  0
ARC
  5
35C
100
AcDbEntity
  8
0
100
AcDbCircle
 62
7
  6
BYLAYER
 10
111.2660756724
 20
107.3150830543
 40
0.25
100
AcDbArc
 50
90.0
 51
134.9999999982
  0
ARC
  5
35D
100
AcDbEntity
  8
0
100
AcDbCircle
 62
7
  6
BYLAYER
 10
110.6625222266
 20
106.7115296084
 40
0.25
100
AcDbArc
 50
134.9999999985
 51
180.0
  0
ARC
  5
35E
100
AcDbEntity
  8
0
100
AcDbCircle
 62
7
  6
BYLAYER
 10
112.2705221263
 20
122.418082954
 40
0.2400060859
100
AcDbArc
 50
90.0082886385
 51
179.989687566
  0
ARC
  5
35F
100
AcDbEntity
  8
0
100
AcDbCircle
 62
7
  6
BYLAYER
 10
122.0905222266
 20
122.4180830543
 40
0.240005898
100
AcDbArc
 50
0.0052468118
 51
89.9919924309
  0
ARC
  5
360
100
AcDbEntity
  8
0
100
AcDbCircle
 62
7
  6
BYLAYER
 10
110.9805222266
 20
118.9330830543
 40
0.1
100
AcDbArc
 50
180.0000000002
 51
270.0
  0
ARC
  5
361
100
AcDbEntity
  8
0
100
AcDbCircle
 62
7
  6
BYLAYER
 10
110.9805222266
 20
123.7330830543
 40
0.1
100
AcDbArc
 50
90.0000000007
 51
180.0
  0
ARC
  5
362
100
AcDbEntity
  8
0
100
AcDbCircle
 62
7
  6
BYLAYER
 10
123.3805222266
 20
118.9330830543
 40
0.1
100
AcDbArc
 50
270.0
 51
359.9999999883
  0
ARC
  5
363
100
AcDbEntity
  8
0
100
AcDbCircle
 62
7
  6
BYLAYER
 10
123.3805222266
 20
123.7330830543
 40
0.1
100
AcDbArc
 50
0.0
 51
90.0000000009
  0
ARC
  5
364
100
AcDbEntity
  8
0
100
AcDbCircle
 62
7
  6
BYLAYER
 10
154.2776014571
 20
89.8100038238
 40
5.0
100
AcDbArc
 50
322.6441854013
 51
359.9999999096
  0
ARC
  5
365
100
AcDbEntity
  8
0
100
AcDbCircle
 62
7
  6
BYLAYER
 10
159.4776014571
 20
84.6100038238
 40
4.7
100
AcDbArc
 50
269.9999999999
 51
360.0
  0
ARC
  5
366
100
AcDbEntity
  8
0
100
AcDbCircle
 62
7
  6
BYLAYER
 10
159.8276014571
 20
84.2600038238
 40
4.5
100
AcDbArc
 50
270.0
 51
360.0
  0
ARC
  5
367
100
AcDbEntity
  8
0
100
AcDbCircle
 62
7
  6
BYLAYER
 10
159.4776014571
 20
84.6100038238
 40
4.0198296302
100
AcDbArc
 50
270.0
 51
360.0
  0
ARC
  5
368
100
AcDbEntity
  8
0
100
AcDbCircle
 62
7
  6
BYLAYER
 10
154.1308736032
 20
78.3067316792
 40
3.9967353703
100
AcDbArc
 50
270.01373387
 51
0.0129267863
  0
ARC
  5
369
100
AcDbEntity
  8
0
100
AcDbCircle
 62
7
  6
BYLAYER
 10
159.4776014571
 20
84.6100038238
 40
3.6811545811
100
AcDbArc
 50
270.0
 51
360.0
  0
ARC
  5
36A
100
AcDbEntity
  8
0
100
AcDbCircle
 62
7
  6
BYLAYER
 10
159.4776014571
 20
84.6100038238
 40
2.5807704393
100
AcDbArc
 50
270.0000000001
 51
360.0
  0
ARC
  5
36B
100
AcDbEntity
  8
0
100
AcDbCircle
 62
7
  6
BYLAYER
 10
159.4776014571
 20
84.6100038238
 40
1.1940199487
100
AcDbArc
 50
269.9999999953
 51
360.0
  0
ARC
  5
36C
100
AcDbEntity
  8
0
100
AcDbCircle
 62
7
  6
BYLAYER
 10
154.2776014571
 20
170.8100038238
 40
5.0
100
AcDbArc
 50
0.0000000005
 51
57.6531350243
  0
ARC
  5
36D
100
AcDbEntity
  8
0
100
AcDbCircle
 62
7
  6
BYLAYER
 10
159.4776014571
 20
176.0100038238
 40
4.7
100
AcDbArc
 50
0.0
 51
90.0000000001
  0
ARC
  5
36E
100
AcDbEntity
  8
0
100
AcDbCircle
 62
7
  6
BYLAYER
 10
159.8276014571
 20
176.3600038238
 40
4.5
100
AcDbArc
 50
0.0
 51
90.0
  0
ARC
  5
36F
100
AcDbEntity
  8
0
100
AcDbCircle
 62
7
  6
BYLAYER
 10
159.4776014571
 20
176.0100038238
 40
4.0198296302
100
AcDbArc
 50
0.0
 51
90.0
  0
ARC
  5
370
100
AcDbEntity
  8
0
100
AcDbCircle
 62
7
  6
BYLAYER
 10
154.1308574647
 20
172.313259828
 40
3.9967526791
100
AcDbArc
 50
0.0113488991
 51
90.0104068654
  0
ARC
  5
371
100
AcDbEntity
  8
0
100
AcDbCircle
 62
7
  6
BYLAYER
 10
159.4776014571
 20
176.0100038238
 40
3.6811545811
100
AcDbArc
 50
0.0
 51
90.0000000033
  0
ARC
  5
372
100
AcDbEntity
  8
0
100
AcDbCircle
 62
7
  6
BYLAYER
 10
159.4776014571
 20
176.0100038238
 40
2.5807704393
100
AcDbArc
 50
0.0000000001
 51
90.0000000033
  0
ARC
  5
373
100
AcDbEntity
  8
0
100
AcDbCircle
 62
7
  6
BYLAYER
 10
159.4776014571
 20
176.0100038238
 40
1.1940199487
100
AcDbArc
 50
0.0
 51
90.000000002
  0
SPLINE
  5
374
100
AcDbEntity
  8
0
100
AcDbSpline
 62
7
  6
BYLAYER
 70
0
 71
3
 72
13
 73
9
 74
0
 42
0.0000001
 43
0.0000001
 44
0.0000000001
 40
0.0
 40
0.0
 40
0.0
 40
0.0
 40
0.3101296731
 40
0.5886290469
 40
0.7094088534
 40
0.8164737058
 40
0.9118313679
 40
1.0
 40
1.0
 40
1.0
 40
1.0
 10
116.9125222266
 20
105.1900830543
 30
0.0
 10
116.9317742434
 20
105.1900830543
 30
0.0
 10
116.9684099748
 20
105.1938915265
 30
0.0
 10
117.0106245227
 20
105.2084696523
 30
0.0
 10
117.0370343112
 20
105.2258172843
 30
0.0
 10
117.0513233226
 20
105.2401652365
 30
0.0
 10
117.0603760924
 20
105.2560634257
 30
0.0
 10
117.0625222266
 20
105.2675334995
 30
0.0
 10
117.0625222266
 20
105.2730067713
 30
0.0
  0
SPLINE
  5
375
100
AcDbEntity
  8
0
100
AcDbSpline
 62
7
  6
BYLAYER
 70
0
 71
3
 72
13
 73
9
 74
0
 42
0.0000001
 43
0.0000001
 44
0.0000000001
 40
0.0
 40
0.0
 40
0.0
 40
0.0
 40
0.0881686911
 40
0.18352648
 40
0.2905914272
 40
0.4113712662
 40
0.6898706136
 40
1.0
 40
1.0
 40
1.0
 40
1.0
 10
110.6625222266
 20
105.2730067713
 30
0.0
 10
110.6625222266
 20
105.2675334959
 30
0.0
 10
110.6646683748
 20
105.2560634131
 30
0.0
 10
110.6737211477
 20
105.2401652064
 30
0.0
 10
110.6880101826
 20
105.2258172533
 30
0.0
 10
110.7144199814
 20
105.2084696285
 30
0.0
 10
110.756634517
 20
105.1938915215
 30
0.0
 10
110.7932702277
 20
105.1900830543
 30
0.0
 10
110.8125222266
 20
105.1900830543
 30
0.0
  0
SPLINE
  5
376
100
AcDbEntity
  8
0
100
AcDbSpline
 62
7
  6
BYLAYER
 70
0
 71
3
 72
13
 73
9
 74
0
 42
0.0000001
 43
0.0000001
 44
0.0000000001
 40
0.0
 40
0.0
 40
0.0
 40
0.0
 40
0.292252251
 40
0.5613155924
 40
0.6829235916
 40
0.7951956112
 40
0.8998889159
 40
1.0
 40
1.0
 40
1.0
 40
1.0
 10
117.8875222266
 20
106.5615296084
 30
0.0
 10
117.8875222266
 20
106.5808361542
 30
0.0
 10
117.8827894588
 20
106.6180847346
 30
0.0
 10
117.8647388651
 20
106.6603332345
 30
0.0
 10
117.8437980412
 20
106.6863837076
 30
0.0
 10
117.8262728209
 20
106.7006057379
 30
0.0
 10
117.8070364621
 20
106.7094754086
 30
0.0
 10
117.7934352715
 20
106.7115296084
 30
0.0
 10
117.7868218093
 20
106.7115296084
 30
0.0
  0
SPLINE
  5
377
100
AcDbEntity
  8
0
100
AcDbSpline
 62
7
  6
BYLAYER
 70
0
 71
3
 72
13
 73
9
 74
0
 42
0.0000001
 43
0.0000001
 44
0.0000000001
 40
0.0
 40
0.0
 40
0.0
 40
0.0
 40
0.1001111482
 40
0.2048045908
 40
0.3170766974
 40
0.4386847186
 40
0.7077480216
 40
1.0
 40
1.0
 40
1.0
 40
1.0
 10
117.7868218092
 20
106.0750830543
 30
0.0
 10
117.7934352757
 20
106.0750830543
 30
0.0
 10
117.8070364774
 20
106.0771372682
 30
0.0
 10
117.8262728559
 20
106.0860069409
 30
0.0
 10
117.8437980792
 20
106.1002289955
 30
0.0
 10
117.8647388947
 20
106.1262794797
 30
0.0
 10
117.8827894654
 20
106.168527968
 30
0.0
 10
117.8875222266
 20
106.2057765266
 30
0.0
 10
117.8875222266
 20
106.2250830543
 30
0.0
  0
SPLINE
  5
378
100
AcDbEntity
  8
0
100
AcDbSpline
 62
7
  6
BYLAYER
 70
0
 71
3
 72
13
 73
9
 74
0
 42
0.0000001
 43
0.0000001
 44
0.0000000001
 40
0.0
 40
0.0
 40
0.0
 40
0.0
 40
0.0881686911
 40
0.18352648
 40
0.2905914272
 40
0.4113712662
 40
0.6898706136
 40
1.0
 40
1.0
 40
1.0
 40
1.0
 10
109.9704459436
 20
106.7115296084
 30
0.0
 10
109.9649726682
 20
106.7115296084
 30
0.0
 10
109.9535025854
 20
106.7093834602
 30
0.0
 10
109.9376043787
 20
106.7003306873
 30
0.0
 10
109.9232564257
 20
106.6860416524
 30
0.0
 10
109.9059088008
 20
106.6596318536
 30
0.0
 10
109.8913306938
 20
106.617417318
 30
0.0
 10
109.8875222266
 20
106.5807816073
 30
0.0
 10
109.8875222266
 20
106.5615296084
 30
0.0
  0
SPLINE
  5
379
100
AcDbEntity
  8
0
100
AcDbSpline
 62
7
  6
BYLAYER
 70
0
 71
3
 72
13
 73
9
 74
0
 42
0.0000001
 43
0.0000001
 44
0.0000000001
 40
0.0
 40
0.0
 40
0.0
 40
0.0
 40
0.3101296731
 40
0.5886290469
 40
0.7094088533
 40
0.8164737058
 40
0.9118313679
 40
1.0
 40
1.0
 40
1.0
 40
1.0
 10
109.8875222266
 20
106.2250830543
 30
0.0
 10
109.8875222266
 20
106.2058310375
 30
0.0
 10
109.8913306988
 20
106.1691953061
 30
0.0
 10
109.9059088246
 20
106.1269807582
 30
0.0
 10
109.9232564566
 20
106.1005709696
 30
0.0
 10
109.9376044088
 20
106.0862819583
 30
0.0
 10
109.953502598
 20
106.0772291884
 30
0.0
 10
109.9649726718
 20
106.0750830543
 30
0.0
 10
109.9704459436
 20
106.0750830543
 30
0.0
  0
SPLINE
  5
37A
100
AcDbEntity
  8
0
100
AcDbSpline
 62
7
  6
BYLAYER
 70
0
 71
3
 72
13
 73
9
 74
0
 42
0.0000001
 43
0.0000001
 44
0.0000000001
 40
0.0
 40
0.0
 40
0.0
 40
0.0
 40
0.0881686911
 40
0.18352648
 40
0.2905914272
 40
0.4113712662
 40
0.6898706136
 40
1.0
 40
1.0
 40
1.0
 40
1.0
 10
114.4625222266
 20
108.0071593372
 30
0.0
 10
114.4625222266
 20
108.0126326126
 30
0.0
 10
114.4603760784
 20
108.0241026955
 30
0.0
 10
114.4513233054
 20
108.0400009021
 30
0.0
 10
114.4370342705
 20
108.0543488552
 30
0.0
 10
114.4106244718
 20
108.0716964801
 30
0.0
 10
114.3684099362
 20
108.0862745871
 30
0.0
 10
114.3317742255
 20
108.0900830543
 30
0.0
 10
114.3125222266
 20
108.0900830543
 30
0.0
  0
SPLINE
  5
37B
100
AcDbEntity
  8
0
100
AcDbSpline
 62
7
  6
BYLAYER
 70
0
 71
3
 72
13
 73
9
 74
0
 42
0.0000001
 43
0.0000001
 44
0.0000000001
 40
0.0
 40
0.0
 40
0.0
 40
0.0
 40
0.3101296731
 40
0.5886290469
 40
0.7094088534
 40
0.8164737058
 40
0.9118313679
 40
1.0
 40
1.0
 40
1.0
 40
1.0
 10
111.4160756724
 20
108.0900830543
 30
0.0
 10
111.3968236556
 20
108.0900830543
 30
0.0
 10
111.3601879242
 20
108.086274582
 30
0.0
 10
111.3179733763
 20
108.0716964562
 30
0.0
 10
111.2915635878
 20
108.0543488243
 30
0.0
 10
111.2772745764
 20
108.040000872
 30
0.0
 10
111.2682218065
 20
108.0241026828
 30
0.0
 10
111.2660756724
 20
108.012632609
 30
0.0
 10
111.2660756724
 20
108.0071593372
 30
0.0
  0
SPLINE
  5
37C
100
AcDbEntity
  8
0
100
AcDbSpline
 62
7
  6
BYLAYER
 70
0
 71
3
 72
13
 73
9
 74
0
 42
0.0000001
 43
0.0000001
 44
0.0000000001
 40
0.0
 40
0.0
 40
0.0
 40
0.0
 40
0.3101296731
 40
0.5886290469
 40
0.7094088534
 40
0.8164737058
 40
0.9118313679
 40
1.0
 40
1.0
 40
1.0
 40
1.0
 10
114.6425222266
 20
108.0900830543
 30
0.0
 10
114.6232702097
 20
108.0900830543
 30
0.0
 10
114.5866344784
 20
108.086274582
 30
0.0
 10
114.5444199305
 20
108.0716964562
 30
0.0
 10
114.5180101419
 20
108.0543488243
 30
0.0
 10
114.5037211306
 20
108.040000872
 30
0.0
 10
114.4946683607
 20
108.0241026828
 30
0.0
 10
114.4925222266
 20
108.012632609
 30
0.0
 10
114.4925222266
 20
108.0071593372
 30
0.0
  0
SPLINE
  5
37D
100
AcDbEntity
  8
0
100
AcDbSpline
 62
7
  6
BYLAYER
 70
0
 71
3
 72
13
 73
9
 74
0
 42
0.0000001
 43
0.0000001
 44
0.0000000001
 40
0.0
 40
0.0
 40
0.0
 40
0.0
 40
0.0881686911
 40
0.18352648
 40
0.2905914272
 40
0.4113712662
 40
0.6898706136
 40
1.0
 40
1.0
 40
1.0
 40
1.0
 10
116.4589687807
 20
108.0071593372
 30
0.0
 10
116.4589687807
 20
108.0126326126
 30
0.0
 10
116.4568226325
 20
108.0241026955
 30
0.0
 10
116.4477698596
 20
108.0400009021
 30
0.0
 10
116.4334808247
 20
108.0543488552
 30
0.0
 10
116.4070710259
 20
108.0716964801
 30
0.0
 10
116.3648564904
 20
108.0862745871
 30
0.0
 10
116.3282207796
 20
108.0900830543
 30
0.0
 10
116.3089687807
 20
108.0900830543
 30
0.0
  0
SPLINE
  5
37E
100
AcDbEntity
  8
0
100
AcDbSpline
 62
7
  6
BYLAYER
 70
0
 71
3
 72
11
 73
7
 74
0
 42
0.0000001
 43
0.0000001
 44
0.0000000001
 40
0.0
 40
0.0
 40
0.0
 40
0.0
 40
0.301142581
 40
0.5649876883
 40
0.7936486203
 40
1.0
 40
1.0
 40
1.0
 40
1.0
 10
114.4025239455
 20
107.8235083412
 30
0.0
 10
114.4112696279
 20
107.8198821105
 30
0.0
 10
114.4271913529
 20
107.8117459176
 30
0.0
 10
114.4467357763
 20
107.7958512344
 30
0.0
 10
114.4594288237
 20
107.7774450979
 30
0.0
 10
114.4625222266
 20
107.7636575848
 30
0.0
 10
114.4625222266
 20
107.7571700802
 30
0.0
  0
SPLINE
  5
37F
100
AcDbEntity
  8
0
100
AcDbSpline
 62
7
  6
BYLAYER
 70
0
 71
3
 72
11
 73
7
 74
0
 42
0.0000001
 43
0.0000001
 44
0.0000000001
 40
0.0
 40
0.0
 40
0.0
 40
0.0
 40
0.2063513797
 40
0.4350123117
 40
0.698857419
 40
1.0
 40
1.0
 40
1.0
 40
1.0
 10
111.2660756724
 20
107.7571700802
 30
0.0
 10
111.2660756724
 20
107.7636575848
 30
0.0
 10
111.2691690753
 20
107.7774450979
 30
0.0
 10
111.2818621227
 20
107.7958512344
 30
0.0
 10
111.3014065461
 20
107.8117459176
 30
0.0
 10
111.3173282711
 20
107.8198821105
 30
0.0
 10
111.3260739535
 20
107.8235083412
 30
0.0
  0
SPLINE
  5
380
100
AcDbEntity
  8
0
100
AcDbSpline
 62
7
  6
BYLAYER
 70
0
 71
3
 72
11
 73
7
 74
0
 42
0.0000001
 43
0.0000001
 44
0.0000000001
 40
0.0
 40
0.0
 40
0.0
 40
0.0
 40
0.2813591604
 40
0.5390081382
 40
0.7757570033
 40
1.0
 40
1.0
 40
1.0
 40
1.0
 10
117.6425313266
 20
106.1303118981
 30
0.0
 10
117.6380260546
 20
106.1220787123
 30
0.0
 10
117.6279199834
 20
106.1070347679
 30
0.0
 10
117.6089217984
 20
106.0890893806
 30
0.0
 10
117.5874334714
 20
106.0777343108
 30
0.0
 10
117.5719559309
 20
106.0750830543
 30
0.0
 10
117.564475899
 20
106.0750830543
 30
0.0
  0
SPLINE
  5
381
100
AcDbEntity
  8
0
100
AcDbSpline
 62
7
  6
BYLAYER
 70
0
 71
3
 72
11
 73
7
 74
0
 42
0.0000001
 43
0.0000001
 44
0.0000000001
 40
0.0
 40
0.0
 40
0.0
 40
0.0
 40
0.2063513797
 40
0.4350123117
 40
0.698857419
 40
1.0
 40
1.0
 40
1.0
 40
1.0
 10
114.4925222266
 20
107.7571700802
 30
0.0
 10
114.4925222266
 20
107.7636575848
 30
0.0
 10
114.4956156295
 20
107.7774450979
 30
0.0
 10
114.5083086769
 20
107.7958512344
 30
0.0
 10
114.5278531003
 20
107.8117459176
 30
0.0
 10
114.5437748253
 20
107.8198821105
 30
0.0
 10
114.5525205076
 20
107.8235083412
 30
0.0
  0
SPLINE
  5
382
100
AcDbEntity
  8
0
100
AcDbSpline
 62
7
  6
BYLAYER
 70
0
 71
3
 72
11
 73
7
 74
0
 42
0.0000001
 43
0.0000001
 44
0.0000000001
 40
0.0
 40
0.0
 40
0.0
 40
0.0
 40
0.301142581
 40
0.5649876883
 40
0.7936486203
 40
1.0
 40
1.0
 40
1.0
 40
1.0
 10
116.3989704997
 20
107.8235083412
 30
0.0
 10
116.4077161821
 20
107.8198821105
 30
0.0
 10
116.4236379071
 20
107.8117459176
 30
0.0
 10
116.4431823304
 20
107.7958512344
 30
0.0
 10
116.4558753778
 20
107.7774450979
 30
0.0
 10
116.4589687807
 20
107.7636575848
 30
0.0
 10
116.4589687807
 20
107.7571700802
 30
0.0
  0
SPLINE
  5
383
100
AcDbEntity
  8
0
100
AcDbSpline
 62
7
  6
BYLAYER
 70
0
 71
3
 72
11
 73
7
 74
0
 42
0.0000001
 43
0.0000001
 44
0.0000000001
 40
0.0
 40
0.0
 40
0.0
 40
0.0
 40
0.2242429967
 40
0.4609918618
 40
0.7186408396
 40
1.0
 40
1.0
 40
1.0
 40
1.0
 10
117.564475899
 20
106.7115296084
 30
0.0
 10
117.5719559309
 20
106.7115296084
 30
0.0
 10
117.5874334714
 20
106.7088783519
 30
0.0
 10
117.6089217984
 20
106.6975232821
 30
0.0
 10
117.6279199834
 20
106.6795778948
 30
0.0
 10
117.6380260546
 20
106.6645339504
 30
0.0
 10
117.6425313266
 20
106.6563007646
 30
0.0
  0
SPLINE
  5
384
100
AcDbEntity
  8
0
100
AcDbSpline
 62
7
  6
BYLAYER
 70
0
 71
3
 72
11
 73
7
 74
0
 42
0.0000001
 43
0.0000001
 44
0.0000000001
 40
0.0
 40
0.0
 40
0.0
 40
0.0
 40
0.2063513797
 40
0.4350123117
 40
0.698857419
 40
1.0
 40
1.0
 40
1.0
 40
1.0
 10
117.0625222266
 20
105.5229960283
 30
0.0
 10
117.0625222266
 20
105.5165085237
 30
0.0
 10
117.0594288237
 20
105.5027210106
 30
0.0
 10
117.0467357762
 20
105.4843148741
 30
0.0
 10
117.0271913529
 20
105.4684201909
 30
0.0
 10
117.0112696279
 20
105.460283998
 30
0.0
 10
117.0025239455
 20
105.4566577674
 30
0.0
  0
SPLINE
  5
385
100
AcDbEntity
  8
0
100
AcDbSpline
 62
7
  6
BYLAYER
 70
0
 71
3
 72
11
 73
7
 74
0
 42
0.0000001
 43
0.0000001
 44
0.0000000001
 40
0.0
 40
0.0
 40
0.0
 40
0.0
 40
0.301142581
 40
0.5649876883
 40
0.7936486203
 40
1.0
 40
1.0
 40
1.0
 40
1.0
 10
110.7225205076
 20
105.4566577674
 30
0.0
 10
110.7137748253
 20
105.460283998
 30
0.0
 10
110.6978531003
 20
105.4684201909
 30
0.0
 10
110.6783086769
 20
105.4843148741
 30
0.0
 10
110.6656156295
 20
105.5027210106
 30
0.0
 10
110.6625222266
 20
105.5165085237
 30
0.0
 10
110.6625222266
 20
105.5229960283
 30
0.0
  0
SPLINE
  5
386
100
AcDbEntity
  8
0
100
AcDbSpline
 62
7
  6
BYLAYER
 70
0
 71
3
 72
11
 73
7
 74
0
 42
0.0000001
 43
0.0000001
 44
0.0000000001
 40
0.0
 40
0.0
 40
0.0
 40
0.0
 40
0.2063513797
 40
0.4350123117
 40
0.698857419
 40
1.0
 40
1.0
 40
1.0
 40
1.0
 10
110.2204352006
 20
106.0750830543
 30
0.0
 10
110.213947696
 20
106.0750830543
 30
0.0
 10
110.2001601829
 20
106.0781764572
 30
0.0
 10
110.1817540464
 20
106.0908695046
 30
0.0
 10
110.1658593632
 20
106.110413928
 30
0.0
 10
110.1577231703
 20
106.126335653
 30
0.0
 10
110.1540969397
 20
106.1350813353
 30
0.0
  0
SPLINE
  5
387
100
AcDbEntity
  8
0
100
AcDbSpline
 62
7
  6
BYLAYER
 70
0
 71
3
 72
11
 73
7
 74
0
 42
0.0000001
 43
0.0000001
 44
0.0000000001
 40
0.0
 40
0.0
 40
0.0
 40
0.0
 40
0.301142581
 40
0.5649876883
 40
0.7936486203
 40
1.0
 40
1.0
 40
1.0
 40
1.0
 10
110.1540969397
 20
106.6515313274
 30
0.0
 10
110.1577231703
 20
106.6602770097
 30
0.0
 10
110.1658593632
 20
106.6761987347
 30
0.0
 10
110.1817540464
 20
106.6957431581
 30
0.0
 10
110.2001601829
 20
106.7084362055
 30
0.0
 10
110.213947696
 20
106.7115296084
 30
0.0
 10
110.2204352006
 20
106.7115296084
 30
0.0
  0
SPLINE
  5
388
100
AcDbEntity
  8
0
100
AcDbSpline
 62
7
  6
BYLAYER
 70
0
 71
3
 72
15
 73
11
 74
0
 42
0.0000001
 43
0.0000001
 44
0.0000000001
 40
0.0
 40
0.0
 40
0.0
 40
0.0
 40
0.1249790672
 40
0.2499885964
 40
0.3749743651
 40
0.4999738853
 40
0.6249770712
 40
0.7499741657
 40
0.8750007345
 40
1.0
 40
1.0
 40
1.0
 40
1.0
 10
164.9282444316
 20
117.830175637
 30
0.0
 10
165.0589742631
 20
117.8302832129
 30
0.0
 10
165.3211639245
 20
117.8563816218
 30
0.0
 10
165.6986803581
 20
117.9713711421
 30
0.0
 10
166.0466398479
 20
118.1579096015
 30
0.0
 10
166.3515348326
 20
118.4086624466
 30
0.0
 10
166.6016682397
 20
118.7140790457
 30
0.0
 10
166.7875550034
 20
119.0624186385
 30
0.0
 10
166.9019209091
 20
119.4401751843
 30
0.0
 10
166.9276293096
 20
119.702432169
 30
0.0
 10
166.9276015407
 20
119.8331831694
 30
0.0
  0
SPLINE
  5
389
100
AcDbEntity
  8
0
100
AcDbSpline
 62
7
  6
BYLAYER
 70
0
 71
3
 72
15
 73
11
 74
0
 42
0.0000001
 43
0.0000001
 44
0.0000000001
 40
0.0
 40
0.0
 40
0.0
 40
0.0
 40
0.1250103553
 40
0.2500190261
 40
0.3750244323
 40
0.5000261596
 40
0.6250239812
 40
0.7500183523
 40
0.875009905
 40
1.0
 40
1.0
 40
1.0
 40
1.0
 10
163.1276016041
 20
130.6878252337
 30
0.0
 10
163.1276449403
 20
130.8839617764
 30
0.0
 10
163.0891449638
 20
131.2773301102
 30
0.0
 10
162.9175715345
 20
131.8439344645
 30
0.0
 10
162.6388568827
 20
132.3664596991
 30
0.0
 10
162.2636618977
 20
132.8245721679
 30
0.0
 10
161.8063876558
 20
133.2007617132
 30
0.0
 10
161.2844791995
 20
133.4805466941
 30
0.0
 10
160.7182558478
 20
133.6531127136
 30
0.0
 10
160.3249964596
 20
133.6922955506
 30
0.0
 10
160.1288917744
 20
133.6924666035
 30
0.0
  0
SPLINE
  5
38A
100
AcDbEntity
  8
0
100
AcDbSpline
 62
7
  6
BYLAYER
 70
0
 71
3
 72
15
 73
11
 74
0
 42
0.0000001
 43
0.0000001
 44
0.0000000001
 40
0.0
 40
0.0
 40
0.0
 40
0.0
 40
0.1249991187
 40
0.2500256152
 40
0.3750226548
 40
0.5000258522
 40
0.6250254245
 40
0.7500112021
 40
0.8750209045
 40
1.0
 40
1.0
 40
1.0
 40
1.0
 10
166.92760154
 20
130.7869211752
 30
0.0
 10
166.9276260314
 20
130.9176642673
 30
0.0
 10
166.9019046126
 20
131.1799043009
 30
0.0
 10
166.7875343881
 20
131.5576339427
 30
0.0
 10
166.6016528449
 20
131.90594947
 30
0.0
 10
166.3515319524
 20
132.2113456496
 30
0.0
 10
166.0466567096
 20
132.4620852287
 30
0.0
 10
165.6987205474
 20
132.648617885
 30
0.0
 10
165.3212301997
 20
132.7636106696
 30
0.0
 10
165.0590569964
 20
132.7897216495
 30
0.0
 10
164.9283348918
 20
132.7898319528
 30
0.0
  0
SPLINE
  5
38B
100
AcDbEntity
  8
0
100
AcDbSpline
 62
7
  6
BYLAYER
 70
0
 71
3
 72
15
 73
11
 74
0
 42
0.0000001
 43
0.0000001
 44
0.0000000001
 40
0.0
 40
0.0
 40
0.0
 40
0.0
 40
0.1249900102
 40
0.2499815005
 40
0.3749758729
 40
0.499973716
 40
0.6249754831
 40
0.749980929
 40
0.8749896357
 40
1.0
 40
1.0
 40
1.0
 40
1.0
 10
160.1288927186
 20
116.9275410374
 30
0.0
 10
160.3249971015
 20
116.9277120349
 30
0.0
 10
160.7182558955
 20
116.9668951399
 30
0.0
 10
161.2844785429
 20
117.1394607953
 30
0.0
 10
161.8063865931
 20
117.4192453278
 30
0.0
 10
162.2636607034
 20
117.7954343725
 30
0.0
 10
162.6388557476
 20
118.2535463287
 30
0.0
 10
162.9175706636
 20
118.7760710553
 30
0.0
 10
163.0891443899
 20
119.3426748991
 30
0.0
 10
163.1276448918
 20
119.7360429285
 30
0.0
 10
163.1276015966
 20
119.932179316
 30
0.0
  0
SPLINE
  5
38C
100
AcDbEntity
  8
0
100
AcDbSpline
 62
7
  6
BYLAYER
 70
0
 71
3
 72
8
 73
4
 74
0
 42
0.0000001
 43
0.0000001
 44
0.0000000001
 40
0.0
 40
0.0
 40
0.0
 40
0.0
 40
1.0
 40
1.0
 40
1.0
 40
1.0
 10
144.3183073851
 20
98.7461909221
 30
0.0
 10
145.0254116086
 20
98.7461909221
 30
0.0
 10
145.8183019594
 20
99.5390812729
 30
0.0
 10
145.8183019595
 20
100.2461854964
 30
0.0
  0
SPLINE
  5
38D
100
AcDbEntity
  8
0
100
AcDbSpline
 62
7
  6
BYLAYER
 70
0
 71
3
 72
8
 73
4
 74
0
 42
0.0000001
 43
0.0000001
 44
0.0000000001
 40
0.0
 40
0.0
 40
0.0
 40
0.0
 40
1.0
 40
1.0
 40
1.0
 40
1.0
 10
145.8183019594
 20
141.2889860503
 30
0.0
 10
145.8183019595
 20
141.9961714801
 30
0.0
 10
145.025492815
 20
142.7893251342
 30
0.0
 10
144.3183073852
 20
142.7893251342
 30
0.0
  0
SPLINE
  5
38E
100
AcDbEntity
  8
0
100
AcDbSpline
 62
7
  6
BYLAYER
 70
0
 71
3
 72
8
 73
4
 74
0
 42
0.0000001
 43
0.0000001
 44
0.0000000001
 40
0.0
 40
0.0
 40
0.0
 40
0.0
 40
1.0
 40
1.0
 40
1.0
 40
1.0
 10
43.9371821933
 20
142.7893251342
 30
0.0
 10
43.2300373585
 20
142.7893251342
 30
0.0
 10
42.4373598737
 20
141.9961308852
 30
0.0
 10
42.4373598737
 20
141.2889860504
 30
0.0
  0
SPLINE
  5
38F
100
AcDbEntity
  8
0
100
AcDbSpline
 62
7
  6
BYLAYER
 70
0
 71
3
 72
8
 73
4
 74
0
 42
0.0000001
 43
0.0000001
 44
0.0000000001
 40
0.0
 40
0.0
 40
0.0
 40
0.0
 40
1.0
 40
1.0
 40
1.0
 40
1.0
 10
42.4373598737
 20
100.2461854965
 30
0.0
 10
42.4373598737
 20
99.5391218726
 30
0.0
 10
43.2301185694
 20
98.7461909222
 30
0.0
 10
43.9371821932
 20
98.7461909222
 30
0.0
  0
SPLINE
  5
390
100
AcDbEntity
  8
0
100
AcDbSpline
 62
7
  6
BYLAYER
 70
0
 71
3
 72
13
 73
9
 74
0
 42
0.0000001
 43
0.0000001
 44
0.0000000001
 40
0.0
 40
0.0
 40
0.0
 40
0.0
 40
0.2494176984
 40
0.4987937816
 40
0.6240990606
 40
0.7493768456
 40
0.8747347858
 40
1.0
 40
1.0
 40
1.0
 40
1.0
 10
34.1259898709
 20
176.3100038982
 30
0.0
 10
33.6055516991
 20
176.3099123431
 30
0.0
 10
32.5539114315
 20
176.1011887634
 30
0.0
 10
31.4435675514
 20
175.3554914781
 30
0.0
 10
30.7792237623
 20
174.5437714686
 30
0.0
 10
30.4072072526
 20
173.8471429512
 30
0.0
 10
30.1788996125
 20
173.0917366273
 30
0.0
 10
30.1275562801
 20
172.5673375669
 30
0.0
 10
30.1276014722
 20
172.3059575626
 30
0.0
  0
SPLINE
  5
391
100
AcDbEntity
  8
0
100
AcDbSpline
 62
7
  6
BYLAYER
 70
0
 71
3
 72
13
 73
9
 74
0
 42
0.0000001
 43
0.0000001
 44
0.0000000001
 40
0.0
 40
0.0
 40
0.0
 40
0.0
 40
0.1252651773
 40
0.2506230538
 40
0.375900819
 40
0.5012060912
 40
0.7505822001
 40
1.0
 40
1.0
 40
1.0
 40
1.0
 10
158.127601442
 20
172.3059571719
 30
0.0
 10
158.1276466586
 20
172.5673371362
 30
0.0
 10
158.0763034982
 20
173.0917360782
 30
0.0
 10
157.8479959039
 20
173.8471422719
 30
0.0
 10
157.4759795831
 20
174.5437707913
 30
0.0
 10
156.8116358652
 20
175.3554910536
 30
0.0
 10
155.7012916931
 20
176.1011887377
 30
0.0
 10
154.649650975
 20
176.3099123832
 30
0.0
 10
154.1292125181
 20
176.3100038897
 30
0.0
  0
SPLINE
  5
392
100
AcDbEntity
  8
0
100
AcDbSpline
 62
7
  6
BYLAYER
 70
0
 71
3
 72
13
 73
9
 74
0
 42
0.0000001
 43
0.0000001
 44
0.0000000001
 40
0.0
 40
0.0
 40
0.0
 40
0.0
 40
0.2494177016
 40
0.4987937835
 40
0.6240990622
 40
0.7493768471
 40
0.8747347869
 40
1.0
 40
1.0
 40
1.0
 40
1.0
 10
154.1292110565
 20
74.3100037493
 30
0.0
 10
154.6496492961
 20
74.3100952732
 30
0.0
 10
155.701289738
 20
74.5188182852
 30
0.0
 10
156.8116341638
 20
75.264515114
 30
0.0
 10
157.4759783886
 20
76.0762349193
 30
0.0
 10
157.8479952629
 20
76.7728633458
 30
0.0
 10
158.0763032409
 20
77.5282696664
 30
0.0
 10
158.1276466671
 20
78.0526687941
 30
0.0
 10
158.127601442
 20
78.314048827
 30
0.0
  0
SPLINE
  5
393
100
AcDbEntity
  8
0
100
AcDbSpline
 62
7
  6
BYLAYER
 70
0
 71
3
 72
13
 73
9
 74
0
 42
0.0000001
 43
0.0000001
 44
0.0000000001
 40
0.0
 40
0.0
 40
0.0
 40
0.0
 40
0.1252651766
 40
0.2506230528
 40
0.3759008177
 40
0.5012060897
 40
0.7505821982
 40
1.0
 40
1.0
 40
1.0
 40
1.0
 10
30.1276014722
 20
78.3140491638
 30
0.0
 10
30.1275562717
 20
78.0526692322
 30
0.0
 10
30.1788995491
 20
77.5282703578
 30
0.0
 10
30.4072073654
 20
76.7728643323
 30
0.0
 10
30.7792238593
 20
76.076236016
 30
0.0
 10
31.4435677169
 20
75.2645160373
 30
0.0
 10
32.5539119536
 20
74.5188187121
 30
0.0
 10
33.6055525422
 20
74.3100953306
 30
0.0
 10
34.125990941
 20
74.3100037578
 30
0.0
  0
SPLINE
  5
394
100
AcDbEntity
  8
0
100
AcDbSpline
 62
7
  6
BYLAYER
 70
0
 71
3
 72
13
 73
9
 74
0
 42
0.0000001
 43
0.0000001
 44
0.0000000001
 40
0.0
 40
0.0
 40
0.0
 40
0.0
 40
0.1252651767
 40
0.2506230529
 40
0.3759008179
 40
0.5012060899
 40
0.7505821983
 40
1.0
 40
1.0
 40
1.0
 40
1.0
 10
158.127601442
 20
79.0473857032
 30
0.0
 10
158.1276466671
 20
78.7860057404
 30
0.0
 10
158.076303427
 20
78.2616067981
 30
0.0
 10
157.8479956283
 20
77.5062006674
 30
0.0
 10
157.4759791142
 20
76.8095722533
 30
0.0
 10
156.8116351871
 20
75.9978521685
 30
0.0
 10
155.7012907949
 20
75.2521547745
 30
0.0
 10
154.6496500595
 20
75.0434314411
 30
0.0
 10
154.129211599
 20
75.0433399171
 30
0.0
  0
SPLINE
  5
395
100
AcDbEntity
  8
0
100
AcDbSpline
 62
7
  6
BYLAYER
 70
0
 71
3
 72
13
 73
9
 74
0
 42
0.0000001
 43
0.0000001
 44
0.0000000001
 40
0.0
 40
0.0
 40
0.0
 40
0.0
 40
0.1252651772
 40
0.2506230537
 40
0.3759008187
 40
0.5012060909
 40
0.7505821999
 40
1.0
 40
1.0
 40
1.0
 40
1.0
 10
30.1276014722
 20
171.5726213908
 30
0.0
 10
30.1275562801
 20
171.8340013239
 30
0.0
 10
30.1788994776
 20
172.3584001981
 30
0.0
 10
30.4072070891
 20
173.1138062869
 30
0.0
 10
30.7792233896
 20
173.8104347086
 30
0.0
 10
31.4435670377
 20
174.6221548652
 30
0.0
 10
32.5539110541
 20
175.3678524811
 30
0.0
 10
33.6055516255
 20
175.5765761752
 30
0.0
 10
34.1259900208
 20
175.5766677304
 30
0.0
  0
SPLINE
  5
396
100
AcDbEntity
  8
0
100
AcDbSpline
 62
7
  6
BYLAYER
 70
0
 71
3
 72
13
 73
9
 74
0
 42
0.0000001
 43
0.0000001
 44
0.0000000001
 40
0.0
 40
0.0
 40
0.0
 40
0.0
 40
0.2494176983
 40
0.4987937813
 40
0.6240990603
 40
0.7493768454
 40
0.8747347858
 40
1.0
 40
1.0
 40
1.0
 40
1.0
 10
154.1292126723
 20
175.5766677389
 30
0.0
 10
154.6496509052
 20
175.5765762324
 30
0.0
 10
155.7012913182
 20
175.3678526998
 30
0.0
 10
156.8116353525
 20
174.6221553469
 30
0.0
 10
157.4759792106
 20
173.8104352323
 30
0.0
 10
157.8479957402
 20
173.113806618
 30
0.0
 10
158.0763033631
 20
172.35840019
 30
0.0
 10
158.1276466586
 20
171.8340010622
 30
0.0
 10
158.127601442
 20
171.572621027
 30
0.0
  0
SPLINE
  5
397
100
AcDbEntity
  8
0
100
AcDbSpline
 62
7
  6
BYLAYER
 70
0
 71
3
 72
13
 73
9
 74
0
 42
0.0000001
 43
0.0000001
 44
0.0000000001
 40
0.0
 40
0.0
 40
0.0
 40
0.0
 40
0.2494177017
 40
0.4987937838
 40
0.6240990624
 40
0.7493768473
 40
0.8747347869
 40
1.0
 40
1.0
 40
1.0
 40
1.0
 10
34.1259914861
 20
75.0433399086
 30
0.0
 10
33.6055533077
 20
75.0434314814
 30
0.0
 10
32.5539130115
 20
75.2521545405
 30
0.0
 10
31.4435687399
 20
75.9978513015
 30
0.0
 10
30.7792245844
 20
76.8095710016
 30
0.0
 10
30.40720773
 20
77.506199331
 30
0.0
 10
30.1788997346
 20
78.2616055473
 30
0.0
 10
30.1275562716
 20
78.7860046076
 30
0.0
 10
30.1276014722
 20
79.0473846095
 30
0.0
  0
ELLIPSE
  5
398
100
AcDbEntity
  8
0
100
AcDbEllipse
 62
7
  6
BYLAYER
 10
110.8125222266
 20
105.6737224053
 30
0.0
 11
0.0
 21
0.2713337125
 31
0.0
 40
0.5528247803
 41
-3.7851080869
 42
-3.1415926536
  0
ELLIPSE
  5
399
100
AcDbEntity
  8
0
100
AcDbEllipse
 62
7
  6
BYLAYER
 10
110.3711615776
 20
106.2250830543
 30
0.0
 11
-0.2713337125
 21
0.0
 31
0.0
 40
0.5528247803
 41
-0.0000000003
 42
0.6435154333
  0
ELLIPSE
  5
39A
100
AcDbEntity
  8
0
100
AcDbEllipse
 62
7
  6
BYLAYER
 10
110.3711615776
 20
106.5615296084
 30
0.0
 11
0.2713337125
 21
-0.0
 31
0.0
 40
0.5528247803
 41
2.4980772203
 42
3.1415926536
  0
ELLIPSE
  5
39B
100
AcDbEntity
  8
0
100
AcDbEllipse
 62
7
  6
BYLAYER
 10
117.4693412182
 20
106.5615296084
 30
0.0
 11
0.2234350223
 21
0.0
 31
0.0
 40
0.6713361157
 41
-0.0000000003
 42
0.6838831506
  0
ELLIPSE
  5
39C
100
AcDbEntity
  8
0
100
AcDbEllipse
 62
7
  6
BYLAYER
 10
117.4693412182
 20
106.2250830543
 30
0.0
 11
0.2234350223
 21
-0.0
 31
0.0
 40
0.6713361157
 41
-0.6838831506
 42
-0.0
  0
ELLIPSE
  5
39D
100
AcDbEntity
  8
0
100
AcDbEllipse
 62
7
  6
BYLAYER
 10
111.4160756724
 20
107.6064437032
 30
0.0
 11
0.0
 21
0.2713337125
 31
0.0
 40
0.5528247803
 41
0.0
 42
0.6435154333
  0
ELLIPSE
  5
39E
100
AcDbEntity
  8
0
100
AcDbEllipse
 62
7
  6
BYLAYER
 10
114.6425222266
 20
107.6064437032
 30
0.0
 11
0.0
 21
0.2713337125
 31
0.0
 40
0.5528247803
 41
0.0
 42
0.6435154333
  0
ELLIPSE
  5
39F
100
AcDbEntity
  8
0
100
AcDbEllipse
 62
7
  6
BYLAYER
 10
116.3089687807
 20
107.6064437032
 30
0.0
 11
0.0
 21
0.2713337125
 31
0.0
 40
0.5528247803
 41
-0.6435154333
 42
-0.0
  0
ELLIPSE
  5
3A0
100
AcDbEntity
  8
0
100
AcDbEllipse
 62
7
  6
BYLAYER
 10
114.3125222266
 20
107.6064437032
 30
0.0
 11
0.0
 21
0.2713337125
 31
0.0
 40
0.5528247803
 41
-0.6435154333
 42
-0.0
  0
ELLIPSE
  5
3A1
100
AcDbEntity
  8
0
100
AcDbEllipse
 62
7
  6
BYLAYER
 10
116.9125222266
 20
105.6737224053
 30
0.0
 11
0.0
 21
-0.2713337125
 31
0.0
 40
0.5528247803
 41
-0.0
 42
0.6435154333
  0
ENDSEC
  0
SECTION
  2
OBJECTS
  0
DICTIONARY
  5
C
100
AcDbDictionary
280
0
281
1
  3
ACAD_GROUP
350
D
  3
ACAD_MLINESTYLE
350
17
  3
ACAD_LAYOUT
350
1A
  3
ACAD_PLOTSETTINGS
350
19
  3
ACAD_PLOTSTYLENAME
350
E
  0
DICTIONARY
  5
D
102
{ACAD_REACTORS
330
C
102
}
100
AcDbDictionary
280
0
281
1
  0
ACDBDICTIONARYWDFLT
  5
E
102
{ACAD_REACTORS
330
C
102
}
100
AcDbDictionary
281
1
  3
Normal
350
F
100
AcDbDictionaryWithDefault
340
F
  0
DICTIONARY
  5
17
102
{ACAD_REACTORS
330
C
102
}
100
AcDbDictionary
280
0
281
1
  3
Standard
350
18
  0
DICTIONARY
  5
19
102
{ACAD_REACTORS
330
C
102
}
100
AcDbDictionary
281
1
  0
DICTIONARY
  5
1A
102
{ACAD_REACTORS
330
C
102
}
100
AcDbDictionary
281
1
  3
Model
350
3A2
  3
Layout1
350
3A3
  0
ACDBPLACEHOLDER
  5
F
102
{ACAD_REACTORS
330
E
102
}
  0
MLINESTYLE
  5
18
102
{ACAD_REACTORS
330
17
102
}
100
AcDbMlineStyle
  2
STANDARD
 70
0
  3

 62
256
 51
90.0
 52
90.0
 71
2
 49
0.5
 62
256
  6
BYLAYER
 49
-0.5
 62
256
  6
BYLAYER
  0
LAYOUT
  5
3A2
102
{ACAD_REACTORS
330
1A
102
}
100
AcDbPlotSettings
  1

  2
none_device
  4

  6

 40
0.0
 41
0.0
 42
0.0
 43
0.0
 44
210.0
 45
297.0
 46
0.0
 47
0.0
 48
0.0
 49
0.0
140
0.0
141
0.0
142
1.0
143
1.0
 70
1024
 72
1
 73
0
 74
0
  7

 75
0
147
1.0
148
0.0
149
0.0
100
AcDbLayout
  1
Model
 70
0
 71
0
 10
0.0
 20
0.0
 11
210.0
 21
297.0
 12
0.0
 22
0.0
 32
0.0
 14
0.0
 24
0.0
 34
0.0
 15
0.0
 25
0.0
 35
0.0
146
0.0
 13
0.0
 23
0.0
 33
0.0
 16
1.0
 26
0.0
 36
0.0
 17
0.0
 27
1.0
 37
0.0
 76
0
330
211
345
0
346
0
  0
LAYOUT
  5
3A3
102
{ACAD_REACTORS
330
1A
102
}
100
AcDbPlotSettings
  1

  2
none_device
  4

  6

 40
0.0
 41
0.0
 42
0.0
 43
0.0
 44
210.0
 45
297.0
 46
0.0
 47
0.0
 48
0.0
 49
0.0
140
0.0
141
0.0
142
1.0
143
1.0
 70
0
 72
1
 73
0
 74
0
  7

 75
0
147
1.0
148
0.0
149
0.0
100
AcDbLayout
  1
Layout1
 70
0
 71
1
 10
0.0
 20
0.0
 11
210.0
 21
297.0
 12
0.0
 22
0.0
 32
0.0
 14
0.0
 24
0.0
 34
0.0
 15
0.0
 25
0.0
 35
0.0
146
0.0
 13
0.0
 23
0.0
 33
0.0
 16
1.0
 26
0.0
 36
0.0
 17
0.0
 27
1.0
 37
0.0
 76
0
330
212
345
0
346
0
  0
ENDSEC
  0
EOF
