999
DXF file: C:\Users\sesa63760\Dev\_Creo\CAD\MCADID0002057_3D-CAD\drw0001_3.dxf
999
Pro/ENGINEER 2019471 by Parametric Technology Corporation
  0
SECTION
  2
HEADER
  9
$ACADVER
  1
AC1024
  9
$DWGCODEPAGE
  3
ANSI_1252
  9
$EXTMAX
 10
140.9258001318
 20
199.3093459007
 30
0.0
  9
$EXTMIN
 10
0.0
 20
0.0
 30
0.0
  9
$LIMMIN
 10
0.0
 20
0.0
  9
$LIMMAX
 10
140.9258001318
 20
199.3093459007
  9
$VIEWCTR
 10
70.4629000659
 20
99.6546729504
  9
$VIEWSIZE
 40
199.3093459007
  9
$CLAYER
  8
0
  9
$LTSCALE
 40
12.9920166217
  9
$CELTYPE
  6
BYLAYER
  9
$DIMSCALE
 40
1.0
  9
$DIMASZ
 40
1.6776880968
  9
$DIMEXO
 40
1.0
  9
$DIMDLI
 40
8.9763023932
  9
$DIMEXE
 40
1.0
  9
$DIMCEN
 40
2.1259663563
  9
$DIMLFAC
 40
1.0
  9
$DIMBLK
  1
_FILLED
  9
$DIMALT
 70
0
  9
$DIMALTF
 40
0.0393700787
  9
$DIMTXT
 40
2.3487633355
  9
$DIMTOL
 70
1
  9
$DIMLIM
 70
0
  9
$DIMTFAC
 40
1.0
  9
$DIMTP
 40
0.01
  9
$DIMTM
 40
0.01
  9
$DIMGAP
 40
0.625
  9
$DIMDSEP
 70
46
  9
$AUNITS
 70
0
  9
$PDMODE
 70
3
  9
$PDSIZE
 40
0.3125
  9
$HANDSEED
  5
324
  9
$TILEMODE
 70
1
  9
$MEASUREMENT
 70
1
  9
$INSUNITS
 70
4
  0
ENDSEC
  0
SECTION
  2
CLASSES
  0
CLASS
  1
ACDBDICTIONARYWDFLT
  2
AcDbDictionaryWithDefault
  3
AutoCAD 2000
 90
0
 91
1
280
0
281
0
  0
CLASS
  1
ACDBPLACEHOLDER
  2
AcDbPlaceHolder
  3
AutoCAD 2000
 90
0
 91
1
280
0
281
0
  0
CLASS
  1
LAYOUT
  2
AcDbLayout
  3
AutoCAD 2000
 90
0
 91
0
280
0
281
0
  0
ENDSEC
  0
SECTION
  2
TABLES
  0
TABLE
  2
VPORT
  5
8
100
AcDbSymbolTable
 70
2
  0
VPORT
  5
1F4
100
AcDbSymbolTableRecord
100
AcDbViewportTableRecord
  2
*ACTIVE
 70
0
 10
0.0
 20
0.0
 11
1.0
 21
1.0
 12
70.4629000659
 22
99.6546729504
 13
0.0
 23
0.0
 14
1.0
 24
1.0
 15
0.0
 25
0.0
 16
0.0
 26
0.0
 36
1.0
 17
0.0
 27
0.0
 37
0.0
 40
199.3093459007
 41
0.7070707071
 42
50.0
 43
0.0
 44
0.0
 50
0.0
 51
0.0
 71
0
 72
100
 73
1
 74
1
 75
0
 76
0
 77
0
 78
0
  0
ENDTAB
  0
TABLE
  2
LTYPE
  5
5
100
AcDbSymbolTable
 70
6
  0
LTYPE
  5
14
100
AcDbSymbolTableRecord
100
AcDbLinetypeTableRecord
  2
BYBLOCK
 70
0
  3

 72
65
 73
0
 40
0.0
  0
LTYPE
  5
15
100
AcDbSymbolTableRecord
100
AcDbLinetypeTableRecord
  2
BYLAYER
 70
0
  3

 72
65
 73
0
 40
0.0
  0
LTYPE
  5
16
100
AcDbSymbolTableRecord
100
AcDbLinetypeTableRecord
  2
CONTINUOUS
 70
64
  3
Solid line
 72
65
 73
0
 40
0.0
  0
LTYPE
  5
1F5
100
AcDbSymbolTableRecord
100
AcDbLinetypeTableRecord
  2
CENTER
 70
64
  3
____ _ ____ _ ____ _ ____ _ ____ _ ____ _ ____
 72
65
 73
4
 40
0.6
 49
0.375
 74
0
 49
-0.075
 74
0
 49
0.075
 74
0
 49
-0.075
 74
0
  0
LTYPE
  5
1F6
100
AcDbSymbolTableRecord
100
AcDbLinetypeTableRecord
  2
HIDDEN
 70
64
  3
- - - - - - - - - - - - - - - - - - - -
 72
65
 73
2
 40
0.2
 49
0.1
 74
0
 49
-0.1
 74
0
  0
LTYPE
  5
1F7
100
AcDbSymbolTableRecord
100
AcDbLinetypeTableRecord
  2
PHANTOM
 70
64
  3
_____ _ _ _____ _ _ _____ _ _ _____
 72
65
 73
6
 40
0.8
 49
0.45
 74
0
 49
-0.05
 74
0
 49
0.1
 74
0
 49
-0.05
 74
0
 49
0.1
 74
0
 49
-0.05
 74
0
  0
LTYPE
  5
1F8
100
AcDbSymbolTableRecord
100
AcDbLinetypeTableRecord
  2
DOT
 70
64
  3
. . . . . . . . . . . . . . . . . . . .
 72
65
 73
2
 40
0.2
 49
0.1
 74
0
 49
-0.1
 74
0
  0
LTYPE
  5
1F9
100
AcDbSymbolTableRecord
100
AcDbLinetypeTableRecord
  2
DASHED
 70
64
  3
- - - - - - - - - - - - - - - - - - - -
 72
65
 73
2
 40
0.2
 49
0.1
 74
0
 49
-0.1
 74
0
  0
ENDTAB
  0
TABLE
  2
LAYER
  5
2
100
AcDbSymbolTable
 70
36
  0
LAYER
  5
10
100
AcDbSymbolTableRecord
100
AcDbLayerTableRecord
  2
0
 70
0
 62
7
  6
CONTINUOUS
370
-3
390
F
  0
LAYER
  5
1FA
100
AcDbSymbolTableRecord
100
AcDbLayerTableRecord
  2
DEFAULT_1
 70
0
 62
7
  6
CENTER
370
-3
390
F
  0
LAYER
  5
1FB
100
AcDbSymbolTableRecord
100
AcDbLayerTableRecord
  2
DEFAULT_2
 70
0
 62
8
  6
HIDDEN
370
-3
390
F
  0
LAYER
  5
1FC
100
AcDbSymbolTableRecord
100
AcDbLayerTableRecord
  2
DEFAULT_3
 70
0
 62
7
  6
PHANTOM
370
-3
390
F
  0
LAYER
  5
1FD
100
AcDbSymbolTableRecord
100
AcDbLayerTableRecord
  2
00_COMPONENTS
 70
0
 62
7
  6
CONTINUOUS
370
-3
390
F
  0
LAYER
  5
1FE
100
AcDbSymbolTableRecord
100
AcDbLayerTableRecord
  2
01_1_DEFAULT_DATUMS
 70
0
 62
7
  6
CONTINUOUS
370
-3
390
F
  0
LAYER
  5
1FF
100
AcDbSymbolTableRecord
100
AcDbLayerTableRecord
  2
01_PLANES
 70
0
 62
7
  6
CONTINUOUS
370
-3
390
F
  0
LAYER
  5
200
100
AcDbSymbolTableRecord
100
AcDbLayerTableRecord
  2
02_COORD_SYS
 70
0
 62
7
  6
CONTINUOUS
370
-3
390
F
  0
LAYER
  5
201
100
AcDbSymbolTableRecord
100
AcDbLayerTableRecord
  2
03_AXES
 70
0
 62
7
  6
CONTINUOUS
370
-3
390
F
  0
LAYER
  5
202
100
AcDbSymbolTableRecord
100
AcDbLayerTableRecord
  2
04_POINTS
 70
0
 62
7
  6
CONTINUOUS
370
-3
390
F
  0
LAYER
  5
203
100
AcDbSymbolTableRecord
100
AcDbLayerTableRecord
  2
05_CURVES
 70
0
 62
7
  6
CONTINUOUS
370
-3
390
F
  0
LAYER
  5
204
100
AcDbSymbolTableRecord
100
AcDbLayerTableRecord
  2
06_SURFS
 70
0
 62
7
  6
CONTINUOUS
370
-3
390
F
  0
LAYER
  5
205
100
AcDbSymbolTableRecord
100
AcDbLayerTableRecord
  2
07_COSMETICS
 70
0
 62
7
  6
CONTINUOUS
370
-3
390
F
  0
LAYER
  5
206
100
AcDbSymbolTableRecord
100
AcDbLayerTableRecord
  2
10_NOTES
 70
0
 62
7
  6
CONTINUOUS
370
-3
390
F
  0
LAYER
  5
207
100
AcDbSymbolTableRecord
100
AcDbLayerTableRecord
  2
11_NOTES_PUB
 70
0
 62
7
  6
CONTINUOUS
370
-3
390
F
  0
LAYER
  5
208
100
AcDbSymbolTableRecord
100
AcDbLayerTableRecord
  2
13_REF_GTOL
 70
0
 62
7
  6
CONTINUOUS
370
-3
390
F
  0
LAYER
  5
209
100
AcDbSymbolTableRecord
100
AcDbLayerTableRecord
  2
16_MISC
 70
0
 62
7
  6
CONTINUOUS
370
-3
390
F
  0
LAYER
  5
20A
100
AcDbSymbolTableRecord
100
AcDbLayerTableRecord
  2
17_NO_PRINT
 70
0
 62
7
  6
CONTINUOUS
370
-3
390
F
  0
LAYER
  5
20B
100
AcDbSymbolTableRecord
100
AcDbLayerTableRecord
  2
18_DATUM_CAMS_JOINTS
 70
0
 62
7
  6
CONTINUOUS
370
-3
390
F
  0
LAYER
  5
20C
100
AcDbSymbolTableRecord
100
AcDbLayerTableRecord
  2
19_DATUM_FUNCTIONAL
 70
0
 62
7
  6
CONTINUOUS
370
-3
390
F
  0
LAYER
  5
20D
100
AcDbSymbolTableRecord
100
AcDbLayerTableRecord
  2
20_DATUM_KINEMATIC_SCHEME
 70
0
 62
7
  6
CONTINUOUS
370
-3
390
F
  0
LAYER
  5
20E
100
AcDbSymbolTableRecord
100
AcDbLayerTableRecord
  2
_1
 70
0
 62
7
  6
CONTINUOUS
370
-3
390
F
  0
ENDTAB
  0
TABLE
  2
STYLE
  5
3
100
AcDbSymbolTable
 70
1
  0
STYLE
  5
11
100
AcDbSymbolTableRecord
100
AcDbTextStyleTableRecord
  2
STANDARD
 70
0
 40
0.0
 41
0.8
 50
0.0
 71
0
 42
0.2
  3
txt
  4

  0
STYLE
  5
20F
100
AcDbSymbolTableRecord
100
AcDbTextStyleTableRecord
  2
TEXTSTYLE_1
 70
0
 40
0.0
 41
0.8
 50
0.0
 71
0
 42
0.2
  3
gdt
  4

  0
ENDTAB
  0
TABLE
  2
VIEW
  5
6
100
AcDbSymbolTable
 70
0
  0
ENDTAB
  0
TABLE
  2
UCS
  5
7
100
AcDbSymbolTable
 70
0
  0
ENDTAB
  0
TABLE
  2
APPID
  5
9
100
AcDbSymbolTable
 70
1
  0
APPID
  5
210
100
AcDbSymbolTableRecord
100
AcDbRegAppTableRecord
  2
ACAD
 70
0
  0
ENDTAB
  0
TABLE
  2
BLOCK_RECORD
  5
1
100
AcDbSymbolTable
 70
0
  0
BLOCK_RECORD
  5
211
100
AcDbSymbolTableRecord
100
AcDbBlockTableRecord
  2
*Model_Space
  0
BLOCK_RECORD
  5
212
100
AcDbSymbolTableRecord
100
AcDbBlockTableRecord
  2
*Paper_Space
  0
BLOCK_RECORD
  5
213
100
AcDbSymbolTableRecord
100
AcDbBlockTableRecord
  2
_FILLED
  0
ENDTAB
  0
TABLE
  2
DIMSTYLE
  5
A
100
AcDbSymbolTable
 70
1
100
AcDbDimStyleTable
 71
0
  0
DIMSTYLE
105
214
100
AcDbSymbolTableRecord
100
AcDbDimStyleTableRecord
  2
STANDARD
 70
0
  3

  4

 40
1.0
 41
1.6776880968
 42
1.0
 43
0.38
 44
1.0
 45
0.0
 46
0.0
 47
0.01
 48
0.01
140
2.3487633355
141
0.09
142
0.0
143
25.4
144
1.0
145
0.0
146
1.0
147
0.625
 71
1
 72
0
 73
0
 74
0
 75
0
 76
0
 77
1
 78
8
 79
2
170
0
171
1
172
0
173
0
174
0
175
0
176
0
177
0
178
0
270
2
179
2
271
2
272
2
273
2
274
2
275
0
280
0
281
0
282
0
283
1
284
8
285
0
286
0
287
3
288
0
340
11
278
46
341
213
342
213
343
213
344
213
  0
ENDTAB
  0
ENDSEC
  0
SECTION
  2
BLOCKS
  0
BLOCK
  5
20
100
AcDbEntity
  8
0
100
AcDbBlockBegin
  2
*Model_Space
 70
0
 10
0.0
 20
0.0
 30
0.0
  3
*Model_Space
  1

  0
ENDBLK
  5
21
100
AcDbEntity
  8
0
100
AcDbBlockEnd
  0
BLOCK
  5
1C
100
AcDbEntity
  8
0
100
AcDbBlockBegin
  2
*Paper_Space
 70
0
 10
0.0
 20
0.0
 30
0.0
  3
*Paper_Space
  1

  0
ENDBLK
  5
1D
100
AcDbEntity
  8
0
100
AcDbBlockEnd
  0
BLOCK
  5
215
100
AcDbEntity
  8
0
100
AcDbBlockBegin
  2
_FILLED
 70
64
 10
0.0
 20
0.0
  3
_FILLED
  1

  0
SOLID
  5
216
100
AcDbEntity
  8
0
  6
BYBLOCK
 62
0
100
AcDbTrace
 10
0.0
 20
0.0
 11
-1.0
 21
0.25
 12
-1.0
 22
-0.25
 13
-1.0
 23
-0.25
  0
ENDBLK
  5
217
100
AcDbEntity
  8
0
  6
BYBLOCK
 62
0
100
AcDbBlockEnd
  0
ENDSEC
  0
SECTION
  2
ENTITIES
  0
LINE
  5
218
100
AcDbEntity
  8
_1
100
AcDbLine
 62
7
  6
CONTINUOUS
 10
16.6713324146
 20
81.9497719279
 11
16.6713324146
 21
82.5339719279
  0
LINE
  5
219
100
AcDbEntity
  8
_1
100
AcDbLine
 62
7
  6
CONTINUOUS
 10
16.6713324146
 20
89.4935719279
 11
16.6713324146
 21
90.0777719279
  0
LINE
  5
21A
100
AcDbEntity
  8
_1
100
AcDbLine
 62
7
  6
CONTINUOUS
 10
24.5739323066
 20
82.2117719279
 11
24.5739323066
 21
81.1797719279
  0
LINE
  5
21B
100
AcDbEntity
  8
_1
100
AcDbLine
 62
7
  6
CONTINUOUS
 10
24.6977324146
 20
91.3477719279
 11
24.6977324146
 21
82.5411252963
  0
LINE
  5
21C
100
AcDbEntity
  8
_1
100
AcDbLine
 62
7
  6
CONTINUOUS
 10
25.3040421991
 20
104.5834760137
 11
25.3040421991
 21
95.6934760137
  0
LINE
  5
21D
100
AcDbEntity
  8
_1
100
AcDbLine
 62
7
  6
CONTINUOUS
 10
25.8120421991
 20
91.3477719279
 11
25.8120421991
 21
93.3969688565
  0
LINE
  5
21E
100
AcDbEntity
  8
_1
100
AcDbLine
 62
7
  6
CONTINUOUS
 10
26.9583324146
 20
82.7117719279
 11
26.9583324146
 21
91.3477719279
  0
LINE
  5
21F
100
AcDbEntity
  8
_1
100
AcDbLine
 62
7
  6
CONTINUOUS
 10
27.3393324146
 20
82.7117719279
 11
27.3393324146
 21
91.3477719279
  0
LINE
  5
220
100
AcDbEntity
  8
_1
100
AcDbLine
 62
7
  6
CONTINUOUS
 10
27.5646421991
 20
93.9154760137
 11
27.5646421991
 21
106.3614760137
  0
LINE
  5
221
100
AcDbEntity
  8
_1
100
AcDbLine
 62
7
  6
CONTINUOUS
 10
28.8600421991
 20
91.3477719279
 11
28.8600421991
 21
93.9154760137
  0
LINE
  5
222
100
AcDbEntity
  8
_1
100
AcDbLine
 62
7
  6
CONTINUOUS
 10
29.445292908
 20
111.1598049878
 11
29.445292908
 21
106.3614760137
  0
LINE
  5
223
100
AcDbEntity
  8
_1
100
AcDbLine
 62
7
  6
CONTINUOUS
 10
29.5204421991
 20
82.6145363829
 11
29.5204421991
 21
77.6425783259
  0
LINE
  5
224
100
AcDbEntity
  8
_1
100
AcDbLine
 62
7
  6
CONTINUOUS
 10
29.5204421991
 20
91.3676150315
 11
29.5204421991
 21
93.9154760137
  0
LINE
  5
225
100
AcDbEntity
  8
_1
100
AcDbLine
 62
7
  6
CONTINUOUS
 10
29.5204421991
 20
106.3614760137
 11
29.5204421991
 21
122.6425783259
  0
LINE
  5
226
100
AcDbEntity
  8
_1
100
AcDbLine
 62
7
  6
CONTINUOUS
 10
29.6474421991
 20
91.3477719279
 11
29.6474421991
 21
91.3676150315
  0
LINE
  5
227
100
AcDbEntity
  8
_1
100
AcDbLine
 62
7
  6
CONTINUOUS
 10
29.7857122131
 20
82.1411678616
 11
29.7857122131
 21
82.2117719279
  0
LINE
  5
228
100
AcDbEntity
  8
_1
100
AcDbLine
 62
7
  6
CONTINUOUS
 10
29.7857122131
 20
91.3477719279
 11
29.7857122131
 21
118.1439887902
  0
LINE
  5
229
100
AcDbEntity
  8
_1
100
AcDbLine
 62
7
  6
CONTINUOUS
 10
36.1865122131
 20
96.4217050543
 11
36.1865122131
 21
96.5167050543
  0
LINE
  5
22A
100
AcDbEntity
  8
_1
100
AcDbLine
 62
7
  6
CONTINUOUS
 10
36.1865122131
 20
103.7602469728
 11
36.1865122131
 21
103.8552469728
  0
LINE
  5
22B
100
AcDbEntity
  8
_1
100
AcDbLine
 62
7
  6
CONTINUOUS
 10
37.3041122131
 20
102.8077469728
 11
37.3041122131
 21
97.4692050543
  0
LINE
  5
22C
100
AcDbEntity
  8
_1
100
AcDbLine
 62
7
  6
CONTINUOUS
 10
39.5647122131
 20
97.4692050543
 11
39.5647122131
 21
102.8077469728
  0
LINE
  5
22D
100
AcDbEntity
  8
_1
100
AcDbLine
 62
7
  6
CONTINUOUS
 10
39.6639528071
 20
118.1439887902
 11
39.6639528071
 21
108.0759760136
  0
LINE
  5
22E
100
AcDbEntity
  8
_1
100
AcDbLine
 62
7
  6
CONTINUOUS
 10
39.6639528071
 20
82.1411678616
 11
39.6639528071
 21
92.2009760136
  0
LINE
  5
22F
100
AcDbEntity
  8
_1
100
AcDbLine
 62
7
  6
CONTINUOUS
 10
39.7679122131
 20
98.8684760136
 11
39.7679122131
 21
101.4084760136
  0
LINE
  5
230
100
AcDbEntity
  8
_1
100
AcDbLine
 62
7
  6
CONTINUOUS
 10
40.0727122131
 20
101.4084760136
 11
40.0727122131
 21
98.8684760136
  0
LINE
  5
231
100
AcDbEntity
  8
_1
100
AcDbLine
 62
7
  6
CONTINUOUS
 10
40.3267122131
 20
99.1224760136
 11
40.3267122131
 21
101.1544760136
  0
LINE
  5
232
100
AcDbEntity
  8
_1
100
AcDbLine
 62
7
  6
CONTINUOUS
 10
45.7208414721
 20
101.4084760137
 11
45.7208414721
 21
98.8684760137
  0
LINE
  5
233
100
AcDbEntity
  8
_1
100
AcDbLine
 62
7
  6
CONTINUOUS
 10
46.7275122131
 20
103.8552469728
 11
46.7275122131
 21
96.4217050543
  0
LINE
  5
234
100
AcDbEntity
  8
_1
100
AcDbLine
 62
7
  6
CONTINUOUS
 10
47.4250414721
 20
118.1439887902
 11
47.4250414721
 21
109.0585760136
  0
LINE
  5
235
100
AcDbEntity
  8
_1
100
AcDbLine
 62
7
  6
CONTINUOUS
 10
47.4250414721
 20
82.1411678616
 11
47.4250414721
 21
91.2183760136
  0
LINE
  5
236
100
AcDbEntity
  8
_1
100
AcDbLine
 62
7
  6
CONTINUOUS
 10
51.3850414721
 20
118.1439887902
 11
51.3850414721
 21
117.4739760136
  0
LINE
  5
237
100
AcDbEntity
  8
_1
100
AcDbLine
 62
7
  6
CONTINUOUS
 10
51.3850414721
 20
82.8029760136
 11
51.3850414721
 21
82.1411678616
  0
LINE
  5
238
100
AcDbEntity
  8
_1
100
AcDbLine
 62
7
  6
CONTINUOUS
 10
52.2459527431
 20
92.2009760136
 11
52.2459527431
 21
95.7823760136
  0
LINE
  5
239
100
AcDbEntity
  8
_1
100
AcDbLine
 62
7
  6
CONTINUOUS
 10
52.2459527431
 20
104.4945760136
 11
52.2459527431
 21
108.0759760136
  0
LINE
  5
23A
100
AcDbEntity
  8
_1
100
AcDbLine
 62
7
  6
CONTINUOUS
 10
119.5204421991
 20
77.6425783259
 11
29.5204421991
 21
77.6425783259
  0
LINE
  5
23B
100
AcDbEntity
  8
_1
100
AcDbLine
 62
7
  6
CONTINUOUS
 10
54.6870414721
 20
82.3838760136
 11
54.6870414721
 21
84.8429760136
  0
LINE
  5
23C
100
AcDbEntity
  8
_1
100
AcDbLine
 62
7
  6
CONTINUOUS
 10
54.6870414721
 20
115.4339760136
 11
54.6870414721
 21
117.8930760136
  0
LINE
  5
23D
100
AcDbEntity
  8
_1
100
AcDbLine
 62
7
  6
CONTINUOUS
 10
56.3150414721
 20
108.0585760136
 11
56.3150414721
 21
107.7885760136
  0
LINE
  5
23E
100
AcDbEntity
  8
_1
100
AcDbLine
 62
7
  6
CONTINUOUS
 10
56.3150414721
 20
92.2183760136
 11
56.3150414721
 21
92.4883760136
  0
LINE
  5
23F
100
AcDbEntity
  8
_1
100
AcDbLine
 62
7
  6
CONTINUOUS
 10
126.8877107214
 20
80.6693760136
 11
118.9796503214
 21
80.6693760136
  0
LINE
  5
240
100
AcDbEntity
  8
_1
100
AcDbLine
 62
7
  6
CONTINUOUS
 10
24.0739323066
 20
80.6797719279
 11
17.9413324146
 21
80.6797719279
  0
LINE
  5
241
100
AcDbEntity
  8
_1
100
AcDbLine
 62
7
  6
CONTINUOUS
 10
118.4796503214
 20
82.1411678616
 11
29.5204421991
 21
82.1411678616
  0
LINE
  5
242
100
AcDbEntity
  8
_1
100
AcDbLine
 62
7
  6
CONTINUOUS
 10
101.9818414721
 20
82.3838760136
 11
92.3298414721
 21
82.3838760136
  0
LINE
  5
243
100
AcDbEntity
  8
_1
100
AcDbLine
 62
7
  6
CONTINUOUS
 10
61.3418414721
 20
82.3838760136
 11
54.6870414721
 21
82.3838760136
  0
LINE
  5
244
100
AcDbEntity
  8
_1
100
AcDbLine
 62
7
  6
CONTINUOUS
 10
117.9796503214
 20
82.7013760136
 11
115.1818414721
 21
82.7013760136
  0
LINE
  5
245
100
AcDbEntity
  8
_1
100
AcDbLine
 62
7
  6
CONTINUOUS
 10
29.2857122131
 20
82.7117719279
 11
25.0739323066
 21
82.7117719279
  0
LINE
  5
246
100
AcDbEntity
  8
_1
100
AcDbLine
 62
7
  6
CONTINUOUS
 10
17.9413324146
 20
83.8039719279
 11
21.2052324146
 21
83.8039719279
  0
LINE
  5
247
100
AcDbEntity
  8
_1
100
AcDbLine
 62
7
  6
CONTINUOUS
 10
54.6870414721
 20
83.9078760136
 11
61.3418414721
 21
83.9078760136
  0
LINE
  5
248
100
AcDbEntity
  8
_1
100
AcDbLine
 62
7
  6
CONTINUOUS
 10
92.3298414721
 20
83.9078760136
 11
101.9818414721
 21
83.9078760136
  0
LINE
  5
249
100
AcDbEntity
  8
_1
100
AcDbLine
 62
7
  6
CONTINUOUS
 10
101.9818414721
 20
84.6444760136
 11
92.4683390714
 21
84.6444760136
  0
LINE
  5
24A
100
AcDbEntity
  8
_1
100
AcDbLine
 62
7
  6
CONTINUOUS
 10
61.0370414721
 20
84.6444760136
 11
54.6870414721
 21
84.6444760136
  0
LINE
  5
24B
100
AcDbEntity
  8
_1
100
AcDbLine
 62
7
  6
CONTINUOUS
 10
58.5478414721
 20
104.4945760136
 11
58.5478414721
 21
95.7823760136
  0
LINE
  5
24C
100
AcDbEntity
  8
_1
100
AcDbLine
 62
7
  6
CONTINUOUS
 10
58.8388208479
 20
106.3614760137
 11
58.8388208479
 21
104.8374760137
  0
LINE
  5
24D
100
AcDbEntity
  8
_1
100
AcDbLine
 62
7
  6
CONTINUOUS
 10
58.8388208479
 20
93.9154760137
 11
58.8388208479
 21
95.4394760137
  0
LINE
  5
24E
100
AcDbEntity
  8
_1
100
AcDbLine
 62
7
  6
CONTINUOUS
 10
58.9325560997
 20
106.3614760137
 11
58.9325560997
 21
104.8374760137
  0
LINE
  5
24F
100
AcDbEntity
  8
_1
100
AcDbLine
 62
7
  6
CONTINUOUS
 10
58.9325560997
 20
95.4394760137
 11
58.9325560997
 21
93.9154760137
  0
LINE
  5
250
100
AcDbEntity
  8
_1
100
AcDbLine
 62
7
  6
CONTINUOUS
 10
59.0558414721
 20
95.4394760137
 11
59.0558414721
 21
95.7823760136
  0
LINE
  5
251
100
AcDbEntity
  8
_1
100
AcDbLine
 62
7
  6
CONTINUOUS
 10
59.0558414721
 20
104.4945760136
 11
59.0558414721
 21
104.8374760137
  0
LINE
  5
252
100
AcDbEntity
  8
_1
100
AcDbLine
 62
7
  6
CONTINUOUS
 10
60.0087438127
 20
83.9078760136
 11
60.0087438127
 21
82.3838760136
  0
LINE
  5
253
100
AcDbEntity
  8
_1
100
AcDbLine
 62
7
  6
CONTINUOUS
 10
60.0087438127
 20
116.3690760136
 11
60.0087438127
 21
117.8930760136
  0
LINE
  5
254
100
AcDbEntity
  8
_1
100
AcDbLine
 62
7
  6
CONTINUOUS
 10
60.4700374617
 20
93.9154760137
 11
60.4700374617
 21
95.4394760137
  0
LINE
  5
255
100
AcDbEntity
  8
_1
100
AcDbLine
 62
7
  6
CONTINUOUS
 10
60.4700374617
 20
104.8374760137
 11
60.4700374617
 21
106.3614760137
  0
LINE
  5
256
100
AcDbEntity
  8
_1
100
AcDbLine
 62
7
  6
CONTINUOUS
 10
60.5798414721
 20
95.7823760136
 11
60.5798414721
 21
104.4945760136
  0
LINE
  5
257
100
AcDbEntity
  8
_1
100
AcDbLine
 62
7
  6
CONTINUOUS
 10
60.7068414721
 20
97.210094952
 11
60.7068414721
 21
99.242094952
  0
LINE
  5
258
100
AcDbEntity
  8
_1
100
AcDbLine
 62
7
  6
CONTINUOUS
 10
60.7068414721
 20
100.8495883238
 11
60.7068414721
 21
102.8815883238
  0
LINE
  5
259
100
AcDbEntity
  8
_1
100
AcDbLine
 62
7
  6
CONTINUOUS
 10
92.0330414721
 20
84.8984760136
 11
91.7710414721
 21
84.8984760136
  0
LINE
  5
25A
100
AcDbEntity
  8
_1
100
AcDbLine
 62
7
  6
CONTINUOUS
 10
104.0218414721
 20
85.3429760136
 11
102.4818414721
 21
85.3429760136
  0
LINE
  5
25B
100
AcDbEntity
  8
_1
100
AcDbLine
 62
7
  6
CONTINUOUS
 10
54.1870414721
 20
85.3429760136
 11
53.9250414721
 21
85.3429760136
  0
LINE
  5
25C
100
AcDbEntity
  8
_1
100
AcDbLine
 62
7
  6
CONTINUOUS
 10
39.6639528071
 20
87.6035283259
 11
47.4250414721
 21
87.6035283259
  0
LINE
  5
25D
100
AcDbEntity
  8
_1
100
AcDbLine
 62
7
  6
CONTINUOUS
 10
39.6639528071
 20
88.1647758957
 11
47.4250414721
 21
88.1647758957
  0
LINE
  5
25E
100
AcDbEntity
  8
_1
100
AcDbLine
 62
7
  6
CONTINUOUS
 10
17.9413324146
 20
88.2235719279
 11
21.2052324146
 21
88.2235719279
  0
LINE
  5
25F
100
AcDbEntity
  8
_1
100
AcDbLine
 62
7
  6
CONTINUOUS
 10
60.9608414719
 20
102.8815883238
 11
60.9608414719
 21
100.8495883238
  0
LINE
  5
260
100
AcDbEntity
  8
_1
100
AcDbLine
 62
7
  6
CONTINUOUS
 10
60.9608414722
 20
99.242094952
 11
60.9608414722
 21
97.210094952
  0
LINE
  5
261
100
AcDbEntity
  8
_1
100
AcDbLine
 62
7
  6
CONTINUOUS
 10
61.0370414721
 20
116.3583471808
 11
61.0370414721
 21
115.4374498045
  0
LINE
  5
262
100
AcDbEntity
  8
_1
100
AcDbLine
 62
7
  6
CONTINUOUS
 10
61.0370414721
 20
84.8395022226
 11
61.0370414721
 21
83.9186048463
  0
LINE
  5
263
100
AcDbEntity
  8
_1
100
AcDbLine
 62
7
  6
CONTINUOUS
 10
61.0878414721
 20
95.7823760136
 11
61.0878414721
 21
104.4945760136
  0
LINE
  5
264
100
AcDbEntity
  8
_1
100
AcDbLine
 62
7
  6
CONTINUOUS
 10
61.3418414721
 20
83.9078760136
 11
61.3418414721
 21
82.3838760136
  0
LINE
  5
265
100
AcDbEntity
  8
_1
100
AcDbLine
 62
7
  6
CONTINUOUS
 10
61.3418414721
 20
116.3690760136
 11
61.3418414721
 21
117.8930760136
  0
LINE
  5
266
100
AcDbEntity
  8
_1
100
AcDbLine
 62
7
  6
CONTINUOUS
 10
62.6245414721
 20
106.7885760136
 11
62.6245414721
 21
106.3614760137
  0
LINE
  5
267
100
AcDbEntity
  8
_1
100
AcDbLine
 62
7
  6
CONTINUOUS
 10
62.6245414721
 20
93.9154760137
 11
62.6245414721
 21
93.4883760136
  0
LINE
  5
268
100
AcDbEntity
  8
_1
100
AcDbLine
 62
7
  6
CONTINUOUS
 10
63.9133622074
 20
106.3614760137
 11
63.9133622074
 21
104.8374760137
  0
LINE
  5
269
100
AcDbEntity
  8
_1
100
AcDbLine
 62
7
  6
CONTINUOUS
 10
63.9133622074
 20
95.4394760137
 11
63.9133622074
 21
93.9154760137
  0
LINE
  5
26A
100
AcDbEntity
  8
_1
100
AcDbLine
 62
7
  6
CONTINUOUS
 10
63.9580414721
 20
82.1411678616
 11
63.9580414721
 21
82.8029760136
  0
LINE
  5
26B
100
AcDbEntity
  8
_1
100
AcDbLine
 62
7
  6
CONTINUOUS
 10
63.9580414721
 20
117.4739760136
 11
63.9580414721
 21
118.1439887902
  0
LINE
  5
26C
100
AcDbEntity
  8
_1
100
AcDbLine
 62
7
  6
CONTINUOUS
 10
64.0758295851
 20
106.3614760137
 11
64.0758295851
 21
104.8374760137
  0
LINE
  5
26D
100
AcDbEntity
  8
_1
100
AcDbLine
 62
7
  6
CONTINUOUS
 10
64.0758295851
 20
93.9154760137
 11
64.0758295851
 21
95.4394760137
  0
LINE
  5
26E
100
AcDbEntity
  8
_1
100
AcDbLine
 62
7
  6
CONTINUOUS
 10
47.4250414721
 20
90.7988026002
 11
39.6639528071
 21
90.7988026002
  0
LINE
  5
26F
100
AcDbEntity
  8
_1
100
AcDbLine
 62
7
  6
CONTINUOUS
 10
115.1818414721
 20
91.3373760136
 11
126.8877107214
 21
91.3373760136
  0
LINE
  5
270
100
AcDbEntity
  8
_1
100
AcDbLine
 62
7
  6
CONTINUOUS
 10
17.9413324146
 20
91.3477719279
 11
29.7857122131
 21
91.3477719279
  0
LINE
  5
271
100
AcDbEntity
  8
_1
100
AcDbLine
 62
7
  6
CONTINUOUS
 10
119.5204421991
 20
91.3676150315
 11
119.3934421991
 21
91.3676150315
  0
LINE
  5
272
100
AcDbEntity
  8
_1
100
AcDbLine
 62
7
  6
CONTINUOUS
 10
29.6474421991
 20
91.3676150315
 11
29.5204421991
 21
91.3676150315
  0
LINE
  5
273
100
AcDbEntity
  8
_1
100
AcDbLine
 62
7
  6
CONTINUOUS
 10
29.5204421991
 20
91.4135283259
 11
29.7857122131
 21
91.4135283259
  0
LINE
  5
274
100
AcDbEntity
  8
_1
100
AcDbLine
 62
7
  6
CONTINUOUS
 10
39.6639528071
 20
91.4135283259
 11
47.5058821937
 21
91.4135283259
  0
LINE
  5
275
100
AcDbEntity
  8
_1
100
AcDbLine
 62
7
  6
CONTINUOUS
 10
114.9297655024
 20
91.4135283259
 11
119.5204421991
 21
91.4135283259
  0
LINE
  5
276
100
AcDbEntity
  8
_1
100
AcDbLine
 62
7
  6
CONTINUOUS
 10
29.7857122131
 20
91.4643760136
 11
39.6639528071
 21
91.4643760136
  0
LINE
  5
277
100
AcDbEntity
  8
_1
100
AcDbLine
 62
7
  6
CONTINUOUS
 10
47.9250414721
 20
91.7183760136
 11
55.8150414721
 21
91.7183760136
  0
LINE
  5
278
100
AcDbEntity
  8
_1
100
AcDbLine
 62
7
  6
CONTINUOUS
 10
29.7857122131
 20
92.2009760136
 11
52.2459527431
 21
92.2009760136
  0
LINE
  5
279
100
AcDbEntity
  8
_1
100
AcDbLine
 62
7
  6
CONTINUOUS
 10
65.1518414721
 20
106.3614760137
 11
65.1518414721
 21
104.8374760137
  0
LINE
  5
27A
100
AcDbEntity
  8
_1
100
AcDbLine
 62
7
  6
CONTINUOUS
 10
65.1518414721
 20
93.9154760137
 11
65.1518414721
 21
95.4394760137
  0
LINE
  5
27B
100
AcDbEntity
  8
_1
100
AcDbLine
 62
7
  6
CONTINUOUS
 10
120.4983421991
 20
95.3165783259
 11
119.5955914901
 21
95.3008207536
  0
LINE
  5
27C
100
AcDbEntity
  8
_1
100
AcDbLine
 62
7
  6
CONTINUOUS
 10
62.1245414721
 20
92.9883760136
 11
56.8150414721
 21
92.9883760136
  0
LINE
  5
27D
100
AcDbEntity
  8
_1
100
AcDbLine
 62
7
  6
CONTINUOUS
 10
25.8539601723
 20
93.4709283259
 11
28.8600421991
 21
93.4709283259
  0
LINE
  5
27E
100
AcDbEntity
  8
_1
100
AcDbLine
 62
7
  6
CONTINUOUS
 10
52.2459527431
 20
93.7376760136
 11
29.7857122131
 21
93.7376760136
  0
LINE
  5
27F
100
AcDbEntity
  8
_1
100
AcDbLine
 62
7
  6
CONTINUOUS
 10
27.5646421991
 20
93.9154760137
 11
29.7857122131
 21
93.9154760137
  0
LINE
  5
280
100
AcDbEntity
  8
_1
100
AcDbLine
 62
7
  6
CONTINUOUS
 10
52.2459527431
 20
93.9154760137
 11
65.1518414721
 21
93.9154760137
  0
LINE
  5
281
100
AcDbEntity
  8
_1
100
AcDbLine
 62
7
  6
CONTINUOUS
 10
27.5646421991
 20
95.4394760137
 11
29.7857122131
 21
95.4394760137
  0
LINE
  5
282
100
AcDbEntity
  8
_1
100
AcDbLine
 62
7
  6
CONTINUOUS
 10
52.2459527431
 20
95.4394760137
 11
65.1518414721
 21
95.4394760137
  0
LINE
  5
283
100
AcDbEntity
  8
_1
100
AcDbLine
 62
7
  6
CONTINUOUS
 10
45.7750122131
 20
95.4692050543
 11
37.1390122131
 21
95.4692050543
  0
LINE
  5
284
100
AcDbEntity
  8
_1
100
AcDbLine
 62
7
  6
CONTINUOUS
 10
59.0558414721
 20
95.6934760137
 11
52.2459527431
 21
95.6934760137
  0
LINE
  5
285
100
AcDbEntity
  8
_1
100
AcDbLine
 62
7
  6
CONTINUOUS
 10
46.3773266741
 20
95.6934760137
 11
36.5366904188
 21
95.6934760137
  0
LINE
  5
286
100
AcDbEntity
  8
_1
100
AcDbLine
 62
7
  6
CONTINUOUS
 10
29.7857122131
 20
95.6934760137
 11
25.3040421991
 21
95.6934760137
  0
LINE
  5
287
100
AcDbEntity
  8
_1
100
AcDbLine
 62
7
  6
CONTINUOUS
 10
62.1245414721
 20
95.7823760136
 11
52.2459527431
 21
95.7823760136
  0
LINE
  5
288
100
AcDbEntity
  8
_1
100
AcDbLine
 62
7
  6
CONTINUOUS
 10
60.7068414721
 20
97.210094952
 11
60.9608414722
 21
97.210094952
  0
LINE
  5
289
100
AcDbEntity
  8
_1
100
AcDbLine
 62
7
  6
CONTINUOUS
 10
37.1390122131
 20
97.4692050543
 11
39.5647122131
 21
97.4692050543
  0
LINE
  5
28A
100
AcDbEntity
  8
_1
100
AcDbLine
 62
7
  6
CONTINUOUS
 10
61.0878414722
 20
97.718094952
 11
60.5798414721
 21
97.718094952
  0
LINE
  5
28B
100
AcDbEntity
  8
_1
100
AcDbLine
 62
7
  6
CONTINUOUS
 10
105.8553414721
 20
98.1318760136
 11
100.0895414721
 21
98.1318760136
  0
LINE
  5
28C
100
AcDbEntity
  8
_1
100
AcDbLine
 62
7
  6
CONTINUOUS
 10
60.5798414721
 20
98.734094952
 11
61.0878414722
 21
98.734094952
  0
LINE
  5
28D
100
AcDbEntity
  8
_1
100
AcDbLine
 62
7
  6
CONTINUOUS
 10
39.7679122131
 20
98.8684760136
 11
40.0727122131
 21
98.8684760136
  0
LINE
  5
28E
100
AcDbEntity
  8
_1
100
AcDbLine
 62
7
  6
CONTINUOUS
 10
71.6092060311
 20
98.8979783259
 11
72.5598286652
 21
98.8979783259
  0
LINE
  5
28F
100
AcDbEntity
  8
_1
100
AcDbLine
 62
7
  6
CONTINUOUS
 10
60.9608414722
 20
99.242094952
 11
60.7068414721
 21
99.242094952
  0
LINE
  5
290
100
AcDbEntity
  8
_1
100
AcDbLine
 62
7
  6
CONTINUOUS
 10
60.7068414721
 20
100.8495883238
 11
60.9608414719
 21
100.8495883238
  0
LINE
  5
291
100
AcDbEntity
  8
_1
100
AcDbLine
 62
7
  6
CONTINUOUS
 10
61.0878414719
 20
101.3575883238
 11
60.5798414721
 21
101.3575883238
  0
LINE
  5
292
100
AcDbEntity
  8
_1
100
AcDbLine
 62
7
  6
CONTINUOUS
 10
71.6054313778
 20
101.3871783259
 11
72.6115347321
 21
101.3871783259
  0
LINE
  5
293
100
AcDbEntity
  8
_1
100
AcDbLine
 62
7
  6
CONTINUOUS
 10
39.7679122131
 20
101.4084760136
 11
40.0727122131
 21
101.4084760136
  0
LINE
  5
294
100
AcDbEntity
  8
_1
100
AcDbLine
 62
7
  6
CONTINUOUS
 10
100.0895414721
 20
102.1450760136
 11
105.8553414721
 21
102.1450760136
  0
LINE
  5
295
100
AcDbEntity
  8
_1
100
AcDbLine
 62
7
  6
CONTINUOUS
 10
60.5798414721
 20
102.3735883238
 11
61.0878414719
 21
102.3735883238
  0
LINE
  5
296
100
AcDbEntity
  8
_1
100
AcDbLine
 62
7
  6
CONTINUOUS
 10
37.1390122131
 20
102.8077469728
 11
39.5647122131
 21
102.8077469728
  0
LINE
  5
297
100
AcDbEntity
  8
_1
100
AcDbLine
 62
7
  6
CONTINUOUS
 10
60.9608414719
 20
102.8815883238
 11
60.7068414721
 21
102.8815883238
  0
LINE
  5
298
100
AcDbEntity
  8
_1
100
AcDbLine
 62
7
  6
CONTINUOUS
 10
52.2459527431
 20
104.4945760136
 11
62.1245414721
 21
104.4945760136
  0
LINE
  5
299
100
AcDbEntity
  8
_1
100
AcDbLine
 62
7
  6
CONTINUOUS
 10
25.3040421991
 20
104.5834760137
 11
29.7857122131
 21
104.5834760137
  0
LINE
  5
29A
100
AcDbEntity
  8
_1
100
AcDbLine
 62
7
  6
CONTINUOUS
 10
36.5366977523
 20
104.5834760137
 11
46.3773340071
 21
104.5834760137
  0
LINE
  5
29B
100
AcDbEntity
  8
_1
100
AcDbLine
 62
7
  6
CONTINUOUS
 10
52.2459527431
 20
104.5834760137
 11
59.0558414721
 21
104.5834760137
  0
LINE
  5
29C
100
AcDbEntity
  8
_1
100
AcDbLine
 62
7
  6
CONTINUOUS
 10
37.1390122131
 20
104.8077469728
 11
45.7750122131
 21
104.8077469728
  0
LINE
  5
29D
100
AcDbEntity
  8
_1
100
AcDbLine
 62
7
  6
CONTINUOUS
 10
65.1518414721
 20
104.8374760137
 11
52.2459527431
 21
104.8374760137
  0
LINE
  5
29E
100
AcDbEntity
  8
_1
100
AcDbLine
 62
7
  6
CONTINUOUS
 10
29.7857122131
 20
104.8374760137
 11
27.5646421991
 21
104.8374760137
  0
LINE
  5
29F
100
AcDbEntity
  8
_1
100
AcDbLine
 62
7
  6
CONTINUOUS
 10
29.7857122131
 20
106.3614760137
 11
27.5646421991
 21
106.3614760137
  0
LINE
  5
2A0
100
AcDbEntity
  8
_1
100
AcDbLine
 62
7
  6
CONTINUOUS
 10
52.2459527431
 20
106.3614760137
 11
65.1518414721
 21
106.3614760137
  0
LINE
  5
2A1
100
AcDbEntity
  8
_1
100
AcDbLine
 62
7
  6
CONTINUOUS
 10
29.7857122131
 20
106.5392760136
 11
52.2459527431
 21
106.5392760136
  0
LINE
  5
2A2
100
AcDbEntity
  8
_1
100
AcDbLine
 62
7
  6
CONTINUOUS
 10
56.8150414721
 20
107.2885760136
 11
62.1245414721
 21
107.2885760136
  0
LINE
  5
2A3
100
AcDbEntity
  8
_1
100
AcDbLine
 62
7
  6
CONTINUOUS
 10
52.2459527431
 20
108.0759760136
 11
29.7857122131
 21
108.0759760136
  0
LINE
  5
2A4
100
AcDbEntity
  8
_1
100
AcDbLine
 62
7
  6
CONTINUOUS
 10
47.9250414721
 20
108.5585760136
 11
55.8150414721
 21
108.5585760136
  0
LINE
  5
2A5
100
AcDbEntity
  8
_1
100
AcDbLine
 62
7
  6
CONTINUOUS
 10
120.4983421991
 20
104.9685783259
 11
119.5955914901
 21
104.9843358981
  0
LINE
  5
2A6
100
AcDbEntity
  8
_1
100
AcDbLine
 62
7
  6
CONTINUOUS
 10
39.6639528071
 20
108.8125760136
 11
29.7857122131
 21
108.8125760136
  0
LINE
  5
2A7
100
AcDbEntity
  8
_1
100
AcDbLine
 62
7
  6
CONTINUOUS
 10
126.8877107214
 20
108.9395760136
 11
115.1818414721
 21
108.9395760136
  0
LINE
  5
2A8
100
AcDbEntity
  8
_1
100
AcDbLine
 62
7
  6
CONTINUOUS
 10
53.9250414721
 20
114.9339760136
 11
54.1870414721
 21
114.9339760136
  0
LINE
  5
2A9
100
AcDbEntity
  8
_1
100
AcDbLine
 62
7
  6
CONTINUOUS
 10
102.4818414721
 20
114.9339760136
 11
104.0218414721
 21
114.9339760136
  0
LINE
  5
2AA
100
AcDbEntity
  8
_1
100
AcDbLine
 62
7
  6
CONTINUOUS
 10
91.7710414721
 20
115.3784760136
 11
92.0330414721
 21
115.3784760136
  0
LINE
  5
2AB
100
AcDbEntity
  8
_1
100
AcDbLine
 62
7
  6
CONTINUOUS
 10
54.6870414721
 20
115.6324760136
 11
61.0370414721
 21
115.6324760136
  0
LINE
  5
2AC
100
AcDbEntity
  8
_1
100
AcDbLine
 62
7
  6
CONTINUOUS
 10
92.4683390714
 20
115.6324760136
 11
101.9818414721
 21
115.6324760136
  0
LINE
  5
2AD
100
AcDbEntity
  8
_1
100
AcDbLine
 62
7
  6
CONTINUOUS
 10
54.6870414721
 20
116.3690760136
 11
61.3418414721
 21
116.3690760136
  0
LINE
  5
2AE
100
AcDbEntity
  8
_1
100
AcDbLine
 62
7
  6
CONTINUOUS
 10
92.3298414721
 20
116.3690760136
 11
101.9818414721
 21
116.3690760136
  0
LINE
  5
2AF
100
AcDbEntity
  8
_1
100
AcDbLine
 62
7
  6
CONTINUOUS
 10
89.2310414721
 20
118.1439887902
 11
89.2310414721
 21
117.9184760136
  0
LINE
  5
2B0
100
AcDbEntity
  8
_1
100
AcDbLine
 62
7
  6
CONTINUOUS
 10
89.2310414721
 20
82.3584760136
 11
89.2310414721
 21
82.1411678616
  0
LINE
  5
2B1
100
AcDbEntity
  8
_1
100
AcDbLine
 62
7
  6
CONTINUOUS
 10
92.3298414721
 20
117.8930760136
 11
92.3298414721
 21
116.3690760136
  0
LINE
  5
2B2
100
AcDbEntity
  8
_1
100
AcDbLine
 62
7
  6
CONTINUOUS
 10
92.3298414721
 20
83.9078760136
 11
92.3298414721
 21
82.3838760136
  0
LINE
  5
2B3
100
AcDbEntity
  8
_1
100
AcDbLine
 62
7
  6
CONTINUOUS
 10
92.5330414721
 20
83.9078760136
 11
92.5330414721
 21
84.3984760136
  0
LINE
  5
2B4
100
AcDbEntity
  8
_1
100
AcDbLine
 62
7
  6
CONTINUOUS
 10
92.5330414721
 20
115.8784760136
 11
92.5330414721
 21
116.3690760136
  0
LINE
  5
2B5
100
AcDbEntity
  8
_1
100
AcDbLine
 62
7
  6
CONTINUOUS
 10
92.9648414721
 20
82.3838760136
 11
92.9648414721
 21
83.9078760136
  0
LINE
  5
2B6
100
AcDbEntity
  8
_1
100
AcDbLine
 62
7
  6
CONTINUOUS
 10
92.9648414721
 20
116.3690760136
 11
92.9648414721
 21
117.8930760136
  0
LINE
  5
2B7
100
AcDbEntity
  8
_1
100
AcDbLine
 62
7
  6
CONTINUOUS
 10
115.1818414721
 20
117.5755760136
 11
117.9796503214
 21
117.5755760136
  0
LINE
  5
2B8
100
AcDbEntity
  8
_1
100
AcDbLine
 62
7
  6
CONTINUOUS
 10
54.6870414721
 20
117.8930760136
 11
61.3418414721
 21
117.8930760136
  0
LINE
  5
2B9
100
AcDbEntity
  8
_1
100
AcDbLine
 62
7
  6
CONTINUOUS
 10
92.3298414721
 20
117.8930760136
 11
101.9818414721
 21
117.8930760136
  0
LINE
  5
2BA
100
AcDbEntity
  8
_1
100
AcDbLine
 62
7
  6
CONTINUOUS
 10
118.4796503214
 20
118.1439887902
 11
29.5204421991
 21
118.1439887902
  0
LINE
  5
2BB
100
AcDbEntity
  8
_1
100
AcDbLine
 62
7
  6
CONTINUOUS
 10
118.9796503214
 20
119.6075760136
 11
126.8877107214
 21
119.6075760136
  0
LINE
  5
2BC
100
AcDbEntity
  8
_1
100
AcDbLine
 62
7
  6
CONTINUOUS
 10
119.5204421991
 20
122.6425783259
 11
29.5204421991
 21
122.6425783259
  0
LINE
  5
2BD
100
AcDbEntity
  8
_1
100
AcDbLine
 62
7
  6
CONTINUOUS
 10
100.1361858162
 20
117.8930760136
 11
100.1361858162
 21
116.3690760136
  0
LINE
  5
2BE
100
AcDbEntity
  8
_1
100
AcDbLine
 62
7
  6
CONTINUOUS
 10
100.1361858162
 20
83.9078760136
 11
100.1361858162
 21
82.3838760136
  0
LINE
  5
2BF
100
AcDbEntity
  8
_1
100
AcDbLine
 62
7
  6
CONTINUOUS
 10
101.9818414721
 20
82.3838760136
 11
101.9818414721
 21
84.8429760136
  0
LINE
  5
2C0
100
AcDbEntity
  8
_1
100
AcDbLine
 62
7
  6
CONTINUOUS
 10
101.9818414721
 20
115.4339760136
 11
101.9818414721
 21
117.8930760136
  0
LINE
  5
2C1
100
AcDbEntity
  8
_1
100
AcDbLine
 62
7
  6
CONTINUOUS
 10
104.5218414721
 20
82.1411678616
 11
104.5218414721
 21
84.8429760136
  0
LINE
  5
2C2
100
AcDbEntity
  8
_1
100
AcDbLine
 62
7
  6
CONTINUOUS
 10
104.5218414721
 20
115.4339760136
 11
104.5218414721
 21
118.1439887902
  0
LINE
  5
2C3
100
AcDbEntity
  8
_1
100
AcDbLine
 62
7
  6
CONTINUOUS
 10
114.6818414721
 20
118.1439887902
 11
114.6818414721
 21
118.0755760136
  0
LINE
  5
2C4
100
AcDbEntity
  8
_1
100
AcDbLine
 62
7
  6
CONTINUOUS
 10
114.6818414721
 20
108.4395760136
 11
114.6818414721
 21
91.8373760136
  0
LINE
  5
2C5
100
AcDbEntity
  8
_1
100
AcDbLine
 62
7
  6
CONTINUOUS
 10
114.6818414721
 20
82.2013760136
 11
114.6818414721
 21
82.1411678616
  0
LINE
  5
2C6
100
AcDbEntity
  8
_1
100
AcDbLine
 62
7
  6
CONTINUOUS
 10
114.9694460967
 20
117.6229302309
 11
114.9694460967
 21
108.8922217962
  0
LINE
  5
2C7
100
AcDbEntity
  8
_1
100
AcDbLine
 62
7
  6
CONTINUOUS
 10
114.9694460967
 20
91.3847302309
 11
114.9694460967
 21
82.6540217962
  0
LINE
  5
2C8
100
AcDbEntity
  8
_1
100
AcDbLine
 62
7
  6
CONTINUOUS
 10
115.7060460967
 20
117.5755760136
 11
115.7060460967
 21
108.9395760136
  0
LINE
  5
2C9
100
AcDbEntity
  8
_1
100
AcDbLine
 62
7
  6
CONTINUOUS
 10
115.7060460967
 20
91.3373760136
 11
115.7060460967
 21
82.7013760136
  0
LINE
  5
2CA
100
AcDbEntity
  8
_1
100
AcDbLine
 62
7
  6
CONTINUOUS
 10
117.9666460967
 20
82.7013760136
 11
117.9666460967
 21
91.3373760136
  0
LINE
  5
2CB
100
AcDbEntity
  8
_1
100
AcDbLine
 62
7
  6
CONTINUOUS
 10
117.9666460967
 20
108.9395760136
 11
117.9666460967
 21
117.5755760136
  0
LINE
  5
2CC
100
AcDbEntity
  8
_1
100
AcDbLine
 62
7
  6
CONTINUOUS
 10
118.4796503214
 20
81.1693760136
 11
118.4796503214
 21
82.2013760136
  0
LINE
  5
2CD
100
AcDbEntity
  8
_1
100
AcDbLine
 62
7
  6
CONTINUOUS
 10
118.4796503214
 20
118.0755760136
 11
118.4796503214
 21
119.1075760136
  0
LINE
  5
2CE
100
AcDbEntity
  8
_1
100
AcDbLine
 62
7
  6
CONTINUOUS
 10
119.3934421991
 20
91.3676150315
 11
119.3934421991
 21
91.3373760136
  0
LINE
  5
2CF
100
AcDbEntity
  8
_1
100
AcDbLine
 62
7
  6
CONTINUOUS
 10
119.5204421991
 20
108.9395760136
 11
119.5204421991
 21
91.3373760136
  0
LINE
  5
2D0
100
AcDbEntity
  8
_1
100
AcDbLine
 62
7
  6
CONTINUOUS
 10
119.5204421991
 20
80.6693760136
 11
119.5204421991
 21
77.6425783259
  0
LINE
  5
2D1
100
AcDbEntity
  8
_1
100
AcDbLine
 62
7
  6
CONTINUOUS
 10
119.5204421991
 20
119.6075760136
 11
119.5204421991
 21
122.6425783259
  0
LINE
  5
2D2
100
AcDbEntity
  8
_1
100
AcDbLine
 62
7
  6
CONTINUOUS
 10
119.5955914901
 20
91.3373760136
 11
119.5955914901
 21
108.9395760136
  0
LINE
  5
2D3
100
AcDbEntity
  8
_1
100
AcDbLine
 62
7
  6
CONTINUOUS
 10
120.4983421991
 20
95.3165783259
 11
120.4983421991
 21
104.9685783259
  0
LINE
  5
2D4
100
AcDbEntity
  8
_1
100
AcDbLine
 62
7
  6
CONTINUOUS
 10
128.1577107214
 20
118.3375760136
 11
128.1577107214
 21
110.2095760136
  0
LINE
  5
2D5
100
AcDbEntity
  8
_1
100
AcDbLine
 62
7
  6
CONTINUOUS
 10
128.1577107214
 20
90.0673760136
 11
128.1577107214
 21
81.9393760136
  0
ARC
  5
2D6
100
AcDbEntity
  8
_1
100
AcDbCircle
 62
7
  6
CONTINUOUS
 10
30.913923784
 20
91.4899377759
 40
5.1018815892
100
AcDbArc
 50
180.0023520459
 51
181.599444361
  0
ARC
  5
2D7
100
AcDbEntity
  8
_1
100
AcDbCircle
 62
7
  6
CONTINUOUS
 10
61.4180414721
 20
82.8029760136
 40
2.54
100
AcDbArc
 50
0.0
 51
86.6558477955
  0
ARC
  5
2D8
100
AcDbEntity
  8
_1
100
AcDbCircle
 62
7
  6
CONTINUOUS
 10
53.9250414721
 20
82.8029760136
 40
2.54
100
AcDbArc
 50
90.0
 51
180.0
  0
ARC
  5
2D9
100
AcDbEntity
  8
_1
100
AcDbCircle
 62
7
  6
CONTINUOUS
 10
21.2052324146
 20
86.0137719279
 40
2.2098
100
AcDbArc
 50
270.0
 51
90.0
  0
ARC
  5
2DA
100
AcDbEntity
  8
_1
100
AcDbCircle
 62
7
  6
CONTINUOUS
 10
46.9908414721
 20
98.8684760137
 40
1.27
100
AcDbArc
 50
180.0
 51
253.2485692042
  0
ARC
  5
2DB
100
AcDbEntity
  8
_1
100
AcDbCircle
 62
7
  6
CONTINUOUS
 10
17.9413324146
 20
89.4935719279
 40
1.27
100
AcDbArc
 50
180.0
 51
270.0
  0
ARC
  5
2DC
100
AcDbEntity
  8
_1
100
AcDbCircle
 62
7
  6
CONTINUOUS
 10
17.9413324146
 20
90.0777719279
 40
1.27
100
AcDbArc
 50
90.0
 51
180.0
  0
ARC
  5
2DD
100
AcDbEntity
  8
_1
100
AcDbCircle
 62
7
  6
CONTINUOUS
 10
17.9413324146
 20
81.9497719279
 40
1.27
100
AcDbArc
 50
180.0
 51
270.0
  0
ARC
  5
2DE
100
AcDbEntity
  8
_1
100
AcDbCircle
 62
7
  6
CONTINUOUS
 10
17.9413324146
 20
82.5339719279
 40
1.27
100
AcDbArc
 50
90.0
 51
180.0
  0
ARC
  5
2DF
100
AcDbEntity
  8
_1
100
AcDbCircle
 62
7
  6
CONTINUOUS
 10
37.1390122131
 20
96.5167050543
 40
0.9525
100
AcDbArc
 50
90.0
 51
180.0
  0
ARC
  5
2E0
100
AcDbEntity
  8
_1
100
AcDbCircle
 62
7
  6
CONTINUOUS
 10
37.1390122131
 20
96.4217050543
 40
0.9525
100
AcDbArc
 50
180.0
 51
270.0
  0
ARC
  5
2E1
100
AcDbEntity
  8
_1
100
AcDbCircle
 62
7
  6
CONTINUOUS
 10
45.7750122131
 20
96.4217050543
 40
0.9525
100
AcDbArc
 50
270.0
 51
360.0
  0
ARC
  5
2E2
100
AcDbEntity
  8
_1
100
AcDbCircle
 62
7
  6
CONTINUOUS
 10
24.0739323066
 20
81.1797719279
 40
0.5
100
AcDbArc
 50
270.0
 51
360.0
  0
ARC
  5
2E3
100
AcDbEntity
  8
_1
100
AcDbCircle
 62
7
  6
CONTINUOUS
 10
25.0739323066
 20
82.2117719279
 40
0.5
100
AcDbArc
 50
90.0
 51
180.0
  0
ARC
  5
2E4
100
AcDbEntity
  8
_1
100
AcDbCircle
 62
7
  6
CONTINUOUS
 10
29.2857122131
 20
82.2117719279
 40
0.5
100
AcDbArc
 50
0.0
 51
90.0
  0
ARC
  5
2E5
100
AcDbEntity
  8
_1
100
AcDbCircle
 62
7
  6
CONTINUOUS
 10
61.5370414721
 20
84.8395022226
 40
0.5
100
AcDbArc
 50
86.6558477955
 51
180.0
  0
ARC
  5
2E6
100
AcDbEntity
  8
_1
100
AcDbCircle
 62
7
  6
CONTINUOUS
 10
54.1870414721
 20
84.8429760136
 40
0.5
100
AcDbArc
 50
0.0
 51
90.0
  0
ARC
  5
2E7
100
AcDbEntity
  8
_1
100
AcDbCircle
 62
7
  6
CONTINUOUS
 10
47.9250414721
 20
91.2183760136
 40
0.5
100
AcDbArc
 50
90.0
 51
180.0
  0
ARC
  5
2E8
100
AcDbEntity
  8
_1
100
AcDbCircle
 62
7
  6
CONTINUOUS
 10
55.8150414721
 20
92.2183760136
 40
0.5
100
AcDbArc
 50
270.0
 51
360.0
  0
ARC
  5
2E9
100
AcDbEntity
  8
_1
100
AcDbCircle
 62
7
  6
CONTINUOUS
 10
56.8150414721
 20
92.4883760136
 40
0.5
100
AcDbArc
 50
90.0
 51
180.0
  0
ARC
  5
2EA
100
AcDbEntity
  8
_1
100
AcDbCircle
 62
7
  6
CONTINUOUS
 10
62.1245414721
 20
93.4883760136
 40
0.5
100
AcDbArc
 50
270.0
 51
360.0
  0
ARC
  5
2EB
100
AcDbEntity
  8
_1
100
AcDbCircle
 62
7
  6
CONTINUOUS
 10
62.1245414721
 20
95.2823760136
 40
0.5
100
AcDbArc
 50
20.2404476811
 51
90.0
  0
ARC
  5
2EC
100
AcDbEntity
  8
_1
100
AcDbCircle
 62
7
  6
CONTINUOUS
 10
40.0727122131
 20
99.1224760136
 40
0.254
100
AcDbArc
 50
270.0
 51
360.0
  0
ARC
  5
2ED
100
AcDbEntity
  8
_1
100
AcDbCircle
 62
7
  6
CONTINUOUS
 10
39.7679122131
 20
98.6652760136
 40
0.2032
100
AcDbArc
 50
90.0
 51
180.0
  0
ARC
  5
2EE
100
AcDbEntity
  8
_1
100
AcDbCircle
 62
7
  6
CONTINUOUS
 10
60.9608414722
 20
99.115094952
 40
0.127
100
AcDbArc
 50
0.0
 51
90.0
  0
ARC
  5
2EF
100
AcDbEntity
  8
_1
100
AcDbCircle
 62
7
  6
CONTINUOUS
 10
60.9608414722
 20
97.337094952
 40
0.127
100
AcDbArc
 50
270.0
 51
360.0
  0
ARC
  5
2F0
100
AcDbEntity
  8
_1
100
AcDbCircle
 62
7
  6
CONTINUOUS
 10
60.7068414721
 20
97.083094952
 40
0.127
100
AcDbArc
 50
90.0
 51
180.0
  0
ARC
  5
2F1
100
AcDbEntity
  8
_1
100
AcDbCircle
 62
7
  6
CONTINUOUS
 10
60.7068414721
 20
99.369094952
 40
0.127
100
AcDbArc
 50
180.0
 51
270.0
  0
ARC
  5
2F2
100
AcDbEntity
  8
_1
100
AcDbCircle
 62
7
  6
CONTINUOUS
 10
53.9250414721
 20
117.4739760136
 40
2.54
100
AcDbArc
 50
180.0
 51
270.0
  0
ARC
  5
2F3
100
AcDbEntity
  8
_1
100
AcDbCircle
 62
7
  6
CONTINUOUS
 10
61.4180414721
 20
117.4739760136
 40
2.54
100
AcDbArc
 50
273.3441522045
 51
360.0
  0
CIRCLE
  5
2F4
100
AcDbEntity
  8
_1
100
AcDbCircle
 62
7
  6
CONTINUOUS
 10
72.0606414721
 20
100.1384760136
 40
1.9939
  0
CIRCLE
  5
2F5
100
AcDbEntity
  8
_1
100
AcDbCircle
 62
7
  6
CONTINUOUS
 10
72.0820421991
 20
100.1425783259
 40
1.35255
  0
ARC
  5
2F6
100
AcDbEntity
  8
_1
100
AcDbCircle
 62
7
  6
CONTINUOUS
 10
46.9908414721
 20
101.4084760137
 40
1.27
100
AcDbArc
 50
106.7514307958
 51
180.0
  0
ARC
  5
2F7
100
AcDbEntity
  8
_1
100
AcDbCircle
 62
7
  6
CONTINUOUS
 10
45.7750122131
 20
103.8552469728
 40
0.9525
100
AcDbArc
 50
0.0
 51
90.0
  0
ARC
  5
2F8
100
AcDbEntity
  8
_1
100
AcDbCircle
 62
7
  6
CONTINUOUS
 10
37.1390122131
 20
103.8552469728
 40
0.9525
100
AcDbArc
 50
90.0
 51
180.0
  0
ARC
  5
2F9
100
AcDbEntity
  8
_1
100
AcDbCircle
 62
7
  6
CONTINUOUS
 10
37.1390122131
 20
103.7602469728
 40
0.9525
100
AcDbArc
 50
180.0
 51
270.0
  0
ARC
  5
2FA
100
AcDbEntity
  8
_1
100
AcDbCircle
 62
7
  6
CONTINUOUS
 10
62.1245414721
 20
104.9945760136
 40
0.5
100
AcDbArc
 50
270.0
 51
339.7595523478
  0
ARC
  5
2FB
100
AcDbEntity
  8
_1
100
AcDbCircle
 62
7
  6
CONTINUOUS
 10
62.1245414721
 20
106.7885760136
 40
0.5
100
AcDbArc
 50
0.0
 51
90.0
  0
ARC
  5
2FC
100
AcDbEntity
  8
_1
100
AcDbCircle
 62
7
  6
CONTINUOUS
 10
56.8150414721
 20
107.7885760136
 40
0.5
100
AcDbArc
 50
180.0
 51
270.0
  0
ARC
  5
2FD
100
AcDbEntity
  8
_1
100
AcDbCircle
 62
7
  6
CONTINUOUS
 10
55.8150414721
 20
108.0585760136
 40
0.5
100
AcDbArc
 50
0.0
 51
90.0
  0
ARC
  5
2FE
100
AcDbEntity
  8
_1
100
AcDbCircle
 62
7
  6
CONTINUOUS
 10
47.9250414721
 20
109.0585760136
 40
0.5
100
AcDbArc
 50
180.0
 51
270.0
  0
ARC
  5
2FF
100
AcDbEntity
  8
_1
100
AcDbCircle
 62
7
  6
CONTINUOUS
 10
54.1870414721
 20
115.4339760136
 40
0.5
100
AcDbArc
 50
270.0
 51
360.0
  0
ARC
  5
300
100
AcDbEntity
  8
_1
100
AcDbCircle
 62
7
  6
CONTINUOUS
 10
61.5370414721
 20
115.4374498045
 40
0.5
100
AcDbArc
 50
180.0
 51
273.3441522045
  0
ARC
  5
301
100
AcDbEntity
  8
_1
100
AcDbCircle
 62
7
  6
CONTINUOUS
 10
40.0727122131
 20
101.1544760136
 40
0.254
100
AcDbArc
 50
0.0
 51
90.0
  0
ARC
  5
302
100
AcDbEntity
  8
_1
100
AcDbCircle
 62
7
  6
CONTINUOUS
 10
39.7679122131
 20
101.6116760136
 40
0.2032
100
AcDbArc
 50
180.0
 51
270.0
  0
ARC
  5
303
100
AcDbEntity
  8
_1
100
AcDbCircle
 62
7
  6
CONTINUOUS
 10
60.9608414719
 20
102.7545883238
 40
0.127
100
AcDbArc
 50
0.0
 51
90.0
  0
ARC
  5
304
100
AcDbEntity
  8
_1
100
AcDbCircle
 62
7
  6
CONTINUOUS
 10
60.9608414719
 20
100.9765883238
 40
0.127
100
AcDbArc
 50
270.0
 51
360.0
  0
ARC
  5
305
100
AcDbEntity
  8
_1
100
AcDbCircle
 62
7
  6
CONTINUOUS
 10
60.7068414721
 20
100.7225883238
 40
0.127
100
AcDbArc
 50
90.0
 51
180.0
  0
ARC
  5
306
100
AcDbEntity
  8
_1
100
AcDbCircle
 62
7
  6
CONTINUOUS
 10
60.7068414721
 20
103.0085883238
 40
0.127
100
AcDbArc
 50
180.0
 51
270.0
  0
ARC
  5
307
100
AcDbEntity
  8
_1
100
AcDbCircle
 62
7
  6
CONTINUOUS
 10
91.7710414721
 20
82.3584760136
 40
2.54
100
AcDbArc
 50
90.0
 51
180.0
  0
CIRCLE
  5
308
100
AcDbEntity
  8
_1
100
AcDbCircle
 62
7
  6
CONTINUOUS
 10
123.8397107214
 20
86.0160760136
 40
2.2098
  0
ARC
  5
309
100
AcDbEntity
  8
_1
100
AcDbCircle
 62
7
  6
CONTINUOUS
 10
126.8877107214
 20
90.0673760136
 40
1.27
100
AcDbArc
 50
0.0
 51
90.0
  0
ARC
  5
30A
100
AcDbEntity
  8
_1
100
AcDbCircle
 62
7
  6
CONTINUOUS
 10
126.8877107214
 20
81.9393760136
 40
1.27
100
AcDbArc
 50
270.0
 51
360.0
  0
ARC
  5
30B
100
AcDbEntity
  8
_1
100
AcDbCircle
 62
7
  6
CONTINUOUS
 10
104.0218414721
 20
84.8429760136
 40
0.5
100
AcDbArc
 50
0.0
 51
90.0
  0
ARC
  5
30C
100
AcDbEntity
  8
_1
100
AcDbCircle
 62
7
  6
CONTINUOUS
 10
102.4818414721
 20
84.8429760136
 40
0.5
100
AcDbArc
 50
90.0
 51
180.0
  0
ARC
  5
30D
100
AcDbEntity
  8
_1
100
AcDbCircle
 62
7
  6
CONTINUOUS
 10
115.1818414721
 20
82.2013760136
 40
0.5
100
AcDbArc
 50
90.0
 51
180.0
  0
ARC
  5
30E
100
AcDbEntity
  8
_1
100
AcDbCircle
 62
7
  6
CONTINUOUS
 10
92.0330414721
 20
84.3984760136
 40
0.5
100
AcDbArc
 50
0.0
 51
90.0
  0
ARC
  5
30F
100
AcDbEntity
  8
_1
100
AcDbCircle
 62
7
  6
CONTINUOUS
 10
117.9796503214
 20
82.2013760136
 40
0.5
100
AcDbArc
 50
0.0
 51
90.0
  0
ARC
  5
310
100
AcDbEntity
  8
_1
100
AcDbCircle
 62
7
  6
CONTINUOUS
 10
118.9796503214
 20
81.1693760136
 40
0.5
100
AcDbArc
 50
180.0
 51
270.0
  0
ARC
  5
311
100
AcDbEntity
  8
_1
100
AcDbCircle
 62
7
  6
CONTINUOUS
 10
115.1818414721
 20
91.8373760136
 40
0.5
100
AcDbArc
 50
180.0
 51
270.0
  0
ARC
  5
312
100
AcDbEntity
  8
_1
100
AcDbCircle
 62
7
  6
CONTINUOUS
 10
91.7710414721
 20
117.9184760136
 40
2.54
100
AcDbArc
 50
180.0
 51
270.0
  0
CIRCLE
  5
313
100
AcDbEntity
  8
_1
100
AcDbCircle
 62
7
  6
CONTINUOUS
 10
123.8397107214
 20
114.2608760136
 40
2.2098
  0
ARC
  5
314
100
AcDbEntity
  8
_1
100
AcDbCircle
 62
7
  6
CONTINUOUS
 10
100.0895414721
 20
100.1384760136
 40
2.0066
100
AcDbArc
 50
90.0
 51
270.0
  0
ARC
  5
315
100
AcDbEntity
  8
_1
100
AcDbCircle
 62
7
  6
CONTINUOUS
 10
105.8553414721
 20
100.1384760136
 40
2.0066
100
AcDbArc
 50
270.0
 51
90.0
  0
ARC
  5
316
100
AcDbEntity
  8
_1
100
AcDbCircle
 62
7
  6
CONTINUOUS
 10
126.8877107214
 20
118.3375760136
 40
1.27
100
AcDbArc
 50
0.0
 51
90.0
  0
ARC
  5
317
100
AcDbEntity
  8
_1
100
AcDbCircle
 62
7
  6
CONTINUOUS
 10
126.8877107214
 20
110.2095760136
 40
1.27
100
AcDbArc
 50
270.0
 51
360.0
  0
ARC
  5
318
100
AcDbEntity
  8
_1
100
AcDbCircle
 62
7
  6
CONTINUOUS
 10
102.4818414721
 20
115.4339760136
 40
0.5
100
AcDbArc
 50
180.0
 51
270.0
  0
ARC
  5
319
100
AcDbEntity
  8
_1
100
AcDbCircle
 62
7
  6
CONTINUOUS
 10
104.0218414721
 20
115.4339760136
 40
0.5
100
AcDbArc
 50
270.0
 51
360.0
  0
ARC
  5
31A
100
AcDbEntity
  8
_1
100
AcDbCircle
 62
7
  6
CONTINUOUS
 10
115.1818414721
 20
108.4395760136
 40
0.5
100
AcDbArc
 50
90.0
 51
180.0
  0
ARC
  5
31B
100
AcDbEntity
  8
_1
100
AcDbCircle
 62
7
  6
CONTINUOUS
 10
117.9796503214
 20
118.0755760136
 40
0.5
100
AcDbArc
 50
270.0
 51
360.0
  0
ARC
  5
31C
100
AcDbEntity
  8
_1
100
AcDbCircle
 62
7
  6
CONTINUOUS
 10
118.9796503214
 20
119.1075760136
 40
0.5
100
AcDbArc
 50
90.0
 51
180.0
  0
ARC
  5
31D
100
AcDbEntity
  8
_1
100
AcDbCircle
 62
7
  6
CONTINUOUS
 10
115.1818414721
 20
118.0755760136
 40
0.5
100
AcDbArc
 50
180.0
 51
270.0
  0
ARC
  5
31E
100
AcDbEntity
  8
_1
100
AcDbCircle
 62
7
  6
CONTINUOUS
 10
92.0330414721
 20
115.8784760136
 40
0.5
100
AcDbArc
 50
270.0
 51
360.0
  0
LINE
  5
31F
100
AcDbEntity
  8
_1
100
AcDbLine
 62
7
  6
CONTINUOUS
 10
25.8539601723
 20
93.4709283259
 11
25.8120421991
 21
93.3969688565
  0
SPLINE
  5
320
100
AcDbEntity
  8
_1
100
AcDbSpline
 62
7
  6
CONTINUOUS
 70
0
 71
3
 72
11
 73
7
 74
0
 42
0.0000001
 43
0.0000001
 44
0.0000000001
 40
0.0
 40
0.0
 40
0.0
 40
0.0
 40
0.2488571897
 40
0.498260799
 40
0.7485907714
 40
1.0
 40
1.0
 40
1.0
 40
1.0
 10
25.8120421991
 20
91.4897283389
 30
0.0
 10
25.8120421952
 20
91.6573698087
 30
0.0
 10
25.828712717
 20
91.9932315789
 30
0.0
 10
25.9007153482
 20
92.4929837213
 30
0.0
 10
26.0141737128
 20
92.9865996282
 30
0.0
 10
26.1123929591
 20
93.3102587165
 30
0.0
 10
26.1659494953
 20
93.4709283259
 30
0.0
  0
ELLIPSE
  5
321
100
AcDbEntity
  8
_1
100
AcDbEllipse
 62
7
  6
CONTINUOUS
 10
29.9533702907
 20
111.1596502343
 30
0.0
 11
-0.3593196721
 21
0.3593196721
 31
0.0
 40
0.9996954599
 41
0.2945104898
 42
0.7852458701
  0
ENDSEC
  0
SECTION
  2
OBJECTS
  0
DICTIONARY
  5
C
100
AcDbDictionary
280
0
281
1
  3
ACAD_GROUP
350
D
  3
ACAD_MLINESTYLE
350
17
  3
ACAD_LAYOUT
350
1A
  3
ACAD_PLOTSETTINGS
350
19
  3
ACAD_PLOTSTYLENAME
350
E
  0
DICTIONARY
  5
D
102
{ACAD_REACTORS
330
C
102
}
100
AcDbDictionary
280
0
281
1
  0
ACDBDICTIONARYWDFLT
  5
E
102
{ACAD_REACTORS
330
C
102
}
100
AcDbDictionary
281
1
  3
Normal
350
F
100
AcDbDictionaryWithDefault
340
F
  0
DICTIONARY
  5
17
102
{ACAD_REACTORS
330
C
102
}
100
AcDbDictionary
280
0
281
1
  3
Standard
350
18
  0
DICTIONARY
  5
19
102
{ACAD_REACTORS
330
C
102
}
100
AcDbDictionary
281
1
  0
DICTIONARY
  5
1A
102
{ACAD_REACTORS
330
C
102
}
100
AcDbDictionary
281
1
  3
Model
350
322
  3
Layout1
350
323
  0
ACDBPLACEHOLDER
  5
F
102
{ACAD_REACTORS
330
E
102
}
  0
MLINESTYLE
  5
18
102
{ACAD_REACTORS
330
17
102
}
100
AcDbMlineStyle
  2
STANDARD
 70
0
  3

 62
256
 51
90.0
 52
90.0
 71
2
 49
0.5
 62
256
  6
BYLAYER
 49
-0.5
 62
256
  6
BYLAYER
  0
LAYOUT
  5
322
102
{ACAD_REACTORS
330
1A
102
}
100
AcDbPlotSettings
  1

  2
none_device
  4

  6

 40
0.0
 41
0.0
 42
0.0
 43
0.0
 44
210.0
 45
297.0
 46
0.0
 47
0.0
 48
0.0
 49
0.0
140
0.0
141
0.0
142
1.0
143
1.0
 70
1024
 72
1
 73
0
 74
0
  7

 75
0
147
1.0
148
0.0
149
0.0
100
AcDbLayout
  1
Model
 70
0
 71
0
 10
0.0
 20
0.0
 11
210.0
 21
297.0
 12
0.0
 22
0.0
 32
0.0
 14
0.0
 24
0.0
 34
0.0
 15
0.0
 25
0.0
 35
0.0
146
0.0
 13
0.0
 23
0.0
 33
0.0
 16
1.0
 26
0.0
 36
0.0
 17
0.0
 27
1.0
 37
0.0
 76
0
330
211
345
0
346
0
  0
LAYOUT
  5
323
102
{ACAD_REACTORS
330
1A
102
}
100
AcDbPlotSettings
  1

  2
none_device
  4

  6

 40
0.0
 41
0.0
 42
0.0
 43
0.0
 44
210.0
 45
297.0
 46
0.0
 47
0.0
 48
0.0
 49
0.0
140
0.0
141
0.0
142
1.0
143
1.0
 70
0
 72
1
 73
0
 74
0
  7

 75
0
147
1.0
148
0.0
149
0.0
100
AcDbLayout
  1
Layout1
 70
0
 71
1
 10
0.0
 20
0.0
 11
210.0
 21
297.0
 12
0.0
 22
0.0
 32
0.0
 14
0.0
 24
0.0
 34
0.0
 15
0.0
 25
0.0
 35
0.0
146
0.0
 13
0.0
 23
0.0
 33
0.0
 16
1.0
 26
0.0
 36
0.0
 17
0.0
 27
1.0
 37
0.0
 76
0
330
212
345
0
346
0
  0
ENDSEC
  0
EOF
