999
DXF file: C:\Users\sesa63760\Dev\_Creo\CAD\MCADID0003910_3D-CAD\drw0001_1.dxf
999
Pro/ENGINEER 2019471 by Parametric Technology Corporation
  0
SECTION
  2
HEADER
  9
$ACADVER
  1
AC1024
  9
$DWGCODEPAGE
  3
ANSI_1252
  9
$EXTMAX
 10
68.0048145601
 20
96.178237735
 30
0.0
  9
$EXTMIN
 10
0.0
 20
0.0
 30
0.0
  9
$LIMMIN
 10
0.0
 20
0.0
  9
$LIMMAX
 10
68.0048145601
 20
96.178237735
  9
$VIEWCTR
 10
34.0024072801
 20
48.0891188675
  9
$VIEWSIZE
 40
96.178237735
  9
$CLAYER
  8
0
  9
$LTSCALE
 40
6.2693962375
  9
$CELTYPE
  6
BYLAYER
  9
$DIMSCALE
 40
1.0
  9
$DIMASZ
 40
0.8095811257
  9
$DIMEXO
 40
1.0
  9
$DIMDLI
 40
4.331582855
  9
$DIMEXE
 40
1.0
  9
$DIMCEN
 40
1.0259012025
  9
$DIMLFAC
 40
1.0
  9
$DIMBLK
  1
_FILLED
  9
$DIMALT
 70
0
  9
$DIMALTF
 40
0.0393700787
  9
$DIMTXT
 40
1.133413576
  9
$DIMTOL
 70
1
  9
$DIMLIM
 70
0
  9
$DIMTFAC
 40
1.0
  9
$DIMTP
 40
0.01
  9
$DIMTM
 40
0.01
  9
$DIMGAP
 40
0.625
  9
$DIMDSEP
 70
46
  9
$AUNITS
 70
0
  9
$PDMODE
 70
3
  9
$PDSIZE
 40
0.3125
  9
$HANDSEED
  5
2AB
  9
$TILEMODE
 70
1
  9
$MEASUREMENT
 70
1
  9
$INSUNITS
 70
4
  0
ENDSEC
  0
SECTION
  2
CLASSES
  0
CLASS
  1
ACDBDICTIONARYWDFLT
  2
AcDbDictionaryWithDefault
  3
AutoCAD 2000
 90
0
 91
1
280
0
281
0
  0
CLASS
  1
ACDBPLACEHOLDER
  2
AcDbPlaceHolder
  3
AutoCAD 2000
 90
0
 91
1
280
0
281
0
  0
CLASS
  1
LAYOUT
  2
AcDbLayout
  3
AutoCAD 2000
 90
0
 91
0
280
0
281
0
  0
ENDSEC
  0
SECTION
  2
TABLES
  0
TABLE
  2
VPORT
  5
8
100
AcDbSymbolTable
 70
2
  0
VPORT
  5
1F4
100
AcDbSymbolTableRecord
100
AcDbViewportTableRecord
  2
*ACTIVE
 70
0
 10
0.0
 20
0.0
 11
1.0
 21
1.0
 12
34.0024072801
 22
48.0891188675
 13
0.0
 23
0.0
 14
1.0
 24
1.0
 15
0.0
 25
0.0
 16
0.0
 26
0.0
 36
1.0
 17
0.0
 27
0.0
 37
0.0
 40
96.178237735
 41
0.7070707071
 42
50.0
 43
0.0
 44
0.0
 50
0.0
 51
0.0
 71
0
 72
100
 73
1
 74
1
 75
0
 76
0
 77
0
 78
0
  0
ENDTAB
  0
TABLE
  2
LTYPE
  5
5
100
AcDbSymbolTable
 70
6
  0
LTYPE
  5
14
100
AcDbSymbolTableRecord
100
AcDbLinetypeTableRecord
  2
BYBLOCK
 70
0
  3

 72
65
 73
0
 40
0.0
  0
LTYPE
  5
15
100
AcDbSymbolTableRecord
100
AcDbLinetypeTableRecord
  2
BYLAYER
 70
0
  3

 72
65
 73
0
 40
0.0
  0
LTYPE
  5
16
100
AcDbSymbolTableRecord
100
AcDbLinetypeTableRecord
  2
CONTINUOUS
 70
64
  3
Solid line
 72
65
 73
0
 40
0.0
  0
LTYPE
  5
1F5
100
AcDbSymbolTableRecord
100
AcDbLinetypeTableRecord
  2
CENTER
 70
64
  3
____ _ ____ _ ____ _ ____ _ ____ _ ____ _ ____
 72
65
 73
4
 40
0.6
 49
0.375
 74
0
 49
-0.075
 74
0
 49
0.075
 74
0
 49
-0.075
 74
0
  0
LTYPE
  5
1F6
100
AcDbSymbolTableRecord
100
AcDbLinetypeTableRecord
  2
HIDDEN
 70
64
  3
- - - - - - - - - - - - - - - - - - - -
 72
65
 73
2
 40
0.2
 49
0.1
 74
0
 49
-0.1
 74
0
  0
LTYPE
  5
1F7
100
AcDbSymbolTableRecord
100
AcDbLinetypeTableRecord
  2
PHANTOM
 70
64
  3
_____ _ _ _____ _ _ _____ _ _ _____
 72
65
 73
6
 40
0.8
 49
0.45
 74
0
 49
-0.05
 74
0
 49
0.1
 74
0
 49
-0.05
 74
0
 49
0.1
 74
0
 49
-0.05
 74
0
  0
LTYPE
  5
1F8
100
AcDbSymbolTableRecord
100
AcDbLinetypeTableRecord
  2
DOT
 70
64
  3
. . . . . . . . . . . . . . . . . . . .
 72
65
 73
2
 40
0.2
 49
0.1
 74
0
 49
-0.1
 74
0
  0
LTYPE
  5
1F9
100
AcDbSymbolTableRecord
100
AcDbLinetypeTableRecord
  2
DASHED
 70
64
  3
- - - - - - - - - - - - - - - - - - - -
 72
65
 73
2
 40
0.2
 49
0.1
 74
0
 49
-0.1
 74
0
  0
ENDTAB
  0
TABLE
  2
LAYER
  5
2
100
AcDbSymbolTable
 70
36
  0
LAYER
  5
10
100
AcDbSymbolTableRecord
100
AcDbLayerTableRecord
  2
0
 70
0
 62
7
  6
CONTINUOUS
370
-3
390
F
  0
LAYER
  5
1FA
100
AcDbSymbolTableRecord
100
AcDbLayerTableRecord
  2
DEFAULT_1
 70
0
 62
7
  6
CENTER
370
-3
390
F
  0
LAYER
  5
1FB
100
AcDbSymbolTableRecord
100
AcDbLayerTableRecord
  2
DEFAULT_2
 70
0
 62
7
  6
HIDDEN
370
-3
390
F
  0
LAYER
  5
1FC
100
AcDbSymbolTableRecord
100
AcDbLayerTableRecord
  2
DEFAULT_3
 70
0
 62
7
  6
PHANTOM
370
-3
390
F
  0
LAYER
  5
1FD
100
AcDbSymbolTableRecord
100
AcDbLayerTableRecord
  2
00_COMPONENTS
 70
0
 62
7
  6
CONTINUOUS
370
-3
390
F
  0
LAYER
  5
1FE
100
AcDbSymbolTableRecord
100
AcDbLayerTableRecord
  2
01_1_DEFAULT_DATUMS
 70
0
 62
7
  6
CONTINUOUS
370
-3
390
F
  0
LAYER
  5
1FF
100
AcDbSymbolTableRecord
100
AcDbLayerTableRecord
  2
01_PLANES
 70
0
 62
7
  6
CONTINUOUS
370
-3
390
F
  0
LAYER
  5
200
100
AcDbSymbolTableRecord
100
AcDbLayerTableRecord
  2
02_COORD_SYS
 70
0
 62
7
  6
CONTINUOUS
370
-3
390
F
  0
LAYER
  5
201
100
AcDbSymbolTableRecord
100
AcDbLayerTableRecord
  2
03_AXES
 70
0
 62
7
  6
CONTINUOUS
370
-3
390
F
  0
LAYER
  5
202
100
AcDbSymbolTableRecord
100
AcDbLayerTableRecord
  2
04_POINTS
 70
0
 62
7
  6
CONTINUOUS
370
-3
390
F
  0
LAYER
  5
203
100
AcDbSymbolTableRecord
100
AcDbLayerTableRecord
  2
05_CURVES
 70
0
 62
7
  6
CONTINUOUS
370
-3
390
F
  0
LAYER
  5
204
100
AcDbSymbolTableRecord
100
AcDbLayerTableRecord
  2
06_SURFS
 70
0
 62
7
  6
CONTINUOUS
370
-3
390
F
  0
LAYER
  5
205
100
AcDbSymbolTableRecord
100
AcDbLayerTableRecord
  2
07_COSMETICS
 70
0
 62
7
  6
CONTINUOUS
370
-3
390
F
  0
LAYER
  5
206
100
AcDbSymbolTableRecord
100
AcDbLayerTableRecord
  2
10_NOTES
 70
0
 62
7
  6
CONTINUOUS
370
-3
390
F
  0
LAYER
  5
207
100
AcDbSymbolTableRecord
100
AcDbLayerTableRecord
  2
11_NOTES_PUB
 70
0
 62
7
  6
CONTINUOUS
370
-3
390
F
  0
LAYER
  5
208
100
AcDbSymbolTableRecord
100
AcDbLayerTableRecord
  2
13_REF_GTOL
 70
0
 62
7
  6
CONTINUOUS
370
-3
390
F
  0
LAYER
  5
209
100
AcDbSymbolTableRecord
100
AcDbLayerTableRecord
  2
16_MISC
 70
0
 62
7
  6
CONTINUOUS
370
-3
390
F
  0
LAYER
  5
20A
100
AcDbSymbolTableRecord
100
AcDbLayerTableRecord
  2
17_NO_PRINT
 70
0
 62
7
  6
CONTINUOUS
370
-3
390
F
  0
LAYER
  5
20B
100
AcDbSymbolTableRecord
100
AcDbLayerTableRecord
  2
18_DATUM_CAMS_JOINTS
 70
0
 62
7
  6
CONTINUOUS
370
-3
390
F
  0
LAYER
  5
20C
100
AcDbSymbolTableRecord
100
AcDbLayerTableRecord
  2
19_DATUM_FUNCTIONAL
 70
0
 62
7
  6
CONTINUOUS
370
-3
390
F
  0
LAYER
  5
20D
100
AcDbSymbolTableRecord
100
AcDbLayerTableRecord
  2
20_DATUM_KINEMATIC_SCHEME
 70
0
 62
7
  6
CONTINUOUS
370
-3
390
F
  0
ENDTAB
  0
TABLE
  2
STYLE
  5
3
100
AcDbSymbolTable
 70
1
  0
STYLE
  5
11
100
AcDbSymbolTableRecord
100
AcDbTextStyleTableRecord
  2
STANDARD
 70
0
 40
0.0
 41
1.0
 50
0.0
 71
0
 42
0.2
  3
ARIAL.TTF
  4

  0
STYLE
  5
20E
100
AcDbSymbolTableRecord
100
AcDbTextStyleTableRecord
  2
TEXTSTYLE_1
 70
0
 40
0.0
 41
0.8
 50
0.0
 71
0
 42
0.2
  3
gdt
  4

  0
ENDTAB
  0
TABLE
  2
VIEW
  5
6
100
AcDbSymbolTable
 70
0
  0
ENDTAB
  0
TABLE
  2
UCS
  5
7
100
AcDbSymbolTable
 70
0
  0
ENDTAB
  0
TABLE
  2
APPID
  5
9
100
AcDbSymbolTable
 70
1
  0
APPID
  5
20F
100
AcDbSymbolTableRecord
100
AcDbRegAppTableRecord
  2
ACAD
 70
0
  0
ENDTAB
  0
TABLE
  2
BLOCK_RECORD
  5
1
100
AcDbSymbolTable
 70
0
  0
BLOCK_RECORD
  5
210
100
AcDbSymbolTableRecord
100
AcDbBlockTableRecord
  2
*Model_Space
  0
BLOCK_RECORD
  5
211
100
AcDbSymbolTableRecord
100
AcDbBlockTableRecord
  2
*Paper_Space
  0
BLOCK_RECORD
  5
212
100
AcDbSymbolTableRecord
100
AcDbBlockTableRecord
  2
_FILLED
  0
ENDTAB
  0
TABLE
  2
DIMSTYLE
  5
A
100
AcDbSymbolTable
 70
1
100
AcDbDimStyleTable
 71
0
  0
DIMSTYLE
105
213
100
AcDbSymbolTableRecord
100
AcDbDimStyleTableRecord
  2
STANDARD
 70
0
  3

  4

 40
1.0
 41
0.8095811257
 42
1.0
 43
0.38
 44
1.0
 45
0.0
 46
0.0
 47
0.01
 48
0.01
140
1.133413576
141
0.09
142
0.0
143
25.4
144
1.0
145
0.0
146
1.0
147
0.625
 71
1
 72
0
 73
0
 74
0
 75
0
 76
0
 77
1
 78
8
 79
2
170
0
171
1
172
0
173
0
174
0
175
0
176
0
177
0
178
0
270
2
179
2
271
2
272
2
273
2
274
2
275
0
280
0
281
0
282
0
283
1
284
8
285
0
286
0
287
3
288
0
340
11
278
46
341
212
342
212
343
212
344
212
  0
ENDTAB
  0
ENDSEC
  0
SECTION
  2
BLOCKS
  0
BLOCK
  5
20
100
AcDbEntity
  8
0
100
AcDbBlockBegin
  2
*Model_Space
 70
0
 10
0.0
 20
0.0
 30
0.0
  3
*Model_Space
  1

  0
ENDBLK
  5
21
100
AcDbEntity
  8
0
100
AcDbBlockEnd
  0
BLOCK
  5
1C
100
AcDbEntity
  8
0
100
AcDbBlockBegin
  2
*Paper_Space
 70
0
 10
0.0
 20
0.0
 30
0.0
  3
*Paper_Space
  1

  0
ENDBLK
  5
1D
100
AcDbEntity
  8
0
100
AcDbBlockEnd
  0
BLOCK
  5
214
100
AcDbEntity
  8
0
100
AcDbBlockBegin
  2
_FILLED
 70
64
 10
0.0
 20
0.0
  3
_FILLED
  1

  0
SOLID
  5
215
100
AcDbEntity
  8
0
  6
BYBLOCK
 62
0
100
AcDbTrace
 10
0.0
 20
0.0
 11
-1.0
 21
0.25
 12
-1.0
 22
-0.25
 13
-1.0
 23
-0.25
  0
ENDBLK
  5
216
100
AcDbEntity
  8
0
  6
BYBLOCK
 62
0
100
AcDbBlockEnd
  0
ENDSEC
  0
SECTION
  2
ENTITIES
  0
LINE
  5
217
100
AcDbEntity
  8
0
100
AcDbLine
 62
7
  6
BYLAYER
 10
13.0744243348
 20
24.8193435374
 11
9.2874810444
 21
29.5079598796
  0
LINE
  5
218
100
AcDbEntity
  8
0
100
AcDbLine
 62
7
  6
BYLAYER
 10
16.3417827632
 20
27.4583526128
 11
12.5548394729
 21
32.146968955
  0
LINE
  5
219
100
AcDbEntity
  8
0
100
AcDbLine
 62
7
  6
BYLAYER
 10
15.5475757938
 20
50.739541345
 11
16.7418332536
 21
51.9445627671
  0
LWPOLYLINE
  5
21A
100
AcDbEntity
  8
0
100
AcDbPolyline
 62
7
  6
BYLAYER
 90
3
 70
0
 10
17.0335623836
 20
52.2016168122
 10
17.036170835
 20
52.2039152216
 10
17.0370015109
 20
52.2042736958
  0
LINE
  5
21B
100
AcDbEntity
  8
0
100
AcDbLine
 62
7
  6
BYLAYER
 10
17.0334345436
 20
52.2018173511
 11
17.0368827704
 21
52.2044601762
  0
LINE
  5
21C
100
AcDbEntity
  8
0
100
AcDbLine
 62
7
  6
BYLAYER
 10
45.1605087257
 20
69.2902846793
 11
23.1342241965
 21
56.5734792862
  0
LINE
  5
21D
100
AcDbEntity
  8
0
100
AcDbLine
 62
7
  6
BYLAYER
 10
22.9996052474
 20
55.7452032337
 11
18.6155614566
 21
53.2140894797
  0
LINE
  5
21E
100
AcDbEntity
  8
0
100
AcDbLine
 62
7
  6
BYLAYER
 10
18.4284301935
 20
53.0483148987
 11
17.4062056259
 21
52.4581367923
  0
LINE
  5
21F
100
AcDbEntity
  8
0
100
AcDbLine
 62
7
  6
BYLAYER
 10
48.1945786589
 20
69.6563567373
 11
51.7001782722
 21
71.6803035364
  0
LINE
  5
220
100
AcDbEntity
  8
0
100
AcDbLine
 62
7
  6
BYLAYER
 10
16.0783911472
 20
46.193814447
 11
16.5974034154
 21
46.7032259466
  0
LINE
  5
221
100
AcDbEntity
  8
0
100
AcDbLine
 62
7
  6
BYLAYER
 10
23.2885023568
 20
37.3317832071
 11
24.9292124822
 21
37.7635213134
  0
LINE
  5
222
100
AcDbEntity
  8
0
100
AcDbLine
 62
7
  6
BYLAYER
 10
18.9121614754
 20
44.0133806056
 11
19.9171682033
 21
44.7707002726
  0
LINE
  5
223
100
AcDbEntity
  8
0
100
AcDbLine
 62
7
  6
BYLAYER
 10
11.8631279829
 20
39.1685025994
 11
19.5264847743
 21
43.5929172956
  0
LINE
  5
224
100
AcDbEntity
  8
0
100
AcDbLine
 62
7
  6
BYLAYER
 10
18.9157879882
 20
44.0145306913
 11
18.9121614754
 21
44.0133806056
  0
LINE
  5
225
100
AcDbEntity
  8
0
100
AcDbLine
 62
7
  6
BYLAYER
 10
17.495916669
 20
43.7385735664
 11
18.1965871097
 21
43.9333420036
  0
LINE
  5
226
100
AcDbEntity
  8
0
100
AcDbLine
 62
7
  6
BYLAYER
 10
13.9631185814
 20
35.5311904756
 11
21.6349980923
 21
39.9605257368
  0
LINE
  5
227
100
AcDbEntity
  8
0
100
AcDbLine
 62
7
  6
BYLAYER
 10
56.0528344315
 20
56.1799942235
 11
59.5001433525
 21
58.1702870766
  0
LINE
  5
228
100
AcDbEntity
  8
0
100
AcDbLine
 62
7
  6
BYLAYER
 10
26.7283930354
 20
38.6722717427
 11
25.7061684678
 21
38.0820936363
  0
LINE
  5
229
100
AcDbEntity
  8
0
100
AcDbLine
 62
7
  6
BYLAYER
 10
31.3495678654
 20
41.2825574081
 11
26.9655240747
 21
38.7514436541
  0
LINE
  5
22A
100
AcDbEntity
  8
0
100
AcDbLine
 62
7
  6
BYLAYER
 10
54.1604684338
 20
53.7018041487
 11
32.1341839046
 21
40.9849987556
  0
LINE
  5
22B
100
AcDbEntity
  8
0
100
AcDbLine
 62
7
  6
BYLAYER
 10
21.6834417942
 20
39.2133536392
 11
22.8418057703
 21
39.7050491751
  0
LINE
  5
22C
100
AcDbEntity
  8
0
100
AcDbLine
 62
7
  6
BYLAYER
 10
56.0244725733
 20
58.3117685688
 11
56.0244761061
 21
57.8218776238
  0
LINE
  5
22D
100
AcDbEntity
  8
0
100
AcDbLine
 62
7
  6
BYLAYER
 10
56.6608624941
 20
59.1690792518
 11
56.660865438
 21
58.7608367977
  0
LINE
  5
22E
100
AcDbEntity
  8
0
100
AcDbLine
 62
7
  6
BYLAYER
 10
50.0849029829
 20
68.5995233945
 11
49.6606515449
 21
68.8444720799
  0
LINE
  5
22F
100
AcDbEntity
  8
0
100
AcDbLine
 62
7
  6
BYLAYER
 10
51.1455478744
 20
68.7219944476
 11
50.7920050094
 21
68.9261183521
  0
ARC
  5
230
100
AcDbEntity
  8
0
100
AcDbCircle
 62
7
  6
BYLAYER
 10
47.0819853962
 20
57.8163431535
 40
8.9424924225
100
AcDbArc
 50
0.0354601133
 51
2.9657273707
  0
ARC
  5
231
100
AcDbEntity
  8
0
100
AcDbCircle
 62
7
  6
BYLAYER
 10
45.2552330144
 20
61.2178752408
 40
8.8075360786
100
AcDbArc
 50
57.0124463592
 51
59.9876012494
  0
ARC
  5
232
100
AcDbEntity
  8
0
100
AcDbCircle
 62
7
  6
BYLAYER
 10
17.6592143672
 20
45.2972256957
 40
7.7940362067
100
AcDbArc
 50
60.000385596
 51
60.2645911885
  0
ARC
  5
233
100
AcDbEntity
  8
0
100
AcDbCircle
 62
7
  6
BYLAYER
 10
17.5887324418
 20
45.2533295076
 40
7.7830703091
100
AcDbArc
 50
60.000385596
 51
60.2645911884
  0
ARC
  5
234
100
AcDbEntity
  8
0
100
AcDbCircle
 62
7
  6
BYLAYER
 10
23.5870850602
 20
44.4654570508
 40
7.467117275
100
AcDbArc
 50
239.6253152502
 51
240.0002303922
  0
ARC
  5
235
100
AcDbEntity
  8
0
100
AcDbCircle
 62
7
  6
BYLAYER
 10
16.3125449701
 20
44.3513029884
 40
7.4301232439
100
AcDbArc
 50
59.6252915409
 51
60.0002066829
  0
ARC
  5
236
100
AcDbEntity
  8
0
100
AcDbCircle
 62
7
  6
BYLAYER
 10
53.7692149391
 20
61.8226235988
 40
7.4049797845
100
AcDbArc
 50
0.0003247676
 51
0.3640791305
  0
ARC
  5
237
100
AcDbEntity
  8
0
100
AcDbCircle
 62
7
  6
BYLAYER
 10
53.7210326687
 20
61.7409743449
 40
7.3945839999
100
AcDbArc
 50
0.0003337701
 51
0.3640881328
  0
ARC
  5
238
100
AcDbEntity
  8
0
100
AcDbCircle
 62
7
  6
BYLAYER
 10
20.905581924
 20
41.0929774454
 40
2.918877054
100
AcDbArc
 50
359.2535329411
 51
0.0014048193
  0
ARC
  5
239
100
AcDbEntity
  8
0
100
AcDbCircle
 62
7
  6
BYLAYER
 10
18.7962890486
 20
49.909800809
 40
2.8915386622
100
AcDbArc
 50
127.5648989164
 51
135.2759664932
  0
ARC
  5
23A
100
AcDbEntity
  8
0
100
AcDbCircle
 62
7
  6
BYLAYER
 10
20.0284580738
 20
50.7726818448
 40
2.8208836152
100
AcDbArc
 50
125.0998831113
 51
127.5535693637
  0
ARC
  5
23B
100
AcDbEntity
  8
0
100
AcDbCircle
 62
7
  6
BYLAYER
 10
25.5576954462
 20
41.195676808
 40
2.8207964591
100
AcDbArc
 50
292.4453560258
 51
294.8999431614
  0
ARC
  5
23C
100
AcDbEntity
  8
0
100
AcDbCircle
 62
7
  6
BYLAYER
 10
20.011488156
 20
50.7968815109
 40
2.7913268735
100
AcDbArc
 50
120.0062399953
 51
125.1005182249
  0
ARC
  5
23D
100
AcDbEntity
  8
0
100
AcDbCircle
 62
7
  6
BYLAYER
 10
25.5701502468
 20
41.1689180485
 40
2.7912811696
100
AcDbArc
 50
294.899313289
 51
299.9936774811
  0
ARC
  5
23E
100
AcDbEntity
  8
0
100
AcDbCircle
 62
7
  6
BYLAYER
 10
18.7251225976
 20
49.9988363274
 40
2.7775763314
100
AcDbArc
 50
118.3894596869
 51
127.4313496674
  0
ARC
  5
23F
100
AcDbEntity
  8
0
100
AcDbCircle
 62
7
  6
BYLAYER
 10
20.8230378354
 20
41.1007002882
 40
2.7333524342
100
AcDbArc
 50
359.2535329411
 51
0.0014048193
  0
ARC
  5
240
100
AcDbEntity
  8
0
100
AcDbCircle
 62
7
  6
BYLAYER
 10
17.2439425801
 20
44.711903296
 40
1.6664510578
100
AcDbArc
 50
357.9945569955
 51
0.0050627349
  0
ARC
  5
241
100
AcDbEntity
  8
0
100
AcDbCircle
 62
7
  6
BYLAYER
 10
17.3802717446
 20
45.5557526102
 40
1.5338469009
100
AcDbArc
 50
184.2434543078
 51
184.5900060917
  0
ARC
  5
242
100
AcDbEntity
  8
0
100
AcDbCircle
 62
7
  6
BYLAYER
 10
17.3577413885
 20
45.554105448
 40
1.5112564276
100
AcDbArc
 50
183.5252116648
 51
184.2443823002
  0
ARC
  5
243
100
AcDbEntity
  8
0
100
AcDbCircle
 62
7
  6
BYLAYER
 10
17.1729224217
 20
44.7268549359
 40
1.4864445002
100
AcDbArc
 50
357.9945569032
 51
0.0050628261
  0
ARC
  5
244
100
AcDbEntity
  8
0
100
AcDbCircle
 62
7
  6
BYLAYER
 10
17.3064972793
 20
45.5510459932
 40
1.4599211649
100
AcDbArc
 50
181.4713770038
 51
183.5290270863
  0
ARC
  5
245
100
AcDbEntity
  8
0
100
AcDbCircle
 62
7
  6
BYLAYER
 10
17.2436939604
 20
45.5491083746
 40
1.3970888379
100
AcDbArc
 50
180.0068767733
 51
181.4580753744
  0
ARC
  5
246
100
AcDbEntity
  8
0
100
AcDbCircle
 62
7
  6
BYLAYER
 10
16.5297316479
 20
44.441999539
 40
1.376395675
100
AcDbArc
 50
0.0026987058
 51
1.4637860312
  0
ARC
  5
247
100
AcDbEntity
  8
0
100
AcDbCircle
 62
7
  6
BYLAYER
 10
16.4667447767
 20
44.4569441318
 40
1.1883558306
100
AcDbArc
 50
0.0026987445
 51
1.4637859936
  0
ARC
  5
248
100
AcDbEntity
  8
0
100
AcDbCircle
 62
7
  6
BYLAYER
 10
17.0935401943
 20
45.4673478365
 40
1.1883558305
100
AcDbArc
 50
180.0026987445
 51
181.4637859936
  0
ARC
  5
249
100
AcDbEntity
  8
0
100
AcDbCircle
 62
7
  6
BYLAYER
 10
16.9465983941
 20
44.611851688
 40
0.6805802743
100
AcDbArc
 50
348.2458012935
 51
349.6575994816
  0
ARC
  5
24A
100
AcDbEntity
  8
0
100
AcDbCircle
 62
7
  6
BYLAYER
 10
16.9685461842
 20
44.6073245008
 40
0.6581704694
100
AcDbArc
 50
347.4313583188
 51
348.2424230656
  0
ARC
  5
24B
100
AcDbEntity
  8
0
100
AcDbCircle
 62
7
  6
BYLAYER
 10
16.5670686332
 20
45.3027420207
 40
0.6581475807
100
AcDbArc
 50
71.7586900242
 51
72.5694415659
  0
SPLINE
  5
24C
100
AcDbEntity
  8
0
100
AcDbSpline
 62
7
  6
BYLAYER
 70
0
 71
3
 72
14
 73
10
 74
0
 42
0.0000001
 43
0.0000001
 44
0.0000000001
 40
0.0
 40
0.0
 40
0.0
 40
0.0
 40
0.1425980085
 40
0.2800364366
 40
0.5388893595
 40
0.6607713133
 40
0.7779338267
 40
0.8908134895
 40
1.0
 40
1.0
 40
1.0
 40
1.0
 10
56.660865438
 20
58.7608367977
 30
0.0
 10
56.660865438
 20
58.605067696
 30
0.0
 10
56.6517172408
 20
58.2990291416
 30
0.0
 10
56.59584741
 20
57.7127978243
 30
0.0
 10
56.4837640785
 20
57.1552424571
 30
0.0
 10
56.3100687637
 20
56.6392238286
 30
0.0
 10
56.1550443653
 20
56.2867983689
 30
0.0
 10
55.9733624536
 20
55.9631607942
 30
0.0
 10
55.8329337453
 20
55.7646786607
 30
0.0
 10
55.7586750585
 20
55.6713440549
 30
0.0
  0
SPLINE
  5
24D
100
AcDbEntity
  8
0
100
AcDbSpline
 62
7
  6
BYLAYER
 70
0
 71
3
 72
27
 73
23
 74
0
 42
0.0000001
 43
0.0000001
 44
0.0000000001
 40
0.0
 40
0.0
 40
0.0
 40
0.0
 40
0.0624539634
 40
0.1286181811
 40
0.197848933
 40
0.2693207257
 40
0.3420929843
 40
0.4151593699
 40
0.4874995336
 40
0.5581286085
 40
0.6261486136
 40
0.6908036381
 40
0.7515410782
 40
0.7803580468
 40
0.8081177998
 40
0.8605241388
 40
0.885337663
 40
0.9093333933
 40
0.9326394837
 40
0.9554035475
 40
0.9777935665
 40
1.0
 40
1.0
 40
1.0
 40
1.0
 10
61.1740452245
 20
61.8696773343
 30
0.0
 10
61.1719919215
 20
62.1930926058
 30
0.0
 10
61.1245686659
 20
62.8593087024
 30
0.0
 10
60.9400802456
 20
63.8688525182
 30
0.0
 10
60.644349281
 20
64.9001935556
 30
0.0
 10
60.243720269
 20
65.9320756765
 30
0.0
 10
59.7466573714
 20
66.9432326807
 30
0.0
 10
59.1635767638
 20
67.9125798888
 30
0.0
 10
58.5066453129
 20
68.8198681261
 30
0.0
 10
57.7894684135
 20
69.6461463091
 30
0.0
 10
57.0266461721
 20
70.3742478008
 30
0.0
 10
56.2335117985
 20
70.9889871572
 30
0.0
 10
55.5481449383
 20
71.4033122788
 30
0.0
 10
54.9984769056
 20
71.6632443857
 30
0.0
 10
54.4718364137
 20
71.8669871438
 30
0.0
 10
53.9424553362
 20
72.0041222239
 30
0.0
 10
53.4208477848
 20
72.0625525989
 30
0.0
 10
53.046711885
 20
72.0665642802
 30
0.0
 10
52.6848628047
 20
72.0309893179
 30
0.0
 10
52.337560259
 20
71.9556894062
 30
0.0
 10
52.0073319465
 20
71.8407005752
 30
0.0
 10
51.7997691049
 20
71.7378019873
 30
0.0
 10
51.7001782722
 20
71.6803035364
 30
0.0
  0
SPLINE
  5
24E
100
AcDbEntity
  8
0
100
AcDbSpline
 62
7
  6
BYLAYER
 70
0
 71
3
 72
15
 73
11
 74
0
 42
0.0000001
 43
0.0000001
 44
0.0000000001
 40
0.0
 40
0.0
 40
0.0
 40
0.0
 40
0.1102835957
 40
0.2222398491
 40
0.3374705399
 40
0.4573305967
 40
0.582911407
 40
0.714967391
 40
0.8539781659
 40
1.0
 40
1.0
 40
1.0
 40
1.0
 10
59.5001433525
 20
58.1702870766
 30
0.0
 10
59.6340320447
 20
58.2475872876
 30
0.0
 10
59.8910410427
 20
58.4267782509
 30
0.0
 10
60.2299880111
 20
58.7596776698
 30
0.0
 10
60.5201667896
 20
59.1525479992
 30
0.0
 10
60.7590313265
 20
59.6000050177
 30
0.0
 10
60.9453000466
 20
60.0967909607
 30
0.0
 10
61.0782935955
 20
60.6378799966
 30
0.0
 10
61.157557169
 20
61.2181151582
 30
0.0
 10
61.1741947235
 20
61.6179647903
 30
0.0
 10
61.1741947235
 20
61.8226655721
 30
0.0
  0
SPLINE
  5
24F
100
AcDbEntity
  8
0
100
AcDbSpline
 62
7
  6
BYLAYER
 70
0
 71
3
 72
14
 73
10
 74
0
 42
0.0000001
 43
0.0000001
 44
0.0000000001
 40
0.0
 40
0.0
 40
0.0
 40
0.0
 40
0.1082427469
 40
0.2200121123
 40
0.3361878041
 40
0.4574477378
 40
0.7167122665
 40
0.8553805781
 40
1.0
 40
1.0
 40
1.0
 40
1.0
 10
47.3446414044
 20
69.6242226676
 30
0.0
 10
47.4704645683
 20
69.6570248807
 30
0.0
 10
47.7308659279
 20
69.7068933038
 30
0.0
 10
48.1347111399
 20
69.7337676396
 30
0.0
 10
48.5545967529
 20
69.7136839093
 30
0.0
 10
49.14518335
 20
69.6227103715
 30
0.0
 10
49.7447946976
 20
69.4374268105
 30
0.0
 10
50.3410147447
 20
69.1734370222
 30
0.0
 10
50.6415542263
 20
69.0129774606
 30
0.0
 10
50.7920050093
 20
68.9261121804
 30
0.0
  0
SPLINE
  5
250
100
AcDbEntity
  8
0
100
AcDbSpline
 62
7
  6
BYLAYER
 70
0
 71
3
 72
23
 73
19
 74
0
 42
0.0000001
 43
0.0000001
 44
0.0000000001
 40
0.0
 40
0.0
 40
0.0
 40
0.0
 40
0.0558315739
 40
0.1141826055
 40
0.1747828208
 40
0.2373530422
 40
0.3015488421
 40
0.3669921651
 40
0.4332822151
 40
0.4999994831
 40
0.5667167223
 40
0.6330068165
 40
0.6984504629
 40
0.7626457916
 40
0.8252162999
 40
0.8858199665
 40
0.9441610397
 40
1.0
 40
1.0
 40
1.0
 40
1.0
 10
56.6608624941
 20
59.1690792518
 30
0.0
 10
56.6608624941
 20
59.3824251386
 30
0.0
 10
56.6418999782
 20
59.8189029504
 30
0.0
 10
56.5615401751
 20
60.4825097321
 30
0.0
 10
56.4293061253
 20
61.163991455
 30
0.0
 10
56.2465311811
 20
61.8567474907
 30
0.0
 10
56.0149486536
 20
62.5542440256
 30
0.0
 10
55.7367784909
 20
63.2498076544
 30
0.0
 10
55.4146717874
 20
63.9367862234
 30
0.0
 10
55.0517100646
 20
64.6086115374
 30
0.0
 10
54.6513795156
 20
65.2588623582
 30
0.0
 10
54.2174980633
 20
65.8813101009
 30
0.0
 10
53.7542115984
 20
66.4699971805
 30
0.0
 10
53.2659610348
 20
67.0193092027
 30
0.0
 10
52.757402406
 20
67.5239917051
 30
0.0
 10
52.2333503713
 20
67.9792266126
 30
0.0
 10
51.6988496495
 20
68.3806553033
 30
0.0
 10
51.3303339509
 20
68.6153050968
 30
0.0
 10
51.1455478744
 20
68.7219944476
 30
0.0
  0
SPLINE
  5
251
100
AcDbEntity
  8
0
100
AcDbSpline
 62
7
  6
BYLAYER
 70
0
 71
3
 72
15
 73
11
 74
0
 42
0.0000001
 43
0.0000001
 44
0.0000000001
 40
0.0
 40
0.0
 40
0.0
 40
0.0
 40
0.1485849154
 40
0.2895068322
 40
0.4227213967
 40
0.548640798
 40
0.6680001261
 40
0.7819378751
 40
0.8919871984
 40
1.0
 40
1.0
 40
1.0
 40
1.0
 10
61.1156166685
 20
61.7410174212
 30
0.0
 10
61.1156166685
 20
61.537880027
 30
0.0
 10
61.0992356621
 20
61.141808994
 30
0.0
 10
61.0212772279
 20
60.5682508745
 30
0.0
 10
60.8910343941
 20
60.0358888751
 30
0.0
 10
60.7095479434
 20
59.5498834598
 30
0.0
 10
60.4781961908
 20
59.1149162416
 30
0.0
 10
60.1987887887
 20
58.7354298955
 30
0.0
 10
59.8739068893
 20
58.4156936492
 30
0.0
 10
59.6280246484
 20
58.2441288906
 30
0.0
 10
59.5001392246
 20
58.1702942265
 30
0.0
  0
SPLINE
  5
252
100
AcDbEntity
  8
0
100
AcDbSpline
 62
7
  6
BYLAYER
 70
0
 71
3
 72
23
 73
19
 74
0
 42
0.0000001
 43
0.0000001
 44
0.0000000001
 40
0.0
 40
0.0
 40
0.0
 40
0.0
 40
0.0558385619
 40
0.1141796308
 40
0.1747836689
 40
0.2373539905
 40
0.3015492323
 40
0.3669930871
 40
0.4332831254
 40
0.5000003633
 40
0.5667177086
 40
0.6330077119
 40
0.6984511313
 40
0.7626467493
 40
0.8252173194
 40
0.8858177805
 40
0.9441669329
 40
1.0
 40
1.0
 40
1.0
 40
1.0
 10
50.7920050093
 20
68.9261121804
 30
0.0
 10
50.9886349094
 20
68.8125846132
 30
0.0
 10
51.3807766225
 20
68.5629018538
 30
0.0
 10
51.9495430595
 20
68.1357437838
 30
0.0
 10
52.5071787237
 20
67.6513154447
 30
0.0
 10
53.0483409736
 20
67.1142855672
 30
0.0
 10
53.5678966104
 20
66.5297675895
 30
0.0
 10
54.0608734393
 20
65.9033379074
 30
0.0
 10
54.5225659657
 20
65.2409882201
 30
0.0
 10
54.9485659944
 20
64.5490592322
 30
0.0
 10
55.3347934524
 20
63.8341673928
 30
0.0
 10
55.6775412844
 20
63.1031483138
 30
0.0
 10
55.9735474955
 20
62.3630001088
 30
0.0
 10
56.2199795989
 20
61.620792537
 30
0.0
 10
56.4144629284
 20
60.8836253438
 30
0.0
 10
56.5551744249
 20
60.1584648694
 30
0.0
 10
56.6406918181
 20
59.4523204822
 30
0.0
 10
56.660865438
 20
58.987864727
 30
0.0
 10
56.660865438
 20
58.7608367977
 30
0.0
  0
SPLINE
  5
253
100
AcDbEntity
  8
0
100
AcDbSpline
 62
7
  6
BYLAYER
 70
0
 71
3
 72
9
 73
5
 74
0
 42
0.0000001
 43
0.0000001
 44
0.0000000001
 40
0.0
 40
0.0
 40
0.0
 40
0.0
 40
0.4969944724
 40
1.0
 40
1.0
 40
1.0
 40
1.0
 10
51.7001824002
 20
71.6802963865
 30
0.0
 10
51.8021091318
 20
71.7391437967
 30
0.0
 10
52.0155088456
 20
71.8436970556
 30
0.0
 10
52.2409836755
 20
71.9185843419
 30
0.0
 10
52.3562002584
 20
71.9488220371
 30
0.0
  0
SPLINE
  5
254
100
AcDbEntity
  8
0
100
AcDbSpline
 62
7
  6
BYLAYER
 70
0
 71
3
 72
9
 73
5
 74
0
 42
0.0000001
 43
0.0000001
 44
0.0000000001
 40
0.0
 40
0.0
 40
0.0
 40
0.0
 40
0.4909552164
 40
1.0
 40
1.0
 40
1.0
 40
1.0
 10
52.3562002584
 20
71.9488220371
 30
0.0
 10
52.4868886859
 20
71.9831201974
 30
0.0
 10
52.7584608574
 20
72.0336354962
 30
0.0
 10
53.0341848787
 20
72.0471109317
 30
0.0
 10
53.1742676507
 20
72.0454598675
 30
0.0
  0
SPLINE
  5
255
100
AcDbEntity
  8
0
100
AcDbSpline
 62
7
  6
BYLAYER
 70
0
 71
3
 72
23
 73
19
 74
0
 42
0.0000001
 43
0.0000001
 44
0.0000000001
 40
0.0
 40
0.0
 40
0.0
 40
0.0
 40
0.0461932561
 40
0.0958139399
 40
0.1491397615
 40
0.2061831675
 40
0.2667401206
 40
0.3304351287
 40
0.3967599239
 40
0.46510649
 40
0.534795963
 40
0.6051048852
 40
0.6752899681
 40
0.7446115255
 40
0.8123592537
 40
0.8778719724
 40
0.9405781431
 40
1.0
 40
1.0
 40
1.0
 40
1.0
 10
53.1742676507
 20
72.0454598675
 30
0.0
 10
53.3895214888
 20
72.0429228111
 30
0.0
 10
53.8361113807
 20
71.9958491579
 30
0.0
 10
54.5095653897
 20
71.8151084213
 30
0.0
 10
55.1988741819
 20
71.5256983536
 30
0.0
 10
55.8934438021
 20
71.1325144141
 30
0.0
 10
56.5828698572
 20
70.6418314124
 30
0.0
 10
57.2565508646
 20
70.0613456808
 30
0.0
 10
57.9040517286
 20
69.4001388067
 30
0.0
 10
58.515260665
 20
68.6685687747
 30
0.0
 10
59.0805953269
 20
67.8781195804
 30
0.0
 10
59.5911731087
 20
67.041217425
 30
0.0
 10
60.0389598767
 20
66.1710276396
 30
0.0
 10
60.4169226218
 20
65.2812321539
 30
0.0
 10
60.7190995277
 20
64.3858232633
 30
0.0
 10
60.940782003
 20
63.4987780504
 30
0.0
 10
61.0784157365
 20
62.6341024556
 30
0.0
 10
61.113709317
 20
62.0648740244
 30
0.0
 10
61.115467372
 20
61.787963184
 30
0.0
  0
SPLINE
  5
256
100
AcDbEntity
  8
0
100
AcDbSpline
 62
7
  6
BYLAYER
 70
0
 71
3
 72
11
 73
7
 74
0
 42
0.0000001
 43
0.0000001
 44
0.0000000001
 40
0.0
 40
0.0
 40
0.0
 40
0.0
 40
0.267610161
 40
0.5215279971
 40
0.7640490039
 40
1.0
 40
1.0
 40
1.0
 40
1.0
 10
15.8466051325
 20
45.5489406928
 30
0.0
 10
15.8466051325
 20
45.6116052025
 30
0.0
 10
15.8549763618
 20
45.7339852024
 30
0.0
 10
15.8967587723
 20
45.9089440041
 30
0.0
 10
15.9690547541
 20
46.0658241743
 30
0.0
 10
16.0389597237
 20
46.155112432
 30
0.0
 10
16.0783911472
 20
46.193814447
 30
0.0
  0
SPLINE
  5
257
100
AcDbEntity
  8
0
100
AcDbSpline
 62
7
  6
BYLAYER
 70
0
 71
3
 72
12
 73
8
 74
0
 42
0.0000001
 43
0.0000001
 44
0.0000000001
 40
0.0
 40
0.0
 40
0.0
 40
0.0
 40
0.1163862696
 40
0.2338237967
 40
0.4751257054
 40
0.7295122661
 40
1.0
 40
1.0
 40
1.0
 40
1.0
 10
17.495916669
 20
43.7385735664
 30
0.0
 10
17.4663291166
 20
43.7303489846
 30
0.0
 10
17.4056088068
 20
43.718108314
 30
0.0
 10
17.2801805913
 20
43.7102157041
 30
0.0
 10
17.1181082775
 20
43.7312393466
 30
0.0
 10
16.9265014549
 20
43.7991725445
 30
0.0
 10
16.8053817665
 20
43.8677435081
 30
0.0
 10
16.7459099606
 20
43.9071999924
 30
0.0
  0
SPLINE
  5
258
100
AcDbEntity
  8
0
100
AcDbSpline
 62
7
  6
BYLAYER
 70
0
 71
3
 72
15
 73
11
 74
0
 42
0.0000001
 43
0.0000001
 44
0.0000000001
 40
0.0
 40
0.0
 40
0.0
 40
0.0
 40
0.117712745
 40
0.241162691
 40
0.3688934122
 40
0.4989559159
 40
0.6291686964
 40
0.7573083042
 40
0.8814034761
 40
1.0
 40
1.0
 40
1.0
 40
1.0
 10
16.7459099606
 20
43.9071999924
 30
0.0
 10
16.6863281201
 20
43.946729479
 30
0.0
 10
16.5699288024
 20
44.0364792943
 30
0.0
 10
16.4099555597
 20
44.1940288099
 30
0.0
 10
16.2634209907
 20
44.3739203082
 30
0.0
 10
16.1339302476
 20
44.5713292654
 30
0.0
 10
16.024853319
 20
44.7809884346
 30
0.0
 10
15.939110722
 20
44.9973645173
 30
0.0
 10
15.8791436251
 20
45.2149520304
 30
0.0
 10
15.8571087053
 20
45.3611983208
 30
0.0
 10
15.8513441176
 20
45.4330064224
 30
0.0
  0
SPLINE
  5
259
100
AcDbEntity
  8
0
100
AcDbSpline
 62
7
  6
BYLAYER
 70
0
 71
3
 72
11
 73
7
 74
0
 42
0.0000001
 43
0.0000001
 44
0.0000000001
 40
0.0
 40
0.0
 40
0.0
 40
0.0
 40
0.2304210248
 40
0.4695184549
 40
0.7243930967
 40
1.0
 40
1.0
 40
1.0
 40
1.0
 10
16.4215678273
 20
45.9098174652
 30
0.0
 10
16.4450378932
 20
45.9233678341
 30
0.0
 10
16.4964814971
 20
45.9451416063
 30
0.0
 10
16.5812330228
 20
45.959074258
 30
0.0
 10
16.6722131625
 20
45.9546867978
 30
0.0
 10
16.7332893749
 20
45.9403770497
 30
0.0
 10
16.7642165365
 20
45.9306679257
 30
0.0
  0
SPLINE
  5
25A
100
AcDbEntity
  8
0
100
AcDbSpline
 62
7
  6
BYLAYER
 70
0
 71
3
 72
9
 73
5
 74
0
 42
0.0000001
 43
0.0000001
 44
0.0000000001
 40
0.0
 40
0.0
 40
0.0
 40
0.0
 40
0.2442627682
 40
1.0
 40
1.0
 40
1.0
 40
1.0
 10
16.7730818326
 20
45.9278154561
 30
0.0
 10
16.7795009584
 20
45.925700029
 30
0.0
 10
16.8056479414
 20
45.9166398439
 30
0.0
 10
16.8312534751
 20
45.906036348
 30
0.0
 10
16.8502496347
 20
45.897294413
 30
0.0
  0
SPLINE
  5
25B
100
AcDbEntity
  8
0
100
AcDbSpline
 62
7
  6
BYLAYER
 70
0
 71
3
 72
28
 73
24
 74
0
 42
0.0000001
 43
0.0000001
 44
0.0000000001
 40
0.0
 40
0.0
 40
0.0
 40
0.0
 40
0.030664917
 40
0.0624033363
 40
0.1287327357
 40
0.1983165875
 40
0.2702835064
 40
0.3436514091
 40
0.4173736778
 40
0.4903887459
 40
0.561666214
 40
0.6302549478
 40
0.6953346084
 40
0.7562748743
 40
0.7850823222
 40
0.8127427039
 40
0.8646371983
 40
0.8890213072
 40
0.912467806
 40
0.9351099487
 40
0.9571125593
 40
0.9786705191
 40
1.0
 40
1.0
 40
1.0
 40
1.0
 10
22.5784116145
 20
52.6372633829
 30
0.0
 10
22.725015797
 20
52.5526233335
 30
0.0
 10
23.0178355845
 20
52.3706499147
 30
0.0
 10
23.598452222
 20
51.9603115498
 30
0.0
 10
24.3080197866
 20
51.3631434813
 30
0.0
 10
25.1098608546
 20
50.5398806907
 30
0.0
 10
25.8576735484
 20
49.6167528664
 30
0.0
 10
26.5354825113
 20
48.6135128496
 30
0.0
 10
27.1288602047
 20
47.5515190087
 30
0.0
 10
27.625142199
 20
46.4534347197
 30
0.0
 10
28.0137496678
 20
45.3426650689
 30
0.0
 10
28.2864082673
 20
44.2427504832
 30
0.0
 10
28.4372636268
 20
43.1770559696
 30
0.0
 10
28.459086654
 20
42.3201908486
 30
0.0
 10
28.4096008511
 20
41.6733953017
 30
0.0
 10
28.3208484688
 20
41.0814936027
 30
0.0
 10
28.1701921194
 20
40.5243231061
 30
0.0
 10
27.9522123949
 20
40.0179597522
 30
0.0
 10
27.7626469984
 20
39.677385741
 30
0.0
 10
27.5446851412
 20
39.3701660872
 30
0.0
 10
27.2993318397
 20
39.0981046828
 30
0.0
 10
27.0280447387
 20
38.862816085
 30
0.0
 10
26.830359609
 20
38.7311554922
 30
0.0
 10
26.7283872589
 20
38.6722817457
 30
0.0
  0
SPLINE
  5
25C
100
AcDbEntity
  8
0
100
AcDbSpline
 62
7
  6
BYLAYER
 70
0
 71
3
 72
25
 73
21
 74
0
 42
0.0000001
 43
0.0000001
 44
0.0000000001
 40
0.0
 40
0.0
 40
0.0
 40
0.0
 40
0.0614922973
 40
0.1278839088
 40
0.1982245774
 40
0.2714917595
 40
0.3466057771
 40
0.4224557323
 40
0.4979181287
 40
0.5718756577
 40
0.6432374608
 40
0.7109586408
 40
0.7740647594
 40
0.8316895325
 40
0.8831372951
 40
0.9280178796
 40
0.9480623142
 40
0.9666138196
 40
0.9838152422
 40
1.0
 40
1.0
 40
1.0
 40
1.0
 10
21.8482316975
 20
40.6760516906
 30
0.0
 10
21.8482316975
 20
40.7612822171
 30
0.0
 10
21.8370371113
 20
40.93863474
 30
0.0
 10
21.7910001426
 20
41.2099175155
 30
0.0
 10
21.7153762951
 20
41.4914090468
 30
0.0
 10
21.611480221
 20
41.7765853294
 30
0.0
 10
21.4813289636
 20
42.0591863418
 30
0.0
 10
21.327597494
 20
42.3331679578
 30
0.0
 10
21.1535081767
 20
42.5927647573
 30
0.0
 10
20.9627972481
 20
42.8325302105
 30
0.0
 10
20.7597192052
 20
43.0474174815
 30
0.0
 10
20.5490620885
 20
43.2328938771
 30
0.0
 10
20.336157481
 20
43.3850737163
 30
0.0
 10
20.1268298454
 20
43.5009637358
 30
0.0
 10
19.9274279997
 20
43.5788565448
 30
0.0
 10
19.7689594358
 20
43.6135188793
 30
0.0
 10
19.6533637455
 20
43.6215139529
 30
0.0
 10
19.5759209329
 20
43.6191013706
 30
0.0
 10
19.5044907278
 20
43.6090474803
 30
0.0
 10
19.4596251888
 20
43.5971797286
 30
0.0
 10
19.4383404491
 20
43.5900956749
 30
0.0
  0
SPLINE
  5
25D
100
AcDbEntity
  8
0
100
AcDbSpline
 62
7
  6
BYLAYER
 70
0
 71
3
 72
11
 73
7
 74
0
 42
0.0000001
 43
0.0000001
 44
0.0000000001
 40
0.0
 40
0.0
 40
0.0
 40
0.0
 40
0.2375765026
 40
0.4807611734
 40
0.7336437452
 40
1.0
 40
1.0
 40
1.0
 40
1.0
 10
18.9120369572
 20
44.0132873
 30
0.0
 10
18.8355516316
 20
43.9556380662
 30
0.0
 10
18.695049575
 20
43.8188346343
 30
0.0
 10
18.5356096738
 20
43.5670427368
 30
0.0
 10
18.4266351388
 20
43.2777066846
 30
0.0
 10
18.3879237602
 20
43.0709308576
 30
0.0
 10
18.3757686246
 20
42.9642405158
 30
0.0
  0
SPLINE
  5
25E
100
AcDbEntity
  8
0
100
AcDbSpline
 62
7
  6
BYLAYER
 70
0
 71
3
 72
13
 73
9
 74
0
 42
0.0000001
 43
0.0000001
 44
0.0000000001
 40
0.0
 40
0.0
 40
0.0
 40
0.0
 40
0.1907671064
 40
0.4173293284
 40
0.5469353242
 40
0.6874102911
 40
0.8385518065
 40
1.0
 40
1.0
 40
1.0
 40
1.0
 10
21.5792178045
 20
39.8798603418
 30
0.0
 10
21.6202443364
 20
39.9163386863
 30
0.0
 10
21.6977899528
 20
40.0102713809
 30
0.0
 10
21.7655189656
 20
40.153822523
 30
0.0
 10
21.8066488952
 20
40.2908636194
 30
0.0
 10
21.8305273365
 20
40.4098916901
 30
0.0
 10
21.8451044018
 20
40.5395910594
 30
0.0
 10
21.8482316975
 20
40.6295905122
 30
0.0
 10
21.8482316975
 20
40.6760516906
 30
0.0
  0
SPLINE
  5
25F
100
AcDbEntity
  8
0
100
AcDbSpline
 62
7
  6
BYLAYER
 70
0
 71
3
 72
13
 73
9
 74
0
 42
0.0000001
 43
0.0000001
 44
0.0000000001
 40
0.0
 40
0.0
 40
0.0
 40
0.0
 40
0.2666243323
 40
0.519485582
 40
0.642027553
 40
0.7626113808
 40
0.881775113
 40
1.0
 40
1.0
 40
1.0
 40
1.0
 10
20.4800899612
 20
39.2851449923
 30
0.0
 10
20.5805875242
 20
39.2398970916
 30
0.0
 10
20.7832156789
 20
39.1657287488
 30
0.0
 10
21.0463666445
 20
39.1195286356
 30
0.0
 10
21.2517282751
 20
39.1161090378
 30
0.0
 10
21.4011494275
 20
39.1303928606
 30
0.0
 10
21.5460947647
 20
39.1618330745
 30
0.0
 10
21.6389751784
 20
39.1944485896
 30
0.0
 10
21.6839450527
 20
39.2135804408
 30
0.0
  0
SPLINE
  5
260
100
AcDbEntity
  8
0
100
AcDbSpline
 62
7
  6
BYLAYER
 70
0
 71
3
 72
14
 73
10
 74
0
 42
0.0000001
 43
0.0000001
 44
0.0000000001
 40
0.0
 40
0.0
 40
0.0
 40
0.0
 40
0.1130342535
 40
0.2283217852
 40
0.3466180201
 40
0.4685123893
 40
0.7247354557
 40
0.8599901598
 40
1.0
 40
1.0
 40
1.0
 40
1.0
 10
23.2885022643
 20
37.3317831827
 30
0.0
 10
23.1578163718
 20
37.2973943703
 30
0.0
 10
22.8890477842
 20
37.245037816
 30
0.0
 10
22.4747745679
 20
37.2159451944
 30
0.0
 10
22.0493135411
 20
37.2346493678
 30
0.0
 10
21.4615772882
 20
37.3230689754
 30
0.0
 10
20.8708615051
 20
37.5034233083
 30
0.0
 10
20.2892445303
 20
37.7600493711
 30
0.0
 10
19.9985125419
 20
37.9150379161
 30
0.0
 10
19.853552426
 20
37.9987287847
 30
0.0
  0
SPLINE
  5
261
100
AcDbEntity
  8
0
100
AcDbSpline
 62
7
  6
BYLAYER
 70
0
 71
3
 72
22
 73
18
 74
0
 42
0.0000001
 43
0.0000001
 44
0.0000000001
 40
0.0
 40
0.0
 40
0.0
 40
0.0
 40
0.1462218954
 40
0.2187506765
 40
0.2903710168
 40
0.3607306601
 40
0.4295056146
 40
0.4964135689
 40
0.5612209847
 40
0.6237535515
 40
0.6839103329
 40
0.7416679498
 40
0.7970942869
 40
0.8503508538
 40
0.9016924895
 40
0.9514365066
 40
1.0
 40
1.0
 40
1.0
 40
1.0
 10
16.2221569346
 20
41.6838868716
 30
0.0
 10
15.9726300669
 20
42.0847134357
 30
0.0
 10
15.6310193064
 20
42.7050164872
 30
0.0
 10
15.246598808
 20
43.5605396583
 30
0.0
 10
14.997896884
 20
44.2074186882
 30
0.0
 10
14.7901811604
 20
44.8558663926
 30
0.0
 10
14.6252343492
 20
45.5008357817
 30
0.0
 10
14.5044952154
 20
46.1373213757
 30
0.0
 10
14.4291567939
 20
46.7605170069
 30
0.0
 10
14.4001527596
 20
47.365822482
 30
0.0
 10
14.4181875139
 20
47.948866147
 30
0.0
 10
14.4838613309
 20
48.5054895254
 30
0.0
 10
14.597634971
 20
49.0316703852
 30
0.0
 10
14.7599322704
 20
49.5233573027
 30
0.0
 10
14.9709891021
 20
49.9762443013
 30
0.0
 10
15.2304951461
 20
50.3854979851
 30
0.0
 10
15.4371919316
 20
50.6281625751
 30
0.0
 10
15.5475757264
 20
50.739541277
 30
0.0
  0
SPLINE
  5
262
100
AcDbEntity
  8
0
100
AcDbSpline
 62
7
  6
BYLAYER
 70
0
 71
3
 72
9
 73
5
 74
0
 42
0.0000001
 43
0.0000001
 44
0.0000000001
 40
0.0
 40
0.0
 40
0.0
 40
0.0
 40
0.5018066838
 40
1.0
 40
1.0
 40
1.0
 40
1.0
 10
16.7418332671
 20
51.9445627806
 30
0.0
 10
16.840928106
 20
52.0445507713
 30
0.0
 10
17.0514760337
 20
52.2313154887
 30
0.0
 10
17.2851692498
 20
52.3882568251
 30
0.0
 10
17.4062056259
 20
52.4581367923
 30
0.0
  0
SPLINE
  5
263
100
AcDbEntity
  8
0
100
AcDbSpline
 62
7
  6
BYLAYER
 70
0
 71
3
 72
9
 73
5
 74
0
 42
0.0000001
 43
0.0000001
 44
0.0000000001
 40
0.0
 40
0.0
 40
0.0
 40
0.0
 40
0.4981933084
 40
1.0
 40
1.0
 40
1.0
 40
1.0
 10
25.7061684678
 20
38.0820936363
 30
0.0
 10
25.5851320936
 20
38.0122136702
 30
0.0
 10
25.3323696605
 20
37.8883013841
 30
0.0
 10
25.0653522475
 20
37.7993452676
 30
0.0
 10
24.9292125007
 20
37.7635213182
 30
0.0
  0
SPLINE
  5
264
100
AcDbEntity
  8
0
100
AcDbSpline
 62
7
  6
BYLAYER
 70
0
 71
3
 72
15
 73
11
 74
0
 42
0.0000001
 43
0.0000001
 44
0.0000000001
 40
0.0
 40
0.0
 40
0.0
 40
0.0
 40
0.1080130118
 40
0.2180624659
 40
0.3319999199
 40
0.4513590883
 40
0.5772783633
 40
0.7104931381
 40
0.8514157735
 40
1.0
 40
1.0
 40
1.0
 40
1.0
 10
18.4284359701
 20
53.0483048957
 30
0.0
 10
18.5645157528
 20
53.1268705717
 30
0.0
 10
18.8534352448
 20
53.2621735555
 30
0.0
 10
19.3209250162
 20
53.3914486303
 30
0.0
 10
19.8192817736
 20
53.4470283587
 30
0.0
 10
20.3431972527
 20
53.4288061461
 30
0.0
 10
20.8876169691
 20
53.3374829924
 30
0.0
 10
21.4474930804
 20
53.1742719476
 30
0.0
 10
22.0175144387
 20
52.9409625205
 30
0.0
 10
22.391217296
 20
52.7453376281
 30
0.0
 10
22.5784116145
 20
52.6372633829
 30
0.0
  0
SPLINE
  5
265
100
AcDbEntity
  8
0
100
AcDbSpline
 62
7
  6
BYLAYER
 70
0
 71
3
 72
15
 73
11
 74
0
 42
0.0000001
 43
0.0000001
 44
0.0000000001
 40
0.0
 40
0.0
 40
0.0
 40
0.0
 40
0.1141465952
 40
0.2373352439
 40
0.366975646
 40
0.4999989181
 40
0.6330223406
 40
0.7626631822
 40
0.8858525234
 40
1.0
 40
1.0
 40
1.0
 40
1.0
 10
16.7801424855
 20
45.9419488847
 30
0.0
 10
16.8382270538
 20
45.9084145022
 30
0.0
 10
16.9529623209
 20
45.8279778808
 30
0.0
 10
17.1108413699
 20
45.6802886897
 30
0.0
 10
17.256317267
 20
45.505683797
 30
0.0
 10
17.3839450052
 20
45.3107613452
 30
0.0
 10
17.4889400332
 20
45.1027715245
 30
0.0
 10
17.5674157359
 20
44.889482966
 30
0.0
 10
17.6163804056
 20
44.67891027
 30
0.0
 10
17.6286741551
 20
44.5393274995
 30
0.0
 10
17.6286741557
 20
44.4722570787
 30
0.0
  0
SPLINE
  5
266
100
AcDbEntity
  8
0
100
AcDbSpline
 62
7
  6
BYLAYER
 70
0
 71
3
 72
9
 73
5
 74
0
 42
0.0000001
 43
0.0000001
 44
0.0000000001
 40
0.0
 40
0.0
 40
0.0
 40
0.0
 40
0.2545473385
 40
1.0
 40
1.0
 40
1.0
 40
1.0
 10
17.6250565049
 20
44.5552847087
 30
0.0
 10
17.6245385092
 20
44.5496886229
 30
0.0
 10
17.6222741213
 20
44.5277263181
 30
0.0
 10
17.6190770966
 20
44.5058576956
 30
0.0
 10
17.6161209063
 20
44.4896669281
 30
0.0
  0
SPLINE
  5
267
100
AcDbEntity
  8
0
100
AcDbSpline
 62
7
  6
BYLAYER
 70
0
 71
3
 72
11
 73
7
 74
0
 42
0.0000001
 43
0.0000001
 44
0.0000000001
 40
0.0
 40
0.0
 40
0.0
 40
0.0
 40
0.2756080634
 40
0.5304829992
 40
0.7695799411
 40
1.0
 40
1.0
 40
1.0
 40
1.0
 10
17.610944261
 20
44.464100628
 30
0.0
 10
17.6038891909
 20
44.4324610119
 30
0.0
 10
17.5857437971
 20
44.372410056
 30
0.0
 10
17.5440526906
 20
44.2914218053
 30
0.0
 10
17.4896094244
 20
44.2249885815
 30
0.0
 10
17.4450294734
 20
44.1913229541
 30
0.0
 10
17.4215586787
 20
44.1777721646
 30
0.0
  0
SPLINE
  5
268
100
AcDbEntity
  8
0
100
AcDbSpline
 62
7
  6
BYLAYER
 70
0
 71
3
 72
9
 73
5
 74
0
 42
0.0000001
 43
0.0000001
 44
0.0000000001
 40
0.0
 40
0.0
 40
0.0
 40
0.0
 40
0.4994478601
 40
1.0
 40
1.0
 40
1.0
 40
1.0
 10
21.5788335994
 20
39.8797675347
 30
0.0
 10
21.5396133218
 20
39.8450543931
 30
0.0
 10
21.4534396945
 20
39.7836583646
 30
0.0
 10
21.3558833761
 20
39.7427212129
 30
0.0
 10
21.3056298496
 20
39.7275567995
 30
0.0
  0
SPLINE
  5
269
100
AcDbEntity
  8
0
100
AcDbSpline
 62
7
  6
BYLAYER
 70
0
 71
3
 72
15
 73
11
 74
0
 42
0.0000001
 43
0.0000001
 44
0.0000000001
 40
0.0
 40
0.0
 40
0.0
 40
0.0
 40
0.1090242872
 40
0.2188934346
 40
0.3319840335
 40
0.4503429037
 40
0.5755131318
 40
0.7085622323
 40
0.8500878793
 40
1.0
 40
1.0
 40
1.0
 40
1.0
 10
21.6838665878
 20
39.2135424313
 30
0.0
 10
21.7365002781
 20
39.2359184681
 30
0.0
 10
21.8383112408
 20
39.2906950127
 30
0.0
 10
21.974393112
 20
39.4008731604
 30
0.0
 10
22.0918524926
 20
39.5372086775
 30
0.0
 10
22.1892749304
 20
39.6978186831
 30
0.0
 10
22.2658227406
 20
39.8806317429
 30
0.0
 10
22.3207922512
 20
40.08356017
 30
0.0
 10
22.3536646174
 20
40.3042328985
 30
0.0
 10
22.3605561071
 20
40.457243674
 30
0.0
 10
22.3605561071
 20
40.53588544
 30
0.0
  0
SPLINE
  5
26A
100
AcDbEntity
  8
0
100
AcDbSpline
 62
7
  6
BYLAYER
 70
0
 71
3
 72
15
 73
11
 74
0
 42
0.0000001
 43
0.0000001
 44
0.0000000001
 40
0.0
 40
0.0
 40
0.0
 40
0.0
 40
0.1109549011
 40
0.2211167443
 40
0.3334397043
 40
0.4505891934
 40
0.5746794369
 40
0.7072098529
 40
0.8490185452
 40
1.0
 40
1.0
 40
1.0
 40
1.0
 10
17.4959149425
 20
43.7385772551
 30
0.0
 10
17.5271454618
 20
43.7472533778
 30
0.0
 10
17.5879020857
 20
43.770637007
 30
0.0
 10
17.6703967171
 20
43.8236439867
 30
0.0
 10
17.7418992237
 20
43.8933519393
 30
0.0
 10
17.8014035029
 20
43.978445864
 30
0.0
 10
17.8481917401
 20
44.0776103363
 30
0.0
 10
17.8818343326
 20
44.18942886
 30
0.0
 10
17.9019246408
 20
44.3123402141
 30
0.0
 10
17.9061273214
 20
44.3979581289
 30
0.0
 10
17.9061273214
 20
44.442064369
 30
0.0
  0
SPLINE
  5
26B
100
AcDbEntity
  8
0
100
AcDbSpline
 62
7
  6
BYLAYER
 70
0
 71
3
 72
26
 73
22
 74
0
 42
0.0000001
 43
0.0000001
 44
0.0000000001
 40
0.0
 40
0.0
 40
0.0
 40
0.0
 40
0.0215249727
 40
0.0430667578
 40
0.0648686815
 40
0.0871611031
 40
0.1101470766
 40
0.1339987485
 40
0.1847425141
 40
0.2401051202
 40
0.3002090778
 40
0.3647635338
 40
0.4331650733
 40
0.5045813902
 40
0.5780208676
 40
0.6523925621
 40
0.7265611533
 40
0.7994036533
 40
0.8698506086
 40
0.9369788338
 40
1.0
 40
1.0
 40
1.0
 40
1.0
 10
19.9171697476
 20
44.7706978433
 30
0.0
 10
19.9513741598
 20
44.7964765149
 30
0.0
 10
20.0232634857
 20
44.8436539572
 30
0.0
 10
20.1398818005
 20
44.8998008144
 30
0.0
 10
20.2642546928
 20
44.9408372487
 30
0.0
 10
20.3955878882
 20
44.9664616077
 30
0.0
 10
20.533076248
 20
44.9766475579
 30
0.0
 10
20.7274516542
 20
44.9694018127
 30
0.0
 10
20.9828927054
 20
44.9192668455
 30
0.0
 10
21.2929607562
 20
44.8005790634
 30
0.0
 10
21.6065955856
 20
44.6253177421
 30
0.0
 10
21.9169841531
 20
44.3975386968
 30
0.0
 10
22.217387414
 20
44.1223696222
 30
0.0
 10
22.5011197023
 20
43.805984887
 30
0.0
 10
22.7618156394
 20
43.4555046171
 30
0.0
 10
22.9935859924
 20
43.0788398922
 30
0.0
 10
23.1912008646
 20
42.6845066895
 30
0.0
 10
23.3501718101
 20
42.2814298443
 30
0.0
 10
23.466963412
 20
41.8786535029
 30
0.0
 10
23.5388547464
 20
41.4853207459
 30
0.0
 10
23.5563902687
 20
41.2261681677
 30
0.0
 10
23.5563902687
 20
41.1007673065
 30
0.0
  0
SPLINE
  5
26C
100
AcDbEntity
  8
0
100
AcDbSpline
 62
7
  6
BYLAYER
 70
0
 71
3
 72
13
 73
9
 74
0
 42
0.0000001
 43
0.0000001
 44
0.0000000001
 40
0.0
 40
0.0
 40
0.0
 40
0.0
 40
0.1177971976
 40
0.2364845045
 40
0.3567163899
 40
0.4791062797
 40
0.7323193388
 40
1.0
 40
1.0
 40
1.0
 40
1.0
 10
17.4044895498
 20
52.4423703725
 30
0.0
 10
17.4806125287
 20
52.4834902204
 30
0.0
 10
17.6374126882
 20
52.5589037626
 30
0.0
 10
17.8833983123
 20
52.6501107097
 30
0.0
 10
18.139931689
 20
52.7194614487
 30
0.0
 10
18.4989072516
 20
52.783187914
 30
0.0
 10
18.9730869815
 20
52.8054381723
 30
0.0
 10
19.3549721062
 20
52.7644884243
 30
0.0
 10
19.5486591949
 20
52.7307435183
 30
0.0
  0
SPLINE
  5
26D
100
AcDbEntity
  8
0
100
AcDbSpline
 62
7
  6
BYLAYER
 70
0
 71
3
 72
10
 73
6
 74
0
 42
0.0000001
 43
0.0000001
 44
0.0000000001
 40
0.0
 40
0.0
 40
0.0
 40
0.0
 40
0.476533575
 40
0.732501677
 40
1.0
 40
1.0
 40
1.0
 40
1.0
 10
19.5486591949
 20
52.7307435183
 30
0.0
 10
19.8679448458
 20
52.67511635
 30
0.0
 10
20.350409569
 20
52.5361651757
 30
0.0
 10
20.9755466046
 20
52.2676036691
 30
0.0
 10
21.291126256
 20
52.1018003351
 30
0.0
 10
21.4490994224
 20
52.0115652398
 30
0.0
  0
SPLINE
  5
26E
100
AcDbEntity
  8
0
100
AcDbSpline
 62
7
  6
BYLAYER
 70
0
 71
3
 72
32
 73
28
 74
0
 42
0.0000001
 43
0.0000001
 44
0.0000000001
 40
0.0
 40
0.0
 40
0.0
 40
0.0
 40
0.0220159663
 40
0.0437701484
 40
0.0655255034
 40
0.0875449405
 40
0.1100754745
 40
0.1333364546
 40
0.1826694155
 40
0.2090516353
 40
0.2366497167
 40
0.2654900867
 40
0.2955662453
 40
0.3268454284
 40
0.3592691703
 40
0.3927598255
 40
0.4272207755
 40
0.4985758642
 40
0.5723362551
 40
0.6473501274
 40
0.7224026911
 40
0.7962768973
 40
0.8678160971
 40
0.9023898515
 40
0.9360089427
 40
0.9685798548
 40
1.0
 40
1.0
 40
1.0
 40
1.0
 10
23.2884988238
 20
37.3317908281
 30
0.0
 10
23.4041791726
 20
37.3622330595
 30
0.0
 10
23.6305941552
 20
37.4376097534
 30
0.0
 10
23.951150919
 20
37.5948988989
 30
0.0
 10
24.2474656311
 20
37.7942747119
 30
0.0
 10
24.5174297156
 20
38.0343949691
 30
0.0
 10
24.7594062613
 20
38.3135630236
 30
0.0
 10
25.048232111
 20
38.7434531401
 30
0.0
 10
25.2681400293
 20
39.2394101142
 30
0.0
 10
25.4214508783
 20
39.7798313884
 30
0.0
 10
25.5060879458
 20
40.2224044873
 30
0.0
 10
25.5571201726
 20
40.6901249769
 30
0.0
 10
25.5744071502
 20
41.1802903839
 30
0.0
 10
25.5577918791
 20
41.6899073864
 30
0.0
 10
25.5074622869
 20
42.215906663
 30
0.0
 10
25.4236828232
 20
42.7551071287
 30
0.0
 10
25.2662890886
 20
43.4957785478
 30
0.0
 10
24.9880609043
 20
44.4328457179
 30
0.0
 10
24.5387598904
 20
45.5430696429
 30
0.0
 10
23.9808807014
 20
46.6255463649
 30
0.0
 10
23.3278646493
 20
47.6541638744
 30
0.0
 10
22.5954741646
 20
48.6041328646
 30
0.0
 10
21.9259905207
 20
49.3194208206
 30
0.0
 10
21.3649881122
 20
49.8314165343
 30
0.0
 10
20.9407360803
 20
50.1779379346
 30
0.0
 10
20.5108954971
 20
50.4890908458
 30
0.0
 10
20.2168910949
 20
50.675223593
 30
0.0
 10
20.069608956
 20
50.7615449204
 30
0.0
  0
SPLINE
  5
26F
100
AcDbEntity
  8
0
100
AcDbSpline
 62
7
  6
BYLAYER
 70
0
 71
3
 72
20
 73
16
 74
0
 42
0.0000001
 43
0.0000001
 44
0.0000000001
 40
0.0
 40
0.0
 40
0.0
 40
0.0
 40
0.0443692586
 40
0.0885362238
 40
0.1339590254
 40
0.1819000424
 40
0.2332829376
 40
0.2886562063
 40
0.3482122754
 40
0.4118560557
 40
0.4792585324
 40
0.5499044742
 40
0.6981163392
 40
0.8504134968
 40
1.0
 40
1.0
 40
1.0
 40
1.0
 10
16.5974045516
 20
46.7032243189
 30
0.0
 10
16.6264814041
 20
46.7317709349
 30
0.0
 10
16.6909106388
 20
46.7826715021
 30
0.0
 10
16.8031263101
 20
46.8355314282
 30
0.0
 10
16.9274080204
 20
46.8630113852
 30
0.0
 10
17.0611292023
 20
46.8649060337
 30
0.0
 10
17.2019348907
 20
46.8416313606
 30
0.0
 10
17.3475368841
 20
46.7938275741
 30
0.0
 10
17.4956559709
 20
46.7224825141
 30
0.0
 10
17.6439364563
 20
46.6288315729
 30
0.0
 10
17.789981782
 20
46.5144275651
 30
0.0
 10
17.9815418458
 20
46.3339501134
 30
0.0
 10
18.1990864861
 20
46.0694606984
 30
0.0
 10
18.4118276825
 20
45.7134891644
 30
0.0
 10
18.5177556488
 20
45.455827804
 30
0.0
 10
18.559297852
 20
45.3248827854
 30
0.0
  0
SPLINE
  5
270
100
AcDbEntity
  8
0
100
AcDbSpline
 62
7
  6
BYLAYER
 70
0
 71
3
 72
9
 73
5
 74
0
 42
0.0000001
 43
0.0000001
 44
0.0000000001
 40
0.0
 40
0.0
 40
0.0
 40
0.0
 40
0.5199095622
 40
1.0
 40
1.0
 40
1.0
 40
1.0
 10
18.559297852
 20
45.3248827854
 30
0.0
 10
18.5911590656
 20
45.2244531767
 30
0.0
 10
18.6401842397
 20
45.0271059616
 30
0.0
 10
18.659366916
 20
44.8242791627
 30
0.0
 10
18.659366916
 20
44.7269862826
 30
0.0
  0
SPLINE
  5
271
100
AcDbEntity
  8
0
100
AcDbSpline
 62
7
  6
BYLAYER
 70
0
 71
3
 72
22
 73
18
 74
0
 42
0.0000001
 43
0.0000001
 44
0.0000000001
 40
0.0
 40
0.0
 40
0.0
 40
0.0
 40
0.0454393157
 40
0.091679298
 40
0.1394526015
 40
0.1893724802
 40
0.2419066351
 40
0.297369312
 40
0.3559306966
 40
0.4176341579
 40
0.4824109529
 40
0.5500987541
 40
0.6204583953
 40
0.6931848536
 40
0.767921094
 40
0.8442694711
 40
1.0
 40
1.0
 40
1.0
 40
1.0
 10
25.7061640865
 20
38.0821012198
 30
0.0
 10
25.837599129
 20
38.1579858832
 30
0.0
 10
26.0905781257
 20
38.3333889022
 30
0.0
 10
26.4266669913
 20
38.6585502399
 30
0.0
 10
26.7178820095
 20
39.0432950033
 30
0.0
 10
26.9616919838
 20
39.483589277
 30
0.0
 10
27.1562496204
 20
39.9752525448
 30
0.0
 10
27.3001398321
 20
40.5137769952
 30
0.0
 10
27.3923582582
 20
41.0943729269
 30
0.0
 10
27.4322200583
 20
41.711934478
 30
0.0
 10
27.4194876465
 20
42.3610290183
 30
0.0
 10
27.3543526222
 20
43.0359386097
 30
0.0
 10
27.2373959153
 20
43.7306972442
 30
0.0
 10
27.0696885797
 20
44.4391312887
 30
0.0
 10
26.8527348615
 20
45.1549975335
 30
0.0
 10
26.4981125375
 20
46.1168818684
 30
0.0
 10
26.1679956656
 20
46.8205723204
 30
0.0
 10
25.9219463817
 20
47.2788400019
 30
0.0
  0
SPLINE
  5
272
100
AcDbEntity
  8
0
100
AcDbSpline
 62
7
  6
BYLAYER
 70
0
 71
3
 72
14
 73
10
 74
0
 42
0.0000001
 43
0.0000001
 44
0.0000000001
 40
0.0
 40
0.0
 40
0.0
 40
0.0
 40
0.2653525183
 40
0.3964113292
 40
0.5251017288
 40
0.6505478186
 40
0.7719447297
 40
0.8886318983
 40
1.0
 40
1.0
 40
1.0
 40
1.0
 10
25.9219463817
 20
47.2788400019
 30
0.0
 10
25.6482341304
 20
47.7886300602
 30
0.0
 10
25.1928674804
 20
48.5266839459
 30
0.0
 10
24.504356284
 20
49.4422131572
 30
0.0
 10
23.9577451746
 20
50.080795353
 30
0.0
 10
23.3849608069
 20
50.6668712445
 30
0.0
 10
22.7921460069
 20
51.1942044316
 30
0.0
 10
22.1857922855
 20
51.6569103155
 30
0.0
 10
21.7665000866
 20
51.9256637307
 30
0.0
 10
21.5561870446
 20
52.0470852752
 30
0.0
  0
SPLINE
  5
273
100
AcDbEntity
  8
0
100
AcDbSpline
 62
7
  6
BYLAYER
 70
0
 71
3
 72
23
 73
19
 74
0
 42
0.0000001
 43
0.0000001
 44
0.0000000001
 40
0.0
 40
0.0
 40
0.0
 40
0.0
 40
0.0582096092
 40
0.119522902
 40
0.1835283535
 40
0.2497429046
 40
0.3175975555
 40
0.386478401
 40
0.4557398068
 40
0.5247254661
 40
0.5927870822
 40
0.6593033831
 40
0.7236999592
 40
0.7854705904
 40
0.8442010822
 40
0.8995968842
 40
0.9515149386
 40
1.0
 40
1.0
 40
1.0
 40
1.0
 10
21.4802222343
 20
51.9936923043
 30
0.0
 10
21.7200902969
 20
51.8552075468
 30
0.0
 10
22.1977879103
 20
51.5446083624
 30
0.0
 10
22.8839441731
 20
51.0027660623
 30
0.0
 10
23.5502290234
 20
50.3794973632
 30
0.0
 10
24.1872471917
 20
49.6836963243
 30
0.0
 10
24.7860884129
 20
48.9250631029
 30
0.0
 10
25.3383263115
 20
48.1143056899
 30
0.0
 10
25.8361763009
 20
47.2628343073
 30
0.0
 10
26.2726238533
 20
46.3826555517
 30
0.0
 10
26.6415212163
 20
45.4861717826
 30
0.0
 10
26.93767427
 20
44.585998634
 30
0.0
 10
27.1569131429
 20
43.6947774757
 30
0.0
 10
27.2961359769
 20
42.824973983
 30
0.0
 10
27.3533396406
 20
41.9887184705
 30
0.0
 10
27.3275705627
 20
41.1975157519
 30
0.0
 10
27.2190088646
 20
40.4624716838
 30
0.0
 10
27.0876599531
 20
40.0011759805
 30
0.0
 10
27.0074684664
 20
39.7848589821
 30
0.0
  0
SPLINE
  5
274
100
AcDbEntity
  8
0
100
AcDbSpline
 62
7
  6
BYLAYER
 70
0
 71
3
 72
13
 73
9
 74
0
 42
0.0000001
 43
0.0000001
 44
0.0000000001
 40
0.0
 40
0.0
 40
0.0
 40
0.0
 40
0.2674234195
 40
0.5206216449
 40
0.6430640518
 40
0.7633706752
 40
0.8821372105
 40
1.0
 40
1.0
 40
1.0
 40
1.0
 10
27.0074684664
 20
39.7848589821
 30
0.0
 10
26.9401546491
 20
39.6032795716
 30
0.0
 10
26.7858090566
 20
39.2577383199
 30
0.0
 10
26.5326199005
 20
38.8643642547
 30
0.0
 10
26.3012914964
 20
38.5891343349
 30
0.0
 10
26.1158151272
 20
38.4038800597
 30
0.0
 10
25.9170416487
 20
38.2381309164
 30
0.0
 10
25.7756850348
 20
38.1407662429
 30
0.0
 10
25.7032290192
 20
38.0956571987
 30
0.0
  0
SPLINE
  5
275
100
AcDbEntity
  8
0
100
AcDbSpline
 62
7
  6
BYLAYER
 70
0
 71
3
 72
9
 73
5
 74
0
 42
0.0000001
 43
0.0000001
 44
0.0000000001
 40
0.0
 40
0.0
 40
0.0
 40
0.0
 40
0.4970474654
 40
1.0
 40
1.0
 40
1.0
 40
1.0
 10
25.7032290192
 20
38.0956571987
 30
0.0
 10
25.5844268871
 20
38.0216943874
 30
0.0
 10
25.3337002013
 20
37.8909158736
 30
0.0
 10
25.0661532439
 20
37.7995679686
 30
0.0
 10
24.9292089838
 20
37.7635288828
 30
0.0
  0
SPLINE
  5
276
100
AcDbEntity
  8
0
100
AcDbSpline
 62
7
  6
BYLAYER
 70
0
 71
3
 72
15
 73
11
 74
0
 42
0.0000001
 43
0.0000001
 44
0.0000000001
 40
0.0
 40
0.0
 40
0.0
 40
0.0
 40
0.1484157012
 40
0.289205442
 40
0.4223361459
 40
0.5482285101
 40
0.6676213919
 40
0.7816484061
 40
0.8918304099
 40
1.0
 40
1.0
 40
1.0
 40
1.0
 10
21.5250203824
 20
52.0649833926
 30
0.0
 10
21.3390841695
 20
52.1711911256
 30
0.0
 10
20.9679628654
 20
52.363316143
 30
0.0
 10
20.4021361597
 20
52.5920080643
 30
0.0
 10
19.8465378147
 20
52.7514600168
 30
0.0
 10
19.306370895
 20
52.8399419407
 30
0.0
 10
18.7865809753
 20
52.8562860242
 30
0.0
 10
18.2921207684
 20
52.7998280127
 30
0.0
 10
17.8281900502
 20
52.6706868422
 30
0.0
 10
17.5413661913
 20
52.5361622915
 30
0.0
 10
17.4062100027
 20
52.4581292062
 30
0.0
  0
SPLINE
  5
277
100
AcDbEntity
  8
0
100
AcDbSpline
 62
7
  6
BYLAYER
 70
0
 71
3
 72
18
 73
14
 74
0
 42
0.0000001
 43
0.0000001
 44
0.0000000001
 40
0.0
 40
0.0
 40
0.0
 40
0.0
 40
0.1510997201
 40
0.2927603522
 40
0.4251366544
 40
0.5490664241
 40
0.6660350165
 40
0.7226353475
 40
0.7783698905
 40
0.8335965833
 40
0.8886917719
 40
0.9440354792
 40
1.0
 40
1.0
 40
1.0
 40
1.0
 10
20.0275833802
 20
50.7859918722
 30
0.0
 10
19.8168002287
 20
50.9076848285
 30
0.0
 10
19.3963568918
 20
51.1235936988
 30
0.0
 10
18.7538358251
 20
51.3652216168
 30
0.0
 10
18.1273487336
 20
51.5108275459
 30
0.0
 10
17.5254198803
 20
51.5578252798
 30
0.0
 10
17.0454144668
 20
51.5126707263
 30
0.0
 10
16.6859713923
 20
51.4254718832
 30
0.0
 10
16.4307392608
 20
51.3362792788
 30
0.0
 10
16.1880139323
 20
51.2228068176
 30
0.0
 10
15.9586384255
 20
51.0855179595
 30
0.0
 10
15.7434964635
 20
50.9249086923
 30
0.0
 10
15.6110385653
 20
50.8035627524
 30
0.0
 10
15.5475801816
 20
50.7395351043
 30
0.0
  0
LINE
  5
278
100
AcDbEntity
  8
0
100
AcDbLine
 62
7
  6
BYLAYER
 10
19.7499962656
 20
38.2276218971
 11
19.7105895092
 21
38.2505454397
  0
SPLINE
  5
279
100
AcDbEntity
  8
0
100
AcDbSpline
 62
7
  6
BYLAYER
 70
0
 71
3
 72
13
 73
9
 74
0
 42
0.0000001
 43
0.0000001
 44
0.0000000001
 40
0.0
 40
0.0
 40
0.0
 40
0.0
 40
0.1080963822
 40
0.2182372021
 40
0.3322628522
 40
0.4516926248
 40
0.710627667
 40
1.0
 40
1.0
 40
1.0
 40
1.0
 10
17.4215586787
 20
44.1777721646
 30
0.0
 10
17.4051635586
 20
44.1683064935
 30
0.0
 10
17.3703564875
 20
44.15199549
 30
0.0
 10
17.3140265166
 20
44.1364387331
 30
0.0
 10
17.2539865033
 20
44.1297325231
 30
0.0
 10
17.1675400506
 20
44.1327354098
 30
0.0
 10
17.052684405
 20
44.1604121975
 30
0.0
 10
16.9654529177
 20
44.2019532613
 30
0.0
 10
16.921563253
 20
44.2272923978
 30
0.0
  0
SPLINE
  5
27A
100
AcDbEntity
  8
0
100
AcDbSpline
 62
7
  6
BYLAYER
 70
0
 71
3
 72
41
 73
37
 74
0
 42
0.0000001
 43
0.0000001
 44
0.0000000001
 40
0.0
 40
0.0
 40
0.0
 40
0.0
 40
0.0309889954
 40
0.0603839055
 40
0.0881751049
 40
0.1014994462
 40
0.1144603493
 40
0.1393662401
 40
0.1631408206
 40
0.1861014263
 40
0.2086314795
 40
0.2311532246
 40
0.2540897486
 40
0.2778267694
 40
0.3026838647
 40
0.3156172792
 40
0.3289131597
 40
0.3566457083
 40
0.3859726292
 40
0.4169045229
 40
0.4493937449
 40
0.48334293
 40
0.5186146571
 40
0.5550386644
 40
0.5924176427
 40
0.630534047
 40
0.6691553943
 40
0.7080388469
 40
0.746936785
 40
0.7856011955
 40
0.8237881694
 40
0.8612646148
 40
0.897810133
 40
0.9332231665
 40
0.9673396894
 40
1.0
 40
1.0
 40
1.0
 40
1.0
 10
19.7499962656
 20
38.2276218971
 30
0.0
 10
19.9153328673
 20
38.1321669251
 30
0.0
 10
20.2454102758
 20
37.9593398974
 30
0.0
 10
20.7488288107
 20
37.7530859222
 30
0.0
 10
21.1667370639
 20
37.6309627979
 30
0.0
 10
21.4937495992
 20
37.566318807
 30
0.0
 10
21.8064866991
 20
37.5243985486
 30
0.0
 10
22.1872765629
 20
37.5105952699
 30
0.0
 10
22.6276776551
 20
37.5588106709
 30
0.0
 10
23.0410859465
 20
37.6720171923
 30
0.0
 10
23.422928291
 20
37.8493758106
 30
0.0
 10
23.7689097268
 20
38.0890286991
 30
0.0
 10
24.0752499458
 20
38.3882181146
 30
0.0
 10
24.3388984881
 20
38.7434255497
 30
0.0
 10
24.5188111033
 20
39.0785297167
 30
0.0
 10
24.6400673848
 20
39.369136907
 30
0.0
 10
24.7488278191
 20
39.6834911753
 30
0.0
 10
24.8535827934
 20
40.1051016076
 30
0.0
 10
24.9286056704
 20
40.6428311913
 30
0.0
 10
24.9541488763
 20
41.2144178331
 30
0.0
 10
24.9300322139
 20
41.8144499891
 30
0.0
 10
24.8565635852
 20
42.4373076928
 30
0.0
 10
24.7344667092
 20
43.0771162443
 30
0.0
 10
24.5648930115
 20
43.7278218575
 30
0.0
 10
24.3494723888
 20
44.3832569277
 30
0.0
 10
24.0902625644
 20
45.037198953
 30
0.0
 10
23.7897136667
 20
45.6834219431
 30
0.0
 10
23.4506910235
 20
46.3157762622
 30
0.0
 10
23.0764344093
 20
46.9282470677
 30
0.0
 10
22.6704969585
 20
47.5149944035
 30
0.0
 10
22.2367398948
 20
48.0704335637
 30
0.0
 10
21.7792948387
 20
48.5892848224
 30
0.0
 10
21.3025176881
 20
49.0666061912
 30
0.0
 10
20.8108786692
 20
49.4979063255
 30
0.0
 10
20.3090955239
 20
49.8789845815
 30
0.0
 10
19.9629946225
 20
50.1023467991
 30
0.0
 10
19.789403022
 20
50.2040879707
 30
0.0
  0
SPLINE
  5
27B
100
AcDbEntity
  8
0
100
AcDbSpline
 62
7
  6
BYLAYER
 70
0
 71
3
 72
32
 73
28
 74
0
 42
0.0000001
 43
0.0000001
 44
0.0000000001
 40
0.0
 40
0.0
 40
0.0
 40
0.0
 40
0.0327354074
 40
0.0641937156
 40
0.0943411554
 40
0.1232049235
 40
0.1508463594
 40
0.1773582774
 40
0.202873017
 40
0.2275651998
 40
0.2516463997
 40
0.2753582537
 40
0.2989626705
 40
0.3227273973
 40
0.3469113202
 40
0.3717512383
 40
0.3974510386
 40
0.4241773875
 40
0.4520553234
 40
0.4811720297
 40
0.543239352
 40
0.6104480093
 40
0.6823898059
 40
0.7583409225
 40
0.8373483437
 40
0.9183023375
 40
1.0
 40
1.0
 40
1.0
 40
1.0
 10
19.7499962656
 20
50.2270115133
 30
0.0
 10
19.6217657321
 20
50.3010437715
 30
0.0
 10
19.3655512909
 20
50.4382036573
 30
0.0
 10
18.975777498
 20
50.6127894979
 30
0.0
 10
18.5901789804
 20
50.7510812938
 30
0.0
 10
18.2110123068
 20
50.8522786252
 30
0.0
 10
17.8403396787
 20
50.9157393979
 30
0.0
 10
17.4802335457
 20
50.9410574696
 30
0.0
 10
17.1327449027
 20
50.9279250782
 30
0.0
 10
16.7999021332
 20
50.8763233166
 30
0.0
 10
16.4837020427
 20
50.7864264639
 30
0.0
 10
16.1861098762
 20
50.6586775673
 30
0.0
 10
15.9089944992
 20
50.4938385411
 30
0.0
 10
15.6541111495
 20
50.2929216432
 30
0.0
 10
15.4229702666
 20
50.0572650711
 30
0.0
 10
15.2169438282
 20
49.7883389963
 30
0.0
 10
15.0370937602
 20
49.4878542178
 30
0.0
 10
14.8844211911
 20
49.1575806682
 30
0.0
 10
14.7596176943
 20
48.7994595137
 30
0.0
 10
14.6285553994
 20
48.2764910384
 30
0.0
 10
14.5422226316
 20
47.5621942556
 30
0.0
 10
14.5583393826
 20
46.649875958
 30
0.0
 10
14.6910072078
 20
45.6839568376
 30
0.0
 10
14.9371183992
 20
44.6858507125
 30
0.0
 10
15.2911325469
 20
43.6775808142
 30
0.0
 10
15.7450703451
 20
42.6817524975
 30
0.0
 10
16.1078621962
 20
42.0404653907
 30
0.0
 10
16.3036442639
 20
41.7270612709
 30
0.0
  0
SPLINE
  5
27C
100
AcDbEntity
  8
0
100
AcDbSpline
 62
7
  6
BYLAYER
 70
0
 71
3
 72
9
 73
5
 74
0
 42
0.0000001
 43
0.0000001
 44
0.0000000001
 40
0.0
 40
0.0
 40
0.0
 40
0.0
 40
0.2539775594
 40
1.0
 40
1.0
 40
1.0
 40
1.0
 10
19.2558975818
 20
38.5400868082
 30
0.0
 10
19.2935058621
 20
38.5142265781
 30
0.0
 10
19.4424564669
 20
38.4136843625
 30
0.0
 10
19.5949263237
 20
38.3183350562
 30
0.0
 10
19.7105895092
 20
38.2505454397
 30
0.0
  0
SPLINE
  5
27D
100
AcDbEntity
  8
0
100
AcDbSpline
 62
7
  6
BYLAYER
 70
0
 71
3
 72
28
 73
24
 74
0
 42
0.0000001
 43
0.0000001
 44
0.0000000001
 40
0.0
 40
0.0
 40
0.0
 40
0.0
 40
0.0486959642
 40
0.0717369345
 40
0.0942242784
 40
0.1164703343
 40
0.1388048608
 40
0.1615501849
 40
0.185000786
 40
0.2094051707
 40
0.2349586578
 40
0.2617976761
 40
0.2900071267
 40
0.3505763896
 40
0.4165102567
 40
0.4870705181
 40
0.5611539678
 40
0.6374159065
 40
0.7143726422
 40
0.7904995269
 40
0.8643224174
 40
0.9345178712
 40
1.0
 40
1.0
 40
1.0
 40
1.0
 10
19.5514513653
 20
44.4994656271
 30
0.0
 10
19.5961693208
 20
44.6043206921
 30
0.0
 10
19.6795542467
 20
44.7527818983
 30
0.0
 10
19.8251847754
 20
44.9192215477
 30
0.0
 10
19.9461150941
 20
45.0228377705
 30
0.0
 10
20.0797319658
 20
45.1063850296
 30
0.0
 10
20.2249031034
 20
45.1692279427
 30
0.0
 10
20.3804080339
 20
45.2108385884
 30
0.0
 10
20.5449493976
 20
45.2309781131
 30
0.0
 10
20.7172292471
 20
45.2296024217
 30
0.0
 10
20.8959365971
 20
45.2068006017
 30
0.0
 10
21.079776059
 20
45.1628642202
 30
0.0
 10
21.3359579
 20
45.0744521935
 30
0.0
 10
21.6609016778
 20
44.9105751555
 30
0.0
 10
22.0393476662
 20
44.6445308138
 30
0.0
 10
22.4049993283
 20
44.3122189402
 30
0.0
 10
22.7472998537
 20
43.9233089727
 30
0.0
 10
23.0563754525
 20
43.4890784983
 30
0.0
 10
23.3232150432
 20
43.0221977322
 30
0.0
 10
23.5400160862
 20
42.5363063942
 30
0.0
 10
23.7004820112
 20
42.0455157739
 30
0.0
 10
23.799894336
 20
41.5642024199
 30
0.0
 10
23.8244589771
 20
41.2463362275
 30
0.0
 10
23.8244589771
 20
41.0930490125
 30
0.0
  0
SPLINE
  5
27E
100
AcDbEntity
  8
0
100
AcDbSpline
 62
7
  6
BYLAYER
 70
0
 71
3
 72
9
 73
5
 74
0
 42
0.0000001
 43
0.0000001
 44
0.0000000001
 40
0.0
 40
0.0
 40
0.0
 40
0.0
 40
0.2590900881
 40
1.0
 40
1.0
 40
1.0
 40
1.0
 10
23.8242112611
 20
41.0549504921
 30
0.0
 10
23.82371952
 20
41.017279886
 30
0.0
 10
23.8189575115
 20
40.871951762
 30
0.0
 10
23.8024557325
 20
40.7268836578
 30
0.0
 10
23.7823322655
 20
40.6210453985
 30
0.0
  0
SPLINE
  5
27F
100
AcDbEntity
  8
0
100
AcDbSpline
 62
7
  6
BYLAYER
 70
0
 71
3
 72
16
 73
12
 74
0
 42
0.0000001
 43
0.0000001
 44
0.0000000001
 40
0.0
 40
0.0
 40
0.0
 40
0.0
 40
0.1424617976
 40
0.2753162015
 40
0.4000784843
 40
0.5190226152
 40
0.5773149553
 40
0.635324352
 40
0.7520553565
 40
0.872684549
 40
1.0
 40
1.0
 40
1.0
 40
1.0
 10
23.7823322655
 20
40.6210453985
 30
0.0
 10
23.7654470305
 20
40.5322384407
 30
0.0
 10
23.7219445714
 20
40.3623594516
 30
0.0
 10
23.6224760197
 20
40.1276345693
 30
0.0
 10
23.4922745564
 20
39.9257196209
 30
0.0
 10
23.3582629273
 20
39.7867448085
 30
0.0
 10
23.2388787286
 20
39.6967203425
 30
0.0
 10
23.1118784685
 20
39.6205127409
 30
0.0
 10
22.9364452387
 20
39.5503544003
 30
0.0
 10
22.7071711895
 20
39.5099130703
 30
0.0
 10
22.5489021335
 20
39.5118186248
 30
0.0
 10
22.4684549315
 20
39.5192199028
 30
0.0
  0
SPLINE
  5
280
100
AcDbEntity
  8
0
100
AcDbSpline
 62
7
  6
BYLAYER
 70
0
 71
3
 72
28
 73
24
 74
0
 42
0.0000001
 43
0.0000001
 44
0.0000000001
 40
0.0
 40
0.0
 40
0.0
 40
0.0
 40
0.0534173356
 40
0.0782012601
 40
0.101938296
 40
0.1249001467
 40
0.1474135251
 40
0.1698437074
 40
0.1925623861
 40
0.2159166497
 40
0.2402072726
 40
0.2656722771
 40
0.2924816029
 40
0.350430696
 40
0.4142995928
 40
0.4835197187
 40
0.5570078403
 40
0.6333363245
 40
0.7108696803
 40
0.7878955331
 40
0.8627269553
 40
0.9338507056
 40
1.0
 40
1.0
 40
1.0
 40
1.0
 10
16.376902543
 20
46.4928378012
 30
0.0
 10
16.392795804
 20
46.5671126223
 30
0.0
 10
16.426577896
 20
46.6743695073
 30
0.0
 10
16.4954884439
 20
46.8022764842
 30
0.0
 10
16.5555692198
 20
46.8846967993
 30
0.0
 10
16.6248041076
 20
46.9551677721
 30
0.0
 10
16.7026688136
 20
47.0129458851
 30
0.0
 10
16.7883901433
 20
47.057520494
 30
0.0
 10
16.8811832707
 20
47.0884059476
 30
0.0
 10
16.9801368985
 20
47.1054418637
 30
0.0
 10
17.0843656414
 20
47.1084945418
 30
0.0
 10
17.1929721543
 20
47.0976525715
 30
0.0
 10
17.3463515691
 20
47.0639941612
 30
0.0
 10
17.5442230761
 20
46.985797812
 30
0.0
 10
17.7773401575
 20
46.844427589
 30
0.0
 10
18.0052836113
 20
46.6578013744
 30
0.0
 10
18.2207855439
 20
46.4319722671
 30
0.0
 10
18.416960366
 20
46.1742287788
 30
0.0
 10
18.5874429772
 20
45.8929498386
 30
0.0
 10
18.7266602796
 20
45.5973011548
 30
0.0
 10
18.8301222413
 20
45.296866196
 30
0.0
 10
18.8944009825
 20
45.001473143
 30
0.0
 10
18.9103936314
 20
44.8061108205
 30
0.0
 10
18.9103936314
 20
44.7120505459
 30
0.0
  0
SPLINE
  5
281
100
AcDbEntity
  8
0
100
AcDbSpline
 62
7
  6
BYLAYER
 70
0
 71
3
 72
15
 73
11
 74
0
 42
0.0000001
 43
0.0000001
 44
0.0000000001
 40
0.0
 40
0.0
 40
0.0
 40
0.0
 40
0.1483184559
 40
0.2838847931
 40
0.4079140267
 40
0.5235238167
 40
0.6353341282
 40
0.7488486389
 40
0.8691692349
 40
1.0
 40
1.0
 40
1.0
 40
1.0
 10
18.9093729485
 20
44.6535867794
 30
0.0
 10
18.9067813538
 20
44.5801426866
 30
0.0
 10
18.8922164476
 20
44.4395856174
 30
0.0
 10
18.8375961924
 20
44.2438255258
 30
0.0
 10
18.7516559141
 20
44.0772302231
 30
0.0
 10
18.6356949012
 20
43.9446973372
 30
0.0
 10
18.4923743368
 20
43.8511604056
 30
0.0
 10
18.3266730039
 20
43.8001653206
 30
0.0
 10
18.1444890161
 20
43.7924961791
 30
0.0
 10
18.021044024
 20
43.8145638655
 30
0.0
 10
17.9584595294
 20
43.8314590427
 30
0.0
  0
LINE
  5
282
100
AcDbEntity
  8
0
100
AcDbLine
 62
7
  6
BYLAYER
 10
19.7499962656
 20
50.2270115133
 11
19.789403022
 21
50.2040879707
  0
SPLINE
  5
283
100
AcDbEntity
  8
0
100
AcDbSpline
 62
7
  6
BYLAYER
 70
0
 71
3
 72
13
 73
9
 74
0
 42
0.0000001
 43
0.0000001
 44
0.0000000001
 40
0.0
 40
0.0
 40
0.0
 40
0.0
 40
0.2893733134
 40
0.5483087021
 40
0.6677383695
 40
0.781763735
 40
0.8919041248
 40
1.0
 40
1.0
 40
1.0
 40
1.0
 10
16.2144535278
 20
45.4520355694
 30
0.0
 10
16.2144535283
 20
45.5027162312
 30
0.0
 10
16.2220929612
 20
45.599034336
 30
0.0
 10
16.255552015
 20
45.7123441774
 30
0.0
 10
16.2961753228
 20
45.7887127188
 30
0.0
 10
16.3320037885
 20
45.8373571076
 30
0.0
 10
16.3736422778
 20
45.8783628821
 30
0.0
 10
16.405172345
 20
45.9003515851
 30
0.0
 10
16.4215678273
 20
45.9098174652
 30
0.0
  0
SPLINE
  5
284
100
AcDbEntity
  8
0
100
AcDbSpline
 62
7
  6
BYLAYER
 70
0
 71
3
 72
15
 73
11
 74
0
 42
0.0000001
 43
0.0000001
 44
0.0000000001
 40
0.0
 40
0.0
 40
0.0
 40
0.0
 40
0.1495559178
 40
0.2902092932
 40
0.4220284945
 40
0.5459328439
 40
0.6634288615
 40
0.7765561716
 40
0.8878324342
 40
1.0
 40
1.0
 40
1.0
 40
1.0
 10
18.6584564851
 20
44.674837645
 30
0.0
 10
18.6568098301
 20
44.6281725252
 30
0.0
 10
18.6491774291
 20
44.5376867132
 30
0.0
 10
18.623357499
 20
44.4081625822
 30
0.0
 10
18.5836188792
 20
44.2905461472
 30
0.0
 10
18.5303932381
 20
44.1863575995
 30
0.0
 10
18.4641750487
 20
44.0969650399
 30
0.0
 10
18.3856919746
 20
44.0236681585
 30
0.0
 10
18.2960092515
 20
43.9676790974
 30
0.0
 10
18.230326859
 20
43.9427236045
 30
0.0
 10
18.1965844608
 20
43.9333476628
 30
0.0
  0
SPLINE
  5
285
100
AcDbEntity
  8
0
100
AcDbSpline
 62
7
  6
BYLAYER
 70
0
 71
3
 72
23
 73
19
 74
0
 42
0.0000001
 43
0.0000001
 44
0.0000000001
 40
0.0
 40
0.0
 40
0.0
 40
0.0
 40
0.0645163272
 40
0.1331396359
 40
0.204942604
 40
0.2789461607
 40
0.3540031039
 40
0.4289222624
 40
0.5025243478
 40
0.5736892981
 40
0.641428085
 40
0.7049456779
 40
0.7637202493
 40
0.8176103652
 40
0.8669616309
 40
0.9127090388
 40
0.9563991254
 40
1.0
 40
1.0
 40
1.0
 40
1.0
 10
17.9056781644
 20
44.4771597134
 30
0.0
 10
17.9040683611
 20
44.5405024017
 30
0.0
 10
17.891974705
 20
44.6710854171
 30
0.0
 10
17.8510215665
 20
44.8685100409
 30
0.0
 10
17.7875165457
 20
45.0696602883
 30
0.0
 10
17.703015769
 20
45.2697657541
 30
0.0
 10
17.599475438
 20
45.4641803523
 30
0.0
 10
17.4793380403
 20
45.648330587
 30
0.0
 10
17.3454177866
 20
45.8178900761
 30
0.0
 10
17.2008417799
 20
45.9688812389
 30
0.0
 10
17.0489843495
 20
46.0977919374
 30
0.0
 10
16.893322797
 20
46.2016161286
 30
0.0
 10
16.7373425788
 20
46.2778949731
 30
0.0
 10
16.5844595773
 20
46.3247510169
 30
0.0
 10
16.4379707469
 20
46.3407424579
 30
0.0
 10
16.3012411828
 20
46.3247070917
 30
0.0
 10
16.1782522959
 20
46.2763040364
 30
0.0
 10
16.1089482814
 20
46.2238128162
 30
0.0
 10
16.0783928993
 20
46.1938119371
 30
0.0
  0
SPLINE
  5
286
100
AcDbEntity
  8
0
100
AcDbSpline
 62
7
  6
BYLAYER
 70
0
 71
3
 72
15
 73
11
 74
0
 42
0.0000001
 43
0.0000001
 44
0.0000000001
 40
0.0
 40
0.0
 40
0.0
 40
0.0
 40
0.1494150791
 40
0.2905461761
 40
0.4233459179
 40
0.5484377141
 40
0.6668995086
 40
0.7802602209
 40
0.8905230511
 40
1.0
 40
1.0
 40
1.0
 40
1.0
 10
23.5561582976
 20
41.0650903384
 30
0.0
 10
23.5551014407
 20
40.984128139
 30
0.0
 10
23.5459614147
 20
40.8266553012
 30
0.0
 10
23.5092141644
 20
40.5997595395
 30
0.0
 10
23.4499803566
 20
40.3912232656
 30
0.0
 10
23.3688121816
 20
40.2034077191
 30
0.0
 10
23.2664311491
 20
40.0383947219
 30
0.0
 10
23.1437117543
 20
39.898238545
 30
0.0
 10
23.0020845119
 20
39.7848092134
 30
0.0
 10
22.8964110712
 20
39.7282395043
 30
0.0
 10
22.8418016778
 20
39.7050569961
 30
0.0
  0
SPLINE
  5
287
100
AcDbEntity
  8
0
100
AcDbSpline
 62
7
  6
BYLAYER
 70
0
 71
3
 72
9
 73
5
 74
0
 42
0.0000001
 43
0.0000001
 44
0.0000000001
 40
0.0
 40
0.0
 40
0.0
 40
0.0
 40
0.5005495028
 40
1.0
 40
1.0
 40
1.0
 40
1.0
 10
19.1685595009
 20
43.4290795
 30
0.0
 10
19.2068192087
 20
43.4650192248
 30
0.0
 10
19.2910529823
 20
43.5290373611
 30
0.0
 10
19.3873133139
 20
43.5729665068
 30
0.0
 10
19.4369873114
 20
43.5895760377
 30
0.0
  0
SPLINE
  5
288
100
AcDbEntity
  8
0
100
AcDbSpline
 62
7
  6
BYLAYER
 70
0
 71
3
 72
26
 73
22
 74
0
 42
0.0000001
 43
0.0000001
 44
0.0000000001
 40
0.0
 40
0.0
 40
0.0
 40
0.0
 40
0.0630004466
 40
0.1301041744
 40
0.2005235789
 40
0.2733386503
 40
0.3474823443
 40
0.421834222
 40
0.495261347
 40
0.5666747563
 40
0.6350841358
 40
0.699657412
 40
0.7597899479
 40
0.8151878881
 40
0.8659686476
 40
0.8898370291
 40
0.9128366023
 40
0.9351386271
 40
0.9569448087
 40
0.9784843955
 40
1.0
 40
1.0
 40
1.0
 40
1.0
 10
22.3605561071
 20
40.53588544
 30
0.0
 10
22.3605561071
 20
40.6545943953
 30
0.0
 10
22.3439721674
 20
40.8999126878
 30
0.0
 10
22.2759788109
 20
41.2722527431
 30
0.0
 10
22.1655134444
 20
41.6535412463
 30
0.0
 10
22.0151476536
 20
42.0351383222
 30
0.0
 10
21.8282174751
 20
42.4084983629
 30
0.0
 10
21.608960504
 20
42.7651860185
 30
0.0
 10
21.3623164156
 20
43.0971526705
 30
0.0
 10
21.0938466264
 20
43.3969191585
 30
0.0
 10
20.809563136
 20
43.6577517106
 30
0.0
 10
20.5157817716
 20
43.8738079923
 30
0.0
 10
20.2188707775
 20
44.040232393
 30
0.0
 10
19.9252700085
 20
44.1531830765
 30
0.0
 10
19.6833295455
 20
44.2012173397
 30
0.0
 10
19.4991604167
 20
44.2085799828
 30
0.0
 10
19.3688643279
 20
44.1993151018
 30
0.0
 10
19.2443708451
 20
44.1754485238
 30
0.0
 10
19.1264363109
 20
44.1370094264
 30
0.0
 10
19.0158214187
 20
44.0842585847
 30
0.0
 10
18.9475869957
 20
44.039868536
 30
0.0
 10
18.9151153717
 20
44.0155959512
 30
0.0
  0
SPLINE
  5
289
100
AcDbEntity
  8
0
100
AcDbSpline
 62
7
  6
BYLAYER
 70
0
 71
3
 72
21
 73
17
 74
0
 42
0.0000001
 43
0.0000001
 44
0.0000000001
 40
0.0
 40
0.0
 40
0.0
 40
0.0
 40
0.1446241786
 40
0.2112862036
 40
0.2742600838
 40
0.3339475989
 40
0.3909340735
 40
0.4459789808
 40
0.5000019714
 40
0.5540248709
 40
0.6090695134
 40
0.6660555729
 40
0.7257425548
 40
0.788715819
 40
0.8553771795
 40
1.0
 40
1.0
 40
1.0
 40
1.0
 10
17.6286741557
 20
44.4722570787
 30
0.0
 10
17.6286741562
 20
44.4114402051
 30
0.0
 10
17.6215618018
 20
44.3221560756
 30
0.0
 10
17.5941276982
 20
44.2099326718
 30
0.0
 10
17.566198659
 20
44.1351523501
 30
0.0
 10
17.5306050664
 20
44.068245391
 30
0.0
 10
17.487616996
 20
44.0098778003
 30
0.0
 10
17.4376379642
 20
43.9606634512
 30
0.0
 10
17.3811147314
 20
43.9212374152
 30
0.0
 10
17.3187099936
 20
43.89199837
 30
0.0
 10
17.2511003523
 20
43.8733209136
 30
0.0
 10
17.179059176
 20
43.8652744397
 30
0.0
 10
17.1033198535
 20
43.8679014835
 30
0.0
 10
17.024594201
 20
43.8811029464
 30
0.0
 10
16.9136894256
 20
43.9134541185
 30
0.0
 10
16.8328112463
 20
43.9519354483
 30
0.0
 10
16.7801424855
 20
43.9823430836
 30
0.0
  0
SPLINE
  5
28A
100
AcDbEntity
  8
0
100
AcDbSpline
 62
7
  6
BYLAYER
 70
0
 71
3
 72
15
 73
11
 74
0
 42
0.0000001
 43
0.0000001
 44
0.0000000001
 40
0.0
 40
0.0
 40
0.0
 40
0.0
 40
0.1141465952
 40
0.2373352439
 40
0.366975646
 40
0.4999989181
 40
0.6330223406
 40
0.7626631822
 40
0.8858525234
 40
1.0
 40
1.0
 40
1.0
 40
1.0
 10
16.7801424855
 20
43.9823430836
 30
0.0
 10
16.7220579172
 20
44.0158774661
 30
0.0
 10
16.6073226502
 20
44.0963140875
 30
0.0
 10
16.4494436012
 20
44.2440032786
 30
0.0
 10
16.303967704
 20
44.4186081713
 30
0.0
 10
16.1763399659
 20
44.613530623
 30
0.0
 10
16.0713449379
 20
44.8215204437
 30
0.0
 10
15.9928692351
 20
45.0348090023
 30
0.0
 10
15.9439045655
 20
45.2453816983
 30
0.0
 10
15.9316108159
 20
45.3849644687
 30
0.0
 10
15.9316108154
 20
45.4520348896
 30
0.0
  0
SPLINE
  5
28B
100
AcDbEntity
  8
0
100
AcDbSpline
 62
7
  6
BYLAYER
 70
0
 71
3
 72
21
 73
17
 74
0
 42
0.0000001
 43
0.0000001
 44
0.0000000001
 40
0.0
 40
0.0
 40
0.0
 40
0.0
 40
0.1446241786
 40
0.2112862036
 40
0.2742600838
 40
0.3339475989
 40
0.3909340735
 40
0.4459789808
 40
0.5000019714
 40
0.5540248709
 40
0.6090695134
 40
0.6660555729
 40
0.7257425548
 40
0.788715819
 40
0.8553771795
 40
1.0
 40
1.0
 40
1.0
 40
1.0
 10
15.9316108154
 20
45.4520348896
 30
0.0
 10
15.9316108148
 20
45.5128517631
 30
0.0
 10
15.9387231693
 20
45.6021358926
 30
0.0
 10
15.9661572729
 20
45.7143592965
 30
0.0
 10
15.9940863121
 20
45.7891396182
 30
0.0
 10
16.0296799047
 20
45.8560465773
 30
0.0
 10
16.0726679751
 20
45.914414168
 30
0.0
 10
16.1226470069
 20
45.9636285171
 30
0.0
 10
16.1791702397
 20
46.003054553
 30
0.0
 10
16.2415749775
 20
46.0322935982
 30
0.0
 10
16.3091846188
 20
46.0509710546
 30
0.0
 10
16.3812257951
 20
46.0590175286
 30
0.0
 10
16.4569651175
 20
46.0563904847
 30
0.0
 10
16.5356907701
 20
46.0431890218
 30
0.0
 10
16.6465955454
 20
46.0108378498
 30
0.0
 10
16.7274737247
 20
45.97235652
 30
0.0
 10
16.7801424855
 20
45.9419488847
 30
0.0
  0
SPLINE
  5
28C
100
AcDbEntity
  8
0
100
AcDbSpline
 62
7
  6
BYLAYER
 70
0
 71
3
 72
9
 73
5
 74
0
 42
0.0000001
 43
0.0000001
 44
0.0000000001
 40
0.0
 40
0.0
 40
0.0
 40
0.0
 40
0.2441177929
 40
1.0
 40
1.0
 40
1.0
 40
1.0
 10
17.6547128118
 20
44.4873008075
 30
0.0
 10
17.6544209326
 20
44.4987856975
 30
0.0
 10
17.6525544493
 20
44.5458138756
 30
0.0
 10
17.6480936507
 20
44.5927299619
 30
0.0
 10
17.6434453389
 20
44.6279980601
 30
0.0
  0
SPLINE
  5
28D
100
AcDbEntity
  8
0
100
AcDbSpline
 62
7
  6
BYLAYER
 70
0
 71
3
 72
15
 73
11
 74
0
 42
0.0000001
 43
0.0000001
 44
0.0000000001
 40
0.0
 40
0.0
 40
0.0
 40
0.0
 40
0.1180941928
 40
0.2419237849
 40
0.3698189587
 40
0.4998071462
 40
0.6298197913
 40
0.7578005972
 40
0.8817793861
 40
1.0
 40
1.0
 40
1.0
 40
1.0
 10
17.6434453389
 20
44.6279980601
 30
0.0
 10
17.6358810187
 20
44.685390765
 30
0.0
 10
17.6134180778
 20
44.8021194468
 30
0.0
 10
17.5609993741
 20
44.9759418332
 30
0.0
 10
17.4901690702
 20
45.1494232157
 30
0.0
 10
17.4026000558
 20
45.3184860681
 30
0.0
 10
17.3003486275
 20
45.4791447531
 30
0.0
 10
17.1858160803
 20
45.6276127823
 30
0.0
 10
17.0617182353
 20
45.7603728077
 30
0.0
 10
16.9720072152
 20
45.8385640236
 30
0.0
 10
16.9261499937
 20
45.8739961483
 30
0.0
  0
SPLINE
  5
28E
100
AcDbEntity
  8
0
100
AcDbSpline
 62
7
  6
BYLAYER
 70
0
 71
3
 72
21
 73
17
 74
0
 42
0.0000001
 43
0.0000001
 44
0.0000000001
 40
0.0
 40
0.0
 40
0.0
 40
0.0
 40
0.152700373
 40
0.2230668046
 40
0.2892684793
 40
0.4097100882
 40
0.4653005648
 40
0.5188311014
 40
0.5714191621
 40
0.624290225
 40
0.6786390137
 40
0.7354856247
 40
0.7956318365
 40
0.8596350581
 40
0.9277864049
 40
1.0
 40
1.0
 40
1.0
 40
1.0
 10
16.9261499937
 20
45.8739961483
 30
0.0
 10
16.8666776488
 20
45.9199481591
 30
0.0
 10
16.7743529887
 20
45.9807764305
 30
0.0
 10
16.644792557
 20
46.0404354448
 30
0.0
 10
16.5246353371
 20
46.0803909142
 30
0.0
 10
16.4046054456
 20
46.097083166
 30
0.0
 10
16.2917900576
 20
46.0848023494
 30
0.0
 10
16.2149630851
 20
46.0623476807
 30
0.0
 10
16.1448540658
 20
46.0265482528
 30
0.0
 10
16.0824260369
 20
45.9779448436
 30
0.0
 10
16.0285642605
 20
45.9172168231
 30
0.0
 10
15.9838167443
 20
45.8453076816
 30
0.0
 10
15.9486854353
 20
45.7631118368
 30
0.0
 10
15.9234350457
 20
45.6716313715
 30
0.0
 10
15.908356608
 20
45.5719780698
 30
0.0
 10
15.9051843651
 20
45.5028343032
 30
0.0
 10
15.9051843651
 20
45.4672918626
 30
0.0
  0
SPLINE
  5
28F
100
AcDbEntity
  8
0
100
AcDbSpline
 62
7
  6
BYLAYER
 70
0
 71
3
 72
29
 73
25
 74
0
 42
0.0000001
 43
0.0000001
 44
0.0000000001
 40
0.0
 40
0.0
 40
0.0
 40
0.0
 40
0.0673944685
 40
0.1398298055
 40
0.2157691637
 40
0.2934262974
 40
0.3708566978
 40
0.4461443775
 40
0.5175354053
 40
0.5836148698
 40
0.6435051017
 40
0.6711049794
 40
0.6972110651
 40
0.7219828499
 40
0.7456635449
 40
0.768574239
 40
0.7910983305
 40
0.8136552739
 40
0.8366619563
 40
0.860491142
 40
0.8854499328
 40
0.9117742664
 40
0.9396256625
 40
1.0
 40
1.0
 40
1.0
 40
1.0
 10
15.9055721593
 20
45.4369911608
 30
0.0
 10
15.9073347416
 20
45.3676369106
 30
0.0
 10
15.923176063
 20
45.2239208503
 30
0.0
 10
15.9774509546
 20
45.0079693204
 30
0.0
 10
16.0612644335
 20
44.7903275693
 30
0.0
 10
16.1714824313
 20
44.5790353833
 30
0.0
 10
16.3040984883
 20
44.3818261995
 30
0.0
 10
16.4542187056
 20
44.2059451975
 30
0.0
 10
16.6164157839
 20
44.0578097884
 30
0.0
 10
16.7848112042
 20
43.9428396321
 30
0.0
 10
16.9294322963
 20
43.8763903536
 30
0.0
 10
17.0423720883
 20
43.8452130772
 30
0.0
 10
17.1224436799
 20
43.8330004917
 30
0.0
 10
17.1994270415
 20
43.8314961444
 30
0.0
 10
17.2725831807
 20
43.8408008925
 30
0.0
 10
17.3411764348
 20
43.8608562477
 30
0.0
 10
17.4044420479
 20
43.891566067
 30
0.0
 10
17.4617113053
 20
43.9325491879
 30
0.0
 10
17.5123252823
 20
43.9833996194
 30
0.0
 10
17.5558477164
 20
44.0434749605
 30
0.0
 10
17.5918745203
 20
44.1121610649
 30
0.0
 10
17.620140066
 20
44.1887872614
 30
0.0
 10
17.6478950778
 20
44.3035955787
 30
0.0
 10
17.655100606
 20
44.3948500657
 30
0.0
 10
17.655100606
 20
44.4570001057
 30
0.0
  0
SPLINE
  5
290
100
AcDbEntity
  8
0
100
AcDbSpline
 62
7
  6
BYLAYER
 70
0
 71
3
 72
15
 73
11
 74
0
 42
0.0000001
 43
0.0000001
 44
0.0000000001
 40
0.0
 40
0.0
 40
0.0
 40
0.0
 40
0.1141444714
 40
0.2373317045
 40
0.3669734975
 40
0.4999989181
 40
0.6330244891
 40
0.7626667216
 40
0.8858546473
 40
1.0
 40
1.0
 40
1.0
 40
1.0
 10
16.921563253
 20
44.2272923978
 30
0.0
 10
16.8731603155
 20
44.2552372146
 30
0.0
 10
16.777548408
 20
44.3222659366
 30
0.0
 10
16.6459827798
 20
44.4453391888
 30
0.0
 10
16.5247511974
 20
44.5908433974
 30
0.0
 10
16.4183930711
 20
44.7532811967
 30
0.0
 10
16.3308959551
 20
44.9266087117
 30
0.0
 10
16.2655002564
 20
45.1043506876
 30
0.0
 10
16.2246971721
 20
45.2798271843
 30
0.0
 10
16.2144535273
 20
45.396144556
 30
0.0
 10
16.2144535278
 20
45.4520355694
 30
0.0
  0
SPLINE
  5
291
100
AcDbEntity
  8
0
100
AcDbSpline
 62
7
  6
BYLAYER
 70
0
 71
3
 72
21
 73
17
 74
0
 42
0.0000001
 43
0.0000001
 44
0.0000000001
 40
0.0
 40
0.0
 40
0.0
 40
0.0
 40
0.0517172434
 40
0.1045209633
 40
0.1593301612
 40
0.2167666958
 40
0.3399777237
 40
0.4057627441
 40
0.4735742686
 40
0.5427187523
 40
0.6124061365
 40
0.7498527238
 40
0.8163377177
 40
0.8804004156
 40
0.9416801645
 40
1.0
 40
1.0
 40
1.0
 40
1.0
 10
13.0744371684
 20
24.8193538913
 30
0.0
 10
13.1274679749
 20
24.7536893797
 30
0.0
 10
13.2498195458
 20
24.6325046879
 30
0.0
 10
13.4711975901
 20
24.4926341549
 30
0.0
 10
13.7249560193
 20
24.3971223157
 30
0.0
 10
14.1051972672
 20
24.3303322659
 30
0.0
 10
14.5135811773
 20
24.3642159178
 30
0.0
 10
14.9162216905
 20
24.4829636468
 30
0.0
 10
15.219722498
 20
24.6172296119
 30
0.0
 10
15.5096475605
 20
24.7912022796
 30
0.0
 10
15.8662551172
 20
25.0683632611
 30
0.0
 10
16.1684496776
 20
25.4044876359
 30
0.0
 10
16.3937806276
 20
25.7805368542
 30
0.0
 10
16.517204142
 20
26.069464348
 30
0.0
 10
16.5932251332
 20
26.3605591688
 30
0.0
 10
16.6113462068
 20
26.5560627232
 30
0.0
 10
16.6113462068
 20
26.6512427359
 30
0.0
  0
SPLINE
  5
292
100
AcDbEntity
  8
0
100
AcDbSpline
 62
7
  6
BYLAYER
 70
0
 71
3
 72
11
 73
7
 74
0
 42
0.0000001
 43
0.0000001
 44
0.0000000001
 40
0.0
 40
0.0
 40
0.0
 40
0.0
 40
0.2609502333
 40
0.5130108816
 40
0.7582631181
 40
1.0
 40
1.0
 40
1.0
 40
1.0
 10
16.6113462068
 20
26.6512427359
 30
0.0
 10
16.6113462068
 20
26.7266325593
 30
0.0
 10
16.6004248751
 20
26.8751382733
 30
0.0
 10
16.5492468644
 20
27.0891682589
 30
0.0
 10
16.464213456
 20
27.2861929495
 30
0.0
 10
16.3856493971
 20
27.4040092402
 30
0.0
 10
16.3417699297
 20
27.4583422589
 30
0.0
  0
SPLINE
  5
293
100
AcDbEntity
  8
0
100
AcDbSpline
 62
7
  6
BYLAYER
 70
0
 71
3
 72
13
 73
9
 74
0
 42
0.0000001
 43
0.0000001
 44
0.0000000001
 40
0.0
 40
0.0
 40
0.0
 40
0.0
 40
0.0943929568
 40
0.1922274135
 40
0.297004287
 40
0.411158376
 40
0.6754329418
 40
1.0
 40
1.0
 40
1.0
 40
1.0
 10
12.083787132
 20
33.2664649916
 30
0.0
 10
12.0836864963
 20
33.2275421121
 30
0.0
 10
12.0874162139
 20
33.1482059592
 30
0.0
 10
12.1054745236
 20
33.0268971791
 30
0.0
 10
12.1362342441
 20
32.899779252
 30
0.0
 10
12.1998950202
 20
32.7107165317
 30
0.0
 10
12.3296648434
 20
32.4498918641
 30
0.0
 10
12.47074589
 20
32.2510852611
 30
0.0
 10
12.5548394729
 20
32.146968955
 30
0.0
  0
SPLINE
  5
294
100
AcDbEntity
  8
0
100
AcDbSpline
 62
7
  6
BYLAYER
 70
0
 71
3
 72
19
 73
15
 74
0
 42
0.0000001
 43
0.0000001
 44
0.0000000001
 40
0.0
 40
0.0
 40
0.0
 40
0.0
 40
0.1918791847
 40
0.3648571267
 40
0.5176110879
 40
0.5860931723
 40
0.6492774057
 40
0.7600146946
 40
0.8082460453
 40
0.8521552576
 40
0.8924136634
 40
0.9299085847
 40
0.9654880512
 40
1.0
 40
1.0
 40
1.0
 40
1.0
 10
13.9631185814
 20
35.5311904756
 30
0.0
 10
13.7934825992
 20
35.4332516801
 30
0.0
 10
13.4780897528
 20
35.2340428243
 30
0.0
 10
13.0587957139
 20
34.9112279376
 30
0.0
 10
12.7661840638
 20
34.6336112639
 30
0.0
 10
12.5745302972
 20
34.4152588247
 30
0.0
 10
12.4230160176
 20
34.2194922584
 30
0.0
 10
12.3013289097
 20
34.0270712849
 30
0.0
 10
12.2111568159
 20
33.8404444436
 30
0.0
 10
12.1615546764
 20
33.7145688884
 30
0.0
 10
12.1253928766
 20
33.595603816
 30
0.0
 10
12.1012192723
 20
33.4823175708
 30
0.0
 10
12.087293171
 20
33.3732653552
 30
0.0
 10
12.0838782228
 20
33.3016961453
 30
0.0
 10
12.083787132
 20
33.2664649916
 30
0.0
  0
SPLINE
  5
295
100
AcDbEntity
  8
0
100
AcDbSpline
 62
7
  6
BYLAYER
 70
0
 71
3
 72
19
 73
15
 74
0
 42
0.0000001
 43
0.0000001
 44
0.0000000001
 40
0.0
 40
0.0
 40
0.0
 40
0.0
 40
0.1348900924
 40
0.2008457703
 40
0.2658171778
 40
0.3930664079
 40
0.517396813
 40
0.6395550262
 40
0.7000896827
 40
0.7603582755
 40
0.8204213808
 40
0.880352431
 40
0.9401969856
 40
1.0
 40
1.0
 40
1.0
 40
1.0
 10
11.8631279829
 20
39.1685025994
 30
0.0
 10
11.5726884751
 20
39.0008182723
 30
0.0
 10
11.1507231322
 20
38.7320209145
 30
0.0
 10
10.6208133632
 20
38.336713002
 30
0.0
 10
10.1265447624
 20
37.926802384
 30
0.0
 10
9.5619650518
 20
37.3758457697
 30
0.0
 10
8.9779908227
 20
36.6500565307
 30
0.0
 10
8.5810872421
 20
35.9948297204
 30
0.0
 10
8.3259395757
 20
35.4467758447
 30
0.0
 10
8.1671135248
 20
35.0255990587
 30
0.0
 10
8.041684553
 20
34.5948549855
 30
0.0
 10
7.9511926228
 20
34.1564858482
 30
0.0
 10
7.8963785724
 20
33.7129150452
 30
0.0
 10
7.8842077834
 20
33.4152924641
 30
0.0
 10
7.8842462243
 20
33.2666073738
 30
0.0
  0
SPLINE
  5
296
100
AcDbEntity
  8
0
100
AcDbSpline
 62
7
  6
BYLAYER
 70
0
 71
3
 72
13
 73
9
 74
0
 42
0.0000001
 43
0.0000001
 44
0.0000000001
 40
0.0
 40
0.0
 40
0.0
 40
0.0
 40
0.1235776395
 40
0.2472539554
 40
0.3711686216
 40
0.4954680693
 40
0.7456921172
 40
1.0
 40
1.0
 40
1.0
 40
1.0
 10
7.8842462243
 20
33.2666073738
 30
0.0
 10
7.8842897684
 20
33.0981831995
 30
0.0
 10
7.9000201285
 20
32.7609929651
 30
0.0
 10
7.97038262
 20
32.2593600182
 30
0.0
 10
8.0864481541
 20
31.7652394771
 30
0.0
 10
8.3002633965
 20
31.1196337397
 30
0.0
 10
8.6746776913
 20
30.3440128582
 30
0.0
 10
9.0697020633
 20
29.7775921427
 30
0.0
 10
9.2874810444
 20
29.5079598796
 30
0.0
  0
SPLINE
  5
297
100
AcDbEntity
  8
0
100
AcDbSpline
 62
7
  6
BYLAYER
 70
0
 71
3
 72
11
 73
7
 74
0
 42
0.0000001
 43
0.0000001
 44
0.0000000001
 40
0.0
 40
0.0
 40
0.0
 40
0.0
 40
0.2609502333
 40
0.5130108816
 40
0.7582631181
 40
1.0
 40
1.0
 40
1.0
 40
1.0
 10
12.8048608913
 20
25.6264534144
 30
0.0
 10
12.8048608913
 20
25.551063591
 30
0.0
 10
12.815782223
 20
25.4025578769
 30
0.0
 10
12.8669602336
 20
25.1885278913
 30
0.0
 10
12.951993642
 20
24.9915032008
 30
0.0
 10
13.0305577009
 20
24.87368691
 30
0.0
 10
13.0744371684
 20
24.8193538913
 30
0.0
  0
SPLINE
  5
298
100
AcDbEntity
  8
0
100
AcDbSpline
 62
7
  6
BYLAYER
 70
0
 71
3
 72
21
 73
17
 74
0
 42
0.0000001
 43
0.0000001
 44
0.0000000001
 40
0.0
 40
0.0
 40
0.0
 40
0.0
 40
0.0517172434
 40
0.1045209633
 40
0.1593301612
 40
0.2167666958
 40
0.3399777237
 40
0.4057627441
 40
0.4735742686
 40
0.5427187523
 40
0.6124061365
 40
0.7498527238
 40
0.8163377177
 40
0.8804004156
 40
0.9416801645
 40
1.0
 40
1.0
 40
1.0
 40
1.0
 10
16.3417699297
 20
27.4583422589
 30
0.0
 10
16.2887391231
 20
27.5240067705
 30
0.0
 10
16.1663875522
 20
27.6451914624
 30
0.0
 10
15.9450095079
 20
27.7850619953
 30
0.0
 10
15.6912510787
 20
27.8805738345
 30
0.0
 10
15.3110098309
 20
27.9473638844
 30
0.0
 10
14.9026259207
 20
27.9134802325
 30
0.0
 10
14.4999854075
 20
27.7947325034
 30
0.0
 10
14.1964846
 20
27.6604665384
 30
0.0
 10
13.9065595376
 20
27.4864938707
 30
0.0
 10
13.5499519809
 20
27.2093328892
 30
0.0
 10
13.2477574204
 20
26.8732085143
 30
0.0
 10
13.0224264704
 20
26.4971592961
 30
0.0
 10
12.8990029561
 20
26.2082318022
 30
0.0
 10
12.8229819648
 20
25.9171369814
 30
0.0
 10
12.8048608913
 20
25.7216334271
 30
0.0
 10
12.8048608913
 20
25.6264534144
 30
0.0
  0
SPLINE
  5
299
100
AcDbEntity
  8
0
100
AcDbSpline
 62
7
  6
BYLAYER
 70
0
 71
3
 72
23
 73
19
 74
0
 42
0.0000001
 43
0.0000001
 44
0.0000000001
 40
0.0
 40
0.0
 40
0.0
 40
0.0
 40
0.0623788002
 40
0.1287503477
 40
0.1983457761
 40
0.2703345382
 40
0.3437243134
 40
0.4174668573
 40
0.4905033045
 40
0.5618008101
 40
0.6304087171
 40
0.6955076318
 40
0.7564648179
 40
0.8129108578
 40
0.8648208718
 40
0.9126040628
 40
0.9571856744
 40
1.0
 40
1.0
 40
1.0
 40
1.0
 10
14.398053705
 20
36.492540953
 30
0.0
 10
14.398053705
 20
36.5796416104
 30
0.0
 10
14.3862294308
 20
36.7595359893
 30
0.0
 10
14.33769493
 20
37.0326725005
 30
0.0
 10
14.2587153054
 20
37.3125617671
 30
0.0
 10
14.1510559303
 20
37.5931809651
 30
0.0
 10
14.0169736538
 20
37.8686145317
 30
0.0
 10
13.8593443889
 20
38.132979695
 30
0.0
 10
13.6815273395
 20
38.3806369407
 30
0.0
 10
13.4872961636
 20
38.6062987963
 30
0.0
 10
13.2807899351
 20
38.8051819888
 30
0.0
 10
13.0663531035
 20
38.9730733743
 30
0.0
 10
12.8484230438
 20
39.1063930814
 30
0.0
 10
12.6314386944
 20
39.2022837216
 30
0.0
 10
12.4197212986
 20
39.2585458171
 30
0.0
 10
12.2174176443
 20
39.2734401478
 30
0.0
 10
12.0290339577
 20
39.2458102423
 30
0.0
 10
11.9149003702
 20
39.1983950425
 30
0.0
 10
11.8631305125
 20
39.1684982183
 30
0.0
  0
SPLINE
  5
29A
100
AcDbEntity
  8
0
100
AcDbSpline
 62
7
  6
BYLAYER
 70
0
 71
3
 72
14
 73
10
 74
0
 42
0.0000001
 43
0.0000001
 44
0.0000000001
 40
0.0
 40
0.0
 40
0.0
 40
0.0
 40
0.1080478072
 40
0.2181343416
 40
0.3321142811
 40
0.4514964914
 40
0.5774408518
 40
0.7107392346
 40
1.0
 40
1.0
 40
1.0
 40
1.0
 10
13.9631160519
 20
35.5311948566
 30
0.0
 10
13.9975445815
 20
35.5510771538
 30
0.0
 10
14.0637453207
 20
35.5972648981
 30
0.0
 10
14.1512168068
 20
35.6833495779
 30
0.0
 10
14.2264272046
 20
35.785525388
 30
0.0
 10
14.28873063
 20
35.9026079693
 30
0.0
 10
14.3375927077
 20
36.0334740905
 30
0.0
 10
14.3856217029
 20
36.2298567605
 30
0.0
 10
14.398053705
 20
36.3861049393
 30
0.0
 10
14.398053705
 20
36.492540953
 30
0.0
  0
SPLINE
  5
29B
100
AcDbEntity
  8
0
100
AcDbSpline
 62
7
  6
BYLAYER
 70
0
 71
3
 72
21
 73
17
 74
0
 42
0.0000001
 43
0.0000001
 44
0.0000000001
 40
0.0
 40
0.0
 40
0.0
 40
0.0
 40
0.0583189636
 40
0.11959665
 40
0.1836577177
 40
0.2501417341
 40
0.3875899791
 40
0.4572776238
 40
0.5264225572
 40
0.594234626
 40
0.6600201138
 40
0.7832310915
 40
0.8406673393
 40
0.8954767654
 40
0.9482819157
 40
1.0
 40
1.0
 40
1.0
 40
1.0
 10
9.0179176009
 20
30.3150697565
 30
0.0
 10
9.0179176009
 20
30.4102484716
 30
0.0
 10
9.0360367792
 20
30.6057476164
 30
0.0
 10
9.1120554285
 20
30.896835685
 30
0.0
 10
9.2354723635
 20
31.1857580423
 30
0.0
 10
9.4607995246
 20
31.5618083887
 30
0.0
 10
9.762991306
 20
31.8979383715
 30
0.0
 10
10.1196011871
 20
32.1751037425
 30
0.0
 10
10.4095272082
 20
32.3490795893
 30
0.0
 10
10.7130297313
 20
32.4833487381
 30
0.0
 10
11.1156717003
 20
32.6020990587
 30
0.0
 10
11.5240563323
 20
32.6359845453
 30
0.0
 10
11.904297965
 20
32.5691959641
 30
0.0
 10
12.1580601211
 20
32.4736861242
 30
0.0
 10
12.3794410845
 20
32.3338118974
 30
0.0
 10
12.5017967992
 20
32.2126257892
 30
0.0
 10
12.5548282832
 20
32.1469599177
 30
0.0
  0
SPLINE
  5
29C
100
AcDbEntity
  8
0
100
AcDbSpline
 62
7
  6
BYLAYER
 70
0
 71
3
 72
11
 73
7
 74
0
 42
0.0000001
 43
0.0000001
 44
0.0000000001
 40
0.0
 40
0.0
 40
0.0
 40
0.0
 40
0.241737012
 40
0.4869894276
 40
0.7390496646
 40
1.0
 40
1.0
 40
1.0
 40
1.0
 10
9.2874922341
 20
29.5079689168
 30
0.0
 10
9.2436129294
 20
29.562302165
 30
0.0
 10
9.1650495797
 20
29.680119138
 30
0.0
 10
9.0800166939
 20
29.8771440708
 30
0.0
 10
9.0288385434
 20
30.0911741235
 30
0.0
 10
9.0179176009
 20
30.2396798619
 30
0.0
 10
9.0179176009
 20
30.3150697565
 30
0.0
  0
SPLINE
  5
29D
100
AcDbEntity
  8
0
100
AcDbSpline
 62
7
  6
BYLAYER
 70
0
 71
3
 72
15
 73
11
 74
0
 42
0.0000001
 43
0.0000001
 44
0.0000000001
 40
0.0
 40
0.0
 40
0.0
 40
0.0
 40
0.1485725277
 40
0.2895085304
 40
0.4227247189
 40
0.5486385437
 40
0.6680004631
 40
0.7819382743
 40
0.8919867373
 40
1.0
 40
1.0
 40
1.0
 40
1.0
 10
56.0244761061
 20
57.8218776235
 30
0.0
 10
56.0244761061
 20
57.587507984
 30
0.0
 10
56.0055594435
 20
57.1305015147
 30
0.0
 10
55.9156305999
 20
56.4686965794
 30
0.0
 10
55.7653505038
 20
55.8544141107
 30
0.0
 10
55.5559128012
 20
55.2936545549
 30
0.0
 10
55.2890062285
 20
54.7917552577
 30
0.0
 10
54.9665932267
 20
54.3538942163
 30
0.0
 10
54.5917220946
 20
53.9849814022
 30
0.0
 10
54.3080291579
 20
53.7869981986
 30
0.0
 10
54.1604684339
 20
53.7018041486
 30
0.0
  0
SPLINE
  5
29E
100
AcDbEntity
  8
0
100
AcDbSpline
 62
7
  6
BYLAYER
 70
0
 71
3
 72
19
 73
15
 74
0
 42
0.0000001
 43
0.0000001
 44
0.0000000001
 40
0.0
 40
0.0
 40
0.0
 40
0.0
 40
0.0558516345
 40
0.1142054907
 40
0.1748227787
 40
0.2374071571
 40
0.3670164491
 40
0.4999995877
 40
0.6329823699
 40
0.7625916535
 40
0.8251745588
 40
0.8857897838
 40
0.9441593964
 40
1.0
 40
1.0
 40
1.0
 40
1.0
 10
50.0849029836
 20
68.5995178568
 30
0.0
 10
50.2839040334
 20
68.4846222938
 30
0.0
 10
50.6807624174
 20
68.231916031
 30
0.0
 10
51.2563791362
 20
67.7996199102
 30
0.0
 10
51.8207549813
 20
67.3093579845
 30
0.0
 10
52.5594568375
 20
66.5762271894
 30
0.0
 10
53.4181209243
 20
65.5456715571
 30
0.0
 10
54.3114254764
 20
64.1812206657
 30
0.0
 10
55.0464158058
 20
62.7253666053
 30
0.0
 10
55.5095465328
 20
61.4664630074
 30
0.0
 10
55.775103147
 20
60.4601783573
 30
0.0
 10
55.9175147582
 20
59.7262351769
 30
0.0
 10
56.0040371903
 20
59.0115715348
 30
0.0
 10
56.0244725733
 20
58.5415109303
 30
0.0
 10
56.0244725733
 20
58.3117685683
 30
0.0
  0
SPLINE
  5
29F
100
AcDbEntity
  8
0
100
AcDbSpline
 62
7
  6
BYLAYER
 70
0
 71
3
 72
11
 73
7
 74
0
 42
0.0000001
 43
0.0000001
 44
0.0000000001
 40
0.0
 40
0.0
 40
0.0
 40
0.0
 40
0.2412140886
 40
0.4860960708
 40
0.7380513209
 40
1.0
 40
1.0
 40
1.0
 40
1.0
 10
23.1342241965
 20
56.5734792862
 30
0.0
 10
23.0019922568
 20
56.4971352959
 30
0.0
 10
22.7469384121
 20
56.3225147232
 30
0.0
 10
22.4043226074
 20
56.0024993709
 30
0.0
 10
22.1031482402
 20
55.6263874257
 30
0.0
 10
21.9351497212
 20
55.3466024258
 30
0.0
 10
21.8585092953
 20
55.1995641414
 30
0.0
  0
SPLINE
  5
2A0
100
AcDbEntity
  8
0
100
AcDbSpline
 62
7
  6
BYLAYER
 70
0
 71
3
 72
15
 73
11
 74
0
 42
0.0000001
 43
0.0000001
 44
0.0000000001
 40
0.0
 40
0.0
 40
0.0
 40
0.0
 40
0.1080129024
 40
0.2180615714
 40
0.331999292
 40
0.4513582236
 40
0.5772772032
 40
0.7105009111
 40
0.8513954859
 40
1.0
 40
1.0
 40
1.0
 40
1.0
 10
45.1605087257
 20
69.2902846793
 30
0.0
 10
45.308070875
 20
69.3754795522
 30
0.0
 10
45.6213801454
 20
69.522174429
 30
0.0
 10
46.1283121976
 20
69.6623603315
 30
0.0
 10
46.6687201179
 20
69.7226404219
 30
0.0
 10
47.2368420292
 20
69.7028472152
 30
0.0
 10
47.827213734
 20
69.6038210404
 30
0.0
 10
48.4342930766
 20
69.426811959
 30
0.0
 10
49.052419938
 20
69.1738306997
 30
0.0
 10
49.4576366042
 20
68.9616861743
 30
0.0
 10
49.6606515449
 20
68.8444720799
 30
0.0
  0
SPLINE
  5
2A1
100
AcDbEntity
  8
0
100
AcDbSpline
 62
7
  6
BYLAYER
 70
0
 71
3
 72
11
 73
7
 74
0
 42
0.0000001
 43
0.0000001
 44
0.0000000001
 40
0.0
 40
0.0
 40
0.0
 40
0.0
 40
0.2619448716
 40
0.5139021672
 40
0.7587855028
 40
1.0
 40
1.0
 40
1.0
 40
1.0
 10
30.3064691571
 20
40.5671614749
 30
0.0
 10
30.4721267321
 20
40.5600160834
 30
0.0
 10
30.7984271013
 20
40.5656167159
 30
0.0
 10
31.2747398494
 20
40.6383780997
 30
0.0
 10
31.7231955367
 20
40.7750808147
 30
0.0
 10
32.001951077
 20
40.9086542526
 30
0.0
 10
32.1341839047
 20
40.9849987555
 30
0.0
  0
SPLINE
  5
2A2
100
AcDbEntity
  8
0
100
AcDbSpline
 62
7
  6
BYLAYER
 70
0
 71
3
 72
16
 73
12
 74
0
 42
0.0000001
 43
0.0000001
 44
0.0000000001
 40
0.0
 40
0.0
 40
0.0
 40
0.0
 40
0.1157096776
 40
0.2391764089
 40
0.3681457459
 40
0.4999630479
 40
0.6317804231
 40
0.7607509523
 40
0.8233521941
 40
0.8842693872
 40
1.0
 40
1.0
 40
1.0
 40
1.0
 10
50.0505562566
 20
68.6055383881
 30
0.0
 10
50.4489155097
 20
68.3472958191
 30
0.0
 10
51.2323580168
 20
67.7503445431
 30
0.0
 10
52.3118744009
 20
66.6892541515
 30
0.0
 10
53.3066846099
 20
65.4621110755
 30
0.0
 10
54.1847953056
 20
64.1082196693
 30
0.0
 10
54.9182087206
 20
62.6708823079
 30
0.0
 10
55.39411948
 20
61.4292544109
 30
0.0
 10
55.6808059366
 20
60.4331712944
 30
0.0
 10
55.89554549
 20
59.4750173164
 30
0.0
 10
55.9880269341
 20
58.7532112288
 30
0.0
 10
56.012500798
 20
58.2790151603
 30
0.0
  0
SPLINE
  5
2A3
100
AcDbEntity
  8
0
100
AcDbSpline
 62
7
  6
BYLAYER
 70
0
 71
3
 72
26
 73
22
 74
0
 42
0.0000001
 43
0.0000001
 44
0.0000000001
 40
0.0
 40
0.0
 40
0.0
 40
0.0
 40
0.0623795163
 40
0.1287168046
 40
0.1983051542
 40
0.2702785594
 40
0.3436519172
 40
0.4173798074
 40
0.4904004148
 40
0.5616833217
 40
0.6302771605
 40
0.6953616459
 40
0.7563065208
 40
0.8127414899
 40
0.8392658712
 40
0.8646878882
 40
0.9124609966
 40
0.9351046632
 40
0.9571092489
 40
0.9786687629
 40
1.0
 40
1.0
 40
1.0
 40
1.0
 10
33.9981915769
 20
45.1050722304
 30
0.0
 10
33.9981915769
 20
45.4784434981
 30
0.0
 10
33.9476035561
 20
46.249388978
 30
0.0
 10
33.7394681846
 20
47.4199592813
 30
0.0
 10
33.4010525551
 20
48.6194188787
 30
0.0
 10
32.9396351737
 20
49.8221076788
 30
0.0
 10
32.3650087516
 20
51.0025395138
 30
0.0
 10
31.6894467513
 20
52.1355255506
 30
0.0
 10
30.9273523526
 20
53.1969012957
 30
0.0
 10
30.0949583449
 20
54.1640501283
 30
0.0
 10
29.2099403289
 20
55.0164029957
 30
0.0
 10
28.2908640334
 20
55.7359223575
 30
0.0
 10
27.3570162879
 20
56.307260034
 30
0.0
 10
26.5661359802
 20
56.6568145751
 30
0.0
 10
25.9449156264
 20
56.8462981782
 30
0.0
 10
25.360774985
 20
56.9710948104
 30
0.0
 10
24.7839642077
 20
57.0134353733
 30
0.0
 10
24.2321795947
 20
56.9616155999
 30
0.0
 10
23.8436364016
 20
56.8787822389
 30
0.0
 10
23.4756318024
 20
56.7515303361
 30
0.0
 10
23.2447963552
 20
56.6373180217
 30
0.0
 10
23.1342241965
 20
56.5734792862
 30
0.0
  0
SPLINE
  5
2A4
100
AcDbEntity
  8
0
100
AcDbSpline
 62
7
  6
BYLAYER
 70
0
 71
3
 72
15
 73
11
 74
0
 42
0.0000001
 43
0.0000001
 44
0.0000000001
 40
0.0
 40
0.0
 40
0.0
 40
0.0
 40
0.1080132627
 40
0.2180617257
 40
0.3319995369
 40
0.4513614563
 40
0.5772752811
 40
0.7104914696
 40
0.8514274723
 40
1.0
 40
1.0
 40
1.0
 40
1.0
 10
32.1341839047
 20
40.9849987555
 30
0.0
 10
32.2817446287
 20
41.0701928055
 30
0.0
 10
32.5654375654
 20
41.2681760091
 30
0.0
 10
32.9403086975
 20
41.6370888232
 30
0.0
 10
33.2627216993
 20
42.0749498647
 30
0.0
 10
33.529628272
 20
42.5768491618
 30
0.0
 10
33.7390659745
 20
43.1376087176
 30
0.0
 10
33.8893460707
 20
43.7518911863
 30
0.0
 10
33.9792749143
 20
44.4136961216
 30
0.0
 10
33.9981915769
 20
44.8707025909
 30
0.0
 10
33.9981915769
 20
45.1050722304
 30
0.0
  0
SPLINE
  5
2A5
100
AcDbEntity
  8
0
100
AcDbSpline
 62
7
  6
BYLAYER
 70
0
 71
3
 72
26
 73
22
 74
0
 42
0.0000001
 43
0.0000001
 44
0.0000000001
 40
0.0
 40
0.0
 40
0.0
 40
0.0
 40
0.0623795163
 40
0.1287168046
 40
0.1983051542
 40
0.2702785594
 40
0.3436519172
 40
0.4173798074
 40
0.4904004148
 40
0.5616833217
 40
0.6302771605
 40
0.6953616459
 40
0.7563065208
 40
0.8127414899
 40
0.8392658712
 40
0.8646878882
 40
0.9124609966
 40
0.9351046632
 40
0.9571092489
 40
0.9786687629
 40
1.0
 40
1.0
 40
1.0
 40
1.0
 10
28.6949089706
 20
42.5739562656
 30
0.0
 10
28.6949089706
 20
42.9203618307
 30
0.0
 10
28.6479745293
 20
43.6356279148
 30
0.0
 10
28.454871157
 20
44.7216570295
 30
0.0
 10
28.1408966564
 20
45.8344889895
 30
0.0
 10
27.7128038637
 20
46.9503169318
 30
0.0
 10
27.1796782388
 20
48.0454953566
 30
0.0
 10
26.5529068274
 20
49.0966546243
 30
0.0
 10
25.8458525797
 20
50.0813754545
 30
0.0
 10
25.073575917
 20
50.9786746494
 30
0.0
 10
24.2524758688
 20
51.7694686987
 30
0.0
 10
23.3997773056
 20
52.4370227734
 30
0.0
 10
22.5333741195
 20
52.9670971733
 30
0.0
 10
21.799612945
 20
53.2914061088
 30
0.0
 10
21.2232585057
 20
53.4672047849
 30
0.0
 10
20.6813057995
 20
53.5829883271
 30
0.0
 10
20.1461535782
 20
53.6222709605
 30
0.0
 10
19.6342200761
 20
53.5741937263
 30
0.0
 10
19.2737383358
 20
53.4973427747
 30
0.0
 10
18.9323118465
 20
53.3792812871
 30
0.0
 10
18.7181478483
 20
53.2733176398
 30
0.0
 10
18.6155614566
 20
53.2140894797
 30
0.0
  0
SPLINE
  5
2A6
100
AcDbEntity
  8
0
100
AcDbSpline
 62
7
  6
BYLAYER
 70
0
 71
3
 72
26
 73
22
 74
0
 42
0.0000001
 43
0.0000001
 44
0.0000000001
 40
0.0
 40
0.0
 40
0.0
 40
0.0
 40
0.0213312371
 40
0.0428907511
 40
0.0648953368
 40
0.0875390034
 40
0.1353121118
 40
0.1607341288
 40
0.1872585101
 40
0.2436934792
 40
0.3046383541
 40
0.3697228395
 40
0.4383166783
 40
0.5095995852
 40
0.5826201926
 40
0.6563480828
 40
0.7297214406
 40
0.8016948458
 40
0.8712831954
 40
0.9376204837
 40
1.0
 40
1.0
 40
1.0
 40
1.0
 10
22.9996052473
 20
55.7452032337
 30
0.0
 10
23.102191639
 20
55.8044313938
 30
0.0
 10
23.3163556373
 20
55.9103950411
 30
0.0
 10
23.6577821266
 20
56.0284565287
 30
0.0
 10
24.0182638668
 20
56.1053074803
 30
0.0
 10
24.5301973689
 20
56.1533847145
 30
0.0
 10
25.0653495902
 20
56.1141020811
 30
0.0
 10
25.6073022964
 20
55.9983185389
 30
0.0
 10
26.1836567358
 20
55.8225198628
 30
0.0
 10
26.9174179102
 20
55.4982109273
 30
0.0
 10
27.7838210964
 20
54.9681365274
 30
0.0
 10
28.6365196595
 20
54.3005824527
 30
0.0
 10
29.4576197077
 20
53.5097884034
 30
0.0
 10
30.2298963705
 20
52.6124892085
 30
0.0
 10
30.9369506181
 20
51.6277683783
 30
0.0
 10
31.5637220295
 20
50.5766091106
 30
0.0
 10
32.0968476544
 20
49.4814306858
 30
0.0
 10
32.5249404471
 20
48.3656027435
 30
0.0
 10
32.8389149477
 20
47.2527707835
 30
0.0
 10
33.03201832
 20
46.1667416688
 30
0.0
 10
33.0789527614
 20
45.4514755847
 30
0.0
 10
33.0789527614
 20
45.1050700196
 30
0.0
  0
SPLINE
  5
2A7
100
AcDbEntity
  8
0
100
AcDbSpline
 62
7
  6
BYLAYER
 70
0
 71
3
 72
15
 73
11
 74
0
 42
0.0000001
 43
0.0000001
 44
0.0000000001
 40
0.0
 40
0.0
 40
0.0
 40
0.0
 40
0.1485725277
 40
0.2895085304
 40
0.4227247189
 40
0.5486385437
 40
0.6680004631
 40
0.7819382742
 40
0.8919867373
 40
1.0
 40
1.0
 40
1.0
 40
1.0
 10
33.0789527614
 20
45.1050700196
 30
0.0
 10
33.0789527613
 20
44.8876270764
 30
0.0
 10
33.061402302
 20
44.46362663
 30
0.0
 10
32.9779683193
 20
43.849618718
 30
0.0
 10
32.8385417857
 20
43.2797010945
 30
0.0
 10
32.6442301394
 20
42.7594408401
 30
0.0
 10
32.3966001525
 20
42.2937898256
 30
0.0
 10
32.0974725342
 20
41.8875520818
 30
0.0
 10
31.7496754284
 20
41.545282971
 30
0.0
 10
31.4864714261
 20
41.3615985544
 30
0.0
 10
31.3495678654
 20
41.282557408
 30
0.0
  0
SPLINE
  5
2A8
100
AcDbEntity
  8
0
100
AcDbSpline
 62
7
  6
BYLAYER
 70
0
 71
3
 72
15
 73
11
 74
0
 42
0.0000001
 43
0.0000001
 44
0.0000000001
 40
0.0
 40
0.0
 40
0.0
 40
0.0
 40
0.1080132627
 40
0.2180617258
 40
0.3319995369
 40
0.4513614563
 40
0.5772752811
 40
0.7104914696
 40
0.8514274723
 40
1.0
 40
1.0
 40
1.0
 40
1.0
 10
26.9655240747
 20
38.751443654
 30
0.0
 10
27.1024276353
 20
38.8304848004
 30
0.0
 10
27.3656316377
 20
39.014169217
 30
0.0
 10
27.7134287435
 20
39.3564383278
 30
0.0
 10
28.0125563618
 20
39.7626760716
 30
0.0
 10
28.2601863487
 20
40.2283270861
 30
0.0
 10
28.4544979949
 20
40.7485873405
 30
0.0
 10
28.5939245286
 20
41.318504964
 30
0.0
 10
28.6773585114
 20
41.932512876
 30
0.0
 10
28.6949089706
 20
42.3565133224
 30
0.0
 10
28.6949089706
 20
42.5739562656
 30
0.0
  0
ENDSEC
  0
SECTION
  2
OBJECTS
  0
DICTIONARY
  5
C
100
AcDbDictionary
280
0
281
1
  3
ACAD_GROUP
350
D
  3
ACAD_MLINESTYLE
350
17
  3
ACAD_LAYOUT
350
1A
  3
ACAD_PLOTSETTINGS
350
19
  3
ACAD_PLOTSTYLENAME
350
E
  0
DICTIONARY
  5
D
102
{ACAD_REACTORS
330
C
102
}
100
AcDbDictionary
280
0
281
1
  0
ACDBDICTIONARYWDFLT
  5
E
102
{ACAD_REACTORS
330
C
102
}
100
AcDbDictionary
281
1
  3
Normal
350
F
100
AcDbDictionaryWithDefault
340
F
  0
DICTIONARY
  5
17
102
{ACAD_REACTORS
330
C
102
}
100
AcDbDictionary
280
0
281
1
  3
Standard
350
18
  0
DICTIONARY
  5
19
102
{ACAD_REACTORS
330
C
102
}
100
AcDbDictionary
281
1
  0
DICTIONARY
  5
1A
102
{ACAD_REACTORS
330
C
102
}
100
AcDbDictionary
281
1
  3
Model
350
2A9
  3
Layout1
350
2AA
  0
ACDBPLACEHOLDER
  5
F
102
{ACAD_REACTORS
330
E
102
}
  0
MLINESTYLE
  5
18
102
{ACAD_REACTORS
330
17
102
}
100
AcDbMlineStyle
  2
STANDARD
 70
0
  3

 62
256
 51
90.0
 52
90.0
 71
2
 49
0.5
 62
256
  6
BYLAYER
 49
-0.5
 62
256
  6
BYLAYER
  0
LAYOUT
  5
2A9
102
{ACAD_REACTORS
330
1A
102
}
100
AcDbPlotSettings
  1

  2
none_device
  4

  6

 40
0.0
 41
0.0
 42
0.0
 43
0.0
 44
210.0
 45
297.0
 46
0.0
 47
0.0
 48
0.0
 49
0.0
140
0.0
141
0.0
142
1.0
143
1.0
 70
1024
 72
1
 73
0
 74
0
  7

 75
0
147
1.0
148
0.0
149
0.0
100
AcDbLayout
  1
Model
 70
0
 71
0
 10
0.0
 20
0.0
 11
210.0
 21
297.0
 12
0.0
 22
0.0
 32
0.0
 14
0.0
 24
0.0
 34
0.0
 15
0.0
 25
0.0
 35
0.0
146
0.0
 13
0.0
 23
0.0
 33
0.0
 16
1.0
 26
0.0
 36
0.0
 17
0.0
 27
1.0
 37
0.0
 76
0
330
210
345
0
346
0
  0
LAYOUT
  5
2AA
102
{ACAD_REACTORS
330
1A
102
}
100
AcDbPlotSettings
  1

  2
none_device
  4

  6

 40
0.0
 41
0.0
 42
0.0
 43
0.0
 44
210.0
 45
297.0
 46
0.0
 47
0.0
 48
0.0
 49
0.0
140
0.0
141
0.0
142
1.0
143
1.0
 70
0
 72
1
 73
0
 74
0
  7

 75
0
147
1.0
148
0.0
149
0.0
100
AcDbLayout
  1
Layout1
 70
0
 71
1
 10
0.0
 20
0.0
 11
210.0
 21
297.0
 12
0.0
 22
0.0
 32
0.0
 14
0.0
 24
0.0
 34
0.0
 15
0.0
 25
0.0
 35
0.0
146
0.0
 13
0.0
 23
0.0
 33
0.0
 16
1.0
 26
0.0
 36
0.0
 17
0.0
 27
1.0
 37
0.0
 76
0
330
211
345
0
346
0
  0
ENDSEC
  0
EOF
